  0
SECTION
  2
HEADER
  9
$ACADVER
  1
AC1015
  9
$ACADMAINTVER
 70
     6
  9
$DWGCODEPAGE
  3
DOS932
  9
$INSBASE
 10
0.0
 20
0.0
 30
0.0
  9
$EXTMIN
 10
0.0
 20
0.0
 30
0.0
  9
$EXTMAX
 10
210.0
 20
297.0
 30
0.0
  9
$LIMMIN
 10
0.0
 20
0.0
  9
$LIMMAX
 10
210.0
 20
297.0
  9
$ORTHOMODE
 70
     0
  9
$REGENMODE
 70
     1
  9
$FILLMODE
 70
     1
  9
$QTEXTMODE
 70
     0
  9
$MIRRTEXT
 70
     1
  9
$LTSCALE
 40
1.0
  9
$ATTMODE
 70
     1
  9
$TEXTSIZE
 40
3.5
  9
$TRACEWID
 40
1.0
  9
$TEXTSTYLE
  7
STANDARD
  9
$CLAYER
  8
0
  9
$CELTYPE
  6
ByLayer
  9
$CECOLOR
 62
   256
  9
$CELTSCALE
 40
1.0
  9
$DISPSILH
 70
     0
  9
$DIMSCALE
 40
1.0
  9
$DIMASZ
 40
1.5
  9
$DIMEXO
 40
1.0
  9
$DIMDLI
 40
3.75
  9
$DIMRND
 40
0.0
  9
$DIMDLE
 40
0.0
  9
$DIMEXE
 40
1.0
  9
$DIMTP
 40
0.0
  9
$DIMTM
 40
0.0
  9
$DIMTXT
 40
3.5
  9
$DIMCEN
 40
2.5
  9
$DIMTSZ
 40
0.0
  9
$DIMTOL
 70
     0
  9
$DIMLIM
 70
     0
  9
$DIMTIH
 70
     1
  9
$DIMTOH
 70
     1
  9
$DIMSE1
 70
     0
  9
$DIMSE2
 70
     0
  9
$DIMTAD
 70
     1
  9
$DIMZIN
 70
     0
  9
$DIMBLK
  1

  9
$DIMASO
 70
     1
  9
$DIMSHO
 70
     1
  9
$DIMPOST
  1

  9
$DIMAPOST
  1

  9
$DIMALT
 70
     0
  9
$DIMALTD
 70
     3
  9
$DIMALTF
 40
0.0393700787
  9
$DIMLFAC
 40
5.0
  9
$DIMTOFL
 70
     1
  9
$DIMTVP
 40
0.0
  9
$DIMTIX
 70
     0
  9
$DIMSOXD
 70
     0
  9
$DIMSAH
 70
     0
  9
$DIMBLK1
  1

  9
$DIMBLK2
  1

  9
$DIMSTYLE
  2
ISO-25
  9
$DIMCLRD
 70
     0
  9
$DIMCLRE
 70
     0
  9
$DIMCLRT
 70
     0
  9
$DIMTFAC
 40
1.0
  9
$DIMGAP
 40
1.5
  9
$DIMJUST
 70
     0
  9
$DIMSD1
 70
     0
  9
$DIMSD2
 70
     0
  9
$DIMTOLJ
 70
     0
  9
$DIMTZIN
 70
     0
  9
$DIMALTZ
 70
     0
  9
$DIMALTTZ
 70
     0
  9
$DIMUPT
 70
     0
  9
$DIMDEC
 70
     1
  9
$DIMTDEC
 70
     1
  9
$DIMALTU
 70
     2
  9
$DIMALTTD
 70
     3
  9
$DIMTXSTY
  7
STANDARD
  9
$DIMAUNIT
 70
     0
  9
$DIMADEC
 70
     2
  9
$DIMALTRND
 40
0.0
  9
$DIMAZIN
 70
     0
  9
$DIMDSEP
 70
    44
  9
$DIMATFIT
 70
     3
  9
$DIMFRAC
 70
     0
  9
$DIMLDRBLK
  1

  9
$DIMLUNIT
 70
     2
  9
$DIMLWD
 70
    -2
  9
$DIMLWE
 70
    -2
  9
$DIMTMOVE
 70
     0
  9
$LUNITS
 70
     2
  9
$LUPREC
 70
     4
  9
$SKETCHINC
 40
1.0
  9
$FILLETRAD
 40
10.0
  9
$AUNITS
 70
     0
  9
$AUPREC
 70
     2
  9
$MENU
  1
.
  9
$ELEVATION
 40
0.0
  9
$PELEVATION
 40
0.0
  9
$THICKNESS
 40
0.0
  9
$LIMCHECK
 70
     0
  9
$CHAMFERA
 40
0.0
  9
$CHAMFERB
 40
0.0
  9
$CHAMFERC
 40
0.0
  9
$CHAMFERD
 40
0.0
  9
$SKPOLY
 70
     0
  9
$TDCREATE
 40
2459669.590836482
  9
$TDUCREATE
 40
2459669.215836482
  9
$TDUPDATE
 40
2459669.59083684
  9
$TDUUPDATE
 40
2459669.21583684
  9
$TDINDWG
 40
0.0000000116
  9
$TDUSRTIMER
 40
0.0000000116
  9
$USRTIMER
 70
     1
  9
$ANGBASE
 50
0.0
  9
$ANGDIR
 70
     0
  9
$PDMODE
 70
     0
  9
$PDSIZE
 40
-1.0
  9
$PLINEWID
 40
0.0
  9
$SPLFRAME
 70
     0
  9
$SPLINETYPE
 70
     6
  9
$SPLINESEGS
 70
     8
  9
$HANDSEED
  5
B5
  9
$SURFTAB1
 70
     6
  9
$SURFTAB2
 70
     6
  9
$SURFTYPE
 70
     6
  9
$SURFU
 70
     6
  9
$SURFV
 70
     6
  9
$UCSBASE
  2

  9
$UCSNAME
  2

  9
$UCSORG
 10
0.0
 20
0.0
 30
0.0
  9
$UCSXDIR
 10
1.0
 20
0.0
 30
0.0
  9
$UCSYDIR
 10
0.0
 20
1.0
 30
0.0
  9
$UCSORTHOREF
  2

  9
$UCSORTHOVIEW
 70
     0
  9
$UCSORGTOP
 10
0.0
 20
0.0
 30
0.0
  9
$UCSORGBOTTOM
 10
0.0
 20
0.0
 30
0.0
  9
$UCSORGLEFT
 10
0.0
 20
0.0
 30
0.0
  9
$UCSORGRIGHT
 10
0.0
 20
0.0
 30
0.0
  9
$UCSORGFRONT
 10
0.0
 20
0.0
 30
0.0
  9
$UCSORGBACK
 10
0.0
 20
0.0
 30
0.0
  9
$PUCSBASE
  2

  9
$PUCSNAME
  2

  9
$PUCSORG
 10
0.0
 20
0.0
 30
0.0
  9
$PUCSXDIR
 10
1.0
 20
0.0
 30
0.0
  9
$PUCSYDIR
 10
0.0
 20
1.0
 30
0.0
  9
$PUCSORTHOREF
  2

  9
$PUCSORTHOVIEW
 70
     0
  9
$PUCSORGTOP
 10
0.0
 20
0.0
 30
0.0
  9
$PUCSORGBOTTOM
 10
0.0
 20
0.0
 30
0.0
  9
$PUCSORGLEFT
 10
0.0
 20
0.0
 30
0.0
  9
$PUCSORGRIGHT
 10
0.0
 20
0.0
 30
0.0
  9
$PUCSORGFRONT
 10
0.0
 20
0.0
 30
0.0
  9
$PUCSORGBACK
 10
0.0
 20
0.0
 30
0.0
  9
$USERI1
 70
     0
  9
$USERI2
 70
     0
  9
$USERI3
 70
     0
  9
$USERI4
 70
     0
  9
$USERI5
 70
     0
  9
$USERR1
 40
0.0
  9
$USERR2
 40
0.0
  9
$USERR3
 40
0.0
  9
$USERR4
 40
0.0
  9
$USERR5
 40
0.0
  9
$WORLDVIEW
 70
     1
  9
$SHADEDGE
 70
     3
  9
$SHADEDIF
 70
    70
  9
$TILEMODE
 70
     1
  9
$MAXACTVP
 70
    64
  9
$PINSBASE
 10
0.0
 20
0.0
 30
0.0
  9
$PLIMCHECK
 70
     0
  9
$PEXTMIN
 10
1.0000000000E+20
 20
1.0000000000E+20
 30
1.0000000000E+20
  9
$PEXTMAX
 10
-1.0000000000E+20
 20
-1.0000000000E+20
 30
-1.0000000000E+20
  9
$PLIMMIN
 10
0.0
 20
0.0
  9
$PLIMMAX
 10
420.0
 20
297.0
  9
$UNITMODE
 70
     0
  9
$VISRETAIN
 70
     1
  9
$PLINEGEN
 70
     0
  9
$PSLTSCALE
 70
     1
  9
$TREEDEPTH
 70
  3020
  9
$CMLSTYLE
  2
Standard
  9
$CMLJUST
 70
     0
  9
$CMLSCALE
 40
20.0
  9
$PROXYGRAPHICS
 70
     1
  9
$MEASUREMENT
 70
     1
  9
$CELWEIGHT
370
    -1
  9
$ENDCAPS
280
     0
  9
$JOINSTYLE
280
     0
  9
$LWDISPLAY
290
     1
  9
$INSUNITS
 70
     4
  9
$HYPERLINKBASE
  1

  9
$STYLESHEET
  1

  9
$XEDIT
290
     1
  9
$CEPSNTYPE
380
     0
  9
$PSTYLEMODE
290
     1
  9
$FINGERPRINTGUID
  2
{3de4caac-e587-4db1-9006-9f0718620695}
  9
$VERSIONGUID
  2
{FAEB1C32-E019-11D5-929B-00C0DF256EC4}
  9
$EXTNAMES
290
     1
  9
$PSVPSCALE
 40
0.0
  9
$OLESTARTUP
290
     0
  0
ENDSEC
  0
SECTION
  2
CLASSES
  0
CLASS
  1
ACDBDICTIONARYWDFLT
  2
AcDbDictionaryWithDefault
  3
ObjectDBX Classes
 90
        0
280
     0
281
     0
  0
CLASS
  1
VISUALSTYLE
  2
AcDbVisualStyle
  3
ObjectDBX Classes
 90
     4095
280
     0
281
     0
  0
CLASS
  1
MATERIAL
  2
AcDbMaterial
  3
ObjectDBX Classes
 90
     1153
280
     0
281
     0
  0
CLASS
  1
SCALE
  2
AcDbScale
  3
ObjectDBX Classes
 90
     1153
280
     0
281
     0
  0
CLASS
  1
TABLESTYLE
  2
AcDbTableStyle
  3
ObjectDBX Classes
 90
     4095
280
     0
281
     0
  0
CLASS
  1
MLEADERSTYLE
  2
AcDbMLeaderStyle
  3
ACDB_MLEADERSTYLE_CLASS
 90
     4095
280
     0
281
     0
  0
CLASS
  1
SUN
  2
AcDbSun
  3
SCENEOE
 90
     1153
280
     0
281
     0
  0
CLASS
  1
ACDBPLACEHOLDER
  2
AcDbPlaceHolder
  3
ObjectDBX Classes
 90
        0
280
     0
281
     0
  0
CLASS
  1
LAYOUT
  2
AcDbLayout
  3
ObjectDBX Classes
 90
        0
280
     0
281
     0
  0
ENDSEC
  0
SECTION
  2
TABLES
  0
TABLE
  2
VPORT
  5
8
330
0
100
AcDbSymbolTable
 70
     1
  0
VPORT
  5
29
330
8
100
AcDbSymbolTableRecord
100
AcDbViewportTableRecord
  2
*Active
 70
     0
 10
0.0
 20
0.0
 11
1.0
 21
1.0
 12
105.0
 22
148.5
 13
0.0
 23
0.0
 14
10.0
 24
10.0
 15
10.0
 25
10.0
 16
0.0
 26
0.0
 36
1.0
 17
0.0
 27
0.0
 37
0.0
 40
297.0
 41
0.7070707071
 42
50.0
 43
0.0
 44
0.0
 50
0.0
 51
0.0
 71
     0
 72
  2000
 73
     1
 74
     3
 75
     0
 76
     0
 77
     0
 78
     0
281
     0
 65
     1
110
0.0
120
0.0
130
0.0
111
1.0
121
0.0
131
0.0
112
0.0
122
1.0
132
0.0
 79
     0
146
0.0
  0
ENDTAB
  0
TABLE
  2
LTYPE
  5
5
330
0
100
AcDbSymbolTable
 70
     8
  0
LTYPE
  5
14
330
5
100
AcDbSymbolTableRecord
100
AcDbLinetypeTableRecord
  2
ByBlock
 70
     0
  3

 72
    65
 73
     0
 40
0.0
  0
LTYPE
  5
15
330
5
100
AcDbSymbolTableRecord
100
AcDbLinetypeTableRecord
  2
ByLayer
 70
     0
  3

 72
    65
 73
     0
 40
0.0
  0
LTYPE
  5
16
330
5
100
AcDbSymbolTableRecord
100
AcDbLinetypeTableRecord
  2
Continuous
 70
     0
  3
Solid line
 72
    65
 73
     0
 40
0.0
  0
LTYPE
  5
6E
330
5
100
AcDbSymbolTableRecord
100
AcDbLinetypeTableRecord
  2
SLD-実線
 70
     0
  3
SolidWorks Line Style
 72
    65
 73
     0
 40
0.0
  0
LTYPE
  5
6F
330
5
100
AcDbSymbolTableRecord
100
AcDbLinetypeTableRecord
  2
SLD-破線
 70
     0
  3
SolidWorks Line Style
 72
    65
 73
     2
 40
1.905
 49
1.27
 74
     0
 49
-0.635
 74
     0
  0
LTYPE
  5
70
330
5
100
AcDbSymbolTableRecord
100
AcDbLinetypeTableRecord
  2
SLD-2点鎖線
 70
     0
  3
SolidWorks Line Style
 72
    65
 73
     6
 40
12.7
 49
6.35
 74
     0
 49
-1.27
 74
     0
 49
1.27
 74
     0
 49
-1.27
 74
     0
 49
1.27
 74
     0
 49
-1.27
 74
     0
  0
LTYPE
  5
71
330
5
100
AcDbSymbolTableRecord
100
AcDbLinetypeTableRecord
  2
SLD-鎖線
 70
     0
  3
SolidWorks Line Style
 72
    65
 73
     4
 40
10.16
 49
6.35
 74
     0
 49
-1.27
 74
     0
 49
1.27
 74
     0
 49
-1.27
 74
     0
  0
LTYPE
  5
72
330
5
100
AcDbSymbolTableRecord
100
AcDbLinetypeTableRecord
  2
SLD-1点鎖線(中心線)
 70
     0
  3
SolidWorks Line Style
 72
    65
 73
     4
 40
34.29
 49
30.48
 74
     0
 49
-1.27
 74
     0
 49
1.27
 74
     0
 49
-1.27
 74
     0
  0
LTYPE
  5
73
330
5
100
AcDbSymbolTableRecord
100
AcDbLinetypeTableRecord
  2
SLD-点線
 70
     0
  3
SolidWorks Line Style
 72
    65
 73
     2
 40
0.635
 49
0.0
 74
     0
 49
-0.635
 74
     0
  0
LTYPE
  5
74
330
5
100
AcDbSymbolTableRecord
100
AcDbLinetypeTableRecord
  2
SLD-細-太鎖線(切断面)
 70
     0
  3
SolidWorks Line Style
 72
    65
 73
     4
 40
10.16
 49
6.35
 74
     0
 49
-1.27
 74
     0
 49
1.27
 74
     0
 49
-1.27
 74
     0
  0
ENDTAB
  0
TABLE
  2
LAYER
  5
2
330
0
100
AcDbSymbolTable
 70
     1
  0
LAYER
  5
10
330
2
100
AcDbSymbolTableRecord
100
AcDbLayerTableRecord
  2
0
 70
     0
 62
     7
  6
Continuous
370
    -3
390
F
  0
ENDTAB
  0
TABLE
  2
STYLE
  5
3
330
0
100
AcDbSymbolTable
 70
     2
  0
STYLE
  5
11
330
3
100
AcDbSymbolTableRecord
100
AcDbTextStyleTableRecord
  2
STANDARD
 70
     0
 40
0.0
 41
1.0
 50
0.0
 71
     0
 42
3.5
  3
MSGOTHIC.TTC
  4

1001
ACAD
1000
ＭＳ Ｐゴシック
1071
    32818
  0
STYLE
  5
78
330
3
100
AcDbSymbolTableRecord
100
AcDbTextStyleTableRecord
  2
SLDTEXTSTYLE0
 70
     0
 40
0.0
 41
1.0
 50
0.0
 71
     0
 42
3.5
  3
MSGOTHIC.TTC
  4

1001
ACAD
1000
ＭＳ Ｐゴシック
1071
      306
  0
ENDTAB
  0
TABLE
  2
VIEW
  5
6
330
0
100
AcDbSymbolTable
 70
     0
  0
ENDTAB
  0
TABLE
  2
UCS
  5
7
330
0
100
AcDbSymbolTable
 70
     0
  0
ENDTAB
  0
TABLE
  2
APPID
  5
9
330
0
100
AcDbSymbolTable
 70
     1
  0
APPID
  5
12
330
9
100
AcDbSymbolTableRecord
100
AcDbRegAppTableRecord
  2
ACAD
 70
     0
  0
ENDTAB
  0
TABLE
  2
DIMSTYLE
  5
A
330
0
100
AcDbSymbolTable
 70
     1
100
AcDbDimStyleTable
  0
DIMSTYLE
105
27
330
A
100
AcDbSymbolTableRecord
100
AcDbDimStyleTableRecord
  2
ISO-25
 70
     0
 41
2.5
 42
0.625
 43
3.75
 44
1.25
 73
     0
 74
     0
 77
     1
 78
     8
140
2.5
141
2.5
143
0.0393700787
147
0.625
171
     3
172
     1
178
     0
271
     2
272
     2
274
     3
278
    44
283
     0
284
     8
340
11
  0
ENDTAB
  0
TABLE
  2
BLOCK_RECORD
  5
1
330
0
100
AcDbSymbolTable
 70
     2
  0
BLOCK_RECORD
  5
1F
330
1
100
AcDbSymbolTableRecord
100
AcDbBlockTableRecord
  2
*Model_Space
340
22
  0
BLOCK_RECORD
  5
1B
330
1
100
AcDbSymbolTableRecord
100
AcDbBlockTableRecord
  2
*Paper_Space
340
1E
  0
BLOCK_RECORD
  5
23
330
1
100
AcDbSymbolTableRecord
100
AcDbBlockTableRecord
  2
*Paper_Space0
340
26
  0
BLOCK_RECORD
  5
75
330
1
100
AcDbSymbolTableRecord
100
AcDbBlockTableRecord
  2
SW_NOTE_0
340
0
102
{BLKREFS
331
7B
102
}
  0
ENDTAB
  0
ENDSEC
  0
SECTION
  2
BLOCKS
  0
BLOCK
  5
20
330
1F
100
AcDbEntity
  8
0
100
AcDbBlockBegin
  2
*Model_Space
 70
     0
 10
0.0
 20
0.0
 30
0.0
  3
*Model_Space
  1

  0
ENDBLK
  5
21
330
1F
100
AcDbEntity
  8
0
100
AcDbBlockEnd
  0
BLOCK
  5
1C
330
1B
100
AcDbEntity
 67
     1
  8
0
100
AcDbBlockBegin
  2
*Paper_Space
 70
     0
 10
0.0
 20
0.0
 30
0.0
  3
*Paper_Space
  1

  0
ENDBLK
  5
1D
330
1B
100
AcDbEntity
 67
     1
  8
0
100
AcDbBlockEnd
  0
BLOCK
  5
24
330
23
100
AcDbEntity
  8
0
100
AcDbBlockBegin
  2
*Paper_Space0
 70
     0
 10
0.0
 20
0.0
 30
0.0
  3
*Paper_Space0
  1

  0
ENDBLK
  5
25
330
23
100
AcDbEntity
  8
0
100
AcDbBlockEnd
  0
BLOCK
  5
76
330
75
100
AcDbEntity
  8
0
100
AcDbBlockBegin
  2
SW_NOTE_0
 70
     0
 10
0.0
 20
0.0
 30
0.0
  3
SW_NOTE_0
  1

  0
MTEXT
  5
79
330
75
100
AcDbEntity
  8
0
  6
Continuous
 62
     0
370
     0
100
AcDbMText
 10
0.0
 20
4.0727272727
 30
0.0
 40
3.5
 41
0.0
 71
     1
 72
     1
  1
HEC-111S/C/K
  7
SLDTEXTSTYLE0
 73
     1
 44
1.0
  0
MTEXT
  5
7A
330
75
100
AcDbEntity
  8
0
  6
Continuous
 62
     0
370
     0
100
AcDbMText
 10
0.0
 20
-0.4272725336
 30
0.0
 40
3.5
 41
0.0
 71
     1
 72
     1
  1
HEC-113S/C/K
  7
SLDTEXTSTYLE0
 73
     1
 44
1.0
  0
ENDBLK
  5
77
330
75
100
AcDbEntity
  8
0
100
AcDbBlockEnd
  0
ENDSEC
  0
SECTION
  2
ENTITIES
  0
INSERT
  5
7B
330
1F
100
AcDbEntity
  8
0
  6
Continuous
 62
     7
370
     0
100
AcDbBlockReference
  2
SW_NOTE_0
 10
141.0036734694
 20
110.7238775119
 30
0.0
  0
LINE
  5
7C
330
1F
100
AcDbEntity
  8
0
  6
SLD-実線
 62
     7
370
    25
100
AcDbLine
 10
100.2209642809
 20
129.5217411893
 30
0.0
 11
100.3146685419
 21
126.5549305723
 31
0.0
  0
LINE
  5
7D
330
1F
100
AcDbEntity
  8
0
  6
SLD-実線
 62
     7
370
    25
100
AcDbLine
 10
108.3106812848
 20
126.8074780255
 30
0.0
 11
108.2169770237
 21
129.7742886424
 31
0.0
  0
LINE
  5
7E
330
1F
100
AcDbEntity
  8
0
  6
SLD-実線
 62
     7
370
    25
100
AcDbLine
 10
100.3605237784
 20
126.4713248981
 30
0.0
 11
101.3797963158
 21
125.534857876
 31
0.0
  0
LINE
  5
7F
330
1F
100
AcDbEntity
  8
0
  6
SLD-実線
 62
     7
370
    25
100
AcDbLine
 10
107.3120485417
 20
125.7222231591
 30
0.0
 11
108.2701934129
 21
126.7211452756
 31
0.0
  0
LINE
  5
80
330
1F
100
AcDbEntity
  8
0
  6
SLD-実線
 62
     7
370
    25
100
AcDbLine
 10
105.9997405836
 20
129.7042590622
 30
0.0
 11
105.9536654584
 21
131.1630632726
 31
0.0
  0
LINE
  5
81
330
1F
100
AcDbEntity
  8
0
  6
SLD-実線
 62
     7
370
    25
100
AcDbLine
 10
102.3921255958
 20
131.0505749799
 30
0.0
 11
102.438200721
 21
129.5917707695
 31
0.0
  0
LINE
  5
82
330
1F
100
AcDbEntity
  8
0
  6
SLD-実線
 62
     7
370
    25
100
AcDbLine
 10
102.0085904445
 20
203.5013755617
 30
0.0
 11
79.4163497596
 21
199.9410342743
 31
0.0
  0
LINE
  5
83
330
1F
100
AcDbEntity
  8
0
  6
SLD-実線
 62
     7
370
    25
100
AcDbLine
 10
90.4689304157
 20
129.8065886656
 30
0.0
 11
113.0611711006
 21
133.366929953
 31
0.0
  0
LINE
  5
84
330
1F
100
AcDbEntity
  8
0
  6
SLD-実線
 62
     7
370
    25
100
AcDbLine
 10
81.9917860042
 20
196.3470402787
 30
0.0
 11
80.4914011536
 21
196.0752555438
 31
0.0
  0
LINE
  5
85
330
1F
100
AcDbEntity
  8
0
  6
SLD-実線
 62
     7
370
    25
100
AcDbLine
 10
90.3029778807
 20
133.8156334955
 30
0.0
 11
91.8142304685
 21
134.0184567141
 31
0.0
  0
LWPOLYLINE
  5
86
330
1F
100
AcDbEntity
  8
0
  6
SLD-実線
 62
     7
370
    25
100
AcDbPolyline
 90
       20
 70
   128
 43
0.0
 10
105.9833462014
 20
130.2233285964
 10
105.9924410892
 20
130.2229584895
 10
106.9698121929
 20
130.1541940703
 10
107.7027589538
 20
130.0404534118
 10
108.1261558357
 20
129.8918428707
 10
108.2023821677
 20
129.7215671459
 10
107.9246649057
 20
129.5447559826
 10
107.317680447
 20
129.3771198287
 10
106.4353620247
 20
129.2335538921
 10
105.3561075024
 20
129.1268146363
 10
104.1758133807
 20
129.0663863125
 10
102.999353972
 20
129.0576382427
 10
101.9312628576
 20
129.101347731
 10
101.0664446202
 20
129.1936309977
 10
100.4817421553
 20
129.3262882696
 10
100.229108843
 20
129.4875323659
 10
100.3309922616
 20
129.663036041
 10
100.7783396224
 20
129.8372050232
 10
101.5314021491
 20
129.9945636342
 10
102.4218063388
 20
130.1108403037
  0
LWPOLYLINE
  5
87
330
1F
100
AcDbEntity
  8
0
  6
SLD-実線
 62
     7
370
    25
100
AcDbPolyline
 90
       13
 70
   128
 43
0.0
 10
100.3146685419
 20
126.5549305723
 10
100.322813104
 20
126.520721749
 10
100.5754464163
 20
126.3594776527
 10
101.1601488812
 20
126.2268203808
 10
102.0249671186
 20
126.1345371141
 10
103.0930582331
 20
126.0908276257
 10
104.2695176418
 20
126.0995756956
 10
105.4498117634
 20
126.1600040193
 10
106.5290662857
 20
126.2667432752
 10
107.4113847081
 20
126.4103092118
 10
108.0183691667
 20
126.5779453657
 10
108.2960864288
 20
126.7547565289
 10
108.3106812848
 20
126.8074780255
  0
ARC
  5
88
330
1F
100
AcDbEntity
  8
0
  6
SLD-実線
 62
     7
370
    25
100
AcDbCircle
 10
104.0860738855
 20
133.8557161922
 30
0.0
 40
4.571292654632976
100
AcDbArc
 50
248.8701400222
 51
294.747936888
  0
ARC
  5
89
330
1F
100
AcDbEntity
  8
0
  6
SLD-実線
 62
     7
370
    25
100
AcDbCircle
 10
104.0560691593
 20
134.8057086382
 30
0.0
 40
9.649409836255625
100
AcDbArc
 50
253.8978363203
 51
289.7202405899
  0
ELLIPSE
  5
8A
330
1F
100
AcDbEntity
  8
0
  6
SLD-実線
 62
     7
370
    25
100
AcDbEllipse
 10
89.8376255694
 20
165.6452187489
 30
0.0
 11
-4.165229647018023
 21
30.72379078742216
 31
0.0
210
0.0
220
0.0
230
1.0
 40
0.5721190834
 41
6.104142386505027
 42
6.25097154802811
  0
ELLIPSE
  5
8B
330
1F
100
AcDbEntity
  8
0
  6
SLD-実線
 62
     7
370
    25
100
AcDbEllipse
 10
89.8376255694
 20
165.6452187489
 30
0.0
 11
-5.751520277021385
 21
30.46870410706873
 31
0.0
210
0.0
220
0.0
230
1.0
 40
0.7216711579
 41
5.990471579113701
 42
6.069961886075049
  0
ELLIPSE
  5
8C
330
1F
100
AcDbEntity
  8
0
  6
SLD-実線
 62
     7
370
    25
100
AcDbEllipse
 10
90.5907002589
 20
165.7638967918
 30
0.0
 11
-4.165229647018023
 21
30.72379078742216
 31
0.0
210
0.0
220
0.0
230
1.0
 40
0.5721190834
 41
3.20921626144623
 42
3.291004350845532
  0
LWPOLYLINE
  5
8D
330
1F
100
AcDbEntity
  8
0
  6
SLD-実線
 62
     7
370
    25
100
AcDbPolyline
 90
       62
 70
   128
 43
0.0
 10
107.2872088896
 20
161.8481200237
 10
107.059585886
 20
165.3213947255
 10
106.5975177549
 20
168.7899249334
 10
105.9059025334
 20
172.2169433644
 10
104.9920715149
 20
175.5661227706
 10
103.8657115355
 20
178.801961017
 10
102.5387622914
 20
181.8901574134
 10
101.0252897744
 20
184.7979763095
 10
99.3413371699
 20
187.4945941018
 10
97.5047547943
 20
189.9514259709
 10
95.5350108778
 20
192.1424288876
 10
93.4529851958
 20
194.0443776761
 10
91.2807477385
 20
195.637111206
 10
89.0413247634
 20
196.9037461057
 10
86.7584547111
 20
197.8308557301
 10
84.4563365721
 20
198.4086124866
 10
82.1593733713
 20
198.6308920099
 10
79.8919134901
 20
198.4953380817
 10
77.6779925673
 20
198.0033876073
 10
75.5410787155
 20
197.1602553842
 10
73.503823753
 20
195.9748788237
 10
71.5878230893
 20
194.4598232122
 10
69.8133868081
 20
192.6311485161
 10
68.1993243754
 20
190.508239142
 10
66.7627452545
 20
188.1135984576
 10
65.5188775414
 20
185.4726102497
 10
64.4809065434
 20
182.6132696504
 10
63.6598350113
 20
179.5658863813
 10
63.0643665075
 20
176.3627634632
 10
62.7008131463
 20
173.0378547958
 10
62.5730286838
 20
169.6264052382
 10
62.6823676671
 20
166.1645770043
 10
63.0276710758
 20
162.6890663347
 10
63.6052786078
 20
159.236714507
 10
64.4090674796
 20
155.8441173095
 10
65.4305173292
 20
152.5472371164
 10
66.6588005341
 20
149.3810216779
 10
68.0808969867
 20
146.3790336654
 10
69.6817321109
 20
143.5730948986
 10
71.4443366562
 20
140.9929490264
 10
73.3500265758
 20
138.665946237
 10
75.3786010825
 20
136.6167533388
 10
77.5085567819
 20
134.8670922863
 10
79.7173156138
 20
133.435509922
 10
81.981464185
 20
132.337181375
 10
84.2770019574
 20
131.5837492012
 10
86.5795956596
 20
131.183199969
 10
88.8648372255
 20
131.1397796
 10
91.108502526
 20
131.4539483608
 10
93.2868081508
 20
132.1223759845
 10
95.3766635183
 20
133.1379769719
 10
97.3559156418
 20
134.4899857
 10
99.2035839563
 20
136.1640705398
 10
100.9000827181
 20
138.1424857756
 10
102.4274286183
 20
140.4042597138
 10
103.7694314104
 20
142.9254169879
 10
104.9118655309
 20
145.6792327036
 10
105.8426208939
 20
148.6365157293
 10
106.5518312611
 20
151.7659181292
 10
107.0319788261
 20
155.0342674594
 10
107.2779739053
 20
158.4069184039
 10
107.2872088896
 20
161.8481200237
  0
LWPOLYLINE
  5
8E
330
1F
100
AcDbEntity
  8
0
  6
SLD-実線
 62
     7
370
    25
100
AcDbPolyline
 90
       64
 70
   128
 43
0.0
 10
108.2729986897
 20
161.7146336363
 10
108.0466607077
 20
165.2258864759
 10
107.5907045889
 20
168.7336402358
 10
106.90966183
 20
172.2030332834
 10
106.0103009399
 20
175.5995852318
 10
104.9015601712
 20
178.8895396218
 10
103.5944586878
 20
182.0401994086
 10
102.1019870514
 20
185.0202519198
 10
100.4389781157
 20
187.8000800545
 10
98.6219596107
 20
190.352056632
 10
96.6689898826
 20
192.6508189625
 10
94.599478422
 20
194.6735209132
 10
92.4339929634
 20
196.4000599633
 10
90.1940550743
 20
197.8132769922
 10
87.9019262638
 20
198.899126814
 10
85.5803867378
 20
199.6468177653
 10
83.252508999
 20
200.0489189577
 10
80.9414285423
 20
200.1014341288
 10
78.6701139236
 20
199.8038413592
 10
76.4611384879
 20
199.1590982595
 10
74.3364560257
 20
198.1736125765
 10
72.3171825856
 20
196.8571785094
 10
70.4233866145
 20
195.2228793716
 10
68.6738895074
 20
193.2869575621
 10
67.0860785526
 20
191.0686531415
 10
65.6757341288
 20
188.5900126159
 10
64.4568728724
 20
185.8756698283
 10
63.4416083742
 20
182.9526011369
 10
62.640030789
 20
179.8498573116
 10
62.0601065548
 20
176.5982748143
 10
61.7075992193
 20
173.230169333
 10
61.5860121587
 20
169.7790146129
 10
61.6965537599
 20
166.2791097802
 10
62.0381254108
 20
162.7652384616
 10
62.6073324188
 20
159.2723230888
 10
63.398517749
 20
155.8350778242
 10
64.4038182462
 20
152.4876635553
 10
65.6132427822
 20
149.2633483892
 10
67.0147715528
 20
146.1941770184
 10
68.5944755353
 20
143.310652247
 10
70.3366549218
 20
140.6414318396
 10
72.223995151
 20
138.2130437079
 10
74.2377389876
 20
136.049622264
 10
76.3578729408
 20
134.1726685623
 10
78.5633261667
 20
132.6008366118
 10
80.8321798804
 20
131.3497479848
 10
83.1418851943
 20
130.431836562
 10
85.4694872194
 20
129.8562249596
 10
87.791853201
 20
129.6286338642
 10
90.0859024226
 20
129.7513251784
 10
92.3288355924
 20
130.2230795409
 10
94.498361433
 20
131.0392084447
 10
96.5729182216
 20
132.1916008343
 10
98.5318880811
 20
133.6688037163
 10
100.3558018888
 20
135.4561359848
 10
102.0265327698
 20
137.5358343287
 10
103.5274762501
 20
139.8872297716
 10
104.843715279
 20
142.4869530891
 10
105.9621684818
 20
145.3091670629
 10
106.8717201679
 20
148.3258232626
 10
107.5633308041
 20
151.5069408036
 10
108.0301268532
 20
154.8209043106
 10
108.2674690863
 20
158.2347781254
 10
108.2729986897
 20
161.7146336363
  0
LWPOLYLINE
  5
8F
330
1F
100
AcDbEntity
  8
0
  6
SLD-実線
 62
     7
370
    25
100
AcDbPolyline
 90
       33
 70
   128
 43
0.0
 10
113.0611711006
 20
133.366929953
 10
113.5702036407
 20
133.4562408811
 10
115.8135209136
 20
134.0741762083
 10
117.9725331612
 20
135.0420142541
 10
120.0252542144
 20
136.3498990989
 10
121.950780314
 20
137.9845119774
 10
123.7295029828
 20
139.9292069095
 10
125.3433087074
 20
142.1641802132
 10
126.7757633959
 20
144.6666721747
 10
128.0122797336
 20
147.4111988203
 10
129.0402657322
 20
150.3698114309
 10
129.849252959
 20
153.5123811559
 10
130.4310031422
 20
156.8069058288
 10
130.7795920643
 20
160.2198358593
 10
130.8914698915
 20
163.7164158833
 10
130.7654973227
 20
167.261038692
 10
130.4029571918
 20
170.817607836
 10
129.8075414042
 20
174.3499052111
 10
128.98531334
 20
177.8219598831
 10
127.9446461083
 20
181.1984143957
 10
126.6961372804
 20
184.444884831
 10
125.2525009694
 20
187.528310956
 10
123.6284383573
 20
190.4172928895
 10
121.8404879864
 20
193.0824108607
 10
119.9068573399
 20
195.4965248039
 10
117.8472374271
 20
197.6350507373
 10
115.6826022614
 20
199.4762111132
 10
113.4349952725
 20
201.0012565874
 10
111.1273048287
 20
202.1946569527
 10
108.7830311543
 20
203.0442592895
 10
106.4260470169
 20
203.5414117244
 10
104.0803546201
 20
203.681051536
 10
102.0085904445
 20
203.5013755617
  0
ARC
  5
90
330
1F
100
AcDbEntity
  8
0
  6
SLD-実線
 62
     7
370
    25
100
AcDbCircle
 10
102.9103632277
 20
164.3791231237
 30
0.0
 40
38.49660890472703
100
AcDbArc
 50
200.6167131799
 51
224.5126664503
  0
LINE
  5
91
330
1F
100
AcDbEntity
  8
0
  6
SLD-実線
 62
     7
370
    25
100
AcDbLine
 10
78.1764384321
 20
137.8250217834
 30
0.0
 11
75.4586053904
 21
137.3904238441
 31
0.0
  0
ARC
  5
92
330
1F
100
AcDbEntity
  8
0
  6
SLD-実線
 62
     7
370
    25
100
AcDbCircle
 10
92.095691648
 20
149.3767907919
 30
0.0
 40
17.57078832453105
100
AcDbArc
 50
230.6118889518
 51
271.032949009
  0
ARC
  5
93
330
1F
100
AcDbEntity
  8
0
  6
SLD-実線
 62
     7
370
    25
100
AcDbCircle
 10
86.0063960661
 20
183.8240040965
 30
0.0
 40
15.37325781654704
100
AcDbArc
 50
105.564263392
 51
127.2764162533
  0
LINE
  5
94
330
1F
100
AcDbEntity
  8
0
  6
SLD-実線
 62
     7
370
    25
100
AcDbLine
 10
76.6954145798
 20
196.0568565707
 30
0.0
 11
73.619598619
 21
195.6160024186
 31
0.0
  0
ARC
  5
95
330
1F
100
AcDbEntity
  8
0
  6
SLD-実線
 62
     7
370
    25
100
AcDbCircle
 10
89.0075943769
 20
176.5921982607
 30
0.0
 40
24.46825572211425
100
AcDbArc
 50
128.9687412164
 51
161.390081403
  0
LWPOLYLINE
  5
96
330
1F
100
AcDbEntity
  8
0
  6
SLD-実線
 62
     7
370
    25
100
AcDbPolyline
 90
       57
 70
   128
 43
0.0
 10
67.2943051755
 20
167.4842354097
 10
67.3120882575
 20
170.5688902011
 10
67.5610561093
 20
173.5834185184
 10
68.0380778159
 20
176.4899109188
 10
68.7371545525
 20
179.2518165741
 10
69.6494950234
 20
181.8344029182
 10
70.7636260181
 20
184.2051924293
 10
72.0655366926
 20
186.3343710537
 10
73.538854765
 20
188.1951631349
 10
75.1650524056
 20
189.7641681328
 10
76.9236792356
 20
191.0216548992
 10
78.7926195021
 20
191.9518098084
 10
80.7483701971
 20
192.5429356227
 10
82.7663366206
 20
192.787598592
 10
84.8211416741
 20
192.6827219376
 10
86.8869449918
 20
192.2296245441
 10
88.9377678984
 20
191.4340043743
 10
90.9478201059
 20
190.3058668134
 10
92.8918240416
 20
188.8593988458
 10
94.745332728
 20
187.1127906454
 10
96.4850372179
 20
185.0880068238
 10
98.089059718
 20
182.8105102123
 10
99.5372287148
 20
180.3089416522
 10
100.8113326427
 20
177.6147598197
 10
101.8953489057
 20
174.7618456145
 10
102.7756453702
 20
171.7860760879
 10
103.4411517976
 20
168.7248732685
 10
103.8834990582
 20
165.6167335577
 10
104.0971243788
 20
162.5007436159
 10
104.0793412968
 20
159.4160888245
 10
103.830373445
 20
156.4015605072
 10
103.3533517384
 20
153.4950681068
 10
102.6542750018
 20
150.7331624515
 10
101.7419345309
 20
148.1505761075
 10
100.6278035363
 20
145.7797865964
 10
99.3258928617
 20
143.650607972
 10
97.8525747893
 20
141.7898158908
 10
96.2263771487
 20
140.2208108929
 10
94.4677503187
 20
138.9633241265
 10
92.5988100522
 20
138.0331692173
 10
90.6430593573
 20
137.442043403
 10
88.6250929337
 20
137.1973804337
 10
86.5702878802
 20
137.3022570881
 10
84.5044845625
 20
137.7553544815
 10
82.4536616559
 20
138.5509746513
 10
80.4436094484
 20
139.6791122122
 10
78.4996055127
 20
141.1255801798
 10
76.6460968264
 20
142.8721883802
 10
74.9063923364
 20
144.8969722019
 10
73.3023698363
 20
147.1744688134
 10
71.8542008396
 20
149.6760373734
 10
70.5800969116
 20
152.3702192059
 10
69.4960806487
 20
155.2231334112
 10
68.6157841841
 20
158.1989029377
 10
67.9502777567
 20
161.2601057572
 10
67.5079304961
 20
164.3682454679
 10
67.2943051755
 20
167.4842354097
  0
LINE
  5
97
330
1F
100
AcDbEntity
  8
0
  6
SLD-実線
 62
     7
370
    25
100
AcDbLine
 10
73.619598619
 20
195.6160024186
 30
0.0
 11
74.496299797
 21
193.3951042407
 31
0.0
  0
LWPOLYLINE
  5
98
330
1F
100
AcDbEntity
  8
0
  6
SLD-実線
 62
     7
370
    25
100
AcDbPolyline
 90
       10
 70
   128
 43
0.0
 10
74.496299797
 20
193.3951042407
 10
76.5957886925
 20
194.7272766066
 10
78.8180785796
 20
195.6581862252
 10
81.1331802695
 20
196.175270728
 10
83.5098521037
 20
196.2715522022
 10
85.9160215516
 20
195.9457313559
 10
88.3192180203
 20
195.2022050516
 10
90.6870110367
 20
194.0510069715
 10
92.9874478872
 20
192.5076722162
 10
95.1894848113
 20
190.5930276623
  0
LINE
  5
99
330
1F
100
AcDbEntity
  8
0
  6
SLD-実線
 62
     7
370
    25
100
AcDbLine
 10
95.1894848113
 20
190.5930276623
 30
0.0
 11
95.7018220702
 21
191.9725552217
 31
0.0
  0
LINE
  5
9A
330
1F
100
AcDbEntity
  8
0
  6
SLD-実線
 62
     7
370
    25
100
AcDbLine
 10
103.9041525796
 20
178.7025421429
 30
0.0
 11
103.1477336485
 21
178.1321483619
 31
0.0
  0
ARC
  5
9B
330
1F
100
AcDbEntity
  8
0
  6
SLD-実線
 62
     7
370
    25
100
AcDbCircle
 10
61.5280803039
 20
161.232659533
 30
0.0
 40
44.91979816514912
100
AcDbArc
 50
341.5186676826
 51
22.0994092276
  0
LINE
  5
9C
330
1F
100
AcDbEntity
  8
0
  6
SLD-実線
 62
     7
370
    25
100
AcDbLine
 10
104.1312291209
 20
146.9932782939
 30
0.0
 11
105.0573875726
 21
146.0880682758
 31
0.0
  0
LINE
  5
9D
330
1F
100
AcDbEntity
  8
0
  6
SLD-実線
 62
     7
370
    25
100
AcDbLine
 10
97.6351095551
 20
134.715325251
 30
0.0
 11
96.8951297573
 21
136.589874785
 31
0.0
  0
LWPOLYLINE
  5
9E
330
1F
100
AcDbEntity
  8
0
  6
SLD-実線
 62
     7
370
    25
100
AcDbPolyline
 90
       10
 70
   128
 43
0.0
 10
96.8951297573
 20
136.589874785
 10
94.7956408618
 20
135.257702419
 10
92.5733509747
 20
134.3267928004
 10
90.2582492848
 20
133.8097082977
 10
87.8815774506
 20
133.7134268235
 10
85.4754080027
 20
134.0392476698
 10
83.072211534
 20
134.7827739741
 10
80.7044185176
 20
135.9339720541
 10
78.4039816671
 20
137.4773068094
 10
76.201944743
 20
139.3919513633
  0
LINE
  5
9F
330
1F
100
AcDbEntity
  8
0
  6
SLD-実線
 62
     7
370
    25
100
AcDbLine
 10
76.201944743
 20
139.3919513633
 30
0.0
 11
75.4586053904
 21
137.3904238441
 31
0.0
  0
LINE
  5
A0
330
1F
100
AcDbEntity
  8
0
  6
SLD-実線
 62
     7
370
    25
100
AcDbLine
 10
66.8791978941
 20
150.8239019206
 30
0.0
 11
68.2436959059
 21
151.8528306638
 31
0.0
  0
ARC
  5
A1
330
1F
100
AcDbEntity
  8
0
  6
SLD-実線
 62
     7
370
    25
100
AcDbCircle
 10
109.8633492504
 20
168.7523194927
 30
0.0
 40
44.91979816514949
100
AcDbArc
 50
161.5186676826
 51
202.0994092276
  0
LINE
  5
A2
330
1F
100
AcDbEntity
  8
0
  6
SLD-実線
 62
     7
370
    25
100
AcDbLine
 10
67.2602004334
 20
182.9917007318
 30
0.0
 11
65.8187059358
 21
184.4005906015
 31
0.0
  0
LINE
  5
A3
330
1F
100
AcDbEntity
  8
0
  6
SLD-実線
 62
     7
370
    25
100
AcDbLine
 10
87.502906377
 20
196.4511451678
 30
0.0
 11
88.333178663
 21
197.2297279057
 31
0.0
  0
LINE
  5
A4
330
1F
100
AcDbEntity
  8
0
  6
SLD-実線
 62
     7
370
    25
100
AcDbLine
 10
97.3268814592
 20
135.4961422884
 30
0.0
 11
97.0582949693
 21
135.6305834849
 31
0.0
  0
LINE
  5
A5
330
1F
100
AcDbEntity
  8
0
  6
SLD-実線
 62
     7
370
    25
100
AcDbLine
 10
105.2985004157
 20
147.1799202706
 30
0.0
 11
104.1312291209
 21
146.9932782939
 31
0.0
  0
LINE
  5
A6
330
1F
100
AcDbEntity
  8
0
  6
SLD-実線
 62
     7
370
    25
100
AcDbLine
 10
103.9533682224
 20
178.2476393416
 30
0.0
 11
103.1477336485
 21
178.1321483619
 31
0.0
  0
LWPOLYLINE
  5
A7
330
1F
100
AcDbEntity
  8
0
  6
SLD-実線
 62
     7
370
    25
100
AcDbPolyline
 90
       13
 70
   128
 43
0.0
 10
68.8004545545
 20
167.7215914956
 10
68.8182376365
 20
170.806246287
 10
69.0672054883
 20
173.8207746042
 10
69.5442271949
 20
176.7272670047
 10
70.2433039315
 20
179.48917266
 10
71.1556444024
 20
182.071759004
 10
72.2697753971
 20
184.4425485151
 10
73.5716860716
 20
186.5717271395
 10
75.045004144
 20
188.4325192207
 10
76.6712017846
 20
190.0015242186
 10
78.4298286146
 20
191.259010985
 10
80.2987688811
 20
192.1891658942
 10
82.0938848371
 20
192.745331141
  0
LWPOLYLINE
  5
A8
330
1F
100
AcDbEntity
  8
0
  6
SLD-実線
 62
     7
370
    25
100
AcDbPolyline
 90
       17
 70
   128
 43
0.0
 10
90.8036940968
 20
137.4770039705
 10
90.1312423127
 20
137.4347365195
 10
88.0764372592
 20
137.5396131739
 10
86.0106339415
 20
137.9927105674
 10
83.9598110349
 20
138.7883307371
 10
81.9497588274
 20
139.9164682981
 10
80.0057548917
 20
141.3629362657
 10
78.1522462053
 20
143.1095444661
 10
76.4125417154
 20
145.1343282877
 10
74.8085192153
 20
147.4118248992
 10
73.3603502185
 20
149.9133934593
 10
72.0862462906
 20
152.6075752918
 10
71.0022300276
 20
155.460489497
 10
70.1219335631
 20
158.4362590236
 10
69.4564271357
 20
161.497461843
 10
69.0140798751
 20
164.6056015538
 10
68.8004545545
 20
167.7215914956
  0
LINE
  5
A9
330
1F
100
AcDbEntity
  8
0
  6
SLD-実線
 62
     7
370
    25
100
AcDbLine
 10
88.3587361571
 20
196.9730227794
 30
0.0
 11
89.6705133199
 21
196.371913951
 31
0.0
  0
LINE
  5
AA
330
1F
100
AcDbEntity
  8
0
  6
SLD-実線
 62
     7
370
    25
100
AcDbLine
 10
89.5081989029
 20
196.2229185227
 30
0.0
 11
89.6705133199
 21
196.371913951
 31
0.0
  0
LINE
  5
AB
330
1F
100
AcDbEntity
  8
0
  6
SLD-実線
 62
     7
370
    25
100
AcDbLine
 10
88.3587361571
 20
196.9730227794
 30
0.0
 11
88.5421783608
 21
197.1371527899
 31
0.0
  0
ARC
  5
AC
330
1F
100
AcDbEntity
  8
0
  6
SLD-実線
 62
     7
370
    25
100
AcDbCircle
 10
84.0787279083
 20
179.737949647
 30
0.0
 40
16.73968990519919
100
AcDbArc
 50
46.2693163741
 51
97.1617155363
  0
ARC
  5
AD
330
1F
100
AcDbEntity
  8
0
  6
SLD-実線
 62
     7
370
    25
100
AcDbCircle
 10
89.9109868373
 20
147.6928343814
 30
0.0
 40
13.80619212193774
100
AcDbArc
 50
277.9237056511
 51
301.6349206974
  0
LINE
  5
AE
330
1F
100
AcDbEntity
  8
0
  6
SLD-実線
 62
     7
370
    25
100
AcDbLine
 10
76.6954145798
 20
196.0568565707
 30
0.0
 11
77.1176618223
 21
194.987201191
 31
0.0
  0
ARC
  5
AF
330
1F
100
AcDbEntity
  8
0
  6
SLD-実線
 62
     7
370
    25
100
AcDbCircle
 10
103.7629015261
 20
148.1775154359
 30
0.0
 40
17.17560335793955
100
AcDbArc
 50
258.3566767592
 51
280.135048342
  0
LINE
  5
B0
330
1F
100
AcDbEntity
  8
0
  6
SLD-実線
 62
     7
370
    25
100
AcDbLine
 10
106.7852739452
 20
131.2699249609
 30
0.0
 11
111.3037220821
 21
131.9819932184
 31
0.0
  0
LINE
  5
B1
330
1F
100
AcDbEntity
  8
0
  6
SLD-実線
 62
     7
370
    25
100
AcDbLine
 10
111.2689008317
 20
133.0844836952
 30
0.0
 11
111.3037220821
 21
131.9819932184
 31
0.0
  0
LINE
  5
B2
330
1F
100
AcDbEntity
  8
0
  6
SLD-実線
 62
     7
370
    25
100
AcDbLine
 10
89.6705133199
 20
196.371913951
 30
0.0
 11
89.7577106309
 21
196.1853757059
 31
0.0
  0
LINE
  5
B3
330
1F
100
AcDbEntity
  8
0
  6
SLD-実線
 62
     8
370
    25
100
AcDbLine
 10
106.7504526947
 20
132.3724154377
 30
0.0
 11
106.7852739452
 21
131.2699249609
 31
0.0
  0
ENDSEC
  0
SECTION
  2
OBJECTS
  0
DICTIONARY
  5
C
330
0
100
AcDbDictionary
281
     1
  3
ACAD_GROUP
350
D
  3
ACAD_LAYOUT
350
1A
  3
ACAD_MLINESTYLE
350
17
  3
ACAD_PLOTSETTINGS
350
19
  3
ACAD_PLOTSTYLENAME
350
E
  3
ACAD_SCALELIST
350
47
  3
DWGPROPS
350
B4
  0
DICTIONARY
  5
D
102
{ACAD_REACTORS
330
C
102
}
330
C
100
AcDbDictionary
281
     1
  0
DICTIONARY
  5
1A
102
{ACAD_REACTORS
330
C
102
}
330
C
100
AcDbDictionary
281
     1
  3
Layout1
350
1E
  3
Layout2
350
26
  3
Model
350
22
  0
DICTIONARY
  5
17
102
{ACAD_REACTORS
330
C
102
}
330
C
100
AcDbDictionary
281
     1
  3
Standard
350
18
  0
DICTIONARY
  5
19
102
{ACAD_REACTORS
330
C
102
}
330
C
100
AcDbDictionary
281
     1
  0
ACDBDICTIONARYWDFLT
  5
E
102
{ACAD_REACTORS
330
C
102
}
330
C
100
AcDbDictionary
281
     1
  3
Normal
350
F
100
AcDbDictionaryWithDefault
340
F
  0
DICTIONARY
  5
47
102
{ACAD_REACTORS
330
C
102
}
330
C
100
AcDbDictionary
281
     1
  3
A0
350
48
  3
A1
350
49
  3
A2
350
4A
  3
A3
350
4B
  3
A4
350
4C
  3
A5
350
4D
  3
A6
350
4E
  3
A7
350
4F
  3
A8
350
50
  3
A9
350
51
  3
B0
350
52
  3
B1
350
53
  3
B2
350
54
  3
B3
350
55
  3
B4
350
56
  3
B5
350
57
  3
B6
350
58
  3
B7
350
59
  3
B8
350
5A
  3
B9
350
5B
  3
C0
350
5C
  3
C1
350
5D
  3
C2
350
5E
  3
C3
350
5F
  3
C4
350
60
  3
C5
350
61
  3
C6
350
62
  3
C7
350
63
  3
C8
350
64
  3
C9
350
65
  3
D0
350
66
  3
D1
350
67
  3
D2
350
68
  0
XRECORD
  5
B4
102
{ACAD_REACTORS
330
C
102
}
330
C
100
AcDbXrecord
280
     1
  1
DWGPROPS COOKIE
  2

  3

  4

  6

  7

  8
9176
  9

300
=
301
=
302
=
303
=
304
=
305
=
306
=
307
=
308
=
309
=
 40
0.0
 41
2459669.215836482
 42
2459669.21583684
  1

 90
        0
  0
LAYOUT
  5
1E
102
{ACAD_REACTORS
330
1A
102
}
330
1A
100
AcDbPlotSettings
  1

  2
none_device
  4

  6

 40
0.0
 41
0.0
 42
0.0
 43
0.0
 44
0.0
 45
0.0
 46
0.0
 47
0.0
 48
0.0
 49
0.0
140
0.0
141
0.0
142
1.0
143
1.0
 70
   688
 72
     1
 73
     0
 74
     5
  7

 75
    16
147
1.0
148
0.0
149
0.0
100
AcDbLayout
  1
Layout1
 70
     1
 71
     1
 10
0.0
 20
0.0
 11
420.0
 21
297.0
 12
0.0
 22
0.0
 32
0.0
 14
1.0000000000E+20
 24
1.0000000000E+20
 34
1.0000000000E+20
 15
-1.0000000000E+20
 25
-1.0000000000E+20
 35
-1.0000000000E+20
146
0.0
 13
0.0
 23
0.0
 33
0.0
 16
1.0
 26
0.0
 36
0.0
 17
0.0
 27
1.0
 37
0.0
 76
     0
330
1B
  0
LAYOUT
  5
26
102
{ACAD_REACTORS
330
1A
102
}
330
1A
100
AcDbPlotSettings
  1

  2
none_device
  4

  6

 40
0.0
 41
0.0
 42
0.0
 43
0.0
 44
0.0
 45
0.0
 46
0.0
 47
0.0
 48
0.0
 49
0.0
140
0.0
141
0.0
142
1.0
143
1.0
 70
   688
 72
     1
 73
     0
 74
     5
  7

 75
    16
147
1.0
148
0.0
149
0.0
100
AcDbLayout
  1
Layout2
 70
     1
 71
     2
 10
0.0
 20
0.0
 11
0.0
 21
0.0
 12
0.0
 22
0.0
 32
0.0
 14
0.0
 24
0.0
 34
0.0
 15
0.0
 25
0.0
 35
0.0
146
0.0
 13
0.0
 23
0.0
 33
0.0
 16
1.0
 26
0.0
 36
0.0
 17
0.0
 27
1.0
 37
0.0
 76
     0
330
23
  0
LAYOUT
  5
22
102
{ACAD_REACTORS
330
1A
102
}
330
1A
100
AcDbPlotSettings
  1

  2
none_device
  4
Letter_(8.50_x_11.00_Inches)
  6

 40
6.35
 41
6.35
 42
6.35000508
 43
6.35000508
 44
215.9
 45
279.4
 46
0.0
 47
0.0
 48
0.0
 49
0.0
140
0.0
141
0.0
142
1.0
143
1.0
 70
  1712
 72
     1
 73
     0
 74
     0
  7

 75
     0
147
1.0
148
0.0
149
0.0
100
AcDbLayout
  1
Model
 70
     1
 71
     0
 10
0.0
 20
0.0
 11
210.0
 21
297.0
 12
0.0
 22
0.0
 32
0.0
 14
0.0
 24
0.0
 34
0.0
 15
210.0
 25
297.0
 35
0.0
146
0.0
 13
0.0
 23
0.0
 33
0.0
 16
1.0
 26
0.0
 36
0.0
 17
0.0
 27
1.0
 37
0.0
 76
     0
330
1F
331
29
  0
MLINESTYLE
  5
18
102
{ACAD_REACTORS
330
17
102
}
330
17
100
AcDbMlineStyle
  2
Standard
 70
     0
  3

 62
   256
 51
90.0
 52
90.0
 71
     2
 49
0.5
 62
   256
  6
BYLAYER
 49
-0.5
 62
   256
  6
BYLAYER
  0
ACDBPLACEHOLDER
  5
F
102
{ACAD_REACTORS
330
E
102
}
330
E
  0
SCALE
  5
48
102
{ACAD_REACTORS
330
47
102
}
330
47
100
AcDbScale
 70
     0
300
1:1
140
1.0
141
1.0
290
     1
  0
SCALE
  5
49
102
{ACAD_REACTORS
330
47
102
}
330
47
100
AcDbScale
 70
     0
300
1:2
140
1.0
141
2.0
290
     0
  0
SCALE
  5
4A
102
{ACAD_REACTORS
330
47
102
}
330
47
100
AcDbScale
 70
     0
300
1:4
140
1.0
141
4.0
290
     0
  0
SCALE
  5
4B
102
{ACAD_REACTORS
330
47
102
}
330
47
100
AcDbScale
 70
     0
300
1:5
140
1.0
141
5.0
290
     0
  0
SCALE
  5
4C
102
{ACAD_REACTORS
330
47
102
}
330
47
100
AcDbScale
 70
     0
300
1:8
140
1.0
141
8.0
290
     0
  0
SCALE
  5
4D
102
{ACAD_REACTORS
330
47
102
}
330
47
100
AcDbScale
 70
     0
300
1:10
140
1.0
141
10.0
290
     0
  0
SCALE
  5
4E
102
{ACAD_REACTORS
330
47
102
}
330
47
100
AcDbScale
 70
     0
300
1:16
140
1.0
141
16.0
290
     0
  0
SCALE
  5
4F
102
{ACAD_REACTORS
330
47
102
}
330
47
100
AcDbScale
 70
     0
300
1:20
140
1.0
141
20.0
290
     0
  0
SCALE
  5
50
102
{ACAD_REACTORS
330
47
102
}
330
47
100
AcDbScale
 70
     0
300
1:30
140
1.0
141
30.0
290
     0
  0
SCALE
  5
51
102
{ACAD_REACTORS
330
47
102
}
330
47
100
AcDbScale
 70
     0
300
1:40
140
1.0
141
40.0
290
     0
  0
SCALE
  5
52
102
{ACAD_REACTORS
330
47
102
}
330
47
100
AcDbScale
 70
     0
300
1:50
140
1.0
141
50.0
290
     0
  0
SCALE
  5
53
102
{ACAD_REACTORS
330
47
102
}
330
47
100
AcDbScale
 70
     0
300
1:100
140
1.0
141
100.0
290
     0
  0
SCALE
  5
54
102
{ACAD_REACTORS
330
47
102
}
330
47
100
AcDbScale
 70
     0
300
2:1
140
2.0
141
1.0
290
     0
  0
SCALE
  5
55
102
{ACAD_REACTORS
330
47
102
}
330
47
100
AcDbScale
 70
     0
300
4:1
140
4.0
141
1.0
290
     0
  0
SCALE
  5
56
102
{ACAD_REACTORS
330
47
102
}
330
47
100
AcDbScale
 70
     0
300
8:1
140
8.0
141
1.0
290
     0
  0
SCALE
  5
57
102
{ACAD_REACTORS
330
47
102
}
330
47
100
AcDbScale
 70
     0
300
10:1
140
10.0
141
1.0
290
     0
  0
SCALE
  5
58
102
{ACAD_REACTORS
330
47
102
}
330
47
100
AcDbScale
 70
     0
300
100:1
140
100.0
141
1.0
290
     0
  0
SCALE
  5
59
102
{ACAD_REACTORS
330
47
102
}
330
47
100
AcDbScale
 70
     0
300
1/128" = 1'-0"
140
0.0078125
141
12.0
290
     0
  0
SCALE
  5
5A
102
{ACAD_REACTORS
330
47
102
}
330
47
100
AcDbScale
 70
     0
300
1/64" = 1'-0"
140
0.015625
141
12.0
290
     0
  0
SCALE
  5
5B
102
{ACAD_REACTORS
330
47
102
}
330
47
100
AcDbScale
 70
     0
300
1/32" = 1'-0"
140
0.03125
141
12.0
290
     0
  0
SCALE
  5
5C
102
{ACAD_REACTORS
330
47
102
}
330
47
100
AcDbScale
 70
     0
300
1/16" = 1'-0"
140
0.0625
141
12.0
290
     0
  0
SCALE
  5
5D
102
{ACAD_REACTORS
330
47
102
}
330
47
100
AcDbScale
 70
     0
300
3/32" = 1'-0"
140
0.09375
141
12.0
290
     0
  0
SCALE
  5
5E
102
{ACAD_REACTORS
330
47
102
}
330
47
100
AcDbScale
 70
     0
300
1/8" = 1'-0"
140
0.125
141
12.0
290
     0
  0
SCALE
  5
5F
102
{ACAD_REACTORS
330
47
102
}
330
47
100
AcDbScale
 70
     0
300
3/16" = 1'-0"
140
0.1875
141
12.0
290
     0
  0
SCALE
  5
60
102
{ACAD_REACTORS
330
47
102
}
330
47
100
AcDbScale
 70
     0
300
1/4" = 1'-0"
140
0.25
141
12.0
290
     0
  0
SCALE
  5
61
102
{ACAD_REACTORS
330
47
102
}
330
47
100
AcDbScale
 70
     0
300
3/8" = 1'-0"
140
0.375
141
12.0
290
     0
  0
SCALE
  5
62
102
{ACAD_REACTORS
330
47
102
}
330
47
100
AcDbScale
 70
     0
300
1/2" = 1'-0"
140
0.5
141
12.0
290
     0
  0
SCALE
  5
63
102
{ACAD_REACTORS
330
47
102
}
330
47
100
AcDbScale
 70
     0
300
3/4" = 1'-0"
140
0.75
141
12.0
290
     0
  0
SCALE
  5
64
102
{ACAD_REACTORS
330
47
102
}
330
47
100
AcDbScale
 70
     0
300
1" = 1'-0"
140
1.0
141
12.0
290
     0
  0
SCALE
  5
65
102
{ACAD_REACTORS
330
47
102
}
330
47
100
AcDbScale
 70
     0
300
1-1/2" = 1'-0"
140
1.5
141
12.0
290
     0
  0
SCALE
  5
66
102
{ACAD_REACTORS
330
47
102
}
330
47
100
AcDbScale
 70
     0
300
3" = 1'-0"
140
3.0
141
12.0
290
     0
  0
SCALE
  5
67
102
{ACAD_REACTORS
330
47
102
}
330
47
100
AcDbScale
 70
     0
300
6" = 1'-0"
140
6.0
141
12.0
290
     0
  0
SCALE
  5
68
102
{ACAD_REACTORS
330
47
102
}
330
47
100
AcDbScale
 70
     0
300
1'-0" = 1'-0"
140
12.0
141
12.0
290
     0
  0
ENDSEC
  0
EOF
