  0
SECTION
  2
HEADER
  9
$ACADVER
  1
AC1015
  9
$ACADMAINTVER
 70
     6
  9
$DWGCODEPAGE
  3
DOS932
  9
$INSBASE
 10
0.0
 20
0.0
 30
0.0
  9
$EXTMIN
 10
0.0
 20
0.0
 30
0.0
  9
$EXTMAX
 10
210.0
 20
297.0
 30
0.0
  9
$LIMMIN
 10
0.0
 20
0.0
  9
$LIMMAX
 10
210.0
 20
297.0
  9
$ORTHOMODE
 70
     0
  9
$REGENMODE
 70
     1
  9
$FILLMODE
 70
     1
  9
$QTEXTMODE
 70
     0
  9
$MIRRTEXT
 70
     1
  9
$LTSCALE
 40
1.0
  9
$ATTMODE
 70
     1
  9
$TEXTSIZE
 40
3.5
  9
$TRACEWID
 40
1.0
  9
$TEXTSTYLE
  7
STANDARD
  9
$CLAYER
  8
0
  9
$CELTYPE
  6
ByLayer
  9
$CECOLOR
 62
   256
  9
$CELTSCALE
 40
1.0
  9
$DISPSILH
 70
     0
  9
$DIMSCALE
 40
1.0
  9
$DIMASZ
 40
1.5
  9
$DIMEXO
 40
1.0
  9
$DIMDLI
 40
3.75
  9
$DIMRND
 40
0.0
  9
$DIMDLE
 40
0.0
  9
$DIMEXE
 40
1.0
  9
$DIMTP
 40
0.0
  9
$DIMTM
 40
0.0
  9
$DIMTXT
 40
3.5
  9
$DIMCEN
 40
2.5
  9
$DIMTSZ
 40
0.0
  9
$DIMTOL
 70
     0
  9
$DIMLIM
 70
     0
  9
$DIMTIH
 70
     1
  9
$DIMTOH
 70
     1
  9
$DIMSE1
 70
     0
  9
$DIMSE2
 70
     0
  9
$DIMTAD
 70
     1
  9
$DIMZIN
 70
     0
  9
$DIMBLK
  1

  9
$DIMASO
 70
     1
  9
$DIMSHO
 70
     1
  9
$DIMPOST
  1

  9
$DIMAPOST
  1

  9
$DIMALT
 70
     0
  9
$DIMALTD
 70
     3
  9
$DIMALTF
 40
0.0393700787
  9
$DIMLFAC
 40
5.0
  9
$DIMTOFL
 70
     1
  9
$DIMTVP
 40
0.0
  9
$DIMTIX
 70
     0
  9
$DIMSOXD
 70
     0
  9
$DIMSAH
 70
     0
  9
$DIMBLK1
  1

  9
$DIMBLK2
  1

  9
$DIMSTYLE
  2
ISO-25
  9
$DIMCLRD
 70
     0
  9
$DIMCLRE
 70
     0
  9
$DIMCLRT
 70
     0
  9
$DIMTFAC
 40
1.0
  9
$DIMGAP
 40
1.5
  9
$DIMJUST
 70
     0
  9
$DIMSD1
 70
     0
  9
$DIMSD2
 70
     0
  9
$DIMTOLJ
 70
     0
  9
$DIMTZIN
 70
     0
  9
$DIMALTZ
 70
     0
  9
$DIMALTTZ
 70
     0
  9
$DIMUPT
 70
     0
  9
$DIMDEC
 70
     1
  9
$DIMTDEC
 70
     1
  9
$DIMALTU
 70
     2
  9
$DIMALTTD
 70
     3
  9
$DIMTXSTY
  7
STANDARD
  9
$DIMAUNIT
 70
     0
  9
$DIMADEC
 70
     2
  9
$DIMALTRND
 40
0.0
  9
$DIMAZIN
 70
     0
  9
$DIMDSEP
 70
    44
  9
$DIMATFIT
 70
     3
  9
$DIMFRAC
 70
     0
  9
$DIMLDRBLK
  1

  9
$DIMLUNIT
 70
     2
  9
$DIMLWD
 70
    -2
  9
$DIMLWE
 70
    -2
  9
$DIMTMOVE
 70
     0
  9
$LUNITS
 70
     2
  9
$LUPREC
 70
     4
  9
$SKETCHINC
 40
1.0
  9
$FILLETRAD
 40
10.0
  9
$AUNITS
 70
     0
  9
$AUPREC
 70
     2
  9
$MENU
  1
.
  9
$ELEVATION
 40
0.0
  9
$PELEVATION
 40
0.0
  9
$THICKNESS
 40
0.0
  9
$LIMCHECK
 70
     0
  9
$CHAMFERA
 40
0.0
  9
$CHAMFERB
 40
0.0
  9
$CHAMFERC
 40
0.0
  9
$CHAMFERD
 40
0.0
  9
$SKPOLY
 70
     0
  9
$TDCREATE
 40
2459669.599162488
  9
$TDUCREATE
 40
2459669.224162488
  9
$TDUPDATE
 40
2459669.599162766
  9
$TDUUPDATE
 40
2459669.224162766
  9
$TDINDWG
 40
0.0000000116
  9
$TDUSRTIMER
 40
0.0000000116
  9
$USRTIMER
 70
     1
  9
$ANGBASE
 50
0.0
  9
$ANGDIR
 70
     0
  9
$PDMODE
 70
     0
  9
$PDSIZE
 40
-1.0
  9
$PLINEWID
 40
0.0
  9
$SPLFRAME
 70
     0
  9
$SPLINETYPE
 70
     6
  9
$SPLINESEGS
 70
     8
  9
$HANDSEED
  5
B6
  9
$SURFTAB1
 70
     6
  9
$SURFTAB2
 70
     6
  9
$SURFTYPE
 70
     6
  9
$SURFU
 70
     6
  9
$SURFV
 70
     6
  9
$UCSBASE
  2

  9
$UCSNAME
  2

  9
$UCSORG
 10
0.0
 20
0.0
 30
0.0
  9
$UCSXDIR
 10
1.0
 20
0.0
 30
0.0
  9
$UCSYDIR
 10
0.0
 20
1.0
 30
0.0
  9
$UCSORTHOREF
  2

  9
$UCSORTHOVIEW
 70
     0
  9
$UCSORGTOP
 10
0.0
 20
0.0
 30
0.0
  9
$UCSORGBOTTOM
 10
0.0
 20
0.0
 30
0.0
  9
$UCSORGLEFT
 10
0.0
 20
0.0
 30
0.0
  9
$UCSORGRIGHT
 10
0.0
 20
0.0
 30
0.0
  9
$UCSORGFRONT
 10
0.0
 20
0.0
 30
0.0
  9
$UCSORGBACK
 10
0.0
 20
0.0
 30
0.0
  9
$PUCSBASE
  2

  9
$PUCSNAME
  2

  9
$PUCSORG
 10
0.0
 20
0.0
 30
0.0
  9
$PUCSXDIR
 10
1.0
 20
0.0
 30
0.0
  9
$PUCSYDIR
 10
0.0
 20
1.0
 30
0.0
  9
$PUCSORTHOREF
  2

  9
$PUCSORTHOVIEW
 70
     0
  9
$PUCSORGTOP
 10
0.0
 20
0.0
 30
0.0
  9
$PUCSORGBOTTOM
 10
0.0
 20
0.0
 30
0.0
  9
$PUCSORGLEFT
 10
0.0
 20
0.0
 30
0.0
  9
$PUCSORGRIGHT
 10
0.0
 20
0.0
 30
0.0
  9
$PUCSORGFRONT
 10
0.0
 20
0.0
 30
0.0
  9
$PUCSORGBACK
 10
0.0
 20
0.0
 30
0.0
  9
$USERI1
 70
     0
  9
$USERI2
 70
     0
  9
$USERI3
 70
     0
  9
$USERI4
 70
     0
  9
$USERI5
 70
     0
  9
$USERR1
 40
0.0
  9
$USERR2
 40
0.0
  9
$USERR3
 40
0.0
  9
$USERR4
 40
0.0
  9
$USERR5
 40
0.0
  9
$WORLDVIEW
 70
     1
  9
$SHADEDGE
 70
     3
  9
$SHADEDIF
 70
    70
  9
$TILEMODE
 70
     1
  9
$MAXACTVP
 70
    64
  9
$PINSBASE
 10
0.0
 20
0.0
 30
0.0
  9
$PLIMCHECK
 70
     0
  9
$PEXTMIN
 10
1.0000000000E+20
 20
1.0000000000E+20
 30
1.0000000000E+20
  9
$PEXTMAX
 10
-1.0000000000E+20
 20
-1.0000000000E+20
 30
-1.0000000000E+20
  9
$PLIMMIN
 10
0.0
 20
0.0
  9
$PLIMMAX
 10
420.0
 20
297.0
  9
$UNITMODE
 70
     0
  9
$VISRETAIN
 70
     1
  9
$PLINEGEN
 70
     0
  9
$PSLTSCALE
 70
     1
  9
$TREEDEPTH
 70
  3020
  9
$CMLSTYLE
  2
Standard
  9
$CMLJUST
 70
     0
  9
$CMLSCALE
 40
20.0
  9
$PROXYGRAPHICS
 70
     1
  9
$MEASUREMENT
 70
     1
  9
$CELWEIGHT
370
    -1
  9
$ENDCAPS
280
     0
  9
$JOINSTYLE
280
     0
  9
$LWDISPLAY
290
     1
  9
$INSUNITS
 70
     4
  9
$HYPERLINKBASE
  1

  9
$STYLESHEET
  1

  9
$XEDIT
290
     1
  9
$CEPSNTYPE
380
     0
  9
$PSTYLEMODE
290
     1
  9
$FINGERPRINTGUID
  2
{db3638ea-9c41-4221-a216-fc02458d84ec}
  9
$VERSIONGUID
  2
{FAEB1C32-E019-11D5-929B-00C0DF256EC4}
  9
$EXTNAMES
290
     1
  9
$PSVPSCALE
 40
0.0
  9
$OLESTARTUP
290
     0
  0
ENDSEC
  0
SECTION
  2
CLASSES
  0
CLASS
  1
ACDBDICTIONARYWDFLT
  2
AcDbDictionaryWithDefault
  3
ObjectDBX Classes
 90
        0
280
     0
281
     0
  0
CLASS
  1
VISUALSTYLE
  2
AcDbVisualStyle
  3
ObjectDBX Classes
 90
     4095
280
     0
281
     0
  0
CLASS
  1
MATERIAL
  2
AcDbMaterial
  3
ObjectDBX Classes
 90
     1153
280
     0
281
     0
  0
CLASS
  1
SCALE
  2
AcDbScale
  3
ObjectDBX Classes
 90
     1153
280
     0
281
     0
  0
CLASS
  1
TABLESTYLE
  2
AcDbTableStyle
  3
ObjectDBX Classes
 90
     4095
280
     0
281
     0
  0
CLASS
  1
MLEADERSTYLE
  2
AcDbMLeaderStyle
  3
ACDB_MLEADERSTYLE_CLASS
 90
     4095
280
     0
281
     0
  0
CLASS
  1
SUN
  2
AcDbSun
  3
SCENEOE
 90
     1153
280
     0
281
     0
  0
CLASS
  1
ACDBPLACEHOLDER
  2
AcDbPlaceHolder
  3
ObjectDBX Classes
 90
        0
280
     0
281
     0
  0
CLASS
  1
LAYOUT
  2
AcDbLayout
  3
ObjectDBX Classes
 90
        0
280
     0
281
     0
  0
ENDSEC
  0
SECTION
  2
TABLES
  0
TABLE
  2
VPORT
  5
8
330
0
100
AcDbSymbolTable
 70
     1
  0
VPORT
  5
29
330
8
100
AcDbSymbolTableRecord
100
AcDbViewportTableRecord
  2
*Active
 70
     0
 10
0.0
 20
0.0
 11
1.0
 21
1.0
 12
105.0
 22
148.5
 13
0.0
 23
0.0
 14
10.0
 24
10.0
 15
10.0
 25
10.0
 16
0.0
 26
0.0
 36
1.0
 17
0.0
 27
0.0
 37
0.0
 40
297.0
 41
0.7070707071
 42
50.0
 43
0.0
 44
0.0
 50
0.0
 51
0.0
 71
     0
 72
  2000
 73
     1
 74
     3
 75
     0
 76
     0
 77
     0
 78
     0
281
     0
 65
     1
110
0.0
120
0.0
130
0.0
111
1.0
121
0.0
131
0.0
112
0.0
122
1.0
132
0.0
 79
     0
146
0.0
  0
ENDTAB
  0
TABLE
  2
LTYPE
  5
5
330
0
100
AcDbSymbolTable
 70
     8
  0
LTYPE
  5
14
330
5
100
AcDbSymbolTableRecord
100
AcDbLinetypeTableRecord
  2
ByBlock
 70
     0
  3

 72
    65
 73
     0
 40
0.0
  0
LTYPE
  5
15
330
5
100
AcDbSymbolTableRecord
100
AcDbLinetypeTableRecord
  2
ByLayer
 70
     0
  3

 72
    65
 73
     0
 40
0.0
  0
LTYPE
  5
16
330
5
100
AcDbSymbolTableRecord
100
AcDbLinetypeTableRecord
  2
Continuous
 70
     0
  3
Solid line
 72
    65
 73
     0
 40
0.0
  0
LTYPE
  5
6E
330
5
100
AcDbSymbolTableRecord
100
AcDbLinetypeTableRecord
  2
SLD-実線
 70
     0
  3
SolidWorks Line Style
 72
    65
 73
     0
 40
0.0
  0
LTYPE
  5
6F
330
5
100
AcDbSymbolTableRecord
100
AcDbLinetypeTableRecord
  2
SLD-破線
 70
     0
  3
SolidWorks Line Style
 72
    65
 73
     2
 40
1.905
 49
1.27
 74
     0
 49
-0.635
 74
     0
  0
LTYPE
  5
70
330
5
100
AcDbSymbolTableRecord
100
AcDbLinetypeTableRecord
  2
SLD-2点鎖線
 70
     0
  3
SolidWorks Line Style
 72
    65
 73
     6
 40
12.7
 49
6.35
 74
     0
 49
-1.27
 74
     0
 49
1.27
 74
     0
 49
-1.27
 74
     0
 49
1.27
 74
     0
 49
-1.27
 74
     0
  0
LTYPE
  5
71
330
5
100
AcDbSymbolTableRecord
100
AcDbLinetypeTableRecord
  2
SLD-鎖線
 70
     0
  3
SolidWorks Line Style
 72
    65
 73
     4
 40
10.16
 49
6.35
 74
     0
 49
-1.27
 74
     0
 49
1.27
 74
     0
 49
-1.27
 74
     0
  0
LTYPE
  5
72
330
5
100
AcDbSymbolTableRecord
100
AcDbLinetypeTableRecord
  2
SLD-1点鎖線(中心線)
 70
     0
  3
SolidWorks Line Style
 72
    65
 73
     4
 40
34.29
 49
30.48
 74
     0
 49
-1.27
 74
     0
 49
1.27
 74
     0
 49
-1.27
 74
     0
  0
LTYPE
  5
73
330
5
100
AcDbSymbolTableRecord
100
AcDbLinetypeTableRecord
  2
SLD-点線
 70
     0
  3
SolidWorks Line Style
 72
    65
 73
     2
 40
0.635
 49
0.0
 74
     0
 49
-0.635
 74
     0
  0
LTYPE
  5
74
330
5
100
AcDbSymbolTableRecord
100
AcDbLinetypeTableRecord
  2
SLD-細-太鎖線(切断面)
 70
     0
  3
SolidWorks Line Style
 72
    65
 73
     4
 40
10.16
 49
6.35
 74
     0
 49
-1.27
 74
     0
 49
1.27
 74
     0
 49
-1.27
 74
     0
  0
ENDTAB
  0
TABLE
  2
LAYER
  5
2
330
0
100
AcDbSymbolTable
 70
     1
  0
LAYER
  5
10
330
2
100
AcDbSymbolTableRecord
100
AcDbLayerTableRecord
  2
0
 70
     0
 62
     7
  6
Continuous
370
    -3
390
F
  0
ENDTAB
  0
TABLE
  2
STYLE
  5
3
330
0
100
AcDbSymbolTable
 70
     2
  0
STYLE
  5
11
330
3
100
AcDbSymbolTableRecord
100
AcDbTextStyleTableRecord
  2
STANDARD
 70
     0
 40
0.0
 41
1.0
 50
0.0
 71
     0
 42
3.5
  3
MSGOTHIC.TTC
  4

1001
ACAD
1000
ＭＳ Ｐゴシック
1071
    32818
  0
STYLE
  5
78
330
3
100
AcDbSymbolTableRecord
100
AcDbTextStyleTableRecord
  2
SLDTEXTSTYLE0
 70
     0
 40
0.0
 41
1.0
 50
0.0
 71
     0
 42
3.5
  3
MSGOTHIC.TTC
  4

1001
ACAD
1000
ＭＳ Ｐゴシック
1071
      306
  0
ENDTAB
  0
TABLE
  2
VIEW
  5
6
330
0
100
AcDbSymbolTable
 70
     0
  0
ENDTAB
  0
TABLE
  2
UCS
  5
7
330
0
100
AcDbSymbolTable
 70
     0
  0
ENDTAB
  0
TABLE
  2
APPID
  5
9
330
0
100
AcDbSymbolTable
 70
     1
  0
APPID
  5
12
330
9
100
AcDbSymbolTableRecord
100
AcDbRegAppTableRecord
  2
ACAD
 70
     0
  0
ENDTAB
  0
TABLE
  2
DIMSTYLE
  5
A
330
0
100
AcDbSymbolTable
 70
     1
100
AcDbDimStyleTable
  0
DIMSTYLE
105
27
330
A
100
AcDbSymbolTableRecord
100
AcDbDimStyleTableRecord
  2
ISO-25
 70
     0
 41
2.5
 42
0.625
 43
3.75
 44
1.25
 73
     0
 74
     0
 77
     1
 78
     8
140
2.5
141
2.5
143
0.0393700787
147
0.625
171
     3
172
     1
178
     0
271
     2
272
     2
274
     3
278
    44
283
     0
284
     8
340
11
  0
ENDTAB
  0
TABLE
  2
BLOCK_RECORD
  5
1
330
0
100
AcDbSymbolTable
 70
     2
  0
BLOCK_RECORD
  5
1F
330
1
100
AcDbSymbolTableRecord
100
AcDbBlockTableRecord
  2
*Model_Space
340
22
  0
BLOCK_RECORD
  5
1B
330
1
100
AcDbSymbolTableRecord
100
AcDbBlockTableRecord
  2
*Paper_Space
340
1E
  0
BLOCK_RECORD
  5
23
330
1
100
AcDbSymbolTableRecord
100
AcDbBlockTableRecord
  2
*Paper_Space0
340
26
  0
BLOCK_RECORD
  5
75
330
1
100
AcDbSymbolTableRecord
100
AcDbBlockTableRecord
  2
SW_NOTE_0
340
0
102
{BLKREFS
331
7B
102
}
  0
ENDTAB
  0
ENDSEC
  0
SECTION
  2
BLOCKS
  0
BLOCK
  5
20
330
1F
100
AcDbEntity
  8
0
100
AcDbBlockBegin
  2
*Model_Space
 70
     0
 10
0.0
 20
0.0
 30
0.0
  3
*Model_Space
  1

  0
ENDBLK
  5
21
330
1F
100
AcDbEntity
  8
0
100
AcDbBlockEnd
  0
BLOCK
  5
1C
330
1B
100
AcDbEntity
 67
     1
  8
0
100
AcDbBlockBegin
  2
*Paper_Space
 70
     0
 10
0.0
 20
0.0
 30
0.0
  3
*Paper_Space
  1

  0
ENDBLK
  5
1D
330
1B
100
AcDbEntity
 67
     1
  8
0
100
AcDbBlockEnd
  0
BLOCK
  5
24
330
23
100
AcDbEntity
  8
0
100
AcDbBlockBegin
  2
*Paper_Space0
 70
     0
 10
0.0
 20
0.0
 30
0.0
  3
*Paper_Space0
  1

  0
ENDBLK
  5
25
330
23
100
AcDbEntity
  8
0
100
AcDbBlockEnd
  0
BLOCK
  5
76
330
75
100
AcDbEntity
  8
0
100
AcDbBlockBegin
  2
SW_NOTE_0
 70
     0
 10
0.0
 20
0.0
 30
0.0
  3
SW_NOTE_0
  1

  0
MTEXT
  5
79
330
75
100
AcDbEntity
  8
0
  6
Continuous
 62
     0
370
     0
100
AcDbMText
 10
0.0
 20
4.0727272727
 30
0.0
 40
3.5
 41
0.0
 71
     1
 72
     1
  1
HEC-112S/C/K
  7
SLDTEXTSTYLE0
 73
     1
 44
1.0
  0
MTEXT
  5
7A
330
75
100
AcDbEntity
  8
0
  6
Continuous
 62
     0
370
     0
100
AcDbMText
 10
0.0
 20
-0.4272725336
 30
0.0
 40
3.5
 41
0.0
 71
     1
 72
     1
  1
HEC-114S/C/K
  7
SLDTEXTSTYLE0
 73
     1
 44
1.0
  0
ENDBLK
  5
77
330
75
100
AcDbEntity
  8
0
100
AcDbBlockEnd
  0
ENDSEC
  0
SECTION
  2
ENTITIES
  0
INSERT
  5
7B
330
1F
100
AcDbEntity
  8
0
  6
Continuous
 62
     7
370
     0
100
AcDbBlockReference
  2
SW_NOTE_0
 10
141.0036734694
 20
110.7238775119
 30
0.0
  0
LINE
  5
7C
330
1F
100
AcDbEntity
  8
0
  6
SLD-実線
 62
     7
370
    25
100
AcDbLine
 10
101.152404619
 20
208.9343255736
 30
0.0
 11
78.5601639342
 21
205.3739842862
 31
0.0
  0
LINE
  5
7D
330
1F
100
AcDbEntity
  8
0
  6
SLD-実線
 62
     7
370
    25
100
AcDbLine
 10
91.3251162412
 20
124.3736386536
 30
0.0
 11
113.917356926
 21
127.933979941
 31
0.0
  0
LINE
  5
7E
330
1F
100
AcDbEntity
  8
0
  6
SLD-実線
 62
     7
370
    25
100
AcDbLine
 10
82.749109232
 20
201.0567609716
 30
0.0
 11
79.7483395308
 21
200.5131915019
 31
0.0
  0
LINE
  5
7F
330
1F
100
AcDbEntity
  8
0
  6
SLD-実線
 62
     7
370
    25
100
AcDbLine
 10
90.9607938092
 20
129.364263555
 30
0.0
 11
93.9832989847
 21
129.7699099921
 31
0.0
  0
LINE
  5
80
330
1F
100
AcDbEntity
  8
0
  6
SLD-実線
 62
     7
370
    25
100
AcDbLine
 10
100.4190231318
 20
123.2509153471
 30
0.0
 11
100.5127273928
 21
120.2841047302
 31
0.0
  0
LINE
  5
81
330
1F
100
AcDbEntity
  8
0
  6
SLD-実線
 62
     7
370
    25
100
AcDbLine
 10
108.5087401357
 20
120.5366521833
 30
0.0
 11
108.4150358746
 21
123.5034628003
 31
0.0
  0
LINE
  5
82
330
1F
100
AcDbEntity
  8
0
  6
SLD-実線
 62
     7
370
    25
100
AcDbLine
 10
100.5585826293
 20
120.2004990559
 30
0.0
 11
101.5778551667
 21
119.2640320338
 31
0.0
  0
LINE
  5
83
330
1F
100
AcDbEntity
  8
0
  6
SLD-実線
 62
     7
370
    25
100
AcDbLine
 10
107.5101073926
 20
119.4513973169
 30
0.0
 11
108.4682522638
 21
120.4503194334
 31
0.0
  0
LINE
  5
84
330
1F
100
AcDbEntity
  8
0
  6
SLD-実線
 62
     7
370
    25
100
AcDbLine
 10
106.1977994345
 20
123.43343322
 30
0.0
 11
106.1254566037
 21
125.7239104749
 31
0.0
  0
LINE
  5
85
330
1F
100
AcDbEntity
  8
0
  6
SLD-実線
 62
     7
370
    25
100
AcDbLine
 10
102.563916741
 20
125.6114221822
 30
0.0
 11
102.6362595719
 21
123.3209449273
 31
0.0
  0
LWPOLYLINE
  5
86
330
1F
100
AcDbEntity
  8
0
  6
SLD-実線
 62
     7
370
    25
100
AcDbPolyline
 90
       67
 70
   128
 43
0.0
 10
110.90177149
 20
161.3586699368
 10
110.6669489752
 20
165.0877616031
 10
110.1991631355
 20
168.8149157039
 10
109.5026503121
 20
172.5063785545
 10
108.5837182329
 20
176.1287196956
 10
107.4506888891
 20
179.6491346449
 10
106.1138231699
 20
183.0357419796
 10
104.5852279383
 20
186.2578720591
 10
102.8787463894
 20
189.2863447745
 10
101.0098326843
 20
192.093733808
 10
98.995411995
 20
194.6546150096
 10
96.8537272271
 20
196.9457966427
 10
94.6041738097
 20
198.9465294116
 10
92.2671240468
 20
200.6386943706
 10
89.8637426229
 20
202.0069670116
 10
87.4157949323
 20
203.0389560459
 10
84.9454499686
 20
203.7253156209
 10
82.4750795581
 20
204.059829958
 10
80.0270557579
 20
204.0394696435
 10
77.6235482505
 20
203.6644190637
 10
75.2863235723
 20
202.9380747346
 10
73.0365479917
 20
201.867014543
 10
70.8945958248
 20
200.4609381758
 10
68.8798649222
 20
198.7325792784
 10
67.0106009989
 20
196.6975901366
 10
65.3037323984
 20
194.3743999271
 10
63.7747167871
 20
191.7840478203
 10
62.4374011671
 20
188.9499924459
 10
61.3038964758
 20
185.8978994483
 10
60.3844679072
 20
182.6554090543
 10
59.6874419488
 20
179.2518857591
 10
59.2191309757
 20
175.7181523966
 10
58.9837760844
 20
172.0862110033
 10
58.9835086854
 20
168.3889530031
 10
59.2183312002
 20
164.6598613367
 10
59.6861170398
 20
160.9327072359
 10
60.3826298632
 20
157.2412443854
 10
61.3015619424
 20
153.6189032443
 10
62.4345912862
 20
150.0984882949
 10
63.7714570054
 20
146.7118809603
 10
65.300052237
 20
143.4897508807
 10
67.006533786
 20
140.4612781653
 10
68.875447491
 20
137.6538891319
 10
70.8898681804
 20
135.0930079302
 10
73.0315529482
 20
132.8018262971
 10
75.2811063656
 20
130.8010935282
 10
77.6181561286
 20
129.1089285693
 10
80.0215375525
 20
127.7406559282
 10
82.469485243
 20
126.7086668939
 10
84.9398302068
 20
126.0223073189
 10
87.4102006172
 20
125.6877929819
 10
89.8582244175
 20
125.7081532963
 10
92.2617319248
 20
126.0832038762
 10
94.598956603
 20
126.8095482052
 10
96.8487321836
 20
127.8806083968
 10
98.9906843505
 20
129.286684764
 10
101.0054152531
 20
131.0150436614
 10
102.8746791764
 20
133.0500328032
 10
104.581547777
 20
135.3732230127
 10
106.1105633883
 20
137.9635751196
 10
107.4478790082
 20
140.7976304939
 10
108.5813836995
 20
143.8497234915
 10
109.5008122681
 20
147.0922138855
 10
110.1978382265
 20
150.4957371808
 10
110.6661491997
 20
154.0294705433
 10
110.9015040909
 20
157.6614119365
 10
110.90177149
 20
161.3586699368
  0
LWPOLYLINE
  5
87
330
1F
100
AcDbEntity
  8
0
  6
SLD-実線
 62
     7
370
    25
100
AcDbPolyline
 90
       68
 70
   128
 43
0.0
 10
111.8875612901
 20
161.2251835494
 10
111.6492451986
 20
165.038042079
 10
111.1762305012
 20
168.8494573442
 10
110.472674068
 20
172.6259344904
 10
109.5447587781
 20
176.3342857007
 10
108.4006391847
 20
179.9419218515
 10
107.0503698517
 20
183.4171389064
 10
105.5058169946
 20
186.7293965331
 10
103.7805541995
 20
189.8495864924
 10
101.8897431378
 20
192.7502884428
 10
99.8500003252
 20
195.4060109112
 10
97.6792510948
 20
197.793415313
 10
95.3965720689
 20
199.8915210527
 10
93.0220235129
 20
201.6818899014
 10
90.5764730448
 20
203.1487880334
 10
88.0814122502
 20
204.2793242951
 10
85.5587678129
 20
205.0635634933
 10
83.030708823
 20
205.4946137056
 10
80.5194519538
 20
205.5686868472
 10
78.047066221
 20
205.2851319609
 10
75.6352790392
 20
204.646440937
 10
73.305285281
 20
203.6582266153
 10
71.0775610153
 20
202.3291734587
 10
68.971683563
 20
200.6709612343
 10
67.0061594509
 20
198.6981623706
 10
65.1982617755
 20
196.4281138949
 10
63.5638784067
 20
193.880765075
 10
62.1173723643
 20
191.0785021038
 10
60.8714555953
 20
188.0459513692
 10
59.8370772611
 20
184.8097630359
 10
59.0233275158
 20
181.3983768434
 10
58.4373576213
 20
177.8417721762
 10
58.0843171021
 20
174.1712046041
 10
57.9673084911
 20
170.4189312068
 10
58.0873600641
 20
166.6179270979
 10
58.4434168035
 20
162.8015956382
 10
59.0323496699
 20
159.0034748856
 10
59.8489831002
 20
155.2569428621
 10
60.8861404904
 20
151.5949242257
 10
62.134707264
 20
148.0496009278
 10
63.5837109713
 20
144.6521293971
 10
65.2204177157
 20
141.4323667356
 10
67.0304440595
 20
138.4186083332
 10
68.997883426
 20
135.6373392073
 10
71.1054458873
 20
133.1130012508
 10
73.3346101089
 20
130.8677784365
 10
75.6657861152
 20
128.9214018633
 10
78.0784874478
 20
127.2909763584
 10
80.5515112007
 20
125.9908301597
 10
83.063124352
 20
125.032388999
 10
85.5912547553
 20
124.4240756914
 10
88.1136851095
 20
124.1712361163
 10
90.608248206
 20
124.2760922369
 10
93.0530217347
 20
124.7377225739
 10
95.4265209379
 20
125.5520703032
 10
97.7078874192
 20
126.7119789077
 10
99.8770724479
 20
128.207255069
 10
101.9150131481
 20
130.0247582463
 10
103.8038000236
 20
132.1485161564
 10
105.5268343473
 20
134.5598651383
 10
107.0689740318
 20
137.2376141706
 10
108.416666698
 20
140.1582310985
 10
109.5580687744
 20
143.2960494354
 10
110.4831495783
 20
146.6234939208
 10
111.1837794665
 20
150.1113228531
 10
111.6538012783
 20
153.7288850662
 10
111.8890844451
 20
157.4443892932
 10
111.8875612901
 20
161.2251835494
  0
LWPOLYLINE
  5
88
330
1F
100
AcDbEntity
  8
0
  6
SLD-実線
 62
     7
370
    25
100
AcDbPolyline
 90
       35
 70
   128
 43
0.0
 10
113.917356926
 20
127.933979941
 10
116.3404253689
 20
128.4977290522
 10
118.6863976558
 20
129.4115491168
 10
120.9346228784
 20
130.6674163652
 10
123.0653945325
 20
132.2543226686
 10
125.0600356366
 20
134.1583582211
 10
126.9010624426
 20
136.3628334652
 10
128.5723376871
 20
138.8484253806
 10
130.0592120402
 20
141.5933468587
 10
131.3486525124
 20
144.5735376734
 10
132.4293566933
 20
147.7628753781
 10
133.2918518212
 20
151.1334042787
 10
133.9285778156
 20
154.6555804745
 10
134.3339535437
 20
158.2985308219
 10
134.504425741
 20
162.0303235482
 10
134.4385001574
 20
165.8182481454
 10
134.1367546544
 20
169.6291020892
 10
133.6018341399
 20
173.4294818715
 10
132.8384273852
 20
177.1860757939
 10
131.8532259255
 20
180.8659559568
 10
130.6548654067
 20
184.4368668845
 10
129.2538498906
 20
187.8675082559
 10
127.6624597831
 20
191.1278092628
 10
125.8946441919
 20
194.1891921922
 10
123.9658986579
 20
197.0248229193
 10
121.8931293307
 20
199.6098461189
 10
119.6945047804
 20
201.9216031311
 10
117.3892967436
 20
203.9398305725
 10
114.9977111995
 20
205.6468379523
 10
112.5407112573
 20
207.0276627357
 10
110.0398334068
 20
208.0702014957
 10
107.5169987438
 20
208.7653160045
 10
104.9943208232
 20
209.1069133328
 10
102.4939118261
 20
209.0919992571
 10
101.152404619
 20
208.9343255736
  0
ARC
  5
89
330
1F
100
AcDbEntity
  8
0
  6
SLD-実線
 62
     7
370
    25
100
AcDbCircle
 10
105.6968196825
 20
164.2797859252
 30
0.0
 40
44.72741815496843
100
AcDbArc
 50
200.6200032272
 51
224.509376403
  0
LINE
  5
8A
330
1F
100
AcDbEntity
  8
0
  6
SLD-実線
 62
     7
370
    25
100
AcDbLine
 10
76.8743085181
 20
133.41627702
 30
0.0
 11
73.8000993979
 21
132.9247038826
 31
0.0
  0
LWPOLYLINE
  5
8B
330
1F
100
AcDbEntity
  8
0
  6
SLD-実線
 62
     7
370
    25
100
AcDbPolyline
 90
        8
 70
   128
 43
0.0
 10
76.8743085181
 20
133.41627702
 10
79.1114567961
 20
131.4347075327
 10
81.4347799825
 20
129.7587421436
 10
83.8234151608
 20
128.4034306426
 10
86.2559129274
 20
127.3809434204
 10
88.7104300027
 20
126.7004621809
 10
91.1649253787
 20
126.3680974918
 10
93.323418227
 20
126.3670429125
  0
ARC
  5
8C
330
1F
100
AcDbEntity
  8
0
  6
SLD-実線
 62
     7
370
    25
100
AcDbCircle
 10
85.5717956443
 20
186.7845997043
 30
0.0
 40
17.88188733625937
100
AcDbArc
 50
104.5657111296
 51
127.2848046351
  0
LINE
  5
8D
330
1F
100
AcDbEntity
  8
0
  6
SLD-実線
 62
     7
370
    25
100
AcDbLine
 10
74.73935221
 20
201.0120402314
 30
0.0
 11
71.6635416008
 21
200.5711725225
 31
0.0
  0
ARC
  5
8E
330
1F
100
AcDbEntity
  8
0
  6
SLD-実線
 62
     7
370
    25
100
AcDbCircle
 10
89.5437560436
 20
178.4697976031
 30
0.0
 40
28.42838092207494
100
AcDbArc
 50
128.9731755362
 51
161.3856470832
  0
LWPOLYLINE
  5
8F
330
1F
100
AcDbEntity
  8
0
  6
SLD-実線
 62
     7
370
    25
100
AcDbPolyline
 90
        3
 70
   128
 43
0.0
 10
85.4020550217
 20
201.2993325106
 10
85.4475080911
 20
201.3434962225
 10
87.4178053783
 20
203.0382535203
  0
LWPOLYLINE
  5
90
330
1F
100
AcDbEntity
  8
0
  6
SLD-実線
 62
     7
370
    25
100
AcDbPolyline
 90
        3
 70
   128
 43
0.0
 10
99.0351179659
 20
129.3202863637
 10
96.5891807214
 20
130.3515728723
 10
96.5822676763
 20
130.3549946483
  0
LWPOLYLINE
  5
91
330
1F
100
AcDbEntity
  8
0
  6
SLD-実線
 62
     7
370
    25
100
AcDbPolyline
 90
       57
 70
   128
 43
0.0
 10
67.2943051755
 20
167.4842354097
 10
67.3120882575
 20
170.5688902011
 10
67.5610561093
 20
173.5834185184
 10
68.0380778159
 20
176.4899109188
 10
68.7371545525
 20
179.2518165741
 10
69.6494950234
 20
181.8344029182
 10
70.7636260181
 20
184.2051924293
 10
72.0655366926
 20
186.3343710537
 10
73.538854765
 20
188.1951631349
 10
75.1650524056
 20
189.7641681328
 10
76.9236792356
 20
191.0216548992
 10
78.7926195021
 20
191.9518098084
 10
80.7483701971
 20
192.5429356227
 10
82.7663366206
 20
192.787598592
 10
84.8211416741
 20
192.6827219376
 10
86.8869449918
 20
192.2296245441
 10
88.9377678984
 20
191.4340043743
 10
90.9478201059
 20
190.3058668134
 10
92.8918240416
 20
188.8593988458
 10
94.745332728
 20
187.1127906454
 10
96.4850372179
 20
185.0880068238
 10
98.089059718
 20
182.8105102123
 10
99.5372287148
 20
180.3089416522
 10
100.8113326427
 20
177.6147598197
 10
101.8953489057
 20
174.7618456145
 10
102.7756453702
 20
171.7860760879
 10
103.4411517976
 20
168.7248732685
 10
103.8834990582
 20
165.6167335577
 10
104.0971243788
 20
162.5007436159
 10
104.0793412968
 20
159.4160888245
 10
103.830373445
 20
156.4015605072
 10
103.3533517384
 20
153.4950681068
 10
102.6542750018
 20
150.7331624515
 10
101.7419345309
 20
148.1505761075
 10
100.6278035363
 20
145.7797865964
 10
99.3258928617
 20
143.650607972
 10
97.8525747893
 20
141.7898158908
 10
96.2263771487
 20
140.2208108929
 10
94.4677503187
 20
138.9633241265
 10
92.5988100522
 20
138.0331692173
 10
90.6430593573
 20
137.442043403
 10
88.6250929337
 20
137.1973804337
 10
86.5702878802
 20
137.3022570881
 10
84.5044845625
 20
137.7553544815
 10
82.4536616559
 20
138.5509746513
 10
80.4436094484
 20
139.6791122122
 10
78.4996055127
 20
141.1255801798
 10
76.6460968264
 20
142.8721883802
 10
74.9063923364
 20
144.8969722019
 10
73.3023698363
 20
147.1744688134
 10
71.8542008396
 20
149.6760373734
 10
70.5800969116
 20
152.3702192059
 10
69.4960806487
 20
155.2231334112
 10
68.6157841841
 20
158.1989029377
 10
67.9502777567
 20
161.2601057572
 10
67.5079304961
 20
164.3682454679
 10
67.2943051755
 20
167.4842354097
  0
LINE
  5
92
330
1F
100
AcDbEntity
  8
0
  6
SLD-実線
 62
     7
370
    25
100
AcDbLine
 10
71.6635416008
 20
200.5711725225
 30
0.0
 11
72.8958894764
 21
197.4493344095
 31
0.0
  0
LWPOLYLINE
  5
93
330
1F
100
AcDbEntity
  8
0
  6
SLD-実線
 62
     7
370
    25
100
AcDbPolyline
 90
       11
 70
   128
 43
0.0
 10
72.8958894764
 20
197.4493344095
 10
75.0485567244
 20
198.840217646
 10
77.3176608206
 20
199.8609436292
 10
79.6783869432
 20
200.500349745
 10
82.1049182961
 20
200.7514434763
 10
84.57071844
 20
200.6114788734
 10
87.0488214939
 20
200.0819865828
 10
89.5121270328
 20
199.1687571089
 10
91.9336964566
 20
197.8817774885
 10
94.2870475895
 20
196.2351220738
 10
96.5464442878
 20
194.2467986154
  0
LINE
  5
94
330
1F
100
AcDbEntity
  8
0
  6
SLD-実線
 62
     7
370
    25
100
AcDbLine
 10
96.5464442878
 20
194.2467986154
 30
0.0
 11
97.3607976955
 21
196.4395397239
 31
0.0
  0
LINE
  5
95
330
1F
100
AcDbEntity
  8
0
  6
SLD-実線
 62
     7
370
    25
100
AcDbLine
 10
106.9487429257
 20
180.9983802396
 30
0.0
 11
105.6386128159
 21
180.0104487692
 31
0.0
  0
ARC
  5
96
330
1F
100
AcDbEntity
  8
0
  6
SLD-実線
 62
     7
370
    25
100
AcDbCircle
 10
58.0225593649
 20
160.6942406591
 30
0.0
 40
51.38486588485949
100
AcDbArc
 50
341.5373611351
 51
22.0807157751
  0
LINE
  5
97
330
1F
100
AcDbEntity
  8
0
  6
SLD-実線
 62
     7
370
    25
100
AcDbLine
 10
106.7626646989
 20
144.4213621786
 30
0.0
 11
108.2743333311
 21
142.9438854168
 31
0.0
  0
LINE
  5
98
330
1F
100
AcDbEntity
  8
0
  6
SLD-実線
 62
     7
370
    25
100
AcDbLine
 10
99.5920420095
 20
129.7579374535
 30
0.0
 11
98.4955400779
 21
132.5356446162
 31
0.0
  0
LWPOLYLINE
  5
99
330
1F
100
AcDbEntity
  8
0
  6
SLD-実線
 62
     7
370
    25
100
AcDbPolyline
 90
       11
 70
   128
 43
0.0
 10
98.4955400779
 20
132.5356446162
 10
96.3428728299
 20
131.1447613796
 10
94.0737687337
 20
130.1240353964
 10
91.7130426111
 20
129.4846292807
 10
89.2865112582
 20
129.2335355493
 10
86.8207111143
 20
129.3735001523
 10
84.3426080604
 20
129.9029924428
 10
81.8793025215
 20
130.8162219168
 10
79.4577330977
 20
132.1032015371
 10
77.1043819648
 20
133.7498569518
 10
74.8449852665
 20
135.7381804103
  0
LINE
  5
9A
330
1F
100
AcDbEntity
  8
0
  6
SLD-実線
 62
     7
370
    25
100
AcDbLine
 10
74.8449852665
 20
135.7381804103
 30
0.0
 11
73.8000993979
 21
132.9247038826
 31
0.0
  0
LINE
  5
9B
330
1F
100
AcDbEntity
  8
0
  6
SLD-実線
 62
     7
370
    25
100
AcDbLine
 10
63.8347900856
 20
148.5282014702
 30
0.0
 11
65.7528167384
 21
149.9745302565
 31
0.0
  0
ARC
  5
9C
330
1F
100
AcDbEntity
  8
0
  6
SLD-実線
 62
     7
370
    25
100
AcDbCircle
 10
113.3688701894
 20
169.2907383666
 30
0.0
 40
51.38486588485991
100
AcDbArc
 50
161.5373611351
 51
202.0807157751
  0
LINE
  5
9D
330
1F
100
AcDbEntity
  8
0
  6
SLD-実線
 62
     7
370
    25
100
AcDbLine
 10
64.6287648555
 20
185.5636168471
 30
0.0
 11
62.6025069625
 21
187.5440435664
 31
0.0
  0
LINE
  5
9E
330
1F
100
AcDbEntity
  8
0
  6
SLD-実線
 62
     7
370
    25
100
AcDbLine
 10
108.8539485409
 20
144.7557609264
 30
0.0
 11
106.7626646989
 21
144.4213621786
 31
0.0
  0
LINE
  5
9F
330
1F
100
AcDbEntity
  8
0
  6
SLD-実線
 62
     7
370
    25
100
AcDbLine
 10
107.125053985
 20
180.2235322003
 30
0.0
 11
105.6386128159
 21
180.0104487692
 31
0.0
  0
LWPOLYLINE
  5
A0
330
1F
100
AcDbEntity
  8
0
  6
SLD-実線
 62
     7
370
    25
100
AcDbPolyline
 90
       13
 70
   128
 43
0.0
 10
68.8004545545
 20
167.7215914956
 10
68.8182376365
 20
170.806246287
 10
69.0672054883
 20
173.8207746042
 10
69.5442271949
 20
176.7272670047
 10
70.2433039315
 20
179.48917266
 10
71.1556444024
 20
182.071759004
 10
72.2697753971
 20
184.4425485151
 10
73.5716860716
 20
186.5717271395
 10
75.045004144
 20
188.4325192207
 10
76.6712017846
 20
190.0015242186
 10
78.4298286146
 20
191.259010985
 10
80.2987688811
 20
192.1891658942
 10
82.0938848368
 20
192.745331141
  0
LWPOLYLINE
  5
A1
330
1F
100
AcDbEntity
  8
0
  6
SLD-実線
 62
     7
370
    25
100
AcDbPolyline
 90
       17
 70
   128
 43
0.0
 10
90.8036940962
 20
137.4770039705
 10
90.1312423127
 20
137.4347365195
 10
88.0764372592
 20
137.5396131739
 10
86.0106339415
 20
137.9927105674
 10
83.9598110349
 20
138.7883307371
 10
81.9497588274
 20
139.9164682981
 10
80.0057548917
 20
141.3629362657
 10
78.1522462053
 20
143.1095444661
 10
76.4125417154
 20
145.1343282877
 10
74.8085192153
 20
147.4118248992
 10
73.3603502185
 20
149.9133934593
 10
72.0862462906
 20
152.6075752918
 10
71.0022300276
 20
155.460489497
 10
70.1219335631
 20
158.4362590236
 10
69.4564271357
 20
161.497461843
 10
69.0140798751
 20
164.6056015538
 10
68.8004545545
 20
167.7215914956
  0
LINE
  5
A2
330
1F
100
AcDbEntity
  8
0
  6
SLD-実線
 62
     7
370
    25
100
AcDbLine
 10
86.1444634124
 20
201.7099412404
 30
0.0
 11
87.4562488368
 21
201.1088147383
 31
0.0
  0
LWPOLYLINE
  5
A3
330
1F
100
AcDbEntity
  8
0
  6
SLD-実線
 62
     7
370
    25
100
AcDbPolyline
 90
        3
 70
   128
 43
0.0
 10
99.225269853
 20
129.466255513
 10
97.949487901
 20
129.957914752
 10
96.8696005469
 20
130.4497866654
  0
LINE
  5
A4
330
1F
100
AcDbEntity
  8
0
  6
SLD-実線
 62
     7
370
    25
100
AcDbLine
 10
86.1444634124
 20
201.7099412404
 30
0.0
 11
87.6436333395
 21
202.957839189
 31
0.0
  0
LINE
  5
A5
330
1F
100
AcDbEntity
  8
0
  6
SLD-実線
 62
     7
370
    25
100
AcDbLine
 10
90.7394095557
 20
201.5502598956
 30
0.0
 11
89.9400151901
 21
200.6603603321
 31
0.0
  0
LINE
  5
A6
330
1F
100
AcDbEntity
  8
0
  6
SLD-実線
 62
     7
370
    25
100
AcDbLine
 10
88.2046292822
 20
202.0602948053
 30
0.0
 11
86.1444634124
 21
201.7099412404
 31
0.0
  0
ARC
  5
A7
330
1F
100
AcDbEntity
  8
0
  6
SLD-実線
 62
     7
370
    25
100
AcDbCircle
 10
85.3447917706
 20
183.2832114907
 30
0.0
 40
17.96208865887004
100
AcDbArc
 50
53.446935497
 51
98.3088445042
  0
ARC
  5
A8
330
1F
100
AcDbEntity
  8
0
  6
SLD-実線
 62
     7
370
    25
100
AcDbCircle
 10
91.9096492319
 20
145.0622649633
 30
0.0
 40
15.43230844234937
100
AcDbArc
 50
277.7222308475
 51
297.2179454775
  0
LINE
  5
A9
330
1F
100
AcDbEntity
  8
0
  6
SLD-実線
 62
     7
370
    25
100
AcDbLine
 10
74.73935221
 20
201.0120402314
 30
0.0
 11
75.5025081383
 21
199.0787798994
 31
0.0
  0
ARC
  5
AA
330
1F
100
AcDbEntity
  8
0
  6
SLD-実線
 62
     7
370
    25
100
AcDbCircle
 10
103.8446829562
 20
144.220550738
 30
0.0
 40
18.6512969677679
100
AcDbArc
 50
260.1537672338
 51
279.6060091101
  0
LINE
  5
AB
330
1F
100
AcDbEntity
  8
0
  6
SLD-実線
 62
     7
370
    25
100
AcDbLine
 10
106.9570650904
 20
125.8307721632
 30
0.0
 11
111.4755132274
 21
126.5428404207
 31
0.0
  0
LINE
  5
AC
330
1F
100
AcDbEntity
  8
0
  6
SLD-実線
 62
     7
370
    25
100
AcDbLine
 10
111.4438866664
 20
127.5441824698
 30
0.0
 11
111.4755132274
 21
126.5428404207
 31
0.0
  0
LINE
  5
AD
330
1F
100
AcDbEntity
  8
0
  6
SLD-実線
 62
     7
370
    25
100
AcDbLine
 10
77.0223119226
 20
133.8147933719
 30
0.0
 11
76.8743085181
 21
133.41627702
 31
0.0
  0
LINE
  5
AE
330
1F
100
AcDbEntity
  8
0
  6
SLD-実線
 62
     7
370
    25
100
AcDbLine
 10
88.7188193255
 20
200.9603055134
 30
0.0
 11
88.2046292822
 21
202.0602948053
 31
0.0
  0
LINE
  5
AF
330
1F
100
AcDbEntity
  8
0
  6
SLD-実線
 62
     7
370
    25
100
AcDbLine
 10
101.9043307805
 20
123.7508914749
 30
0.0
 11
102.6198651897
 21
123.8400144615
 31
0.0
  0
LWPOLYLINE
  5
B0
330
1F
100
AcDbEntity
  8
0
  6
SLD-実線
 62
     7
370
    25
100
AcDbPolyline
 90
       20
 70
   128
 43
0.0
 10
106.1814050523
 20
123.9525027542
 10
106.3938507013
 20
123.9427369069
 10
107.3303403139
 20
123.864704949
 10
108.0079694761
 20
123.7433550661
 10
108.3665278632
 20
123.5894697278
 10
108.3741559888
 20
123.4167223219
 10
108.0301760607
 20
123.2404622134
 10
107.3651522049
 20
123.0763508864
 10
106.4381747095
 20
122.9389703526
 10
105.3316095928
 20
122.8405274753
 10
104.1437800216
 20
122.789769336
 10
102.9802298659
 20
122.7912060183
 10
101.9443456633
 20
122.8447098666
 10
101.1281702711
 20
122.9455268292
 10
100.6042244546
 20
123.0846988766
 10
100.4190630989
 20
123.2498599615
 10
100.589138603
 20
123.4263347968
 10
101.099339012
 20
123.598442819
 10
101.9043307805
 20
123.7508914749
 10
101.9043307805
 20
123.7508914749
  0
LWPOLYLINE
  5
B1
330
1F
100
AcDbEntity
  8
0
  6
SLD-実線
 62
     7
370
    25
100
AcDbPolyline
 90
       13
 70
   128
 43
0.0
 10
100.5127273928
 20
120.2841047302
 10
100.5127673599
 20
120.2830493446
 10
100.6979287157
 20
120.1178882596
 10
101.2218745322
 20
119.9787162123
 10
102.0380499244
 20
119.8778992497
 10
103.073934127
 20
119.8243954014
 10
104.2374842826
 20
119.8229587191
 10
105.4253138538
 20
119.8737168583
 10
106.5318789705
 20
119.9721597357
 10
107.458856466
 20
120.1095402695
 10
108.1238803218
 20
120.2736515965
 10
108.4678602499
 20
120.449911705
 10
108.5087401357
 20
120.5366521833
  0
LWPOLYLINE
  5
B2
330
1F
100
AcDbEntity
  8
0
  6
SLD-実線
 62
     7
370
    25
100
AcDbPolyline
 90
       10
 70
   128
 43
0.0
 10
102.6362595719
 20
123.3209449273
 10
102.7090294094
 20
123.251232175
 10
103.0318881931
 20
123.1719074422
 10
103.5656221849
 20
123.1238349769
 10
104.2289752229
 20
123.1143333762
 10
104.9209578204
 20
123.1448491726
 10
105.5362218996
 20
123.2107366128
 10
105.9810990821
 20
123.3019649312
 10
106.1878608495
 20
123.4046454435
 10
106.1977994345
 20
123.43343322
  0
LWPOLYLINE
  5
B3
330
1F
100
AcDbEntity
  8
0
  6
SLD-実線
 62
     7
370
    25
100
AcDbPolyline
 90
       11
 70
   128
 43
0.0
 10
107.5101073926
 20
119.4513973169
 10
107.4847940165
 20
119.4289219875
 10
107.1105475584
 20
119.2762896529
 10
106.4264925599
 20
119.1411647835
 10
105.5151361493
 20
119.0398454328
 10
104.48640136
 20
118.9845522096
 10
103.46436879
 20
118.9819542929
 10
102.5723106508
 20
119.0323650297
 10
101.9178223195
 20
119.1297041411
 10
101.579844748
 20
119.2622310938
 10
101.5778551667
 20
119.2640320338
  0
LINE
  5
B4
330
1F
100
AcDbEntity
  8
0
  6
SLD-実線
 62
     8
370
    25
100
AcDbLine
 10
106.9254385295
 20
126.8321142123
 30
0.0
 11
106.9570650904
 21
125.8307721632
 31
0.0
  0
ENDSEC
  0
SECTION
  2
OBJECTS
  0
DICTIONARY
  5
C
330
0
100
AcDbDictionary
281
     1
  3
ACAD_GROUP
350
D
  3
ACAD_LAYOUT
350
1A
  3
ACAD_MLINESTYLE
350
17
  3
ACAD_PLOTSETTINGS
350
19
  3
ACAD_PLOTSTYLENAME
350
E
  3
ACAD_SCALELIST
350
47
  3
DWGPROPS
350
B5
  0
DICTIONARY
  5
D
102
{ACAD_REACTORS
330
C
102
}
330
C
100
AcDbDictionary
281
     1
  0
DICTIONARY
  5
1A
102
{ACAD_REACTORS
330
C
102
}
330
C
100
AcDbDictionary
281
     1
  3
Layout1
350
1E
  3
Layout2
350
26
  3
Model
350
22
  0
DICTIONARY
  5
17
102
{ACAD_REACTORS
330
C
102
}
330
C
100
AcDbDictionary
281
     1
  3
Standard
350
18
  0
DICTIONARY
  5
19
102
{ACAD_REACTORS
330
C
102
}
330
C
100
AcDbDictionary
281
     1
  0
ACDBDICTIONARYWDFLT
  5
E
102
{ACAD_REACTORS
330
C
102
}
330
C
100
AcDbDictionary
281
     1
  3
Normal
350
F
100
AcDbDictionaryWithDefault
340
F
  0
DICTIONARY
  5
47
102
{ACAD_REACTORS
330
C
102
}
330
C
100
AcDbDictionary
281
     1
  3
A0
350
48
  3
A1
350
49
  3
A2
350
4A
  3
A3
350
4B
  3
A4
350
4C
  3
A5
350
4D
  3
A6
350
4E
  3
A7
350
4F
  3
A8
350
50
  3
A9
350
51
  3
B0
350
52
  3
B1
350
53
  3
B2
350
54
  3
B3
350
55
  3
B4
350
56
  3
B5
350
57
  3
B6
350
58
  3
B7
350
59
  3
B8
350
5A
  3
B9
350
5B
  3
C0
350
5C
  3
C1
350
5D
  3
C2
350
5E
  3
C3
350
5F
  3
C4
350
60
  3
C5
350
61
  3
C6
350
62
  3
C7
350
63
  3
C8
350
64
  3
C9
350
65
  3
D0
350
66
  3
D1
350
67
  3
D2
350
68
  0
XRECORD
  5
B5
102
{ACAD_REACTORS
330
C
102
}
330
C
100
AcDbXrecord
280
     1
  1
DWGPROPS COOKIE
  2

  3

  4

  6

  7

  8
9176
  9

300
=
301
=
302
=
303
=
304
=
305
=
306
=
307
=
308
=
309
=
 40
0.0
 41
2459669.224162488
 42
2459669.224162766
  1

 90
        0
  0
LAYOUT
  5
1E
102
{ACAD_REACTORS
330
1A
102
}
330
1A
100
AcDbPlotSettings
  1

  2
none_device
  4

  6

 40
0.0
 41
0.0
 42
0.0
 43
0.0
 44
0.0
 45
0.0
 46
0.0
 47
0.0
 48
0.0
 49
0.0
140
0.0
141
0.0
142
1.0
143
1.0
 70
   688
 72
     1
 73
     0
 74
     5
  7

 75
    16
147
1.0
148
0.0
149
0.0
100
AcDbLayout
  1
Layout1
 70
     1
 71
     1
 10
0.0
 20
0.0
 11
420.0
 21
297.0
 12
0.0
 22
0.0
 32
0.0
 14
1.0000000000E+20
 24
1.0000000000E+20
 34
1.0000000000E+20
 15
-1.0000000000E+20
 25
-1.0000000000E+20
 35
-1.0000000000E+20
146
0.0
 13
0.0
 23
0.0
 33
0.0
 16
1.0
 26
0.0
 36
0.0
 17
0.0
 27
1.0
 37
0.0
 76
     0
330
1B
  0
LAYOUT
  5
26
102
{ACAD_REACTORS
330
1A
102
}
330
1A
100
AcDbPlotSettings
  1

  2
none_device
  4

  6

 40
0.0
 41
0.0
 42
0.0
 43
0.0
 44
0.0
 45
0.0
 46
0.0
 47
0.0
 48
0.0
 49
0.0
140
0.0
141
0.0
142
1.0
143
1.0
 70
   688
 72
     1
 73
     0
 74
     5
  7

 75
    16
147
1.0
148
0.0
149
0.0
100
AcDbLayout
  1
Layout2
 70
     1
 71
     2
 10
0.0
 20
0.0
 11
0.0
 21
0.0
 12
0.0
 22
0.0
 32
0.0
 14
0.0
 24
0.0
 34
0.0
 15
0.0
 25
0.0
 35
0.0
146
0.0
 13
0.0
 23
0.0
 33
0.0
 16
1.0
 26
0.0
 36
0.0
 17
0.0
 27
1.0
 37
0.0
 76
     0
330
23
  0
LAYOUT
  5
22
102
{ACAD_REACTORS
330
1A
102
}
330
1A
100
AcDbPlotSettings
  1

  2
none_device
  4
Letter_(8.50_x_11.00_Inches)
  6

 40
6.35
 41
6.35
 42
6.35000508
 43
6.35000508
 44
215.9
 45
279.4
 46
0.0
 47
0.0
 48
0.0
 49
0.0
140
0.0
141
0.0
142
1.0
143
1.0
 70
  1712
 72
     1
 73
     0
 74
     0
  7

 75
     0
147
1.0
148
0.0
149
0.0
100
AcDbLayout
  1
Model
 70
     1
 71
     0
 10
0.0
 20
0.0
 11
210.0
 21
297.0
 12
0.0
 22
0.0
 32
0.0
 14
0.0
 24
0.0
 34
0.0
 15
210.0
 25
297.0
 35
0.0
146
0.0
 13
0.0
 23
0.0
 33
0.0
 16
1.0
 26
0.0
 36
0.0
 17
0.0
 27
1.0
 37
0.0
 76
     0
330
1F
331
29
  0
MLINESTYLE
  5
18
102
{ACAD_REACTORS
330
17
102
}
330
17
100
AcDbMlineStyle
  2
Standard
 70
     0
  3

 62
   256
 51
90.0
 52
90.0
 71
     2
 49
0.5
 62
   256
  6
BYLAYER
 49
-0.5
 62
   256
  6
BYLAYER
  0
ACDBPLACEHOLDER
  5
F
102
{ACAD_REACTORS
330
E
102
}
330
E
  0
SCALE
  5
48
102
{ACAD_REACTORS
330
47
102
}
330
47
100
AcDbScale
 70
     0
300
1:1
140
1.0
141
1.0
290
     1
  0
SCALE
  5
49
102
{ACAD_REACTORS
330
47
102
}
330
47
100
AcDbScale
 70
     0
300
1:2
140
1.0
141
2.0
290
     0
  0
SCALE
  5
4A
102
{ACAD_REACTORS
330
47
102
}
330
47
100
AcDbScale
 70
     0
300
1:4
140
1.0
141
4.0
290
     0
  0
SCALE
  5
4B
102
{ACAD_REACTORS
330
47
102
}
330
47
100
AcDbScale
 70
     0
300
1:5
140
1.0
141
5.0
290
     0
  0
SCALE
  5
4C
102
{ACAD_REACTORS
330
47
102
}
330
47
100
AcDbScale
 70
     0
300
1:8
140
1.0
141
8.0
290
     0
  0
SCALE
  5
4D
102
{ACAD_REACTORS
330
47
102
}
330
47
100
AcDbScale
 70
     0
300
1:10
140
1.0
141
10.0
290
     0
  0
SCALE
  5
4E
102
{ACAD_REACTORS
330
47
102
}
330
47
100
AcDbScale
 70
     0
300
1:16
140
1.0
141
16.0
290
     0
  0
SCALE
  5
4F
102
{ACAD_REACTORS
330
47
102
}
330
47
100
AcDbScale
 70
     0
300
1:20
140
1.0
141
20.0
290
     0
  0
SCALE
  5
50
102
{ACAD_REACTORS
330
47
102
}
330
47
100
AcDbScale
 70
     0
300
1:30
140
1.0
141
30.0
290
     0
  0
SCALE
  5
51
102
{ACAD_REACTORS
330
47
102
}
330
47
100
AcDbScale
 70
     0
300
1:40
140
1.0
141
40.0
290
     0
  0
SCALE
  5
52
102
{ACAD_REACTORS
330
47
102
}
330
47
100
AcDbScale
 70
     0
300
1:50
140
1.0
141
50.0
290
     0
  0
SCALE
  5
53
102
{ACAD_REACTORS
330
47
102
}
330
47
100
AcDbScale
 70
     0
300
1:100
140
1.0
141
100.0
290
     0
  0
SCALE
  5
54
102
{ACAD_REACTORS
330
47
102
}
330
47
100
AcDbScale
 70
     0
300
2:1
140
2.0
141
1.0
290
     0
  0
SCALE
  5
55
102
{ACAD_REACTORS
330
47
102
}
330
47
100
AcDbScale
 70
     0
300
4:1
140
4.0
141
1.0
290
     0
  0
SCALE
  5
56
102
{ACAD_REACTORS
330
47
102
}
330
47
100
AcDbScale
 70
     0
300
8:1
140
8.0
141
1.0
290
     0
  0
SCALE
  5
57
102
{ACAD_REACTORS
330
47
102
}
330
47
100
AcDbScale
 70
     0
300
10:1
140
10.0
141
1.0
290
     0
  0
SCALE
  5
58
102
{ACAD_REACTORS
330
47
102
}
330
47
100
AcDbScale
 70
     0
300
100:1
140
100.0
141
1.0
290
     0
  0
SCALE
  5
59
102
{ACAD_REACTORS
330
47
102
}
330
47
100
AcDbScale
 70
     0
300
1/128" = 1'-0"
140
0.0078125
141
12.0
290
     0
  0
SCALE
  5
5A
102
{ACAD_REACTORS
330
47
102
}
330
47
100
AcDbScale
 70
     0
300
1/64" = 1'-0"
140
0.015625
141
12.0
290
     0
  0
SCALE
  5
5B
102
{ACAD_REACTORS
330
47
102
}
330
47
100
AcDbScale
 70
     0
300
1/32" = 1'-0"
140
0.03125
141
12.0
290
     0
  0
SCALE
  5
5C
102
{ACAD_REACTORS
330
47
102
}
330
47
100
AcDbScale
 70
     0
300
1/16" = 1'-0"
140
0.0625
141
12.0
290
     0
  0
SCALE
  5
5D
102
{ACAD_REACTORS
330
47
102
}
330
47
100
AcDbScale
 70
     0
300
3/32" = 1'-0"
140
0.09375
141
12.0
290
     0
  0
SCALE
  5
5E
102
{ACAD_REACTORS
330
47
102
}
330
47
100
AcDbScale
 70
     0
300
1/8" = 1'-0"
140
0.125
141
12.0
290
     0
  0
SCALE
  5
5F
102
{ACAD_REACTORS
330
47
102
}
330
47
100
AcDbScale
 70
     0
300
3/16" = 1'-0"
140
0.1875
141
12.0
290
     0
  0
SCALE
  5
60
102
{ACAD_REACTORS
330
47
102
}
330
47
100
AcDbScale
 70
     0
300
1/4" = 1'-0"
140
0.25
141
12.0
290
     0
  0
SCALE
  5
61
102
{ACAD_REACTORS
330
47
102
}
330
47
100
AcDbScale
 70
     0
300
3/8" = 1'-0"
140
0.375
141
12.0
290
     0
  0
SCALE
  5
62
102
{ACAD_REACTORS
330
47
102
}
330
47
100
AcDbScale
 70
     0
300
1/2" = 1'-0"
140
0.5
141
12.0
290
     0
  0
SCALE
  5
63
102
{ACAD_REACTORS
330
47
102
}
330
47
100
AcDbScale
 70
     0
300
3/4" = 1'-0"
140
0.75
141
12.0
290
     0
  0
SCALE
  5
64
102
{ACAD_REACTORS
330
47
102
}
330
47
100
AcDbScale
 70
     0
300
1" = 1'-0"
140
1.0
141
12.0
290
     0
  0
SCALE
  5
65
102
{ACAD_REACTORS
330
47
102
}
330
47
100
AcDbScale
 70
     0
300
1-1/2" = 1'-0"
140
1.5
141
12.0
290
     0
  0
SCALE
  5
66
102
{ACAD_REACTORS
330
47
102
}
330
47
100
AcDbScale
 70
     0
300
3" = 1'-0"
140
3.0
141
12.0
290
     0
  0
SCALE
  5
67
102
{ACAD_REACTORS
330
47
102
}
330
47
100
AcDbScale
 70
     0
300
6" = 1'-0"
140
6.0
141
12.0
290
     0
  0
SCALE
  5
68
102
{ACAD_REACTORS
330
47
102
}
330
47
100
AcDbScale
 70
     0
300
1'-0" = 1'-0"
140
12.0
141
12.0
290
     0
  0
ENDSEC
  0
EOF
