  0
SECTION
  2
HEADER
  9
$ACADVER
  1
AC1015
  9
$ACADMAINTVER
 70
     6
  9
$DWGCODEPAGE
  3
DOS932
  9
$INSBASE
 10
0.0
 20
0.0
 30
0.0
  9
$EXTMIN
 10
0.0
 20
0.0
 30
0.0
  9
$EXTMAX
 10
210.0
 20
297.0
 30
0.0
  9
$LIMMIN
 10
0.0
 20
0.0
  9
$LIMMAX
 10
210.0
 20
297.0
  9
$ORTHOMODE
 70
     0
  9
$REGENMODE
 70
     1
  9
$FILLMODE
 70
     1
  9
$QTEXTMODE
 70
     0
  9
$MIRRTEXT
 70
     1
  9
$LTSCALE
 40
1.0
  9
$ATTMODE
 70
     1
  9
$TEXTSIZE
 40
3.5
  9
$TRACEWID
 40
1.0
  9
$TEXTSTYLE
  7
Standard
  9
$CLAYER
  8
0
  9
$CELTYPE
  6
ByLayer
  9
$CECOLOR
 62
   256
  9
$CELTSCALE
 40
1.0
  9
$DISPSILH
 70
     0
  9
$DIMSCALE
 40
1.0
  9
$DIMASZ
 40
1.5
  9
$DIMEXO
 40
1.0
  9
$DIMDLI
 40
3.75
  9
$DIMRND
 40
0.0
  9
$DIMDLE
 40
0.0
  9
$DIMEXE
 40
1.0
  9
$DIMTP
 40
0.0
  9
$DIMTM
 40
0.0
  9
$DIMTXT
 40
3.5
  9
$DIMCEN
 40
2.5
  9
$DIMTSZ
 40
0.0
  9
$DIMTOL
 70
     0
  9
$DIMLIM
 70
     0
  9
$DIMTIH
 70
     1
  9
$DIMTOH
 70
     1
  9
$DIMSE1
 70
     0
  9
$DIMSE2
 70
     0
  9
$DIMTAD
 70
     1
  9
$DIMZIN
 70
     0
  9
$DIMBLK
  1

  9
$DIMASO
 70
     1
  9
$DIMSHO
 70
     1
  9
$DIMPOST
  1

  9
$DIMAPOST
  1

  9
$DIMALT
 70
     0
  9
$DIMALTD
 70
     3
  9
$DIMALTF
 40
0.0393700787
  9
$DIMLFAC
 40
10.0
  9
$DIMTOFL
 70
     1
  9
$DIMTVP
 40
0.0
  9
$DIMTIX
 70
     0
  9
$DIMSOXD
 70
     0
  9
$DIMSAH
 70
     0
  9
$DIMBLK1
  1

  9
$DIMBLK2
  1

  9
$DIMSTYLE
  2
ISO-25
  9
$DIMCLRD
 70
     0
  9
$DIMCLRE
 70
     0
  9
$DIMCLRT
 70
     0
  9
$DIMTFAC
 40
1.0
  9
$DIMGAP
 40
1.5
  9
$DIMJUST
 70
     0
  9
$DIMSD1
 70
     0
  9
$DIMSD2
 70
     0
  9
$DIMTOLJ
 70
     0
  9
$DIMTZIN
 70
     0
  9
$DIMALTZ
 70
     0
  9
$DIMALTTZ
 70
     0
  9
$DIMUPT
 70
     0
  9
$DIMDEC
 70
     1
  9
$DIMTDEC
 70
     1
  9
$DIMALTU
 70
     2
  9
$DIMALTTD
 70
     3
  9
$DIMTXSTY
  7
Standard
  9
$DIMAUNIT
 70
     0
  9
$DIMADEC
 70
     2
  9
$DIMALTRND
 40
0.0
  9
$DIMAZIN
 70
     0
  9
$DIMDSEP
 70
    44
  9
$DIMATFIT
 70
     3
  9
$DIMFRAC
 70
     0
  9
$DIMLDRBLK
  1

  9
$DIMLUNIT
 70
     2
  9
$DIMLWD
 70
    -2
  9
$DIMLWE
 70
    -2
  9
$DIMTMOVE
 70
     0
  9
$LUNITS
 70
     2
  9
$LUPREC
 70
     4
  9
$SKETCHINC
 40
1.0
  9
$FILLETRAD
 40
10.0
  9
$AUNITS
 70
     0
  9
$AUPREC
 70
     2
  9
$MENU
  1
.
  9
$ELEVATION
 40
0.0
  9
$PELEVATION
 40
0.0
  9
$THICKNESS
 40
0.0
  9
$LIMCHECK
 70
     0
  9
$CHAMFERA
 40
0.0
  9
$CHAMFERB
 40
0.0
  9
$CHAMFERC
 40
0.0
  9
$CHAMFERD
 40
0.0
  9
$SKPOLY
 70
     0
  9
$TDCREATE
 40
2460018.602045278
  9
$TDUCREATE
 40
2460018.227045278
  9
$TDUPDATE
 40
2460018.602045394
  9
$TDUUPDATE
 40
2460018.227045394
  9
$TDINDWG
 40
0.0000000116
  9
$TDUSRTIMER
 40
0.0000000116
  9
$USRTIMER
 70
     1
  9
$ANGBASE
 50
0.0
  9
$ANGDIR
 70
     0
  9
$PDMODE
 70
     0
  9
$PDSIZE
 40
-1.0
  9
$PLINEWID
 40
0.0
  9
$SPLFRAME
 70
     0
  9
$SPLINETYPE
 70
     6
  9
$SPLINESEGS
 70
     8
  9
$HANDSEED
  5
B0
  9
$SURFTAB1
 70
     6
  9
$SURFTAB2
 70
     6
  9
$SURFTYPE
 70
     6
  9
$SURFU
 70
     6
  9
$SURFV
 70
     6
  9
$UCSBASE
  2

  9
$UCSNAME
  2

  9
$UCSORG
 10
0.0
 20
0.0
 30
0.0
  9
$UCSXDIR
 10
1.0
 20
0.0
 30
0.0
  9
$UCSYDIR
 10
0.0
 20
1.0
 30
0.0
  9
$UCSORTHOREF
  2

  9
$UCSORTHOVIEW
 70
     0
  9
$UCSORGTOP
 10
0.0
 20
0.0
 30
0.0
  9
$UCSORGBOTTOM
 10
0.0
 20
0.0
 30
0.0
  9
$UCSORGLEFT
 10
0.0
 20
0.0
 30
0.0
  9
$UCSORGRIGHT
 10
0.0
 20
0.0
 30
0.0
  9
$UCSORGFRONT
 10
0.0
 20
0.0
 30
0.0
  9
$UCSORGBACK
 10
0.0
 20
0.0
 30
0.0
  9
$PUCSBASE
  2

  9
$PUCSNAME
  2

  9
$PUCSORG
 10
0.0
 20
0.0
 30
0.0
  9
$PUCSXDIR
 10
1.0
 20
0.0
 30
0.0
  9
$PUCSYDIR
 10
0.0
 20
1.0
 30
0.0
  9
$PUCSORTHOREF
  2

  9
$PUCSORTHOVIEW
 70
     0
  9
$PUCSORGTOP
 10
0.0
 20
0.0
 30
0.0
  9
$PUCSORGBOTTOM
 10
0.0
 20
0.0
 30
0.0
  9
$PUCSORGLEFT
 10
0.0
 20
0.0
 30
0.0
  9
$PUCSORGRIGHT
 10
0.0
 20
0.0
 30
0.0
  9
$PUCSORGFRONT
 10
0.0
 20
0.0
 30
0.0
  9
$PUCSORGBACK
 10
0.0
 20
0.0
 30
0.0
  9
$USERI1
 70
     0
  9
$USERI2
 70
     0
  9
$USERI3
 70
     0
  9
$USERI4
 70
     0
  9
$USERI5
 70
     0
  9
$USERR1
 40
0.0
  9
$USERR2
 40
0.0
  9
$USERR3
 40
0.0
  9
$USERR4
 40
0.0
  9
$USERR5
 40
0.0
  9
$WORLDVIEW
 70
     1
  9
$SHADEDGE
 70
     3
  9
$SHADEDIF
 70
    70
  9
$TILEMODE
 70
     1
  9
$MAXACTVP
 70
    64
  9
$PINSBASE
 10
0.0
 20
0.0
 30
0.0
  9
$PLIMCHECK
 70
     0
  9
$PEXTMIN
 10
1.0000000000E+20
 20
1.0000000000E+20
 30
1.0000000000E+20
  9
$PEXTMAX
 10
-1.0000000000E+20
 20
-1.0000000000E+20
 30
-1.0000000000E+20
  9
$PLIMMIN
 10
0.0
 20
0.0
  9
$PLIMMAX
 10
420.0
 20
297.0
  9
$UNITMODE
 70
     0
  9
$VISRETAIN
 70
     1
  9
$PLINEGEN
 70
     0
  9
$PSLTSCALE
 70
     1
  9
$TREEDEPTH
 70
  3020
  9
$CMLSTYLE
  2
Standard
  9
$CMLJUST
 70
     0
  9
$CMLSCALE
 40
20.0
  9
$PROXYGRAPHICS
 70
     1
  9
$MEASUREMENT
 70
     1
  9
$CELWEIGHT
370
    -1
  9
$ENDCAPS
280
     0
  9
$JOINSTYLE
280
     0
  9
$LWDISPLAY
290
     1
  9
$INSUNITS
 70
     4
  9
$HYPERLINKBASE
  1

  9
$STYLESHEET
  1

  9
$XEDIT
290
     1
  9
$CEPSNTYPE
380
     0
  9
$PSTYLEMODE
290
     1
  9
$FINGERPRINTGUID
  2
{ff1ab126-10c1-4df6-aa81-6fb8a2567681}
  9
$VERSIONGUID
  2
{FAEB1C32-E019-11D5-929B-00C0DF256EC4}
  9
$EXTNAMES
290
     1
  9
$PSVPSCALE
 40
0.0
  9
$OLESTARTUP
290
     0
  0
ENDSEC
  0
SECTION
  2
CLASSES
  0
CLASS
  1
ACDBDICTIONARYWDFLT
  2
AcDbDictionaryWithDefault
  3
ObjectDBX Classes
 90
        0
280
     0
281
     0
  0
CLASS
  1
VISUALSTYLE
  2
AcDbVisualStyle
  3
ObjectDBX Classes
 90
     4095
280
     0
281
     0
  0
CLASS
  1
MATERIAL
  2
AcDbMaterial
  3
ObjectDBX Classes
 90
     1153
280
     0
281
     0
  0
CLASS
  1
SCALE
  2
AcDbScale
  3
ObjectDBX Classes
 90
     1153
280
     0
281
     0
  0
CLASS
  1
TABLESTYLE
  2
AcDbTableStyle
  3
ObjectDBX Classes
 90
     4095
280
     0
281
     0
  0
CLASS
  1
MLEADERSTYLE
  2
AcDbMLeaderStyle
  3
ACDB_MLEADERSTYLE_CLASS
 90
     4095
280
     0
281
     0
  0
CLASS
  1
SUN
  2
AcDbSun
  3
SCENEOE
 90
     1153
280
     0
281
     0
  0
CLASS
  1
ACDBPLACEHOLDER
  2
AcDbPlaceHolder
  3
ObjectDBX Classes
 90
        0
280
     0
281
     0
  0
CLASS
  1
LAYOUT
  2
AcDbLayout
  3
ObjectDBX Classes
 90
        0
280
     0
281
     0
  0
ENDSEC
  0
SECTION
  2
TABLES
  0
TABLE
  2
VPORT
  5
8
330
0
100
AcDbSymbolTable
 70
     1
  0
VPORT
  5
29
330
8
100
AcDbSymbolTableRecord
100
AcDbViewportTableRecord
  2
*Active
 70
     0
 10
0.0
 20
0.0
 11
1.0
 21
1.0
 12
105.0
 22
148.5
 13
0.0
 23
0.0
 14
10.0
 24
10.0
 15
10.0
 25
10.0
 16
0.0
 26
0.0
 36
1.0
 17
0.0
 27
0.0
 37
0.0
 40
297.0
 41
0.7070707071
 42
50.0
 43
0.0
 44
0.0
 50
0.0
 51
0.0
 71
     0
 72
  2000
 73
     1
 74
     3
 75
     0
 76
     0
 77
     0
 78
     0
281
     0
 65
     1
110
0.0
120
0.0
130
0.0
111
1.0
121
0.0
131
0.0
112
0.0
122
1.0
132
0.0
 79
     0
146
0.0
  0
ENDTAB
  0
TABLE
  2
LTYPE
  5
5
330
0
100
AcDbSymbolTable
 70
     6
  0
LTYPE
  5
14
330
5
100
AcDbSymbolTableRecord
100
AcDbLinetypeTableRecord
  2
ByBlock
 70
     0
  3

 72
    65
 73
     0
 40
0.0
  0
LTYPE
  5
15
330
5
100
AcDbSymbolTableRecord
100
AcDbLinetypeTableRecord
  2
ByLayer
 70
     0
  3

 72
    65
 73
     0
 40
0.0
  0
LTYPE
  5
16
330
5
100
AcDbSymbolTableRecord
100
AcDbLinetypeTableRecord
  2
Continuous
 70
     0
  3
Solid line
 72
    65
 73
     0
 40
0.0
  0
LTYPE
  5
6E
330
5
100
AcDbSymbolTableRecord
100
AcDbLinetypeTableRecord
  2
HIDDEN
 70
     0
  3
Hidden __ __ __ __ __ __ __ __ __ __ __ __ __ __
 72
    65
 73
     2
 40
1.905
 49
1.27
 74
     0
 49
-0.635
 74
     0
  0
LTYPE
  5
6F
330
5
100
AcDbSymbolTableRecord
100
AcDbLinetypeTableRecord
  2
PHANTOM
 70
     0
  3
Phantom ______  __  __  ______  __  __  ______
 72
    65
 73
     6
 40
12.7
 49
6.35
 74
     0
 49
-1.27
 74
     0
 49
1.27
 74
     0
 49
-1.27
 74
     0
 49
1.27
 74
     0
 49
-1.27
 74
     0
  0
LTYPE
  5
70
330
5
100
AcDbSymbolTableRecord
100
AcDbLinetypeTableRecord
  2
CENTER
 70
     0
  3
Center ____ _ ____ _ ____ _ ____ _ ____ _ ____
 72
    65
 73
     4
 40
10.16
 49
6.35
 74
     0
 49
-1.27
 74
     0
 49
1.27
 74
     0
 49
-1.27
 74
     0
  0
LTYPE
  5
71
330
5
100
AcDbSymbolTableRecord
100
AcDbLinetypeTableRecord
  2
CENTERX2
 70
     0
  3
Center (2x) ________  __  ________  __  _____
 72
    65
 73
     4
 40
20.32
 49
12.7
 74
     0
 49
-2.54
 74
     0
 49
2.54
 74
     0
 49
-2.54
 74
     0
  0
LTYPE
  5
72
330
5
100
AcDbSymbolTableRecord
100
AcDbLinetypeTableRecord
  2
DOT2
 70
     0
  3
Dot (.5x) ........................................
 72
    65
 73
     2
 40
0.635
 49
0.0
 74
     0
 49
-0.635
 74
     0
  0
ENDTAB
  0
TABLE
  2
LAYER
  5
2
330
0
100
AcDbSymbolTable
 70
     1
  0
LAYER
  5
10
330
2
100
AcDbSymbolTableRecord
100
AcDbLayerTableRecord
  2
0
 70
     0
 62
     7
  6
Continuous
370
    -3
390
F
  0
ENDTAB
  0
TABLE
  2
STYLE
  5
3
330
0
100
AcDbSymbolTable
 70
     2
  0
STYLE
  5
11
330
3
100
AcDbSymbolTableRecord
100
AcDbTextStyleTableRecord
  2
Standard
 70
     0
 40
0.0
 41
1.0
 50
0.0
 71
     0
 42
3.5
  3
txt
  4
bigfont
  0
STYLE
  5
73
330
3
100
AcDbSymbolTableRecord
100
AcDbTextStyleTableRecord
  2
SLDTEXTSTYLE0
 70
     0
 40
0.0
 41
0.7
 50
0.0
 71
     0
 42
3.5
  3
TXT
  4
bigfont
  0
ENDTAB
  0
TABLE
  2
VIEW
  5
6
330
0
100
AcDbSymbolTable
 70
     0
  0
ENDTAB
  0
TABLE
  2
UCS
  5
7
330
0
100
AcDbSymbolTable
 70
     0
  0
ENDTAB
  0
TABLE
  2
APPID
  5
9
330
0
100
AcDbSymbolTable
 70
     1
  0
APPID
  5
12
330
9
100
AcDbSymbolTableRecord
100
AcDbRegAppTableRecord
  2
ACAD
 70
     0
  0
ENDTAB
  0
TABLE
  2
DIMSTYLE
  5
A
330
0
100
AcDbSymbolTable
 70
     1
100
AcDbDimStyleTable
  0
DIMSTYLE
105
27
330
A
100
AcDbSymbolTableRecord
100
AcDbDimStyleTableRecord
  2
ISO-25
 70
     0
 41
2.5
 42
0.625
 43
3.75
 44
1.25
 73
     0
 74
     0
 77
     1
 78
     8
140
2.5
141
2.5
143
0.0393700787
147
0.625
171
     3
172
     1
178
     0
271
     2
272
     2
274
     3
278
    44
283
     0
284
     8
340
11
  0
ENDTAB
  0
TABLE
  2
BLOCK_RECORD
  5
1
330
0
100
AcDbSymbolTable
 70
     1
  0
BLOCK_RECORD
  5
1F
330
1
100
AcDbSymbolTableRecord
100
AcDbBlockTableRecord
  2
*Model_Space
340
22
  0
BLOCK_RECORD
  5
1B
330
1
100
AcDbSymbolTableRecord
100
AcDbBlockTableRecord
  2
*Paper_Space
340
1E
  0
BLOCK_RECORD
  5
23
330
1
100
AcDbSymbolTableRecord
100
AcDbBlockTableRecord
  2
*Paper_Space0
340
26
  0
ENDTAB
  0
ENDSEC
  0
SECTION
  2
BLOCKS
  0
BLOCK
  5
20
330
1F
100
AcDbEntity
  8
0
100
AcDbBlockBegin
  2
*Model_Space
 70
     0
 10
0.0
 20
0.0
 30
0.0
  3
*Model_Space
  1

  0
ENDBLK
  5
21
330
1F
100
AcDbEntity
  8
0
100
AcDbBlockEnd
  0
BLOCK
  5
1C
330
1B
100
AcDbEntity
 67
     1
  8
0
100
AcDbBlockBegin
  2
*Paper_Space
 70
     0
 10
0.0
 20
0.0
 30
0.0
  3
*Paper_Space
  1

  0
ENDBLK
  5
1D
330
1B
100
AcDbEntity
 67
     1
  8
0
100
AcDbBlockEnd
  0
BLOCK
  5
24
330
23
100
AcDbEntity
  8
0
100
AcDbBlockBegin
  2
*Paper_Space0
 70
     0
 10
0.0
 20
0.0
 30
0.0
  3
*Paper_Space0
  1

  0
ENDBLK
  5
25
330
23
100
AcDbEntity
  8
0
100
AcDbBlockEnd
  0
ENDSEC
  0
SECTION
  2
ENTITIES
  0
MTEXT
  5
74
330
1F
100
AcDbEntity
  8
0
  6
Continuous
 62
     7
370
     0
100
AcDbMText
 10
139.1509829154
 20
100.678760248
 30
0.0
 40
3.5
 41
0.0
 71
     1
 72
     1
  1
HEC-118S/C/K
  7
SLDTEXTSTYLE0
 73
     1
 44
1.0
  0
LINE
  5
75
330
1F
100
AcDbEntity
  8
0
  6
Continuous
 62
     7
370
    25
100
AcDbLine
 10
101.7690741317
 20
132.8507943724
 30
0.0
 11
101.7690741317
 21
116.0316909621
 31
0.0
  0
LINE
  5
76
330
1F
100
AcDbEntity
  8
0
  6
Continuous
 62
     7
370
    25
100
AcDbLine
 10
101.7690741317
 20
113.6316909621
 30
0.0
 11
101.7690741317
 21
104.8316909621
 31
0.0
  0
LINE
  5
77
330
1F
100
AcDbEntity
  8
0
  6
Continuous
 62
     7
370
    25
100
AcDbLine
 10
101.7690741317
 20
213.8316909621
 30
0.0
 11
101.7690741317
 21
136.8099046643
 31
0.0
  0
LINE
  5
78
330
1F
100
AcDbEntity
  8
0
  6
Continuous
 62
     7
370
    25
100
AcDbLine
 10
110.7690741317
 20
104.8316909621
 30
0.0
 11
110.7690741317
 21
213.8316909621
 31
0.0
  0
LINE
  5
79
330
1F
100
AcDbEntity
  8
0
  6
Continuous
 62
     7
370
    25
100
AcDbLine
 10
101.8690741317
 20
214.8316909621
 30
0.0
 11
101.8690741317
 21
213.8316909621
 31
0.0
  0
LINE
  5
7A
330
1F
100
AcDbEntity
  8
0
  6
Continuous
 62
     7
370
    25
100
AcDbLine
 10
110.6690741317
 20
213.8316909621
 30
0.0
 11
110.6690741317
 21
214.8316909621
 31
0.0
  0
LINE
  5
7B
330
1F
100
AcDbEntity
  8
0
  6
Continuous
 62
     7
370
    25
100
AcDbLine
 10
80.2883120182
 20
113.6316909621
 30
0.0
 11
102.621657502
 21
113.6316909621
 31
0.0
  0
LINE
  5
7C
330
1F
100
AcDbEntity
  8
0
  6
Continuous
 62
     7
370
    25
100
AcDbLine
 10
110.7690741317
 20
113.6316909621
 30
0.0
 11
132.2498362453
 21
113.6316909621
 31
0.0
  0
LINE
  5
7D
330
1F
100
AcDbEntity
  8
0
  6
Continuous
 62
     7
370
    25
100
AcDbLine
 10
132.2498362453
 20
116.0316909621
 30
0.0
 11
110.7690741317
 21
116.0316909621
 31
0.0
  0
LINE
  5
7E
330
1F
100
AcDbEntity
  8
0
  6
Continuous
 62
     7
370
    25
100
AcDbLine
 10
102.633902581
 20
116.0316909621
 30
0.0
 11
80.2883120182
 21
116.0316909621
 31
0.0
  0
SPLINE
  5
7F
330
1F
100
AcDbEntity
  8
0
  6
Continuous
 62
     7
370
    25
100
AcDbSpline
210
0.0
220
0.0
230
1.0
 70
     8
 71
     3
 72
    19
 73
    15
 74
     0
 42
0.00000001
 43
0.00000001
 40
0.0
 40
0.0
 40
0.0
 40
0.0
 40
0.034309480238095
 40
0.1264145795839816
 40
0.2179939665757285
 40
0.3103844364549724
 40
0.4042566549942146
 40
0.4995397666970959
 40
0.5959052356030057
 40
0.6929845047001117
 40
0.7901850262302947
 40
0.8864818851194769
 40
0.9808894892249085
 40
1.0
 40
1.0
 40
1.0
 40
1.0
 10
108.6233786064464
 20
209.1392953395857
 30
0.0
 10
108.6469735395595
 20
209.1370463894152
 30
0.0
 10
108.733909964393
 20
209.1287600473217
 30
0.0
 10
108.8812199376193
 20
209.180576685194
 30
0.0
 10
109.0430217656663
 20
209.2874298754599
 30
0.0
 10
109.1682133186234
 20
209.4451496400615
 30
0.0
 10
109.2469710112488
 20
209.6365388778073
 30
0.0
 10
109.271623424446
 20
209.847757807497
 30
0.0
 10
109.2381098274264
 20
210.0600539332797
 30
0.0
 10
109.1475421686445
 20
210.2530185028609
 30
0.0
 10
109.0065966899989
 20
210.4090889645875
 30
0.0
 10
108.8294642911965
 20
210.504376637494
 30
0.0
 10
108.6833623353267
 20
210.5422620739116
 30
0.0
 10
108.6063335319438
 20
210.5278046861189
 30
0.0
 10
108.5933659119424
 20
210.5253708184893
 30
0.0
  0
LINE
  5
80
330
1F
100
AcDbEntity
  8
0
  6
Continuous
 62
     7
370
    25
100
AcDbLine
 10
108.6290741317
 20
210.5316909621
 30
0.0
 11
108.5190741317
 21
210.5316909621
 31
0.0
  0
LINE
  5
81
330
1F
100
AcDbEntity
  8
0
  6
Continuous
 62
     7
370
    25
100
AcDbLine
 10
108.5190741317
 20
209.1316909621
 30
0.0
 11
108.6290741317
 21
209.1316909621
 31
0.0
  0
LINE
  5
82
330
1F
100
AcDbEntity
  8
0
  6
Continuous
 62
     7
370
    25
100
AcDbLine
 10
101.8690741317
 20
215.1316909621
 30
0.0
 11
101.8690741317
 21
214.8316909621
 31
0.0
  0
LINE
  5
83
330
1F
100
AcDbEntity
  8
0
  6
Continuous
 62
     7
370
    25
100
AcDbLine
 10
110.6690741317
 20
214.8316909621
 30
0.0
 11
110.6690741317
 21
215.1316909621
 31
0.0
  0
SPLINE
  5
84
330
1F
100
AcDbEntity
  8
0
  6
Continuous
 62
     7
370
    25
100
AcDbSpline
210
0.0
220
0.0
230
1.0
 70
    11
 71
     3
 72
    26
 73
    22
 74
     0
 42
0.00000001
 43
0.00000001
 40
0.0
 40
0.0
 40
0.0
 40
0.0
 40
0.0527987303858874
 40
0.1055675457509827
 40
0.1591187848922527
 40
0.2132709130550366
 40
0.2665469484341348
 40
0.3188281887715438
 40
0.3715480438911807
 40
0.4254422837448237
 40
0.4794451643075507
 40
0.5323406126931047
 40
0.5846456242351957
 40
0.6377246709640633
 40
0.6918082961865583
 40
0.7455670526147944
 40
0.7981172266216136
 40
0.8504844924146692
 40
0.9039492088059912
 40
0.9581077475226002
 40
1.0
 40
1.0
 40
1.0
 40
1.0
 10
102.3719598147036
 20
175.8316909620989
 30
0.0
 10
102.4295542322204
 20
175.8209088763963
 30
0.0
 10
102.5447104350639
 20
175.7993508139698
 30
0.0
 10
102.7225980536947
 20
175.6316219993147
 30
0.0
 10
102.8710552142106
 20
175.3825417313108
 30
0.0
 10
102.9634624317528
 20
175.0672934328555
 30
0.0
 10
102.9787121951292
 20
174.7274410930629
 30
0.0
 10
102.9161110404295
 20
174.4029698158696
 30
0.0
 10
102.7893277929188
 20
174.1252552652062
 30
0.0
 10
102.6198052799796
 20
173.9225219421317
 30
0.0
 10
102.4368842092718
 20
173.8213917803715
 30
0.0
 10
102.2698124496212
 20
173.8341427292044
 30
0.0
 10
102.135788243698
 20
173.9554423412351
 30
0.0
 10
102.0403686071613
 20
174.1725870923987
 30
0.0
 10
101.9838841366594
 20
174.4658406419085
 30
0.0
 10
101.9639154158521
 20
174.8010860537978
 30
0.0
 10
101.9777402826575
 20
175.1358292730564
 30
0.0
 10
102.0257909419956
 20
175.4357753703008
 30
0.0
 10
102.1130228261482
 20
175.6701716148262
 30
0.0
 10
102.2317429480683
 20
175.8091906689905
 30
0.0
 10
102.3293770194982
 20
175.8248577943318
 30
0.0
 10
102.3719598147036
 20
175.8316909620989
 30
0.0
  0
SPLINE
  5
85
330
1F
100
AcDbEntity
  8
0
  6
Continuous
 62
     7
370
    25
100
AcDbSpline
210
0.0
220
0.0
230
1.0
 70
    11
 71
     3
 72
    28
 73
    24
 74
     0
 42
0.00000001
 43
0.00000001
 40
0.0
 40
0.0
 40
0.0
 40
0.0
 40
0.0502466173241125
 40
0.1003959043228851
 40
0.1531036040065968
 40
0.2088089871102128
 40
0.261533308229872
 40
0.3095726330439845
 40
0.3587285849686089
 40
0.4126695249513848
 40
0.4681510789231102
 40
0.5197331440895869
 40
0.5683466104481275
 40
0.61850591412719
 40
0.6727089098397303
 40
0.7005392684238472
 40
0.728352238085627
 40
0.7790476027228181
 40
0.8267386920411793
 40
0.8775103799695939
 40
0.9327103799990626
 40
0.9871833209306471
 40
1.0
 40
1.0
 40
1.0
 40
1.0
 10
102.3719598147036
 20
166.8316909620989
 30
0.0
 10
102.4865147289465
 20
166.8116445455406
 30
0.0
 10
102.7154026585729
 20
166.771590543381
 30
0.0
 10
103.1142081299972
 20
166.4617722126574
 30
0.0
 10
103.4838595523636
 20
165.9919707843493
 30
0.0
 10
103.7460771432107
 20
165.3732433218904
 30
0.0
 10
103.8068062779444
 20
164.700022884436
 30
0.0
 10
103.670945841031
 20
164.0754671000692
 30
0.0
 10
103.3897320961386
 20
163.5299752850598
 30
0.0
 10
103.002695745039
 20
163.0924723936228
 30
0.0
 10
102.5877093272132
 20
162.8376194180685
 30
0.0
 10
102.2416343470231
 20
162.8122035604823
 30
0.0
 10
102.0020987132931
 20
162.9914869948842
 30
0.0
 10
101.8579629984254
 20
163.3493651324588
 30
0.0
 10
101.8038793876535
 20
163.7881016166288
 30
0.0
 10
101.7846651857975
 20
164.2113364558326
 30
0.0
 10
101.7769845479598
 20
164.6487152521508
 30
0.0
 10
101.7776145983916
 20
165.1948101868274
 30
0.0
 10
101.7951222840979
 20
165.7916117873519
 30
0.0
 10
101.8557659140545
 20
166.305308177148
 30
0.0
 10
102.0039773659367
 20
166.6855872236928
 30
0.0
 10
102.2059741659127
 20
166.8231046199263
 30
0.0
 10
102.3454027921553
 20
166.8303171825924
 30
0.0
 10
102.3719598147036
 20
166.8316909620989
 30
0.0
  0
SPLINE
  5
86
330
1F
100
AcDbEntity
  8
0
  6
Continuous
 62
     7
370
    25
100
AcDbSpline
210
0.0
220
0.0
230
1.0
 70
    11
 71
     3
 72
    47
 73
    43
 74
     0
 42
0.00000001
 43
0.00000001
 40
0.0
 40
0.0
 40
0.0
 40
0.0
 40
0.0228030073190206
 40
0.0463432610388317
 40
0.0691301169243816
 40
0.0924855403398293
 40
0.1172643802730696
 40
0.1425830657978293
 40
0.1711319255567577
 40
0.2005746228667088
 40
0.220889644709316
 40
0.2417508894938855
 40
0.2620870855253559
 40
0.283076766743701
 40
0.322507188210543
 40
0.3699968070572368
 40
0.3985004505977147
 40
0.42786863473952
 40
0.4507959749146694
 40
0.4743563585310375
 40
0.4973035354725102
 40
0.5210221310892565
 40
0.5424382888582289
 40
0.564411986926165
 40
0.5871813831369358
 40
0.6104480534233849
 40
0.6368128748218927
 40
0.6637986241033575
 40
0.6878924759905337
 40
0.7126085970709409
 40
0.7323179080284618
 40
0.752581489819268
 40
0.7723012475171653
 40
0.7925831575998608
 40
0.8175896336023889
 40
0.8433133758008681
 40
0.86888039399829
 40
0.8950111034898759
 40
0.9240123609466933
 40
0.9540913546433862
 40
0.9766965088428852
 40
1.0
 40
1.0
 40
1.0
 40
1.0
 10
102.3719598147036
 20
137.8316909620989
 30
0.0
 10
102.4498432215169
 20
137.8252914881582
 30
0.0
 10
102.6081280916678
 20
137.8122856382194
 30
0.0
 10
102.8851046168793
 20
137.7087686920763
 30
0.0
 10
103.1804896927057
 20
137.5484347583559
 30
0.0
 10
103.4898550892855
 20
137.3291378172222
 30
0.0
 10
103.8068854556858
 20
137.050472860479
 30
0.0
 10
104.1295998700543
 20
136.7009536206208
 30
0.0
 10
104.4364362351987
 20
136.2777964941245
 30
0.0
 10
104.6673451399209
 20
135.8300565819086
 30
0.0
 10
104.8079291154799
 20
135.394273166974
 30
0.0
 10
104.8699914199288
 20
134.9977989364258
 30
0.0
 10
104.8635840296398
 20
134.5916144318725
 30
0.0
 10
104.7664974914649
 20
134.0742926558157
 30
0.0
 10
104.4855489791583
 20
133.4295770480302
 30
0.0
 10
104.0448448861077
 20
132.8487623500808
 30
0.0
 10
103.5972150755014
 20
132.4183497637842
 30
0.0
 10
103.2433844046339
 20
132.153315317047
 30
0.0
 10
102.9195494319114
 20
131.9700964093204
 30
0.0
 10
102.6407055755864
 20
131.8624477795712
 30
0.0
 10
102.3884437046603
 20
131.8204537142605
 30
0.0
 10
102.1821264588375
 20
131.8473431532957
 30
0.0
 10
102.0209144743497
 20
131.9365702527041
 30
0.0
 10
101.9027486071427
 20
132.0796411159287
 30
0.0
 10
101.8222409273803
 20
132.2790070225913
 30
0.0
 10
101.7760615354237
 20
132.5415798285336
 30
0.0
 10
101.7642177479607
 20
132.8703403989213
 30
0.0
 10
101.7810921308837
 20
133.252312762153
 30
0.0
 10
101.812157085771
 20
133.6689759274335
 30
0.0
 10
101.841860333766
 20
134.0799650555192
 30
0.0
 10
101.8612113101931
 20
134.4903194406075
 30
0.0
 10
101.8666149794267
 20
134.8793996627565
 30
0.0
 10
101.8577140072574
 20
135.2705347890941
 30
0.0
 10
101.8356494151962
 20
135.6786390674429
 30
0.0
 10
101.8041268799417
 20
136.0971855567718
 30
0.0
 10
101.7751881472087
 20
136.5062342238743
 30
0.0
 10
101.7643068852489
 20
136.8763571634204
 30
0.0
 10
101.7847677474679
 20
137.2109232771203
 30
0.0
 10
101.8543931768002
 20
137.5003250271284
 30
0.0
 10
101.9840345037827
 20
137.6983350234185
 30
0.0
 10
102.1582658184177
 20
137.811873337704
 30
0.0
 10
102.3000097723612
 20
137.8250184353124
 30
0.0
 10
102.3719598147036
 20
137.8316909620989
 30
0.0
  0
SPLINE
  5
87
330
1F
100
AcDbEntity
  8
0
  6
Continuous
 62
     7
370
    25
100
AcDbSpline
210
0.0
220
0.0
230
1.0
 70
     8
 71
     3
 72
    18
 73
    14
 74
     0
 42
0.00000001
 43
0.00000001
 40
0.0
 40
0.0
 40
0.0
 40
0.0
 40
0.0936469508242682
 40
0.1872074710205281
 40
0.2830365591243086
 40
0.3808032556820536
 40
0.4759865095981876
 40
0.568035476489012
 40
0.6613017958318476
 40
0.7581568036411105
 40
0.8555367145479056
 40
0.9496483399403165
 40
1.0
 40
1.0
 40
1.0
 40
1.0
 10
102.3719598147036
 20
116.1316909620989
 30
0.0
 10
102.4469364231729
 20
116.117911924768
 30
0.0
 10
102.5968204411112
 20
116.0903665673474
 30
0.0
 10
102.8375738061517
 20
115.8763372712566
 30
0.0
 10
103.0446075866721
 20
115.556802265467
 30
0.0
 10
103.1777841620098
 20
115.1485888374924
 30
0.0
 10
103.2019429216107
 20
114.7081286319376
 30
0.0
 10
103.1171725581702
 20
114.2898566980881
 30
0.0
 10
102.9450870709205
 20
113.9300096552054
 30
0.0
 10
102.7139676315919
 20
113.65975790132
 30
0.0
 10
102.469982939466
 20
113.5256783723279
 30
0.0
 10
102.2783253296802
 20
113.5174303734763
 30
0.0
 10
102.1967795684022
 20
113.6021592939744
 30
0.0
 10
102.168357367991
 20
113.631690962099
 30
0.0
  0
SPLINE
  5
88
330
1F
100
AcDbEntity
  8
0
  6
Continuous
 62
     7
370
    25
100
AcDbSpline
210
0.0
220
0.0
230
1.0
 70
     8
 71
     3
 72
     9
 73
     5
 74
     0
 42
0.00000001
 43
0.00000001
 40
0.0
 40
0.0
 40
0.0
 40
0.0
 40
0.1924556762615195
 40
1.0
 40
1.0
 40
1.0
 40
1.0
 10
102.1621851778112
 20
116.0316909620989
 30
0.0
 10
102.1724344614225
 20
116.0465329676116
 30
0.0
 10
102.2256897553711
 20
116.1236520518651
 30
0.0
 10
102.3066117318956
 20
116.1280994726715
 30
0.0
 10
102.3719598147036
 20
116.1316909620989
 30
0.0
  0
LINE
  5
89
330
1F
100
AcDbEntity
  8
0
  6
Continuous
 62
     7
370
    25
100
AcDbLine
 10
110.7690741317
 20
213.8316909621
 30
0.0
 11
101.7690741317
 21
213.8316909621
 31
0.0
  0
LINE
  5
8A
330
1F
100
AcDbEntity
  8
0
  6
Continuous
 62
     7
370
    25
100
AcDbLine
 10
110.7690741317
 20
104.8316909621
 30
0.0
 11
101.7690741317
 21
104.8316909621
 31
0.0
  0
LINE
  5
8B
330
1F
100
AcDbEntity
  8
0
  6
Continuous
 62
     7
370
    25
100
AcDbLine
 10
110.6690741317
 20
214.8316909621
 30
0.0
 11
101.8690741317
 21
214.8316909621
 31
0.0
  0
SPLINE
  5
8C
330
1F
100
AcDbEntity
  8
0
  6
Continuous
 62
     7
370
    25
100
AcDbSpline
210
0.0
220
0.0
230
1.0
 70
     8
 71
     3
 72
    16
 73
    12
 74
     0
 42
0.00000001
 43
0.00000001
 40
0.0
 40
0.0
 40
0.0
 40
0.0
 40
0.0210334069093592
 40
0.1477576155341015
 40
0.2766238575977303
 40
0.4071739562184873
 40
0.5353161826102877
 40
0.660686074631138
 40
0.7872461553587358
 40
0.9170581291853993
 40
1.0
 40
1.0
 40
1.0
 40
1.0
 10
102.5050287258394
 20
173.8772029727333
 30
0.0
 10
102.4965067569138
 20
173.8798493937157
 30
0.0
 10
102.4366407630918
 20
173.8984402409207
 30
0.0
 10
102.3581269919891
 20
174.0358914267158
 30
0.0
 10
102.2781309707684
 20
174.2779831154582
 30
0.0
 10
102.2388539106272
 20
174.5947410107107
 30
0.0
 10
102.2325857445909
 20
174.9336627479305
 30
0.0
 10
102.2577851143239
 20
175.2585709869606
 30
0.0
 10
102.3188652912793
 20
175.5326756378426
 30
0.0
 10
102.4033451756329
 20
175.7231225057573
 30
0.0
 10
102.4843083774213
 20
175.7685393011295
 30
0.0
 10
102.5158717996231
 20
175.7862449927983
 30
0.0
  0
SPLINE
  5
8D
330
1F
100
AcDbEntity
  8
0
  6
Continuous
 62
     7
370
    25
100
AcDbSpline
210
0.0
220
0.0
230
1.0
 70
     8
 71
     3
 72
    19
 73
    15
 74
     0
 42
0.00000001
 43
0.00000001
 40
0.0
 40
0.0
 40
0.0
 40
0.0
 40
0.0684921270978122
 40
0.1764827233173069
 40
0.2905992355031536
 40
0.351779809627608
 40
0.4129189069827147
 40
0.5276578893795583
 40
0.6303259241531433
 40
0.7354719314697706
 40
0.852557512168582
 40
0.9135579754103605
 40
0.9745230078007292
 40
1.0
 40
1.0
 40
1.0
 40
1.0
 10
102.5322063457003
 20
162.8681994499604
 30
0.0
 10
102.4714124483858
 20
162.8825109729848
 30
0.0
 10
102.3147656480343
 20
162.9193872778271
 30
0.0
 10
102.1743842266695
 20
163.1987640995298
 30
0.0
 10
102.1040101828692
 20
163.5785188843675
 30
0.0
 10
102.0804137241596
 20
163.9683175553665
 30
0.0
 10
102.0705090919409
 20
164.3957771845272
 30
0.0
 10
102.0700703051778
 20
164.9492702331574
 30
0.0
 10
102.0734832755608
 20
165.5690665047162
 30
0.0
 10
102.1025712893993
 20
166.1101366717601
 30
0.0
 10
102.179935171364
 20
166.4792095161908
 30
0.0
 10
102.3070914721991
 20
166.6830440792382
 30
0.0
 10
102.3994445325346
 20
166.7890313116328
 30
0.0
 10
102.4827963512717
 20
166.791960304425
 30
0.0
 10
102.507362569449
 20
166.7928235642442
 30
0.0
  0
SPLINE
  5
8E
330
1F
100
AcDbEntity
  8
0
  6
Continuous
 62
     7
370
    25
100
AcDbSpline
210
0.0
220
0.0
230
1.0
 70
     8
 71
     3
 72
    28
 73
    24
 74
     0
 42
0.00000001
 43
0.00000001
 40
0.0
 40
0.0
 40
0.0
 40
0.0
 40
0.0186361068778576
 40
0.0675415800476135
 40
0.1148610610848385
 40
0.1633524239619688
 40
0.2150550512899405
 40
0.2678375686241593
 40
0.3287754324226086
 40
0.391531949995174
 40
0.4329120308155516
 40
0.4753520459506427
 40
0.5167919892008256
 40
0.5596578227716559
 40
0.6065985041857848
 40
0.6548916010666149
 40
0.7164826899265105
 40
0.7798402267770294
 40
0.8418293111773835
 40
0.9059341597837673
 40
0.9521549931836624
 40
0.9996604239652658
 40
1.0
 40
1.0
 40
1.0
 40
1.0
 10
102.5114766584386
 20
131.8510077406378
 30
0.0
 10
102.4847545932839
 20
131.8541812650421
 30
0.0
 10
102.3879076222658
 20
131.8656828546174
 30
0.0
 10
102.2703312964628
 20
131.9525693469318
 30
0.0
 10
102.1589835484668
 20
132.1054005494787
 30
0.0
 10
102.0926221696689
 20
132.3177236424671
 30
0.0
 10
102.0647315238165
 20
132.586200365848
 30
0.0
 10
102.0723329735464
 20
132.9257136529587
 30
0.0
 10
102.1112996138382
 20
133.3395492251821
 30
0.0
 10
102.1620319382874
 20
133.7770582468913
 30
0.0
 10
102.2011937017333
 20
134.1991049602841
 30
0.0
 10
102.2225431785813
 20
134.5785764987909
 30
0.0
 10
102.225531146231
 20
134.971176338938
 30
0.0
 10
102.208266743339
 20
135.3727604141325
 30
0.0
 10
102.1732453415038
 20
135.7759999733631
 30
0.0
 10
102.1258935981034
 20
136.2010159883372
 30
0.0
 10
102.0804241458063
 20
136.6250647167371
 30
0.0
 10
102.0611375319934
 20
137.0239400974366
 30
0.0
 10
102.0911181236801
 20
137.361678255024
 30
0.0
 10
102.1761017074827
 20
137.6017355560533
 30
0.0
 10
102.315972845902
 20
137.7452975063118
 30
0.0
 10
102.4170919100531
 20
137.8110831908454
 30
0.0
 10
102.4878728951039
 20
137.815741860047
 30
0.0
 10
102.488375257374
 20
137.8157749245718
 30
0.0
  0
SPLINE
  5
8F
330
1F
100
AcDbEntity
  8
0
  6
Continuous
 62
     7
370
    25
100
AcDbSpline
210
0.0
220
0.0
230
1.0
 70
     8
 71
     3
 72
     9
 73
     5
 74
     0
 42
0.00000001
 43
0.00000001
 40
0.0
 40
0.0
 40
0.0
 40
0.0
 40
0.7251669836375911
 40
1.0
 40
1.0
 40
1.0
 40
1.0
 10
102.5181237038639
 20
113.5728962023536
 30
0.0
 10
102.4896468152381
 20
113.5759341903731
 30
0.0
 10
102.45037739279
 20
113.5801235537723
 30
0.0
 10
102.4257576636976
 20
113.620573877591
 30
0.0
 10
102.4189913492891
 20
113.631690962099
 30
0.0
  0
LINE
  5
90
330
1F
100
AcDbEntity
  8
0
  6
Continuous
 62
     7
370
    25
100
AcDbLine
 10
102.431870677
 20
116.0316909621
 30
0.0
 11
102.5051637353
 21
116.090741111
 31
0.0
  0
LWPOLYLINE
  5
91
330
1F
100
AcDbEntity
  8
0
  6
Continuous
 62
     7
370
    25
100
AcDbPolyline
 90
       26
 70
   128
 43
0.0
 10
79.7896249053
 20
114.1644244083
 10
79.722320856
 20
114.4334246977
 10
79.690580113
 20
114.7274495213
 10
79.6963970639
 20
115.028024218
 10
79.7394062082
 20
115.3162625741
 10
79.8169051234
 20
115.5740535138
 10
79.9240242674
 20
115.785199084
 10
80.0540329506
 20
115.9364322323
 10
80.1987622493
 20
116.0182504235
 10
80.3491182892
 20
116.02551272
 10
80.4956536475
 20
115.9577628048
 10
80.6291609687
 20
115.8192576544
 10
80.7412514968
 20
115.6187000566
 10
80.8248821716
 20
115.3686917831
 10
80.8747981704
 20
115.084941773
 10
80.8878630872
 20
114.785279083
 10
80.8632560054
 20
114.4885326221
 10
80.8025230784
 20
114.2133480618
 10
80.7094803793
 20
113.97701626
 10
80.5899741232
 20
113.794386813
 10
80.4515133275
 20
113.6769350006
 10
80.3027979934
 20
113.6320407522
 10
80.1531724522
 20
113.6625249385
 10
80.0120382269
 20
113.7664721259
 10
79.8882633
 20
113.9373509304
 10
79.7896249053
 20
114.1644244083
  0
LWPOLYLINE
  5
92
330
1F
100
AcDbEntity
  8
0
  6
Continuous
 62
     7
370
    25
100
AcDbPolyline
 90
       15
 70
   128
 43
0.0
 10
132.2498362453
 20
116.0316909621
 10
132.3106425163
 20
116.02551272
 10
132.4571778746
 20
115.9577628048
 10
132.5906851958
 20
115.8192576544
 10
132.7027757239
 20
115.6187000566
 10
132.7864063987
 20
115.3686917831
 10
132.8363223974
 20
115.084941773
 10
132.8493873143
 20
114.785279083
 10
132.8247802325
 20
114.4885326221
 10
132.7640473054
 20
114.2133480618
 10
132.6710046064
 20
113.97701626
 10
132.5514983502
 20
113.794386813
 10
132.4130375546
 20
113.6769350006
 10
132.2643222205
 20
113.6320407522
 10
132.2498362453
 20
113.6316909621
  0
LWPOLYLINE
  5
93
330
1F
100
AcDbEntity
  8
0
  6
Continuous
 62
     7
370
    25
100
AcDbPolyline
 90
       26
 70
   128
 43
0.0
 10
79.814559261
 20
114.197787736
 10
79.7506204141
 20
114.453338011
 10
79.7204667083
 20
114.7326615934
 10
79.7259928116
 20
115.0182075552
 10
79.7668514987
 20
115.2920339935
 10
79.8404754681
 20
115.5369353862
 10
79.942238655
 20
115.7375236779
 10
80.065746904
 20
115.8811951688
 10
80.2032397377
 20
115.9589224505
 10
80.3460779757
 20
115.9658216321
 10
80.4852865661
 20
115.9014592127
 10
80.6121185212
 20
115.7698793198
 10
80.7186045229
 20
115.5793496019
 10
80.798053664
 20
115.341841742
 10
80.8454738628
 20
115.0722792324
 10
80.8578855338
 20
114.787599677
 10
80.834508806
 20
114.5056905391
 10
80.7768125254
 20
114.2442652068
 10
80.6884219613
 20
114.0197499951
 10
80.5748910179
 20
113.8462520205
 10
80.443353262
 20
113.7346727987
 10
80.3020736946
 20
113.6920232627
 10
80.1599294305
 20
113.7209832397
 10
80.0258519165
 20
113.8197330677
 10
79.9082657359
 20
113.982067932
 10
79.814559261
 20
114.197787736
  0
LWPOLYLINE
  5
94
330
1F
100
AcDbEntity
  8
0
  6
Continuous
 62
     7
370
    25
100
AcDbPolyline
 90
       17
 70
   128
 43
0.0
 10
108.3115819132
 20
209.699024727
 10
108.3873290072
 20
209.5246398918
 10
108.5151036984
 20
209.3970007986
 10
108.6754534485
 20
209.3355393424
 10
108.8439664616
 20
209.3496124726
 10
108.9949881589
 20
209.4370776828
 10
109.1055268561
 20
209.5846191876
 10
109.1587540386
 20
209.7697751303
 10
109.1465663503
 20
209.9643571972
 10
109.0708192563
 20
210.1387420324
 10
108.943044565
 20
210.2663811256
 10
108.7826948149
 20
210.3278425818
 10
108.6141818019
 20
210.3137694516
 10
108.4631601046
 20
210.2263042414
 10
108.3526214074
 20
210.0787627366
 10
108.2993942249
 20
209.8936067939
 10
108.3115819132
 20
209.699024727
  0
LINE
  5
95
330
1F
100
AcDbEntity
  8
0
  6
Continuous
 62
     7
370
    25
100
AcDbLine
 10
108.5962044263
 20
210.5306612356
 30
0.0
 11
108.6290741317
 21
210.5316909621
 31
0.0
  0
LINE
  5
96
330
1F
100
AcDbEntity
  8
0
  6
Continuous
 62
     7
370
    25
100
AcDbLine
 10
104.9953899212
 20
214.8316909621
 30
0.0
 11
104.9953899212
 21
215.1316909621
 31
0.0
  0
LINE
  5
97
330
1F
100
AcDbEntity
  8
0
  6
Continuous
 62
     7
370
    25
100
AcDbLine
 10
102.9220753327
 20
214.8316909621
 30
0.0
 11
102.9220753327
 21
215.1316909621
 31
0.0
  0
LINE
  5
98
330
1F
100
AcDbEntity
  8
0
  6
Continuous
 62
     7
370
    25
100
AcDbLine
 10
102.9220753327
 20
215.1316909621
 30
0.0
 11
104.9953899212
 21
215.1316909621
 31
0.0
  0
LINE
  5
99
330
1F
100
AcDbEntity
  8
0
  6
Continuous
 62
     7
370
    25
100
AcDbLine
 10
102.9220753327
 20
214.8316909621
 30
0.0
 11
104.9953899212
 21
214.8316909621
 31
0.0
  0
LINE
  5
9A
330
1F
100
AcDbEntity
  8
0
  6
Continuous
 62
     7
370
    25
100
AcDbLine
 10
105.4690741317
 20
215.1316909621
 30
0.0
 11
105.4690741317
 21
214.8316909621
 31
0.0
  0
LINE
  5
9B
330
1F
100
AcDbEntity
  8
0
  6
Continuous
 62
     7
370
    25
100
AcDbLine
 10
104.9953899212
 20
215.1316909621
 30
0.0
 11
105.4690741317
 21
215.1316909621
 31
0.0
  0
LINE
  5
9C
330
1F
100
AcDbEntity
  8
0
  6
Continuous
 62
     7
370
    25
100
AcDbLine
 10
106.8298436472
 20
214.8316909621
 30
0.0
 11
106.8298436472
 21
215.1316909621
 31
0.0
  0
LINE
  5
9D
330
1F
100
AcDbEntity
  8
0
  6
Continuous
 62
     7
370
    25
100
AcDbLine
 10
105.4690741317
 20
215.1316909621
 30
0.0
 11
106.8298436472
 21
215.1316909621
 31
0.0
  0
LWPOLYLINE
  5
9E
330
1F
100
AcDbEntity
  8
0
  6
Continuous
 62
     7
370
    25
100
AcDbPolyline
 90
        8
 70
   128
 43
0.0
 10
109.0183046163
 20
215.1316909621
 10
109.0553717775
 20
215.1243893687
 10
109.0910144684
 20
215.1027651845
 10
109.1238629605
 20
215.0676494148
 10
109.1526549047
 20
215.0203915389
 10
109.1762838426
 20
214.9628076506
 10
109.1938417275
 20
214.8971106664
 10
109.2040463725
 20
214.8316909621
  0
LWPOLYLINE
  5
9F
330
1F
100
AcDbEntity
  8
0
  6
Continuous
 62
     7
370
    25
100
AcDbPolyline
 90
        8
 70
   128
 43
0.0
 10
107.1255854034
 20
214.8316909621
 10
107.1153807584
 20
214.8971106664
 10
107.0978228735
 20
214.9628076506
 10
107.0741939356
 20
215.0203915389
 10
107.0454019915
 20
215.0676494148
 10
107.0125534993
 20
215.1027651845
 10
106.9769108084
 20
215.1243893687
 10
106.9398436472
 20
215.1316909621
  0
LINE
  5
A0
330
1F
100
AcDbEntity
  8
0
  6
Continuous
 62
     7
370
    25
100
AcDbLine
 10
106.9398436472
 20
215.1316909621
 30
0.0
 11
109.0183046163
 21
215.1316909621
 31
0.0
  0
LINE
  5
A1
330
1F
100
AcDbEntity
  8
0
  6
Continuous
 62
     7
370
    25
100
AcDbLine
 10
106.9398436472
 20
214.8316909621
 30
0.0
 11
106.9398436472
 21
215.1316909621
 31
0.0
  0
LINE
  5
A2
330
1F
100
AcDbEntity
  8
0
  6
Continuous
 62
     7
370
    25
100
AcDbLine
 10
106.9398436472
 20
215.1316909621
 30
0.0
 11
106.8298436472
 21
215.1316909621
 31
0.0
  0
LINE
  5
A3
330
1F
100
AcDbEntity
  8
0
  6
Continuous
 62
     7
370
    25
100
AcDbLine
 10
110.2690741317
 20
214.8316909621
 30
0.0
 11
110.2690741317
 21
215.1316909621
 31
0.0
  0
LINE
  5
A4
330
1F
100
AcDbEntity
  8
0
  6
Continuous
 62
     7
370
    25
100
AcDbLine
 10
109.0183046163
 20
215.1316909621
 30
0.0
 11
110.2690741317
 21
215.1316909621
 31
0.0
  0
LINE
  5
A5
330
1F
100
AcDbEntity
  8
0
  6
Continuous
 62
     7
370
    25
100
AcDbLine
 10
102.1220753327
 20
214.8316909621
 30
0.0
 11
102.1220753327
 21
215.1316909621
 31
0.0
  0
LINE
  5
A6
330
1F
100
AcDbEntity
  8
0
  6
Continuous
 62
     7
370
    25
100
AcDbLine
 10
102.9220753327
 20
215.1316909621
 30
0.0
 11
102.1220753327
 21
215.1316909621
 31
0.0
  0
LINE
  5
A7
330
1F
100
AcDbEntity
  8
0
  6
Continuous
 62
     7
370
    25
100
AcDbLine
 10
101.8690741317
 20
215.1316909621
 30
0.0
 11
102.1220753327
 21
215.1316909621
 31
0.0
  0
LINE
  5
A8
330
1F
100
AcDbEntity
  8
0
  6
Continuous
 62
     7
370
    25
100
AcDbLine
 10
101.8690741317
 20
214.8316909621
 30
0.0
 11
102.1220753327
 21
214.8316909621
 31
0.0
  0
LINE
  5
A9
330
1F
100
AcDbEntity
  8
0
  6
Continuous
 62
     7
370
    25
100
AcDbLine
 10
110.553284658
 20
215.1316909621
 30
0.0
 11
110.553284658
 21
214.8316909621
 31
0.0
  0
LINE
  5
AA
330
1F
100
AcDbEntity
  8
0
  6
Continuous
 62
     7
370
    25
100
AcDbLine
 10
110.2690741317
 20
215.1316909621
 30
0.0
 11
110.553284658
 21
215.1316909621
 31
0.0
  0
LINE
  5
AB
330
1F
100
AcDbEntity
  8
0
  6
Continuous
 62
     7
370
    25
100
AcDbLine
 10
110.553284658
 20
215.1316909621
 30
0.0
 11
110.6690741317
 21
215.1316909621
 31
0.0
  0
LINE
  5
AC
330
1F
100
AcDbEntity
  8
0
  6
Continuous
 62
     7
370
    25
100
AcDbLine
 10
110.553284658
 20
214.8316909621
 30
0.0
 11
110.6690741317
 21
214.8316909621
 31
0.0
  0
ARC
  5
AD
330
1F
100
AcDbEntity
  8
0
  6
Continuous
 62
     8
370
    25
100
AcDbCircle
 10
108.6961235359
 20
209.8540398152
 30
0.0
 40
0.6839593373111182
100
AcDbArc
 50
98.4003605862
 51
197.711900539
  0
ARC
  5
AE
330
1F
100
AcDbEntity
  8
0
  6
Continuous
 62
     8
370
    25
100
AcDbCircle
 10
108.6621375569
 20
209.7582159219
 30
0.0
 40
0.6276726195919988
100
AcDbArc
 50
190.3026380802
 51
266.4942329302
  0
ENDSEC
  0
SECTION
  2
OBJECTS
  0
DICTIONARY
  5
C
330
0
100
AcDbDictionary
281
     1
  3
ACAD_GROUP
350
D
  3
ACAD_LAYOUT
350
1A
  3
ACAD_MLINESTYLE
350
17
  3
ACAD_PLOTSETTINGS
350
19
  3
ACAD_PLOTSTYLENAME
350
E
  3
ACAD_SCALELIST
350
47
  3
DWGPROPS
350
AF
  0
DICTIONARY
  5
D
102
{ACAD_REACTORS
330
C
102
}
330
C
100
AcDbDictionary
281
     1
  0
DICTIONARY
  5
1A
102
{ACAD_REACTORS
330
C
102
}
330
C
100
AcDbDictionary
281
     1
  3
Layout1
350
1E
  3
Layout2
350
26
  3
Model
350
22
  0
DICTIONARY
  5
17
102
{ACAD_REACTORS
330
C
102
}
330
C
100
AcDbDictionary
281
     1
  3
Standard
350
18
  0
DICTIONARY
  5
19
102
{ACAD_REACTORS
330
C
102
}
330
C
100
AcDbDictionary
281
     1
  0
ACDBDICTIONARYWDFLT
  5
E
102
{ACAD_REACTORS
330
C
102
}
330
C
100
AcDbDictionary
281
     1
  3
Normal
350
F
100
AcDbDictionaryWithDefault
340
F
  0
DICTIONARY
  5
47
102
{ACAD_REACTORS
330
C
102
}
330
C
100
AcDbDictionary
281
     1
  3
A0
350
48
  3
A1
350
49
  3
A2
350
4A
  3
A3
350
4B
  3
A4
350
4C
  3
A5
350
4D
  3
A6
350
4E
  3
A7
350
4F
  3
A8
350
50
  3
A9
350
51
  3
B0
350
52
  3
B1
350
53
  3
B2
350
54
  3
B3
350
55
  3
B4
350
56
  3
B5
350
57
  3
B6
350
58
  3
B7
350
59
  3
B8
350
5A
  3
B9
350
5B
  3
C0
350
5C
  3
C1
350
5D
  3
C2
350
5E
  3
C3
350
5F
  3
C4
350
60
  3
C5
350
61
  3
C6
350
62
  3
C7
350
63
  3
C8
350
64
  3
C9
350
65
  3
D0
350
66
  3
D1
350
67
  3
D2
350
68
  0
XRECORD
  5
AF
102
{ACAD_REACTORS
330
C
102
}
330
C
100
AcDbXrecord
280
     1
  1
DWGPROPS COOKIE
  2

  3

  4

  6

  7

  8
9128
  9

300
=
301
=
302
=
303
=
304
=
305
=
306
=
307
=
308
=
309
=
 40
0.0
 41
2460018.227045278
 42
2460018.227045394
  1

 90
        0
  0
LAYOUT
  5
1E
102
{ACAD_REACTORS
330
1A
102
}
330
1A
100
AcDbPlotSettings
  1

  2
none_device
  4

  6

 40
0.0
 41
0.0
 42
0.0
 43
0.0
 44
0.0
 45
0.0
 46
0.0
 47
0.0
 48
0.0
 49
0.0
140
0.0
141
0.0
142
1.0
143
1.0
 70
   688
 72
     1
 73
     0
 74
     5
  7

 75
    16
147
1.0
148
0.0
149
0.0
100
AcDbLayout
  1
Layout1
 70
     1
 71
     1
 10
0.0
 20
0.0
 11
420.0
 21
297.0
 12
0.0
 22
0.0
 32
0.0
 14
1.0000000000E+20
 24
1.0000000000E+20
 34
1.0000000000E+20
 15
-1.0000000000E+20
 25
-1.0000000000E+20
 35
-1.0000000000E+20
146
0.0
 13
0.0
 23
0.0
 33
0.0
 16
1.0
 26
0.0
 36
0.0
 17
0.0
 27
1.0
 37
0.0
 76
     0
330
1B
  0
LAYOUT
  5
26
102
{ACAD_REACTORS
330
1A
102
}
330
1A
100
AcDbPlotSettings
  1

  2
none_device
  4

  6

 40
0.0
 41
0.0
 42
0.0
 43
0.0
 44
0.0
 45
0.0
 46
0.0
 47
0.0
 48
0.0
 49
0.0
140
0.0
141
0.0
142
1.0
143
1.0
 70
   688
 72
     1
 73
     0
 74
     5
  7

 75
    16
147
1.0
148
0.0
149
0.0
100
AcDbLayout
  1
Layout2
 70
     1
 71
     2
 10
0.0
 20
0.0
 11
0.0
 21
0.0
 12
0.0
 22
0.0
 32
0.0
 14
0.0
 24
0.0
 34
0.0
 15
0.0
 25
0.0
 35
0.0
146
0.0
 13
0.0
 23
0.0
 33
0.0
 16
1.0
 26
0.0
 36
0.0
 17
0.0
 27
1.0
 37
0.0
 76
     0
330
23
  0
LAYOUT
  5
22
102
{ACAD_REACTORS
330
1A
102
}
330
1A
100
AcDbPlotSettings
  1

  2
none_device
  4
Letter_(8.50_x_11.00_Inches)
  6

 40
6.35
 41
6.35
 42
6.35000508
 43
6.35000508
 44
215.9
 45
279.4
 46
0.0
 47
0.0
 48
0.0
 49
0.0
140
0.0
141
0.0
142
1.0
143
1.0
 70
  1712
 72
     1
 73
     0
 74
     0
  7

 75
     0
147
1.0
148
0.0
149
0.0
100
AcDbLayout
  1
Model
 70
     1
 71
     0
 10
0.0
 20
0.0
 11
210.0
 21
297.0
 12
0.0
 22
0.0
 32
0.0
 14
0.0
 24
0.0
 34
0.0
 15
210.0
 25
297.0
 35
0.0
146
0.0
 13
0.0
 23
0.0
 33
0.0
 16
1.0
 26
0.0
 36
0.0
 17
0.0
 27
1.0
 37
0.0
 76
     0
330
1F
331
29
  0
MLINESTYLE
  5
18
102
{ACAD_REACTORS
330
17
102
}
330
17
100
AcDbMlineStyle
  2
Standard
 70
     0
  3

 62
   256
 51
90.0
 52
90.0
 71
     2
 49
0.5
 62
   256
  6
BYLAYER
 49
-0.5
 62
   256
  6
BYLAYER
  0
ACDBPLACEHOLDER
  5
F
102
{ACAD_REACTORS
330
E
102
}
330
E
  0
SCALE
  5
48
102
{ACAD_REACTORS
330
47
102
}
330
47
100
AcDbScale
 70
     0
300
1:1
140
1.0
141
1.0
290
     1
  0
SCALE
  5
49
102
{ACAD_REACTORS
330
47
102
}
330
47
100
AcDbScale
 70
     0
300
1:2
140
1.0
141
2.0
290
     0
  0
SCALE
  5
4A
102
{ACAD_REACTORS
330
47
102
}
330
47
100
AcDbScale
 70
     0
300
1:4
140
1.0
141
4.0
290
     0
  0
SCALE
  5
4B
102
{ACAD_REACTORS
330
47
102
}
330
47
100
AcDbScale
 70
     0
300
1:5
140
1.0
141
5.0
290
     0
  0
SCALE
  5
4C
102
{ACAD_REACTORS
330
47
102
}
330
47
100
AcDbScale
 70
     0
300
1:8
140
1.0
141
8.0
290
     0
  0
SCALE
  5
4D
102
{ACAD_REACTORS
330
47
102
}
330
47
100
AcDbScale
 70
     0
300
1:10
140
1.0
141
10.0
290
     0
  0
SCALE
  5
4E
102
{ACAD_REACTORS
330
47
102
}
330
47
100
AcDbScale
 70
     0
300
1:16
140
1.0
141
16.0
290
     0
  0
SCALE
  5
4F
102
{ACAD_REACTORS
330
47
102
}
330
47
100
AcDbScale
 70
     0
300
1:20
140
1.0
141
20.0
290
     0
  0
SCALE
  5
50
102
{ACAD_REACTORS
330
47
102
}
330
47
100
AcDbScale
 70
     0
300
1:30
140
1.0
141
30.0
290
     0
  0
SCALE
  5
51
102
{ACAD_REACTORS
330
47
102
}
330
47
100
AcDbScale
 70
     0
300
1:40
140
1.0
141
40.0
290
     0
  0
SCALE
  5
52
102
{ACAD_REACTORS
330
47
102
}
330
47
100
AcDbScale
 70
     0
300
1:50
140
1.0
141
50.0
290
     0
  0
SCALE
  5
53
102
{ACAD_REACTORS
330
47
102
}
330
47
100
AcDbScale
 70
     0
300
1:100
140
1.0
141
100.0
290
     0
  0
SCALE
  5
54
102
{ACAD_REACTORS
330
47
102
}
330
47
100
AcDbScale
 70
     0
300
2:1
140
2.0
141
1.0
290
     0
  0
SCALE
  5
55
102
{ACAD_REACTORS
330
47
102
}
330
47
100
AcDbScale
 70
     0
300
4:1
140
4.0
141
1.0
290
     0
  0
SCALE
  5
56
102
{ACAD_REACTORS
330
47
102
}
330
47
100
AcDbScale
 70
     0
300
8:1
140
8.0
141
1.0
290
     0
  0
SCALE
  5
57
102
{ACAD_REACTORS
330
47
102
}
330
47
100
AcDbScale
 70
     0
300
10:1
140
10.0
141
1.0
290
     0
  0
SCALE
  5
58
102
{ACAD_REACTORS
330
47
102
}
330
47
100
AcDbScale
 70
     0
300
100:1
140
100.0
141
1.0
290
     0
  0
SCALE
  5
59
102
{ACAD_REACTORS
330
47
102
}
330
47
100
AcDbScale
 70
     0
300
1/128" = 1'-0"
140
0.0078125
141
12.0
290
     0
  0
SCALE
  5
5A
102
{ACAD_REACTORS
330
47
102
}
330
47
100
AcDbScale
 70
     0
300
1/64" = 1'-0"
140
0.015625
141
12.0
290
     0
  0
SCALE
  5
5B
102
{ACAD_REACTORS
330
47
102
}
330
47
100
AcDbScale
 70
     0
300
1/32" = 1'-0"
140
0.03125
141
12.0
290
     0
  0
SCALE
  5
5C
102
{ACAD_REACTORS
330
47
102
}
330
47
100
AcDbScale
 70
     0
300
1/16" = 1'-0"
140
0.0625
141
12.0
290
     0
  0
SCALE
  5
5D
102
{ACAD_REACTORS
330
47
102
}
330
47
100
AcDbScale
 70
     0
300
3/32" = 1'-0"
140
0.09375
141
12.0
290
     0
  0
SCALE
  5
5E
102
{ACAD_REACTORS
330
47
102
}
330
47
100
AcDbScale
 70
     0
300
1/8" = 1'-0"
140
0.125
141
12.0
290
     0
  0
SCALE
  5
5F
102
{ACAD_REACTORS
330
47
102
}
330
47
100
AcDbScale
 70
     0
300
3/16" = 1'-0"
140
0.1875
141
12.0
290
     0
  0
SCALE
  5
60
102
{ACAD_REACTORS
330
47
102
}
330
47
100
AcDbScale
 70
     0
300
1/4" = 1'-0"
140
0.25
141
12.0
290
     0
  0
SCALE
  5
61
102
{ACAD_REACTORS
330
47
102
}
330
47
100
AcDbScale
 70
     0
300
3/8" = 1'-0"
140
0.375
141
12.0
290
     0
  0
SCALE
  5
62
102
{ACAD_REACTORS
330
47
102
}
330
47
100
AcDbScale
 70
     0
300
1/2" = 1'-0"
140
0.5
141
12.0
290
     0
  0
SCALE
  5
63
102
{ACAD_REACTORS
330
47
102
}
330
47
100
AcDbScale
 70
     0
300
3/4" = 1'-0"
140
0.75
141
12.0
290
     0
  0
SCALE
  5
64
102
{ACAD_REACTORS
330
47
102
}
330
47
100
AcDbScale
 70
     0
300
1" = 1'-0"
140
1.0
141
12.0
290
     0
  0
SCALE
  5
65
102
{ACAD_REACTORS
330
47
102
}
330
47
100
AcDbScale
 70
     0
300
1-1/2" = 1'-0"
140
1.5
141
12.0
290
     0
  0
SCALE
  5
66
102
{ACAD_REACTORS
330
47
102
}
330
47
100
AcDbScale
 70
     0
300
3" = 1'-0"
140
3.0
141
12.0
290
     0
  0
SCALE
  5
67
102
{ACAD_REACTORS
330
47
102
}
330
47
100
AcDbScale
 70
     0
300
6" = 1'-0"
140
6.0
141
12.0
290
     0
  0
SCALE
  5
68
102
{ACAD_REACTORS
330
47
102
}
330
47
100
AcDbScale
 70
     0
300
1'-0" = 1'-0"
140
12.0
141
12.0
290
     0
  0
ENDSEC
  0
EOF
