  0
SECTION
  2
HEADER
  9
$ACADVER
  1
AC1015
  9
$ACADMAINTVER
 70
     6
  9
$DWGCODEPAGE
  3
DOS932
  9
$INSBASE
 10
0.0
 20
0.0
 30
0.0
  9
$EXTMIN
 10
0.0
 20
0.0
 30
0.0
  9
$EXTMAX
 10
210.0
 20
297.0
 30
0.0
  9
$LIMMIN
 10
0.0
 20
0.0
  9
$LIMMAX
 10
210.0
 20
297.0
  9
$ORTHOMODE
 70
     0
  9
$REGENMODE
 70
     1
  9
$FILLMODE
 70
     1
  9
$QTEXTMODE
 70
     0
  9
$MIRRTEXT
 70
     1
  9
$LTSCALE
 40
1.0
  9
$ATTMODE
 70
     1
  9
$TEXTSIZE
 40
3.5
  9
$TRACEWID
 40
1.0
  9
$TEXTSTYLE
  7
Standard
  9
$CLAYER
  8
0
  9
$CELTYPE
  6
ByLayer
  9
$CECOLOR
 62
   256
  9
$CELTSCALE
 40
1.0
  9
$DISPSILH
 70
     0
  9
$DIMSCALE
 40
1.0
  9
$DIMASZ
 40
1.5
  9
$DIMEXO
 40
1.0
  9
$DIMDLI
 40
3.75
  9
$DIMRND
 40
0.0
  9
$DIMDLE
 40
0.0
  9
$DIMEXE
 40
1.0
  9
$DIMTP
 40
0.0
  9
$DIMTM
 40
0.0
  9
$DIMTXT
 40
3.5
  9
$DIMCEN
 40
2.5
  9
$DIMTSZ
 40
0.0
  9
$DIMTOL
 70
     0
  9
$DIMLIM
 70
     0
  9
$DIMTIH
 70
     1
  9
$DIMTOH
 70
     1
  9
$DIMSE1
 70
     0
  9
$DIMSE2
 70
     0
  9
$DIMTAD
 70
     1
  9
$DIMZIN
 70
     0
  9
$DIMBLK
  1

  9
$DIMASO
 70
     1
  9
$DIMSHO
 70
     1
  9
$DIMPOST
  1

  9
$DIMAPOST
  1

  9
$DIMALT
 70
     0
  9
$DIMALTD
 70
     3
  9
$DIMALTF
 40
0.0393700787
  9
$DIMLFAC
 40
5.0
  9
$DIMTOFL
 70
     1
  9
$DIMTVP
 40
0.0
  9
$DIMTIX
 70
     0
  9
$DIMSOXD
 70
     0
  9
$DIMSAH
 70
     0
  9
$DIMBLK1
  1

  9
$DIMBLK2
  1

  9
$DIMSTYLE
  2
ISO-25
  9
$DIMCLRD
 70
     0
  9
$DIMCLRE
 70
     0
  9
$DIMCLRT
 70
     0
  9
$DIMTFAC
 40
1.0
  9
$DIMGAP
 40
1.5
  9
$DIMJUST
 70
     0
  9
$DIMSD1
 70
     0
  9
$DIMSD2
 70
     0
  9
$DIMTOLJ
 70
     0
  9
$DIMTZIN
 70
     0
  9
$DIMALTZ
 70
     0
  9
$DIMALTTZ
 70
     0
  9
$DIMUPT
 70
     0
  9
$DIMDEC
 70
     1
  9
$DIMTDEC
 70
     1
  9
$DIMALTU
 70
     2
  9
$DIMALTTD
 70
     3
  9
$DIMTXSTY
  7
Standard
  9
$DIMAUNIT
 70
     0
  9
$DIMADEC
 70
     2
  9
$DIMALTRND
 40
0.0
  9
$DIMAZIN
 70
     0
  9
$DIMDSEP
 70
    44
  9
$DIMATFIT
 70
     3
  9
$DIMFRAC
 70
     0
  9
$DIMLDRBLK
  1

  9
$DIMLUNIT
 70
     2
  9
$DIMLWD
 70
    -2
  9
$DIMLWE
 70
    -2
  9
$DIMTMOVE
 70
     0
  9
$LUNITS
 70
     2
  9
$LUPREC
 70
     4
  9
$SKETCHINC
 40
1.0
  9
$FILLETRAD
 40
10.0
  9
$AUNITS
 70
     0
  9
$AUPREC
 70
     2
  9
$MENU
  1
.
  9
$ELEVATION
 40
0.0
  9
$PELEVATION
 40
0.0
  9
$THICKNESS
 40
0.0
  9
$LIMCHECK
 70
     0
  9
$CHAMFERA
 40
0.0
  9
$CHAMFERB
 40
0.0
  9
$CHAMFERC
 40
0.0
  9
$CHAMFERD
 40
0.0
  9
$SKPOLY
 70
     0
  9
$TDCREATE
 40
2460018.602262651
  9
$TDUCREATE
 40
2460018.227262651
  9
$TDUPDATE
 40
2460018.602262835
  9
$TDUUPDATE
 40
2460018.227262835
  9
$TDINDWG
 40
0.0000000116
  9
$TDUSRTIMER
 40
0.0000000116
  9
$USRTIMER
 70
     1
  9
$ANGBASE
 50
0.0
  9
$ANGDIR
 70
     0
  9
$PDMODE
 70
     0
  9
$PDSIZE
 40
-1.0
  9
$PLINEWID
 40
0.0
  9
$SPLFRAME
 70
     0
  9
$SPLINETYPE
 70
     6
  9
$SPLINESEGS
 70
     8
  9
$HANDSEED
  5
B1
  9
$SURFTAB1
 70
     6
  9
$SURFTAB2
 70
     6
  9
$SURFTYPE
 70
     6
  9
$SURFU
 70
     6
  9
$SURFV
 70
     6
  9
$UCSBASE
  2

  9
$UCSNAME
  2

  9
$UCSORG
 10
0.0
 20
0.0
 30
0.0
  9
$UCSXDIR
 10
1.0
 20
0.0
 30
0.0
  9
$UCSYDIR
 10
0.0
 20
1.0
 30
0.0
  9
$UCSORTHOREF
  2

  9
$UCSORTHOVIEW
 70
     0
  9
$UCSORGTOP
 10
0.0
 20
0.0
 30
0.0
  9
$UCSORGBOTTOM
 10
0.0
 20
0.0
 30
0.0
  9
$UCSORGLEFT
 10
0.0
 20
0.0
 30
0.0
  9
$UCSORGRIGHT
 10
0.0
 20
0.0
 30
0.0
  9
$UCSORGFRONT
 10
0.0
 20
0.0
 30
0.0
  9
$UCSORGBACK
 10
0.0
 20
0.0
 30
0.0
  9
$PUCSBASE
  2

  9
$PUCSNAME
  2

  9
$PUCSORG
 10
0.0
 20
0.0
 30
0.0
  9
$PUCSXDIR
 10
1.0
 20
0.0
 30
0.0
  9
$PUCSYDIR
 10
0.0
 20
1.0
 30
0.0
  9
$PUCSORTHOREF
  2

  9
$PUCSORTHOVIEW
 70
     0
  9
$PUCSORGTOP
 10
0.0
 20
0.0
 30
0.0
  9
$PUCSORGBOTTOM
 10
0.0
 20
0.0
 30
0.0
  9
$PUCSORGLEFT
 10
0.0
 20
0.0
 30
0.0
  9
$PUCSORGRIGHT
 10
0.0
 20
0.0
 30
0.0
  9
$PUCSORGFRONT
 10
0.0
 20
0.0
 30
0.0
  9
$PUCSORGBACK
 10
0.0
 20
0.0
 30
0.0
  9
$USERI1
 70
     0
  9
$USERI2
 70
     0
  9
$USERI3
 70
     0
  9
$USERI4
 70
     0
  9
$USERI5
 70
     0
  9
$USERR1
 40
0.0
  9
$USERR2
 40
0.0
  9
$USERR3
 40
0.0
  9
$USERR4
 40
0.0
  9
$USERR5
 40
0.0
  9
$WORLDVIEW
 70
     1
  9
$SHADEDGE
 70
     3
  9
$SHADEDIF
 70
    70
  9
$TILEMODE
 70
     1
  9
$MAXACTVP
 70
    64
  9
$PINSBASE
 10
0.0
 20
0.0
 30
0.0
  9
$PLIMCHECK
 70
     0
  9
$PEXTMIN
 10
1.0000000000E+20
 20
1.0000000000E+20
 30
1.0000000000E+20
  9
$PEXTMAX
 10
-1.0000000000E+20
 20
-1.0000000000E+20
 30
-1.0000000000E+20
  9
$PLIMMIN
 10
0.0
 20
0.0
  9
$PLIMMAX
 10
420.0
 20
297.0
  9
$UNITMODE
 70
     0
  9
$VISRETAIN
 70
     1
  9
$PLINEGEN
 70
     0
  9
$PSLTSCALE
 70
     1
  9
$TREEDEPTH
 70
  3020
  9
$CMLSTYLE
  2
Standard
  9
$CMLJUST
 70
     0
  9
$CMLSCALE
 40
20.0
  9
$PROXYGRAPHICS
 70
     1
  9
$MEASUREMENT
 70
     1
  9
$CELWEIGHT
370
    -1
  9
$ENDCAPS
280
     0
  9
$JOINSTYLE
280
     0
  9
$LWDISPLAY
290
     1
  9
$INSUNITS
 70
     4
  9
$HYPERLINKBASE
  1

  9
$STYLESHEET
  1

  9
$XEDIT
290
     1
  9
$CEPSNTYPE
380
     0
  9
$PSTYLEMODE
290
     1
  9
$FINGERPRINTGUID
  2
{023907ee-fb88-4a31-99b9-766e4a98980d}
  9
$VERSIONGUID
  2
{FAEB1C32-E019-11D5-929B-00C0DF256EC4}
  9
$EXTNAMES
290
     1
  9
$PSVPSCALE
 40
0.0
  9
$OLESTARTUP
290
     0
  0
ENDSEC
  0
SECTION
  2
CLASSES
  0
CLASS
  1
ACDBDICTIONARYWDFLT
  2
AcDbDictionaryWithDefault
  3
ObjectDBX Classes
 90
        0
280
     0
281
     0
  0
CLASS
  1
VISUALSTYLE
  2
AcDbVisualStyle
  3
ObjectDBX Classes
 90
     4095
280
     0
281
     0
  0
CLASS
  1
MATERIAL
  2
AcDbMaterial
  3
ObjectDBX Classes
 90
     1153
280
     0
281
     0
  0
CLASS
  1
SCALE
  2
AcDbScale
  3
ObjectDBX Classes
 90
     1153
280
     0
281
     0
  0
CLASS
  1
TABLESTYLE
  2
AcDbTableStyle
  3
ObjectDBX Classes
 90
     4095
280
     0
281
     0
  0
CLASS
  1
MLEADERSTYLE
  2
AcDbMLeaderStyle
  3
ACDB_MLEADERSTYLE_CLASS
 90
     4095
280
     0
281
     0
  0
CLASS
  1
SUN
  2
AcDbSun
  3
SCENEOE
 90
     1153
280
     0
281
     0
  0
CLASS
  1
ACDBPLACEHOLDER
  2
AcDbPlaceHolder
  3
ObjectDBX Classes
 90
        0
280
     0
281
     0
  0
CLASS
  1
LAYOUT
  2
AcDbLayout
  3
ObjectDBX Classes
 90
        0
280
     0
281
     0
  0
ENDSEC
  0
SECTION
  2
TABLES
  0
TABLE
  2
VPORT
  5
8
330
0
100
AcDbSymbolTable
 70
     1
  0
VPORT
  5
29
330
8
100
AcDbSymbolTableRecord
100
AcDbViewportTableRecord
  2
*Active
 70
     0
 10
0.0
 20
0.0
 11
1.0
 21
1.0
 12
105.0
 22
148.5
 13
0.0
 23
0.0
 14
10.0
 24
10.0
 15
10.0
 25
10.0
 16
0.0
 26
0.0
 36
1.0
 17
0.0
 27
0.0
 37
0.0
 40
297.0
 41
0.7070707071
 42
50.0
 43
0.0
 44
0.0
 50
0.0
 51
0.0
 71
     0
 72
  2000
 73
     1
 74
     3
 75
     0
 76
     0
 77
     0
 78
     0
281
     0
 65
     1
110
0.0
120
0.0
130
0.0
111
1.0
121
0.0
131
0.0
112
0.0
122
1.0
132
0.0
 79
     0
146
0.0
  0
ENDTAB
  0
TABLE
  2
LTYPE
  5
5
330
0
100
AcDbSymbolTable
 70
     6
  0
LTYPE
  5
14
330
5
100
AcDbSymbolTableRecord
100
AcDbLinetypeTableRecord
  2
ByBlock
 70
     0
  3

 72
    65
 73
     0
 40
0.0
  0
LTYPE
  5
15
330
5
100
AcDbSymbolTableRecord
100
AcDbLinetypeTableRecord
  2
ByLayer
 70
     0
  3

 72
    65
 73
     0
 40
0.0
  0
LTYPE
  5
16
330
5
100
AcDbSymbolTableRecord
100
AcDbLinetypeTableRecord
  2
Continuous
 70
     0
  3
Solid line
 72
    65
 73
     0
 40
0.0
  0
LTYPE
  5
6E
330
5
100
AcDbSymbolTableRecord
100
AcDbLinetypeTableRecord
  2
HIDDEN
 70
     0
  3
Hidden __ __ __ __ __ __ __ __ __ __ __ __ __ __
 72
    65
 73
     2
 40
1.905
 49
1.27
 74
     0
 49
-0.635
 74
     0
  0
LTYPE
  5
6F
330
5
100
AcDbSymbolTableRecord
100
AcDbLinetypeTableRecord
  2
PHANTOM
 70
     0
  3
Phantom ______  __  __  ______  __  __  ______
 72
    65
 73
     6
 40
12.7
 49
6.35
 74
     0
 49
-1.27
 74
     0
 49
1.27
 74
     0
 49
-1.27
 74
     0
 49
1.27
 74
     0
 49
-1.27
 74
     0
  0
LTYPE
  5
70
330
5
100
AcDbSymbolTableRecord
100
AcDbLinetypeTableRecord
  2
CENTER
 70
     0
  3
Center ____ _ ____ _ ____ _ ____ _ ____ _ ____
 72
    65
 73
     4
 40
10.16
 49
6.35
 74
     0
 49
-1.27
 74
     0
 49
1.27
 74
     0
 49
-1.27
 74
     0
  0
LTYPE
  5
71
330
5
100
AcDbSymbolTableRecord
100
AcDbLinetypeTableRecord
  2
CENTERX2
 70
     0
  3
Center (2x) ________  __  ________  __  _____
 72
    65
 73
     4
 40
20.32
 49
12.7
 74
     0
 49
-2.54
 74
     0
 49
2.54
 74
     0
 49
-2.54
 74
     0
  0
LTYPE
  5
72
330
5
100
AcDbSymbolTableRecord
100
AcDbLinetypeTableRecord
  2
DOT2
 70
     0
  3
Dot (.5x) ........................................
 72
    65
 73
     2
 40
0.635
 49
0.0
 74
     0
 49
-0.635
 74
     0
  0
ENDTAB
  0
TABLE
  2
LAYER
  5
2
330
0
100
AcDbSymbolTable
 70
     1
  0
LAYER
  5
10
330
2
100
AcDbSymbolTableRecord
100
AcDbLayerTableRecord
  2
0
 70
     0
 62
     7
  6
Continuous
370
    -3
390
F
  0
ENDTAB
  0
TABLE
  2
STYLE
  5
3
330
0
100
AcDbSymbolTable
 70
     2
  0
STYLE
  5
11
330
3
100
AcDbSymbolTableRecord
100
AcDbTextStyleTableRecord
  2
Standard
 70
     0
 40
0.0
 41
1.0
 50
0.0
 71
     0
 42
3.5
  3
txt
  4
bigfont
  0
STYLE
  5
73
330
3
100
AcDbSymbolTableRecord
100
AcDbTextStyleTableRecord
  2
SLDTEXTSTYLE0
 70
     0
 40
0.0
 41
0.7
 50
0.0
 71
     0
 42
3.5
  3
TXT
  4
bigfont
  0
ENDTAB
  0
TABLE
  2
VIEW
  5
6
330
0
100
AcDbSymbolTable
 70
     0
  0
ENDTAB
  0
TABLE
  2
UCS
  5
7
330
0
100
AcDbSymbolTable
 70
     0
  0
ENDTAB
  0
TABLE
  2
APPID
  5
9
330
0
100
AcDbSymbolTable
 70
     1
  0
APPID
  5
12
330
9
100
AcDbSymbolTableRecord
100
AcDbRegAppTableRecord
  2
ACAD
 70
     0
  0
ENDTAB
  0
TABLE
  2
DIMSTYLE
  5
A
330
0
100
AcDbSymbolTable
 70
     1
100
AcDbDimStyleTable
  0
DIMSTYLE
105
27
330
A
100
AcDbSymbolTableRecord
100
AcDbDimStyleTableRecord
  2
ISO-25
 70
     0
 41
2.5
 42
0.625
 43
3.75
 44
1.25
 73
     0
 74
     0
 77
     1
 78
     8
140
2.5
141
2.5
143
0.0393700787
147
0.625
171
     3
172
     1
178
     0
271
     2
272
     2
274
     3
278
    44
283
     0
284
     8
340
11
  0
ENDTAB
  0
TABLE
  2
BLOCK_RECORD
  5
1
330
0
100
AcDbSymbolTable
 70
     1
  0
BLOCK_RECORD
  5
1F
330
1
100
AcDbSymbolTableRecord
100
AcDbBlockTableRecord
  2
*Model_Space
340
22
  0
BLOCK_RECORD
  5
1B
330
1
100
AcDbSymbolTableRecord
100
AcDbBlockTableRecord
  2
*Paper_Space
340
1E
  0
BLOCK_RECORD
  5
23
330
1
100
AcDbSymbolTableRecord
100
AcDbBlockTableRecord
  2
*Paper_Space0
340
26
  0
ENDTAB
  0
ENDSEC
  0
SECTION
  2
BLOCKS
  0
BLOCK
  5
20
330
1F
100
AcDbEntity
  8
0
100
AcDbBlockBegin
  2
*Model_Space
 70
     0
 10
0.0
 20
0.0
 30
0.0
  3
*Model_Space
  1

  0
ENDBLK
  5
21
330
1F
100
AcDbEntity
  8
0
100
AcDbBlockEnd
  0
BLOCK
  5
1C
330
1B
100
AcDbEntity
 67
     1
  8
0
100
AcDbBlockBegin
  2
*Paper_Space
 70
     0
 10
0.0
 20
0.0
 30
0.0
  3
*Paper_Space
  1

  0
ENDBLK
  5
1D
330
1B
100
AcDbEntity
 67
     1
  8
0
100
AcDbBlockEnd
  0
BLOCK
  5
24
330
23
100
AcDbEntity
  8
0
100
AcDbBlockBegin
  2
*Paper_Space0
 70
     0
 10
0.0
 20
0.0
 30
0.0
  3
*Paper_Space0
  1

  0
ENDBLK
  5
25
330
23
100
AcDbEntity
  8
0
100
AcDbBlockEnd
  0
ENDSEC
  0
SECTION
  2
ENTITIES
  0
MTEXT
  5
74
330
1F
100
AcDbEntity
  8
0
  6
Continuous
 62
     7
370
     0
100
AcDbMText
 10
139.1509829154
 20
100.678760248
 30
0.0
 40
3.5
 41
0.0
 71
     1
 72
     1
  1
HEC-119S/C/K
  7
SLDTEXTSTYLE0
 73
     1
 44
1.0
  0
LINE
  5
75
330
1F
100
AcDbEntity
  8
0
  6
Continuous
 62
     7
370
    25
100
AcDbLine
 10
121.7104022312
 20
80.3197880091
 30
0.0
 11
104.8971987956
 21
80.3197880091
 31
0.0
  0
LINE
  5
76
330
1F
100
AcDbEntity
  8
0
  6
Continuous
 62
     7
370
    25
100
AcDbLine
 10
97.7426119113
 20
80.3197880091
 30
0.0
 11
79.28399536
 21
80.3197880091
 31
0.0
  0
LINE
  5
77
330
1F
100
AcDbEntity
  8
0
  6
Continuous
 62
     7
370
    25
100
AcDbLine
 10
79.28399536
 20
77.9197880091
 30
0.0
 11
97.7250051454
 21
77.9197880091
 31
0.0
  0
LINE
  5
78
330
1F
100
AcDbEntity
  8
0
  6
Continuous
 62
     7
370
    25
100
AcDbLine
 10
104.8971987956
 20
77.9197880091
 30
0.0
 11
121.7104022312
 21
77.9197880091
 31
0.0
  0
LINE
  5
79
330
1F
100
AcDbEntity
  8
0
  6
Continuous
 62
     7
370
    25
100
AcDbLine
 10
96.0971987956
 20
239.1197880091
 30
0.0
 11
96.0971987956
 21
80.3197880091
 31
0.0
  0
LINE
  5
7A
330
1F
100
AcDbEntity
  8
0
  6
Continuous
 62
     7
370
    25
100
AcDbLine
 10
96.0971987956
 20
77.9197880091
 30
0.0
 11
96.0971987956
 21
69.1197880091
 31
0.0
  0
LINE
  5
7B
330
1F
100
AcDbEntity
  8
0
  6
Continuous
 62
     7
370
    25
100
AcDbLine
 10
104.8971987956
 20
69.1197880091
 30
0.0
 11
104.8971987956
 21
239.1197880091
 31
0.0
  0
SPLINE
  5
7C
330
1F
100
AcDbEntity
  8
0
  6
Continuous
 62
     7
370
    25
100
AcDbSpline
210
0.0
220
0.0
230
1.0
 70
     8
 71
     3
 72
    19
 73
    15
 74
     0
 42
0.00000001
 43
0.00000001
 40
0.0
 40
0.0
 40
0.0
 40
0.0
 40
0.0135104642833086
 40
0.1039170427664349
 40
0.1923061530182779
 40
0.2829196129129399
 40
0.3778747390814637
 40
0.4759305208611396
 40
0.5753166424052781
 40
0.6761054863330805
 40
0.7787606787290196
 40
0.868857221132532
 40
0.9556213608183757
 40
1.0
 40
1.0
 40
1.0
 40
1.0
 10
103.8216107438098
 20
233.4237474394072
 30
0.0
 10
103.8299038759298
 20
233.4223006670098
 30
0.0
 10
103.8936913037423
 20
233.4111726771827
 30
0.0
 10
104.0141990266565
 20
233.4491330274904
 30
0.0
 10
104.159354594487
 20
233.5374799698027
 30
0.0
 10
104.2754917355943
 20
233.677027802064
 30
0.0
 10
104.3565019655617
 20
233.8542293965803
 30
0.0
 10
104.3945776358666
 20
234.059545226047
 30
0.0
 10
104.3837050484061
 20
234.2742976274587
 30
0.0
 10
104.3222037192241
 20
234.4783075968494
 30
0.0
 10
104.2159957508677
 20
234.6461271368277
 30
0.0
 10
104.0773804861769
 20
234.7592937891187
 30
0.0
 10
103.9461026937608
 20
234.8179389828642
 30
0.0
 10
103.8642320394558
 20
234.8130443056947
 30
0.0
 10
103.8365270582259
 20
234.8113879498214
 30
0.0
  0
LINE
  5
7D
330
1F
100
AcDbEntity
  8
0
  6
Continuous
 62
     7
370
    25
100
AcDbLine
 10
103.8347428028
 20
234.8197880091
 30
0.0
 11
103.6084686329
 21
234.8197880091
 31
0.0
  0
LINE
  5
7E
330
1F
100
AcDbEntity
  8
0
  6
Continuous
 62
     7
370
    25
100
AcDbLine
 10
103.6084686329
 20
233.4197880091
 30
0.0
 11
103.8347428028
 21
233.4197880091
 31
0.0
  0
LINE
  5
7F
330
1F
100
AcDbEntity
  8
0
  6
Continuous
 62
     7
370
    25
100
AcDbLine
 10
104.8952682209
 20
239.1197880091
 30
0.0
 11
104.8952682209
 21
239.4197880091
 31
0.0
  0
LINE
  5
80
330
1F
100
AcDbEntity
  8
0
  6
Continuous
 62
     7
370
    25
100
AcDbLine
 10
96.0991293703
 20
239.4197880091
 30
0.0
 11
96.0991293703
 21
239.1197880091
 31
0.0
  0
LWPOLYLINE
  5
81
330
1F
100
AcDbEntity
  8
0
  6
Continuous
 62
     7
370
    25
100
AcDbPolyline
 90
       26
 70
   128
 43
0.0
 10
79.6012341565
 20
78.0717808087
 10
79.7755599028
 20
78.2162789606
 10
79.9189988411
 20
78.417547909
 10
80.0225381752
 20
78.6629411855
 10
80.0796721482
 20
78.9370398281
 10
80.0868108222
 20
79.222621211
 10
80.0435056482
 20
79.5017412056
 10
79.9524776495
 20
79.7568616762
 10
79.8194464501
 20
79.9719524652
 10
79.6527708894
 20
80.1334986275
 10
79.4629238059
 20
80.2313496234
 10
79.2618339902
 20
80.2593571151
 10
79.0621366548
 20
80.2157612888
 10
78.8763795178
 20
80.1033014306
 10
78.7162343833
 20
79.929043807
 10
78.591763759
 20
79.7039376654
 10
78.5107885921
 20
79.4421272526
 10
78.47839685
 20
79.1600630796
 10
78.4966238251
 20
78.8754682758
 10
78.5643242496
 20
78.6062249794
 10
78.6772442566
 20
78.3692507369
 10
78.828288667
 20
78.1794355114
 10
79.0079668048
 20
78.0487060918
 10
79.204988832
 20
77.9852766883
 10
79.4069751298
 20
77.9931328034
 10
79.6012341565
 20
78.0717808087
  0
LWPOLYLINE
  5
82
330
1F
100
AcDbEntity
  8
0
  6
Continuous
 62
     7
370
    25
100
AcDbPolyline
 90
       26
 70
   128
 43
0.0
 10
79.6179309352
 20
78.016622535
 10
79.8014317208
 20
78.1687258528
 10
79.9524200769
 20
78.3805879037
 10
80.0614088497
 20
78.6388966158
 10
80.1215498739
 20
78.9274215027
 10
80.1290642676
 20
79.2280334847
 10
80.0834798739
 20
79.5218440054
 10
79.9876609279
 20
79.7903918692
 10
79.8476280864
 20
80.0168032261
 10
79.6721801278
 20
80.1868518179
 10
79.4723410926
 20
80.2898528663
 10
79.2606676023
 20
80.3193344364
 10
79.0504598808
 20
80.2734440929
 10
78.8549260524
 20
80.1550652949
 10
78.6863522266
 20
79.9716362174
 10
78.5553305168
 20
79.7346823842
 10
78.470093499
 20
79.4590924759
 10
78.4359969284
 20
79.1621828201
 10
78.455183218
 20
78.8626093424
 10
78.5264468227
 20
78.5791953462
 10
78.645309988
 20
78.3297487752
 10
78.8043041042
 20
78.1299432747
 10
78.9934389861
 20
77.9923333594
 10
79.2008305936
 20
77.9255655661
 10
79.4134477493
 20
77.933835161
 10
79.6179309352
 20
78.016622535
  0
LWPOLYLINE
  5
83
330
1F
100
AcDbEntity
  8
0
  6
Continuous
 62
     7
370
    25
100
AcDbPolyline
 90
       12
 70
   128
 43
0.0
 10
122.0443378064
 20
78.016622535
 10
122.227838592
 20
78.1687258528
 10
122.3788269481
 20
78.3805879037
 10
122.4878157209
 20
78.6388966158
 10
122.5479567451
 20
78.9274215027
 10
122.5554711388
 20
79.2280334847
 10
122.5098867451
 20
79.5218440054
 10
122.4140677991
 20
79.7903918692
 10
122.2740349576
 20
80.0168032261
 10
122.098586999
 20
80.1868518179
 10
121.8987479638
 20
80.2898528663
 10
121.7104022312
 20
80.3197880091
  0
LWPOLYLINE
  5
84
330
1F
100
AcDbEntity
  8
0
  6
Continuous
 62
     7
370
    25
100
AcDbPolyline
 90
        3
 70
   128
 43
0.0
 10
121.7104022312
 20
77.9197880091
 10
121.8398546205
 20
77.933835161
 10
122.0443378064
 20
78.016622535
  0
LINE
  5
85
330
1F
100
AcDbEntity
  8
0
  6
Continuous
 62
     7
370
    25
100
AcDbLine
 10
104.8971987956
 20
239.1197880091
 30
0.0
 11
96.0971987956
 21
239.1197880091
 31
0.0
  0
LINE
  5
86
330
1F
100
AcDbEntity
  8
0
  6
Continuous
 62
     7
370
    25
100
AcDbLine
 10
104.8971987956
 20
69.1197880091
 30
0.0
 11
96.0971987956
 21
69.1197880091
 31
0.0
  0
SPLINE
  5
87
330
1F
100
AcDbEntity
  8
0
  6
Continuous
 62
     7
370
    25
100
AcDbSpline
210
0.0
220
0.0
230
1.0
 70
    11
 71
     3
 72
    26
 73
    22
 74
     0
 42
0.00000001
 43
0.00000001
 40
0.0
 40
0.0
 40
0.0
 40
0.0
 40
0.0527584329502379
 40
0.1054856764883985
 40
0.1590289049034045
 40
0.2132033733108966
 40
0.2664630442157487
 40
0.3186794994993968
 40
0.3713521372025351
 40
0.4252538794385952
 40
0.4792737623571836
 40
0.5321373458689439
 40
0.5843802585974323
 40
0.6374258396667505
 40
0.6915249757828833
 40
0.7452939917197763
 40
0.7977967956704156
 40
0.8500990063540859
 40
0.9035455459388932
 40
0.9577266800703733
 40
1.0
 40
1.0
 40
1.0
 40
1.0
 10
97.38592895841626
 20
220.1197880090585
 30
0.0
 10
97.4660956163244
 20
220.1090182636163
 30
0.0
 10
97.62638153969952
 20
220.0874851395251
 30
0.0
 10
97.86057108101726
 20
219.9199651926588
 30
0.0
 10
98.05084295034811
 20
219.6711039524532
 30
0.0
 10
98.1669655854664
 20
219.355936951384
 30
0.0
 10
98.1861160945127
 20
219.0161572601295
 30
0.0
 10
98.10810310258682
 20
218.6918713069973
 30
0.0
 10
97.94765557082115
 20
218.4141895676637
 30
0.0
 10
97.72721882824167
 20
218.2111764399111
 30
0.0
 10
97.47979597484648
 20
218.1096505047277
 30
0.0
 10
97.24203723123564
 20
218.1219987043835
 30
0.0
 10
97.03932913082919
 20
218.2427586339323
 30
0.0
 10
96.88472226554711
 20
218.4593016008365
 30
0.0
 10
96.78675250063792
 20
218.7521725795073
 30
0.0
 10
96.75034729211467
 20
219.0872944874638
 30
0.0
 10
96.77504708203872
 20
219.4219587557011
 30
0.0
 10
96.85860059159897
 20
219.7219632603004
 30
0.0
 10
97.00117801877582
 20
219.956815108954
 30
0.0
 10
97.18393674331287
 20
220.0969516159312
 30
0.0
 10
97.32437761014096
 20
220.1128292716338
 30
0.0
 10
97.38592895841626
 20
220.1197880090585
 30
0.0
  0
SPLINE
  5
88
330
1F
100
AcDbEntity
  8
0
  6
Continuous
 62
     7
370
    25
100
AcDbSpline
210
0.0
220
0.0
230
1.0
 70
    11
 71
     3
 72
    26
 73
    22
 74
     0
 42
0.00000001
 43
0.00000001
 40
0.0
 40
0.0
 40
0.0
 40
0.0
 40
0.0527584329502373
 40
0.1054856764883983
 40
0.1590289049034051
 40
0.2132033733108971
 40
0.266463044215751
 40
0.3186794994993956
 40
0.3713521372025355
 40
0.4252538794385947
 40
0.4792737623571827
 40
0.532137345868943
 40
0.5843802585974307
 40
0.637425839666749
 40
0.6915249757828854
 40
0.7452939917197747
 40
0.7977967956704123
 40
0.8500990063540822
 40
0.9035455459388909
 40
0.9577266800703734
 40
1.0
 40
1.0
 40
1.0
 40
1.0
 10
97.38592895841595
 20
140.1197880090585
 30
0.0
 10
97.46609561632408
 20
140.1090182636163
 30
0.0
 10
97.62638153969921
 20
140.0874851395251
 30
0.0
 10
97.86057108101693
 20
139.9199651926589
 30
0.0
 10
98.0508429503478
 20
139.6711039524533
 30
0.0
 10
98.16696558546609
 20
139.355936951384
 30
0.0
 10
98.18611609451236
 20
139.0161572601296
 30
0.0
 10
98.1081031025865
 20
138.6918713069973
 30
0.0
 10
97.94765557082083
 20
138.4141895676638
 30
0.0
 10
97.72721882824135
 20
138.2111764399112
 30
0.0
 10
97.47979597484616
 20
138.1096505047278
 30
0.0
 10
97.24203723123533
 20
138.1219987043835
 30
0.0
 10
97.03932913082886
 20
138.2427586339322
 30
0.0
 10
96.88472226554678
 20
138.4593016008365
 30
0.0
 10
96.78675250063759
 20
138.7521725795073
 30
0.0
 10
96.75034729211434
 20
139.0872944874638
 30
0.0
 10
96.77504708203841
 20
139.4219587557011
 30
0.0
 10
96.85860059159864
 20
139.7219632603004
 30
0.0
 10
97.0011780187755
 20
139.956815108954
 30
0.0
 10
97.18393674331253
 20
140.0969516159313
 30
0.0
 10
97.32437761014064
 20
140.1128292716338
 30
0.0
 10
97.38592895841595
 20
140.1197880090585
 30
0.0
  0
SPLINE
  5
89
330
1F
100
AcDbEntity
  8
0
  6
Continuous
 62
     7
370
    25
100
AcDbSpline
210
0.0
220
0.0
230
1.0
 70
    11
 71
     3
 72
    28
 73
    24
 74
     0
 42
0.00000001
 43
0.00000001
 40
0.0
 40
0.0
 40
0.0
 40
0.0
 40
0.0500959806541372
 40
0.1000914092532817
 40
0.1527285419326307
 40
0.2085325007111599
 40
0.261262127108446
 40
0.3090430757449208
 40
0.3579516366150367
 40
0.4118649711166803
 40
0.4674589219379808
 40
0.519009941773698
 40
0.5674255455510291
 40
0.617373276880811
 40
0.6715143289329297
 40
0.6994183840357067
 40
0.7273037760410863
 40
0.7779852539515127
 40
0.8253823271172142
 40
0.8758955616782453
 40
0.9311038559443141
 40
0.9857210804839115
 40
1.0
 40
1.0
 40
1.0
 40
1.0
 10
97.3859289584159
 20
131.1197880090585
 30
0.0
 10
97.54299395955796
 20
131.0998287827338
 30
0.0
 10
97.85680870284475
 20
131.0599503920054
 30
0.0
 10
98.35477540829118
 20
130.7516065758591
 30
0.0
 10
98.79761175873105
 20
130.2835250991009
 30
0.0
 10
99.10254313097481
 20
129.665616679925
 30
0.0
 10
99.17330865060786
 20
128.9925896937911
 30
0.0
 10
99.01940440408742
 20
128.3695091355765
 30
0.0
 10
98.69410069078809
 20
127.8249908402551
 30
0.0
 10
98.22855604336307
 20
127.3858431492385
 30
0.0
 10
97.69709222617128
 20
127.12771420747
 30
0.0
 10
97.21253255934057
 20
127.0992309133912
 30
0.0
 10
96.83329663964001
 20
127.2750490741521
 30
0.0
 10
96.55775699630995
 20
127.6284952633723
 30
0.0
 10
96.41324642234238
 20
128.0636594627029
 30
0.0
 10
96.34431983988011
 20
128.4856321104732
 30
0.0
 10
96.30741338485026
 20
128.9228325154903
 30
0.0
 10
96.31048776922285
 20
129.4685512060473
 30
0.0
 10
96.383466604603
 20
130.0648497649227
 30
0.0
 10
96.54184991480008
 20
130.5798660537457
 30
0.0
 10
96.82230448610915
 20
130.9650235156129
 30
0.0
 10
97.14035748308561
 20
131.1098836707039
 30
0.0
 10
97.34377094637348
 20
131.1180877007671
 30
0.0
 10
97.3859289584159
 20
131.1197880090585
 30
0.0
  0
SPLINE
  5
8A
330
1F
100
AcDbEntity
  8
0
  6
Continuous
 62
     7
370
    25
100
AcDbSpline
210
0.0
220
0.0
230
1.0
 70
    11
 71
     3
 72
    46
 73
    42
 74
     0
 42
0.00000001
 43
0.00000001
 40
0.0
 40
0.0
 40
0.0
 40
0.0
 40
0.0230119465855725
 40
0.0460333292206075
 40
0.0689411853538897
 40
0.0918640342134901
 40
0.1167782333568824
 40
0.1417009204549613
 40
0.1707724558865286
 40
0.1998057822113599
 40
0.2201369270731225
 40
0.2404487680658426
 40
0.2608505643592373
 40
0.2812618189240391
 40
0.3198275553207782
 40
0.3487104888964878
 40
0.3776077156388942
 40
0.4067662963238526
 40
0.4358949851002888
 40
0.4585531917537623
 40
0.4811980570093899
 40
0.5039183182619423
 40
0.5266402037271649
 40
0.5481275056391175
 40
0.5696263275370007
 40
0.5928398513536499
 40
0.6160656791273592
 40
0.643203445607578
 40
0.6703366080176626
 40
0.6937779741620929
 40
0.7171898805738558
 40
0.7559922353622563
 40
0.7947996952490813
 40
0.8204633458856029
 40
0.8461577396548214
 40
0.8723907163544073
 40
0.8986186677886341
 40
0.928275148186283
 40
0.9578910423561486
 40
0.9789486074119622
 40
0.9999999999999999
 40
0.9999999999999999
 40
0.9999999999999999
 40
0.9999999999999999
 10
97.38592895841578
 20
102.1197880090585
 30
0.0
 10
97.49524604373224
 20
102.1130785264615
 30
0.0
 10
97.71392503983962
 20
102.0996568100439
 30
0.0
 10
98.0705072810591
 20
101.9970107487845
 30
0.0
 10
98.43265707054545
 20
101.8383746449622
 30
0.0
 10
98.80152832149555
 20
101.6207617175174
 30
0.0
 10
99.16599884778584
 20
101.345809749651
 30
0.0
 10
99.53245354871804
 20
100.9972479517966
 30
0.0
 10
99.87142618198062
 20
100.5774909695448
 30
0.0
 10
100.1246266061947
 20
100.1310350444502
 30
0.0
 10
100.2760493921119
 20
99.70174849001214
 30
0.0
 10
100.3469062636982
 20
99.3086086805261
 30
0.0
 10
100.343545030352
 20
98.9084119498866
 30
0.0
 10
100.2491459569182
 20
98.3979582455839
 30
0.0
 10
100.0098458127015
 20
97.86919944644362
 30
0.0
 10
99.64104895569196
 20
97.36220969455151
 30
0.0
 10
99.24885437409256
 20
96.96135280517277
 30
0.0
 10
98.81528725307994
 20
96.62359584204141
 30
0.0
 10
98.39121004569132
 20
96.37731622294002
 30
0.0
 10
98.00028885436487
 20
96.21843621934201
 30
0.0
 10
97.65264930273923
 20
96.13133589804141
 30
0.0
 10
97.32802121439741
 20
96.11035103411936
 30
0.0
 10
97.04084393969406
 20
96.15286626461956
 30
0.0
 10
96.7988714674781
 20
96.25544745280067
 30
0.0
 10
96.59494688594084
 20
96.41098168645699
 30
0.0
 10
96.4297165764722
 20
96.62194913340645
 30
0.0
 10
96.29505114246845
 20
96.89961742302344
 30
0.0
 10
96.19919773091
 20
97.24291926448953
 30
0.0
 10
96.14205471078644
 20
97.63630430740494
 30
0.0
 10
96.11409502857734
 20
98.05205450706636
 30
0.0
 10
96.10038706649276
 20
98.57224402175086
 30
0.0
 10
96.09896595408044
 20
99.23860075461413
 30
0.0
 10
96.10315674656997
 20
99.90567319524304
 30
0.0
 10
96.12727941616971
 20
100.430920855956
 30
0.0
 10
96.17181526654704
 20
100.8413555886878
 30
0.0
 10
96.2516276114089
 20
101.2082325894612
 30
0.0
 10
96.38064822531771
 20
101.5409503798563
 30
0.0
 10
96.57694296804002
 20
101.820663441034
 30
0.0
 10
96.82809662409498
 20
102.0052613643717
 30
0.0
 10
97.10307686876126
 20
102.1029815356084
 30
0.0
 10
97.2916541426207
 20
102.1141863987235
 30
0.0
 10
97.38592895841578
 20
102.1197880090585
 30
0.0
  0
SPLINE
  5
8B
330
1F
100
AcDbEntity
  8
0
  6
Continuous
 62
     7
370
    25
100
AcDbSpline
210
0.0
220
0.0
230
1.0
 70
     8
 71
     3
 72
    18
 73
    14
 74
     0
 42
0.00000001
 43
0.00000001
 40
0.0
 40
0.0
 40
0.0
 40
0.0
 40
0.0935223527592199
 40
0.186954792763391
 40
0.2827479159261266
 40
0.3805808301232403
 40
0.4757208956750099
 40
0.5675686643951746
 40
0.6606764988339094
 40
0.7575405892552278
 40
0.8549766322917186
 40
0.9490049176523109
 40
1.0
 40
1.0
 40
1.0
 40
1.0
 10
97.3859289584157
 20
80.41978800905852
 30
0.0
 10
97.48980565194002
 20
80.40603531209807
 30
0.0
 10
97.69745917152991
 20
80.37854314007376
 30
0.0
 10
98.0088990378139
 20
80.16495888619116
 30
0.0
 10
98.2682909949759
 20
79.84590346375656
 30
0.0
 10
98.4313240129939
 20
79.43787651623002
 30
0.0
 10
98.46091403845003
 20
78.99755184211243
 30
0.0
 10
98.35844552153281
 20
78.57969263134282
 30
0.0
 10
98.14666321687662
 20
78.21995785583808
 30
0.0
 10
97.85312708984401
 20
77.94914637886677
 30
0.0
 10
97.52748720244264
 20
77.81411370975994
 30
0.0
 10
97.25631092205197
 20
77.80535519022105
 30
0.0
 10
97.12886715553606
 20
77.89001779600855
 30
0.0
 10
97.08405365085139
 20
77.91978800905855
 30
0.0
  0
SPLINE
  5
8C
330
1F
100
AcDbEntity
  8
0
  6
Continuous
 62
     7
370
    25
100
AcDbSpline
210
0.0
220
0.0
230
1.0
 70
     8
 71
     3
 72
     9
 73
     5
 74
     0
 42
0.00000001
 43
0.00000001
 40
0.0
 40
0.0
 40
0.0
 40
0.0
 40
0.1831636908094007
 40
1.0
 40
1.0
 40
1.0
 40
1.0
 10
97.07481385226522
 20
80.31978800905856
 30
0.0
 10
97.09040297260097
 20
80.33401421537559
 30
0.0
 10
97.17551329259312
 20
80.41168357361023
 30
0.0
 10
97.2913276148621
 20
80.4161443141884
 30
0.0
 10
97.3859289584157
 20
80.41978800905852
 30
0.0
  0
SPLINE
  5
8D
330
1F
100
AcDbEntity
  8
0
  6
Continuous
 62
     7
370
    25
100
AcDbSpline
210
0.0
220
0.0
230
1.0
 70
     8
 71
     3
 72
    16
 73
    12
 74
     0
 42
0.00000001
 43
0.00000001
 40
0.0
 40
0.0
 40
0.0
 40
0.0
 40
0.0706004007212419
 40
0.1871037570779382
 40
0.3056680824035618
 40
0.4258669486040899
 40
0.5437456850386642
 40
0.6589387503148996
 40
0.7752729993198794
 40
0.8947496901094935
 40
1.0
 40
1.0
 40
1.0
 40
1.0
 10
97.51087720632862
 20
218.1412740349098
 30
0.0
 10
97.46502721713982
 20
218.1488150829642
 30
0.0
 10
97.34351650117263
 20
218.1688002163188
 30
0.0
 10
97.18731935109217
 20
218.3203965913826
 30
0.0
 10
97.0552023250036
 20
218.5664146001061
 30
0.0
 10
96.9831387165278
 20
218.881908073394
 30
0.0
 10
96.97144301691681
 20
219.2211337439018
 30
0.0
 10
97.01800206166934
 20
219.5454016484462
 30
0.0
 10
97.122848920832
 20
219.820739146941
 30
0.0
 10
97.27605240981762
 20
220.0245009977434
 30
0.0
 10
97.4144144194213
 20
220.0748654955622
 30
0.0
 10
97.4792159089788
 20
220.0984535779326
 30
0.0
  0
SPLINE
  5
8E
330
1F
100
AcDbEntity
  8
0
  6
Continuous
 62
     7
370
    25
100
AcDbSpline
210
0.0
220
0.0
230
1.0
 70
     8
 71
     3
 72
    16
 73
    12
 74
     0
 42
0.00000001
 43
0.00000001
 40
0.0
 40
0.0
 40
0.0
 40
0.0
 40
0.070600400721227
 40
0.1871037570779226
 40
0.3056680824035425
 40
0.4258669486040776
 40
0.543745685038647
 40
0.6589387503148812
 40
0.7752729993198584
 40
0.8947496901094683
 40
1.0
 40
1.0
 40
1.0
 40
1.0
 10
97.51087720632827
 20
138.1412740349098
 30
0.0
 10
97.46502721713948
 20
138.1488150829643
 30
0.0
 10
97.34351650117232
 20
138.1688002163188
 30
0.0
 10
97.18731935109187
 20
138.3203965913826
 30
0.0
 10
97.05520232500328
 20
138.5664146001061
 30
0.0
 10
96.98313871652749
 20
138.881908073394
 30
0.0
 10
96.97144301691648
 20
139.2211337439018
 30
0.0
 10
97.01800206166902
 20
139.5454016484462
 30
0.0
 10
97.12284892083167
 20
139.820739146941
 30
0.0
 10
97.27605240981732
 20
140.0245009977434
 30
0.0
 10
97.414414419421
 20
140.0748654955622
 30
0.0
 10
97.47921590897852
 20
140.0984535779326
 30
0.0
  0
SPLINE
  5
8F
330
1F
100
AcDbEntity
  8
0
  6
Continuous
 62
     7
370
    25
100
AcDbSpline
210
0.0
220
0.0
230
1.0
 70
     8
 71
     3
 72
    19
 73
    15
 74
     0
 42
0.00000001
 43
0.00000001
 40
0.0
 40
0.0
 40
0.0
 40
0.0
 40
0.0725967060728871
 40
0.176460602494744
 40
0.2864311238600762
 40
0.3456248971135438
 40
0.4047762312276422
 40
0.5156060588410195
 40
0.6140585862047909
 40
0.7149014461878643
 40
0.8278340811510505
 40
0.8868822359669088
 40
0.9458941387317833
 40
0.9999999999999999
 40
0.9999999999999999
 40
0.9999999999999999
 40
0.9999999999999999
 10
97.47530046878289
 20
127.14970377035
 30
0.0
 10
97.37681387133028
 20
127.164976101676
 30
0.0
 10
97.13742278509149
 20
127.2020985130509
 30
0.0
 10
96.86911296940511
 20
127.4841622676057
 30
0.0
 10
96.69994219414038
 20
127.8626066677467
 30
0.0
 10
96.61420403578157
 20
128.2514375237848
 30
0.0
 10
96.55945051657093
 20
128.6789658581269
 30
0.0
 10
96.54270916281845
 20
129.2319806217881
 30
0.0
 10
96.58485419094575
 20
129.849876874318
 30
0.0
 10
96.69648472371412
 20
130.390027008172
 30
0.0
 10
96.87563195307109
 20
130.7587773597672
 30
0.0
 10
97.09669136945745
 20
130.9686126604134
 30
0.0
 10
97.2881143933716
 20
131.0886169543282
 30
0.0
 10
97.45070136808187
 20
131.0892715736286
 30
0.0
 10
97.52846906772558
 20
131.0895846875003
 30
0.0
  0
SPLINE
  5
90
330
1F
100
AcDbEntity
  8
0
  6
Continuous
 62
     7
370
    25
100
AcDbSpline
210
0.0
220
0.0
230
1.0
 70
     8
 71
     3
 72
    28
 73
    24
 74
     0
 42
0.00000001
 43
0.00000001
 40
0.0
 40
0.0
 40
0.0
 40
0.0
 40
0.0287547062929223
 40
0.0759134617084679
 40
0.1215355678022696
 40
0.1682850675719095
 40
0.2182053494661849
 40
0.2691526519517211
 40
0.3284768915138311
 40
0.3895303394408529
 40
0.4291465182798156
 40
0.4697524696460542
 40
0.5094328217963664
 40
0.5505202150387712
 40
0.5947981304558094
 40
0.6403516030860712
 40
0.7000659193000924
 40
0.7614843153765883
 40
0.8218362383475423
 40
0.8841932975419454
 40
0.9291485855286293
 40
0.975343121022995
 40
0.9999999999999999
 40
0.9999999999999999
 40
0.9999999999999999
 40
0.9999999999999999
 10
97.49060048106581
 20
96.13144322284123
 30
0.0
 10
97.42829571738969
 20
96.13590450944989
 30
0.0
 10
97.26380889414065
 20
96.14768246700194
 30
0.0
 10
97.04631141980842
 20
96.23843668969054
 30
0.0
 10
96.83749398132029
 20
96.39038119597781
 30
0.0
 10
96.67299943324589
 20
96.5996021473637
 30
0.0
 10
96.54898644442785
 20
96.86440295184235
 30
0.0
 10
96.46095408140496
 20
97.19994385645181
 30
0.0
 10
96.41126846005075
 20
97.60983613738937
 30
0.0
 10
96.39721129204155
 20
98.04286955820928
 30
0.0
 10
96.39694255282795
 20
98.45925814632007
 30
0.0
 10
96.39939827733934
 20
98.83214959472193
 30
0.0
 10
96.40015247703101
 20
99.21961998407576
 30
0.0
 10
96.39804447351746
 20
99.61522200320782
 30
0.0
 10
96.39618353283711
 20
100.0112725438887
 30
0.0
 10
96.40258742529635
 20
100.4322342451603
 30
0.0
 10
96.43229670666122
 20
100.8571917057992
 30
0.0
 10
96.50924302925253
 20
101.2621626830472
 30
0.0
 10
96.64768632974673
 20
101.6089618809052
 30
0.0
 10
96.84003852981816
 20
101.858034612671
 30
0.0
 10
97.07707817428962
 20
102.0164780976485
 30
0.0
 10
97.28842406250054
 20
102.0975974772071
 30
0.0
 10
97.44357734924274
 20
102.1056224131974
 30
0.0
 10
97.49757197789809
 20
102.1084151573788
 30
0.0
  0
SPLINE
  5
91
330
1F
100
AcDbEntity
  8
0
  6
Continuous
 62
     7
370
    25
100
AcDbSpline
210
0.0
220
0.0
230
1.0
 70
     8
 71
     3
 72
     9
 73
     5
 74
     0
 42
0.00000001
 43
0.00000001
 40
0.0
 40
0.0
 40
0.0
 40
0.0
 40
0.8655663543224339
 40
1.0
 40
1.0
 40
1.0
 40
1.0
 10
97.59806099277165
 20
77.81978800905851
 30
0.0
 10
97.49620546230751
 20
77.82423648909325
 30
0.0
 10
97.37853045107875
 20
77.82937587559154
 30
0.0
 10
97.29393520944099
 20
77.9090739115336
 30
0.0
 10
97.28256276270064
 20
77.91978800905858
 30
0.0
  0
LINE
  5
92
330
1F
100
AcDbEntity
  8
0
  6
Continuous
 62
     7
370
    25
100
AcDbLine
 10
97.3009901248
 20
80.3197880091
 30
0.0
 11
97.4586789077
 21
80.4034897004
 31
0.0
  0
LWPOLYLINE
  5
93
330
1F
100
AcDbEntity
  8
0
  6
Continuous
 62
     7
370
    25
100
AcDbPolyline
 90
       17
 70
   128
 43
0.0
 10
103.6352831901
 20
233.9871217739
 10
103.6971304333
 20
233.8127369387
 10
103.8014580319
 20
233.6850978456
 10
103.9323830546
 20
233.6236363893
 10
104.0699733536
 20
233.6377095195
 10
104.1932820531
 20
233.7251747297
 10
104.2835365214
 20
233.8727162345
 10
104.3269963339
 20
234.0578721773
 10
104.3170451281
 20
234.2524542442
 10
104.2551978848
 20
234.4268390794
 10
104.1508702863
 20
234.5544781726
 10
104.0199452636
 20
234.6159396288
 10
103.8823549646
 20
234.6018664986
 10
103.7590462651
 20
234.5144012884
 10
103.6687917968
 20
234.3668597836
 10
103.6253319843
 20
234.1817038408
 10
103.6352831901
 20
233.9871217739
  0
LINE
  5
94
330
1F
100
AcDbEntity
  8
0
  6
Continuous
 62
     7
370
    25
100
AcDbLine
 10
103.8347428028
 20
233.4197880091
 30
0.0
 11
103.824401757
 21
233.4199407932
 31
0.0
  0
LWPOLYLINE
  5
95
330
1F
100
AcDbEntity
  8
0
  6
Continuous
 62
     7
370
    25
100
AcDbPolyline
 90
       12
 70
   128
 43
0.0
 10
103.6084686329
 20
234.8197880091
 10
103.5983083746
 20
234.8196405209
 10
103.4381747107
 20
234.7770550477
 10
103.2964950357
 20
234.6632444924
 10
103.1886225407
 20
234.4905419945
 10
103.1262468843
 20
234.2776625495
 10
103.1161274369
 20
234.0476749483
 10
103.1593607975
 20
233.8255019162
 10
103.2512619607
 20
233.6352193486
 10
103.3818720095
 20
233.4974473142
 10
103.5370373184
 20
233.4271155507
 10
103.6084686329
 20
233.4197880091
  0
LINE
  5
96
330
1F
100
AcDbEntity
  8
0
  6
Continuous
 62
     7
370
    25
100
AcDbLine
 10
100.3569613436
 20
239.1197880091
 30
0.0
 11
100.3569613436
 21
239.4197880091
 31
0.0
  0
LINE
  5
97
330
1F
100
AcDbEntity
  8
0
  6
Continuous
 62
     7
370
    25
100
AcDbLine
 10
98.0034725124
 20
239.1197880091
 30
0.0
 11
98.0034725124
 21
239.4197880091
 31
0.0
  0
LINE
  5
98
330
1F
100
AcDbEntity
  8
0
  6
Continuous
 62
     7
370
    25
100
AcDbLine
 10
98.0034725124
 20
239.1197880091
 30
0.0
 11
100.3569613436
 21
239.1197880091
 31
0.0
  0
LINE
  5
99
330
1F
100
AcDbEntity
  8
0
  6
Continuous
 62
     7
370
    25
100
AcDbLine
 10
98.0034725124
 20
239.4197880091
 30
0.0
 11
100.3569613436
 21
239.4197880091
 31
0.0
  0
LINE
  5
9A
330
1F
100
AcDbEntity
  8
0
  6
Continuous
 62
     7
370
    25
100
AcDbLine
 10
100.8003487012
 20
239.4197880091
 30
0.0
 11
100.8003487012
 21
239.1197880091
 31
0.0
  0
LINE
  5
9B
330
1F
100
AcDbEntity
  8
0
  6
Continuous
 62
     7
370
    25
100
AcDbLine
 10
100.3569613436
 20
239.4197880091
 30
0.0
 11
100.8003487012
 21
239.4197880091
 31
0.0
  0
LINE
  5
9C
330
1F
100
AcDbEntity
  8
0
  6
Continuous
 62
     7
370
    25
100
AcDbLine
 10
101.911412358
 20
239.1197880091
 30
0.0
 11
101.911412358
 21
239.4197880091
 31
0.0
  0
LINE
  5
9D
330
1F
100
AcDbEntity
  8
0
  6
Continuous
 62
     7
370
    25
100
AcDbLine
 10
100.8003487012
 20
239.4197880091
 30
0.0
 11
101.911412358
 21
239.4197880091
 31
0.0
  0
ARC
  5
9E
330
1F
100
AcDbEntity
  8
0
  6
Continuous
 62
     7
370
    25
100
AcDbCircle
 10
103.7068444896
 20
239.1047147996
 30
0.0
 40
0.3202211000730527
100
AcDbArc
 50
2.6979812661
 51
79.712476342
  0
ARC
  5
9F
330
1F
100
AcDbEntity
  8
0
  6
Continuous
 62
     7
370
    25
100
AcDbCircle
 10
102.0251692461
 20
239.1181823543
 30
0.0
 40
0.3044893480791485
100
AcDbArc
 50
0.3021375529
 51
82.1083200553
  0
LINE
  5
A0
330
1F
100
AcDbEntity
  8
0
  6
Continuous
 62
     7
370
    25
100
AcDbLine
 10
102.0669758499
 20
239.4197880091
 30
0.0
 11
103.7640321247
 21
239.4197880091
 31
0.0
  0
LINE
  5
A1
330
1F
100
AcDbEntity
  8
0
  6
Continuous
 62
     7
370
    25
100
AcDbLine
 10
102.0669758499
 20
239.1197880091
 30
0.0
 11
102.0669758499
 21
239.4197880091
 31
0.0
  0
LINE
  5
A2
330
1F
100
AcDbEntity
  8
0
  6
Continuous
 62
     7
370
    25
100
AcDbLine
 10
102.0669758499
 20
239.4197880091
 30
0.0
 11
101.911412358
 21
239.4197880091
 31
0.0
  0
LINE
  5
A3
330
1F
100
AcDbEntity
  8
0
  6
Continuous
 62
     7
370
    25
100
AcDbLine
 10
97.8101930271
 20
239.1197880091
 30
0.0
 11
97.8101930271
 21
239.4197880091
 31
0.0
  0
LINE
  5
A4
330
1F
100
AcDbEntity
  8
0
  6
Continuous
 62
     7
370
    25
100
AcDbLine
 10
98.0034725124
 20
239.4197880091
 30
0.0
 11
97.8101930271
 21
239.4197880091
 31
0.0
  0
LINE
  5
A5
330
1F
100
AcDbEntity
  8
0
  6
Continuous
 62
     7
370
    25
100
AcDbLine
 10
96.8721016625
 20
239.1197880091
 30
0.0
 11
96.8721016625
 21
239.4197880091
 31
0.0
  0
LINE
  5
A6
330
1F
100
AcDbEntity
  8
0
  6
Continuous
 62
     7
370
    25
100
AcDbLine
 10
97.8101930271
 20
239.4197880091
 30
0.0
 11
96.8721016625
 21
239.4197880091
 31
0.0
  0
LINE
  5
A7
330
1F
100
AcDbEntity
  8
0
  6
Continuous
 62
     7
370
    25
100
AcDbLine
 10
96.0994341979
 20
239.4197880091
 30
0.0
 11
96.0994341979
 21
239.1197880091
 31
0.0
  0
LINE
  5
A8
330
1F
100
AcDbEntity
  8
0
  6
Continuous
 62
     7
370
    25
100
AcDbLine
 10
96.0994341979
 20
239.1197880091
 30
0.0
 11
96.8721016625
 21
239.1197880091
 31
0.0
  0
LINE
  5
A9
330
1F
100
AcDbEntity
  8
0
  6
Continuous
 62
     7
370
    25
100
AcDbLine
 10
96.0994341979
 20
239.4197880091
 30
0.0
 11
96.8721016625
 21
239.4197880091
 31
0.0
  0
LINE
  5
AA
330
1F
100
AcDbEntity
  8
0
  6
Continuous
 62
     7
370
    25
100
AcDbLine
 10
104.7195322897
 20
239.1197880091
 30
0.0
 11
104.7195322897
 21
239.4197880091
 31
0.0
  0
LINE
  5
AB
330
1F
100
AcDbEntity
  8
0
  6
Continuous
 62
     7
370
    25
100
AcDbLine
 10
103.7640321247
 20
239.4197880091
 30
0.0
 11
104.7195322897
 21
239.4197880091
 31
0.0
  0
LINE
  5
AC
330
1F
100
AcDbEntity
  8
0
  6
Continuous
 62
     7
370
    25
100
AcDbLine
 10
104.7195322897
 20
239.4197880091
 30
0.0
 11
104.8952682209
 21
239.4197880091
 31
0.0
  0
LINE
  5
AD
330
1F
100
AcDbEntity
  8
0
  6
Continuous
 62
     7
370
    25
100
AcDbLine
 10
96.0991293703
 20
239.4197880091
 30
0.0
 11
96.0994341979
 21
239.4197880091
 31
0.0
  0
LWPOLYLINE
  5
AE
330
1F
100
AcDbEntity
  8
0
  6
Continuous
 62
     8
370
    25
100
AcDbPolyline
 90
        7
 70
   128
 43
0.0
 10
103.3575094462
 20
233.9340552799
 10
103.3407235519
 20
234.163261673
 10
103.377472309
 20
234.38775702
 10
103.4637734193
 20
234.5832137668
 10
103.5902748185
 20
234.7284511419
 10
103.7432681171
 20
234.8077304222
 10
103.8360354104
 20
234.8197856221
  0
ARC
  5
AF
330
1F
100
AcDbEntity
  8
0
  6
Continuous
 62
     8
370
    25
100
AcDbCircle
 10
103.9177768394
 20
233.9738002603
 30
0.0
 40
0.5616753646870922
100
AcDbArc
 50
184.057725303
 51
260.4304993794
  0
ENDSEC
  0
SECTION
  2
OBJECTS
  0
DICTIONARY
  5
C
330
0
100
AcDbDictionary
281
     1
  3
ACAD_GROUP
350
D
  3
ACAD_LAYOUT
350
1A
  3
ACAD_MLINESTYLE
350
17
  3
ACAD_PLOTSETTINGS
350
19
  3
ACAD_PLOTSTYLENAME
350
E
  3
ACAD_SCALELIST
350
47
  3
DWGPROPS
350
B0
  0
DICTIONARY
  5
D
102
{ACAD_REACTORS
330
C
102
}
330
C
100
AcDbDictionary
281
     1
  0
DICTIONARY
  5
1A
102
{ACAD_REACTORS
330
C
102
}
330
C
100
AcDbDictionary
281
     1
  3
Layout1
350
1E
  3
Layout2
350
26
  3
Model
350
22
  0
DICTIONARY
  5
17
102
{ACAD_REACTORS
330
C
102
}
330
C
100
AcDbDictionary
281
     1
  3
Standard
350
18
  0
DICTIONARY
  5
19
102
{ACAD_REACTORS
330
C
102
}
330
C
100
AcDbDictionary
281
     1
  0
ACDBDICTIONARYWDFLT
  5
E
102
{ACAD_REACTORS
330
C
102
}
330
C
100
AcDbDictionary
281
     1
  3
Normal
350
F
100
AcDbDictionaryWithDefault
340
F
  0
DICTIONARY
  5
47
102
{ACAD_REACTORS
330
C
102
}
330
C
100
AcDbDictionary
281
     1
  3
A0
350
48
  3
A1
350
49
  3
A2
350
4A
  3
A3
350
4B
  3
A4
350
4C
  3
A5
350
4D
  3
A6
350
4E
  3
A7
350
4F
  3
A8
350
50
  3
A9
350
51
  3
B0
350
52
  3
B1
350
53
  3
B2
350
54
  3
B3
350
55
  3
B4
350
56
  3
B5
350
57
  3
B6
350
58
  3
B7
350
59
  3
B8
350
5A
  3
B9
350
5B
  3
C0
350
5C
  3
C1
350
5D
  3
C2
350
5E
  3
C3
350
5F
  3
C4
350
60
  3
C5
350
61
  3
C6
350
62
  3
C7
350
63
  3
C8
350
64
  3
C9
350
65
  3
D0
350
66
  3
D1
350
67
  3
D2
350
68
  0
XRECORD
  5
B0
102
{ACAD_REACTORS
330
C
102
}
330
C
100
AcDbXrecord
280
     1
  1
DWGPROPS COOKIE
  2

  3

  4

  6

  7

  8
9128
  9

300
=
301
=
302
=
303
=
304
=
305
=
306
=
307
=
308
=
309
=
 40
0.0
 41
2460018.227262651
 42
2460018.227262835
  1

 90
        0
  0
LAYOUT
  5
1E
102
{ACAD_REACTORS
330
1A
102
}
330
1A
100
AcDbPlotSettings
  1

  2
none_device
  4

  6

 40
0.0
 41
0.0
 42
0.0
 43
0.0
 44
0.0
 45
0.0
 46
0.0
 47
0.0
 48
0.0
 49
0.0
140
0.0
141
0.0
142
1.0
143
1.0
 70
   688
 72
     1
 73
     0
 74
     5
  7

 75
    16
147
1.0
148
0.0
149
0.0
100
AcDbLayout
  1
Layout1
 70
     1
 71
     1
 10
0.0
 20
0.0
 11
420.0
 21
297.0
 12
0.0
 22
0.0
 32
0.0
 14
1.0000000000E+20
 24
1.0000000000E+20
 34
1.0000000000E+20
 15
-1.0000000000E+20
 25
-1.0000000000E+20
 35
-1.0000000000E+20
146
0.0
 13
0.0
 23
0.0
 33
0.0
 16
1.0
 26
0.0
 36
0.0
 17
0.0
 27
1.0
 37
0.0
 76
     0
330
1B
  0
LAYOUT
  5
26
102
{ACAD_REACTORS
330
1A
102
}
330
1A
100
AcDbPlotSettings
  1

  2
none_device
  4

  6

 40
0.0
 41
0.0
 42
0.0
 43
0.0
 44
0.0
 45
0.0
 46
0.0
 47
0.0
 48
0.0
 49
0.0
140
0.0
141
0.0
142
1.0
143
1.0
 70
   688
 72
     1
 73
     0
 74
     5
  7

 75
    16
147
1.0
148
0.0
149
0.0
100
AcDbLayout
  1
Layout2
 70
     1
 71
     2
 10
0.0
 20
0.0
 11
0.0
 21
0.0
 12
0.0
 22
0.0
 32
0.0
 14
0.0
 24
0.0
 34
0.0
 15
0.0
 25
0.0
 35
0.0
146
0.0
 13
0.0
 23
0.0
 33
0.0
 16
1.0
 26
0.0
 36
0.0
 17
0.0
 27
1.0
 37
0.0
 76
     0
330
23
  0
LAYOUT
  5
22
102
{ACAD_REACTORS
330
1A
102
}
330
1A
100
AcDbPlotSettings
  1

  2
none_device
  4
Letter_(8.50_x_11.00_Inches)
  6

 40
6.35
 41
6.35
 42
6.35000508
 43
6.35000508
 44
215.9
 45
279.4
 46
0.0
 47
0.0
 48
0.0
 49
0.0
140
0.0
141
0.0
142
1.0
143
1.0
 70
  1712
 72
     1
 73
     0
 74
     0
  7

 75
     0
147
1.0
148
0.0
149
0.0
100
AcDbLayout
  1
Model
 70
     1
 71
     0
 10
0.0
 20
0.0
 11
210.0
 21
297.0
 12
0.0
 22
0.0
 32
0.0
 14
0.0
 24
0.0
 34
0.0
 15
210.0
 25
297.0
 35
0.0
146
0.0
 13
0.0
 23
0.0
 33
0.0
 16
1.0
 26
0.0
 36
0.0
 17
0.0
 27
1.0
 37
0.0
 76
     0
330
1F
331
29
  0
MLINESTYLE
  5
18
102
{ACAD_REACTORS
330
17
102
}
330
17
100
AcDbMlineStyle
  2
Standard
 70
     0
  3

 62
   256
 51
90.0
 52
90.0
 71
     2
 49
0.5
 62
   256
  6
BYLAYER
 49
-0.5
 62
   256
  6
BYLAYER
  0
ACDBPLACEHOLDER
  5
F
102
{ACAD_REACTORS
330
E
102
}
330
E
  0
SCALE
  5
48
102
{ACAD_REACTORS
330
47
102
}
330
47
100
AcDbScale
 70
     0
300
1:1
140
1.0
141
1.0
290
     1
  0
SCALE
  5
49
102
{ACAD_REACTORS
330
47
102
}
330
47
100
AcDbScale
 70
     0
300
1:2
140
1.0
141
2.0
290
     0
  0
SCALE
  5
4A
102
{ACAD_REACTORS
330
47
102
}
330
47
100
AcDbScale
 70
     0
300
1:4
140
1.0
141
4.0
290
     0
  0
SCALE
  5
4B
102
{ACAD_REACTORS
330
47
102
}
330
47
100
AcDbScale
 70
     0
300
1:5
140
1.0
141
5.0
290
     0
  0
SCALE
  5
4C
102
{ACAD_REACTORS
330
47
102
}
330
47
100
AcDbScale
 70
     0
300
1:8
140
1.0
141
8.0
290
     0
  0
SCALE
  5
4D
102
{ACAD_REACTORS
330
47
102
}
330
47
100
AcDbScale
 70
     0
300
1:10
140
1.0
141
10.0
290
     0
  0
SCALE
  5
4E
102
{ACAD_REACTORS
330
47
102
}
330
47
100
AcDbScale
 70
     0
300
1:16
140
1.0
141
16.0
290
     0
  0
SCALE
  5
4F
102
{ACAD_REACTORS
330
47
102
}
330
47
100
AcDbScale
 70
     0
300
1:20
140
1.0
141
20.0
290
     0
  0
SCALE
  5
50
102
{ACAD_REACTORS
330
47
102
}
330
47
100
AcDbScale
 70
     0
300
1:30
140
1.0
141
30.0
290
     0
  0
SCALE
  5
51
102
{ACAD_REACTORS
330
47
102
}
330
47
100
AcDbScale
 70
     0
300
1:40
140
1.0
141
40.0
290
     0
  0
SCALE
  5
52
102
{ACAD_REACTORS
330
47
102
}
330
47
100
AcDbScale
 70
     0
300
1:50
140
1.0
141
50.0
290
     0
  0
SCALE
  5
53
102
{ACAD_REACTORS
330
47
102
}
330
47
100
AcDbScale
 70
     0
300
1:100
140
1.0
141
100.0
290
     0
  0
SCALE
  5
54
102
{ACAD_REACTORS
330
47
102
}
330
47
100
AcDbScale
 70
     0
300
2:1
140
2.0
141
1.0
290
     0
  0
SCALE
  5
55
102
{ACAD_REACTORS
330
47
102
}
330
47
100
AcDbScale
 70
     0
300
4:1
140
4.0
141
1.0
290
     0
  0
SCALE
  5
56
102
{ACAD_REACTORS
330
47
102
}
330
47
100
AcDbScale
 70
     0
300
8:1
140
8.0
141
1.0
290
     0
  0
SCALE
  5
57
102
{ACAD_REACTORS
330
47
102
}
330
47
100
AcDbScale
 70
     0
300
10:1
140
10.0
141
1.0
290
     0
  0
SCALE
  5
58
102
{ACAD_REACTORS
330
47
102
}
330
47
100
AcDbScale
 70
     0
300
100:1
140
100.0
141
1.0
290
     0
  0
SCALE
  5
59
102
{ACAD_REACTORS
330
47
102
}
330
47
100
AcDbScale
 70
     0
300
1/128" = 1'-0"
140
0.0078125
141
12.0
290
     0
  0
SCALE
  5
5A
102
{ACAD_REACTORS
330
47
102
}
330
47
100
AcDbScale
 70
     0
300
1/64" = 1'-0"
140
0.015625
141
12.0
290
     0
  0
SCALE
  5
5B
102
{ACAD_REACTORS
330
47
102
}
330
47
100
AcDbScale
 70
     0
300
1/32" = 1'-0"
140
0.03125
141
12.0
290
     0
  0
SCALE
  5
5C
102
{ACAD_REACTORS
330
47
102
}
330
47
100
AcDbScale
 70
     0
300
1/16" = 1'-0"
140
0.0625
141
12.0
290
     0
  0
SCALE
  5
5D
102
{ACAD_REACTORS
330
47
102
}
330
47
100
AcDbScale
 70
     0
300
3/32" = 1'-0"
140
0.09375
141
12.0
290
     0
  0
SCALE
  5
5E
102
{ACAD_REACTORS
330
47
102
}
330
47
100
AcDbScale
 70
     0
300
1/8" = 1'-0"
140
0.125
141
12.0
290
     0
  0
SCALE
  5
5F
102
{ACAD_REACTORS
330
47
102
}
330
47
100
AcDbScale
 70
     0
300
3/16" = 1'-0"
140
0.1875
141
12.0
290
     0
  0
SCALE
  5
60
102
{ACAD_REACTORS
330
47
102
}
330
47
100
AcDbScale
 70
     0
300
1/4" = 1'-0"
140
0.25
141
12.0
290
     0
  0
SCALE
  5
61
102
{ACAD_REACTORS
330
47
102
}
330
47
100
AcDbScale
 70
     0
300
3/8" = 1'-0"
140
0.375
141
12.0
290
     0
  0
SCALE
  5
62
102
{ACAD_REACTORS
330
47
102
}
330
47
100
AcDbScale
 70
     0
300
1/2" = 1'-0"
140
0.5
141
12.0
290
     0
  0
SCALE
  5
63
102
{ACAD_REACTORS
330
47
102
}
330
47
100
AcDbScale
 70
     0
300
3/4" = 1'-0"
140
0.75
141
12.0
290
     0
  0
SCALE
  5
64
102
{ACAD_REACTORS
330
47
102
}
330
47
100
AcDbScale
 70
     0
300
1" = 1'-0"
140
1.0
141
12.0
290
     0
  0
SCALE
  5
65
102
{ACAD_REACTORS
330
47
102
}
330
47
100
AcDbScale
 70
     0
300
1-1/2" = 1'-0"
140
1.5
141
12.0
290
     0
  0
SCALE
  5
66
102
{ACAD_REACTORS
330
47
102
}
330
47
100
AcDbScale
 70
     0
300
3" = 1'-0"
140
3.0
141
12.0
290
     0
  0
SCALE
  5
67
102
{ACAD_REACTORS
330
47
102
}
330
47
100
AcDbScale
 70
     0
300
6" = 1'-0"
140
6.0
141
12.0
290
     0
  0
SCALE
  5
68
102
{ACAD_REACTORS
330
47
102
}
330
47
100
AcDbScale
 70
     0
300
1'-0" = 1'-0"
140
12.0
141
12.0
290
     0
  0
ENDSEC
  0
EOF
