  0
SECTION
  2
HEADER
  9
$ACADVER
  1
AC1032
  9
$ACADMAINTVER
 90
        4
  9
$DWGCODEPAGE
  3
ANSI_932
  9
$LASTSAVEDBY
  1
9128
  9
$REQUIREDVERSIONS
160
                 0
  9
$INSBASE
 10
0.0
 20
0.0
 30
0.0
  9
$EXTMIN
 10
50.31577559696353
 20
38.23994223581994
 30
0.0
  9
$EXTMAX
 10
260.3157755969635
 20
335.23994223582
 30
0.0
  9
$LIMMIN
 10
0.0
 20
0.0
  9
$LIMMAX
 10
210.0
 20
297.0
  9
$ORTHOMODE
 70
     0
  9
$REGENMODE
 70
     1
  9
$FILLMODE
 70
     1
  9
$QTEXTMODE
 70
     0
  9
$MIRRTEXT
 70
     1
  9
$LTSCALE
 40
1.0
  9
$ATTMODE
 70
     1
  9
$TEXTSIZE
 40
3.5
  9
$TRACEWID
 40
1.0
  9
$TEXTSTYLE
  7
Standard
  9
$CLAYER
  8
0
  9
$CELTYPE
  6
ByLayer
  9
$CECOLOR
 62
   256
  9
$CELTSCALE
 40
1.0
  9
$DISPSILH
 70
     0
  9
$DIMSCALE
 40
1.0
  9
$DIMASZ
 40
3.302
  9
$DIMEXO
 40
1.0
  9
$DIMDLI
 40
3.75
  9
$DIMRND
 40
0.0
  9
$DIMDLE
 40
0.0
  9
$DIMEXE
 40
1.0
  9
$DIMTP
 40
0.0
  9
$DIMTM
 40
0.0
  9
$DIMTXT
 40
3.5
  9
$DIMCEN
 40
2.5
  9
$DIMTSZ
 40
0.0
  9
$DIMTOL
 70
     0
  9
$DIMLIM
 70
     0
  9
$DIMTIH
 70
     1
  9
$DIMTOH
 70
     1
  9
$DIMSE1
 70
     0
  9
$DIMSE2
 70
     0
  9
$DIMTAD
 70
     1
  9
$DIMZIN
 70
     1
  9
$DIMBLK
  1

  9
$DIMASO
 70
     1
  9
$DIMSHO
 70
     1
  9
$DIMPOST
  1

  9
$DIMAPOST
  1

  9
$DIMALT
 70
     0
  9
$DIMALTD
 70
     3
  9
$DIMALTF
 40
0.0393700787401575
  9
$DIMLFAC
 40
5.0
  9
$DIMTOFL
 70
     1
  9
$DIMTVP
 40
0.0
  9
$DIMTIX
 70
     0
  9
$DIMSOXD
 70
     0
  9
$DIMSAH
 70
     0
  9
$DIMBLK1
  1

  9
$DIMBLK2
  1

  9
$DIMSTYLE
  2
ISO-25
  9
$DIMCLRD
 70
     0
  9
$DIMCLRE
 70
     0
  9
$DIMCLRT
 70
     0
  9
$DIMTFAC
 40
1.0
  9
$DIMGAP
 40
1.524
  9
$DIMJUST
 70
     0
  9
$DIMSD1
 70
     0
  9
$DIMSD2
 70
     0
  9
$DIMTOLJ
 70
     0
  9
$DIMTZIN
 70
     1
  9
$DIMALTZ
 70
     0
  9
$DIMALTTZ
 70
     0
  9
$DIMUPT
 70
     0
  9
$DIMDEC
 70
     2
  9
$DIMTDEC
 70
     2
  9
$DIMALTU
 70
     2
  9
$DIMALTTD
 70
     3
  9
$DIMTXSTY
  7
Standard
  9
$DIMAUNIT
 70
     0
  9
$DIMADEC
 70
     2
  9
$DIMALTRND
 40
0.0
  9
$DIMAZIN
 70
     0
  9
$DIMDSEP
 70
    44
  9
$DIMATFIT
 70
     3
  9
$DIMFRAC
 70
     0
  9
$DIMLDRBLK
  1

  9
$DIMLUNIT
 70
     2
  9
$DIMLWD
 70
    -2
  9
$DIMLWE
 70
    -2
  9
$DIMTMOVE
 70
     0
  9
$DIMFXL
 40
1.0
  9
$DIMFXLON
 70
     0
  9
$DIMJOGANG
 40
0.7853981633974483
  9
$DIMTFILL
 70
     0
  9
$DIMTFILLCLR
 70
     0
  9
$DIMARCSYM
 70
     0
  9
$DIMLTYPE
  6

  9
$DIMLTEX1
  6

  9
$DIMLTEX2
  6

  9
$DIMTXTDIRECTION
 70
     0
  9
$LUNITS
 70
     2
  9
$LUPREC
 70
     2
  9
$SKETCHINC
 40
1.0
  9
$FILLETRAD
 40
10.0
  9
$AUNITS
 70
     0
  9
$AUPREC
 70
     2
  9
$MENU
  1
.
  9
$ELEVATION
 40
0.0
  9
$PELEVATION
 40
0.0
  9
$THICKNESS
 40
0.0
  9
$LIMCHECK
 70
     0
  9
$CHAMFERA
 40
0.0
  9
$CHAMFERB
 40
0.0
  9
$CHAMFERC
 40
0.0
  9
$CHAMFERD
 40
0.0
  9
$SKPOLY
 70
     0
  9
$TDCREATE
 40
2459377.73760206
  9
$TDUCREATE
 40
2459377.36260206
  9
$TDUPDATE
 40
2459746.382312859
  9
$TDUUPDATE
 40
2459746.007312859
  9
$TDINDWG
 40
0.011233831
  9
$TDUSRTIMER
 40
0.0000707407
  9
$USRTIMER
 70
     1
  9
$ANGBASE
 50
0.0
  9
$ANGDIR
 70
     0
  9
$PDMODE
 70
     0
  9
$PDSIZE
 40
-1.0
  9
$PLINEWID
 40
0.0
  9
$SPLFRAME
 70
     0
  9
$SPLINETYPE
 70
     6
  9
$SPLINESEGS
 70
     8
  9
$HANDSEED
  5
9C8
  9
$SURFTAB1
 70
     6
  9
$SURFTAB2
 70
     6
  9
$SURFTYPE
 70
     6
  9
$SURFU
 70
     6
  9
$SURFV
 70
     6
  9
$UCSBASE
  2

  9
$UCSNAME
  2

  9
$UCSORG
 10
0.0
 20
0.0
 30
0.0
  9
$UCSXDIR
 10
1.0
 20
0.0
 30
0.0
  9
$UCSYDIR
 10
0.0
 20
1.0
 30
0.0
  9
$UCSORTHOREF
  2

  9
$UCSORTHOVIEW
 70
     0
  9
$UCSORGTOP
 10
0.0
 20
0.0
 30
0.0
  9
$UCSORGBOTTOM
 10
0.0
 20
0.0
 30
0.0
  9
$UCSORGLEFT
 10
0.0
 20
0.0
 30
0.0
  9
$UCSORGRIGHT
 10
0.0
 20
0.0
 30
0.0
  9
$UCSORGFRONT
 10
0.0
 20
0.0
 30
0.0
  9
$UCSORGBACK
 10
0.0
 20
0.0
 30
0.0
  9
$PUCSBASE
  2

  9
$PUCSNAME
  2

  9
$PUCSORG
 10
0.0
 20
0.0
 30
0.0
  9
$PUCSXDIR
 10
1.0
 20
0.0
 30
0.0
  9
$PUCSYDIR
 10
0.0
 20
1.0
 30
0.0
  9
$PUCSORTHOREF
  2

  9
$PUCSORTHOVIEW
 70
     0
  9
$PUCSORGTOP
 10
0.0
 20
0.0
 30
0.0
  9
$PUCSORGBOTTOM
 10
0.0
 20
0.0
 30
0.0
  9
$PUCSORGLEFT
 10
0.0
 20
0.0
 30
0.0
  9
$PUCSORGRIGHT
 10
0.0
 20
0.0
 30
0.0
  9
$PUCSORGFRONT
 10
0.0
 20
0.0
 30
0.0
  9
$PUCSORGBACK
 10
0.0
 20
0.0
 30
0.0
  9
$USERI1
 70
     0
  9
$USERI2
 70
     0
  9
$USERI3
 70
     0
  9
$USERI4
 70
     0
  9
$USERI5
 70
     0
  9
$USERR1
 40
0.0
  9
$USERR2
 40
0.0
  9
$USERR3
 40
0.0
  9
$USERR4
 40
0.0
  9
$USERR5
 40
0.0
  9
$WORLDVIEW
 70
     1
  9
$SHADEDGE
 70
     3
  9
$SHADEDIF
 70
    70
  9
$TILEMODE
 70
     1
  9
$MAXACTVP
 70
    64
  9
$PINSBASE
 10
0.0
 20
0.0
 30
0.0
  9
$PLIMCHECK
 70
     0
  9
$PEXTMIN
 10
1.000000000000000E+20
 20
1.000000000000000E+20
 30
1.000000000000000E+20
  9
$PEXTMAX
 10
-1.000000000000000E+20
 20
-1.000000000000000E+20
 30
-1.000000000000000E+20
  9
$PLIMMIN
 10
0.0
 20
0.0
  9
$PLIMMAX
 10
0.0
 20
0.0
  9
$UNITMODE
 70
     0
  9
$VISRETAIN
 70
     1
  9
$PLINEGEN
 70
     0
  9
$PSLTSCALE
 70
     1
  9
$TREEDEPTH
 70
  3020
  9
$CMLSTYLE
  2
Standard
  9
$CMLJUST
 70
     0
  9
$CMLSCALE
 40
20.0
  9
$PROXYGRAPHICS
 70
     1
  9
$MEASUREMENT
 70
     1
  9
$CELWEIGHT
370
    -1
  9
$ENDCAPS
280
     0
  9
$JOINSTYLE
280
     0
  9
$LWDISPLAY
290
     1
  9
$INSUNITS
 70
     4
  9
$HYPERLINKBASE
  1

  9
$STYLESHEET
  1

  9
$XEDIT
290
     1
  9
$CEPSNTYPE
380
     0
  9
$PSTYLEMODE
290
     1
  9
$FINGERPRINTGUID
  2
{e017458f-92a8-43ad-8d72-b6293f93d1a9}
  9
$VERSIONGUID
  2
{FAEB1C32-E019-11D5-929B-00C0DF256EC4}
  9
$EXTNAMES
290
     1
  9
$PSVPSCALE
 40
0.0
  9
$OLESTARTUP
290
     0
  9
$SORTENTS
280
   127
  9
$INDEXCTL
280
     0
  9
$HIDETEXT
280
     1
  9
$XCLIPFRAME
280
     2
  9
$HALOGAP
280
     0
  9
$OBSCOLOR
 70
   257
  9
$OBSLTYPE
280
     0
  9
$INTERSECTIONDISPLAY
280
     0
  9
$INTERSECTIONCOLOR
 70
   257
  9
$DIMASSOC
280
     2
  9
$PROJECTNAME
  1

  9
$CAMERADISPLAY
290
     0
  9
$LENSLENGTH
 40
50.0
  9
$CAMERAHEIGHT
 40
0.0
  9
$STEPSPERSEC
 40
2.0
  9
$STEPSIZE
 40
6.0
  9
$3DDWFPREC
 40
2.0
  9
$PSOLWIDTH
 40
0.25
  9
$PSOLHEIGHT
 40
4.0
  9
$LOFTANG1
 40
1.570796326794897
  9
$LOFTANG2
 40
1.570796326794897
  9
$LOFTMAG1
 40
0.0
  9
$LOFTMAG2
 40
0.0
  9
$LOFTPARAM
 70
     7
  9
$LOFTNORMALS
280
     1
  9
$LATITUDE
 40
37.795
  9
$LONGITUDE
 40
-122.394
  9
$NORTHDIRECTION
 40
0.0
  9
$TIMEZONE
 70
 -8000
  9
$LIGHTGLYPHDISPLAY
280
     1
  9
$TILEMODELIGHTSYNCH
280
     1
  9
$SOLIDHIST
280
     0
  9
$SHOWHIST
280
     1
  9
$DWFFRAME
280
     2
  9
$DGNFRAME
280
     2
  9
$REALWORLDSCALE
290
     1
  9
$INTERFERECOLOR
 62
   256
  9
$CSHADOW
280
     0
  9
$SHADOWPLANELOCATION
 40
0.0
  0
ENDSEC
  0
SECTION
  2
CLASSES
  0
CLASS
  1
ACDBDICTIONARYWDFLT
  2
AcDbDictionaryWithDefault
  3
ObjectDBX Classes
 90
        0
 91
        3
280
     0
281
     0
  0
CLASS
  1
VISUALSTYLE
  2
AcDbVisualStyle
  3
ObjectDBX Classes
 90
     4095
 91
        3
280
     0
281
     0
  0
CLASS
  1
MATERIAL
  2
AcDbMaterial
  3
ObjectDBX Classes
 90
     1153
 91
        3
280
     0
281
     0
  0
CLASS
  1
SCALE
  2
AcDbScale
  3
ObjectDBX Classes
 90
     1153
 91
        3
280
     0
281
     0
  0
CLASS
  1
TABLESTYLE
  2
AcDbTableStyle
  3
ObjectDBX Classes
 90
     4095
 91
        3
280
     0
281
     0
  0
CLASS
  1
MLEADERSTYLE
  2
AcDbMLeaderStyle
  3
ACDB_MLEADERSTYLE_CLASS
 90
     4095
 91
        3
280
     0
281
     0
  0
CLASS
  1
SUN
  2
AcDbSun
  3
SCENEOE
 90
     1153
 91
        3
280
     0
281
     0
  0
CLASS
  1
ACDBPLACEHOLDER
  2
AcDbPlaceHolder
  3
ObjectDBX Classes
 90
        0
 91
        1
280
     0
281
     0
  0
CLASS
  1
LAYOUT
  2
AcDbLayout
  3
ObjectDBX Classes
 90
        0
 91
        1
280
     0
281
     0
  0
CLASS
  1
DICTIONARYVAR
  2
AcDbDictionaryVar
  3
ObjectDBX Classes
 90
        0
 91
        3
280
     0
281
     0
  0
CLASS
  1
SORTENTSTABLE
  2
AcDbSortentsTable
  3
ObjectDBX Classes
 90
        0
 91
        3
280
     0
281
     0
  0
CLASS
  1
CELLSTYLEMAP
  2
AcDbCellStyleMap
  3
ObjectDBX Classes
 90
     1152
 91
        3
280
     0
281
     0
  0
ENDSEC
  0
SECTION
  2
TABLES
  0
TABLE
  2
VPORT
  5
8
330
0
100
AcDbSymbolTable
 70
     1
  0
VPORT
  5
29
330
8
100
AcDbSymbolTableRecord
100
AcDbViewportTableRecord
  2
*Active
 70
     0
 10
0.0
 20
0.0
 11
1.0
 21
1.0
 12
297.7213996407812
 22
187.5979723318661
 13
0.0
 23
0.0
 14
10.0
 24
10.0
 15
10.0
 25
10.0
 16
0.0
 26
0.0
 36
1.0
 17
0.0
 27
0.0
 37
0.0
 40
491.9814485027453
 41
1.974504249291785
 42
50.0
 43
0.0
 44
0.0
 50
0.0
 51
0.0
 71
    16
 72
  2000
 73
     1
 74
     3
 75
     0
 76
     0
 77
     0
 78
     0
281
     0
 65
     1
110
0.0
120
0.0
130
0.0
111
1.0
121
0.0
131
0.0
112
0.0
122
1.0
132
0.0
 79
     0
146
0.0
348
386
 60
     3
 61
     5
292
     1
282
     1
141
0.0
142
0.0
 63
   256
361
988
  0
ENDTAB
  0
TABLE
  2
LTYPE
  5
5
330
0
100
AcDbSymbolTable
 70
     6
  0
LTYPE
  5
14
330
5
100
AcDbSymbolTableRecord
100
AcDbLinetypeTableRecord
  2
ByBlock
 70
     0
  3

 72
    65
 73
     0
 40
0.0
  0
LTYPE
  5
15
330
5
100
AcDbSymbolTableRecord
100
AcDbLinetypeTableRecord
  2
ByLayer
 70
     0
  3

 72
    65
 73
     0
 40
0.0
  0
LTYPE
  5
16
330
5
100
AcDbSymbolTableRecord
100
AcDbLinetypeTableRecord
  2
Continuous
 70
     0
  3
Solid line
 72
    65
 73
     0
 40
0.0
  0
LTYPE
  5
6E
330
5
100
AcDbSymbolTableRecord
100
AcDbLinetypeTableRecord
  2
HIDDEN
 70
     0
  3
Hidden __ __ __ __ __ __ __ __ __ __ __ __ __ __
 72
    65
 73
     2
 40
1.905
 49
1.27
 74
     0
 49
-0.635
 74
     0
  0
LTYPE
  5
6F
330
5
100
AcDbSymbolTableRecord
100
AcDbLinetypeTableRecord
  2
PHANTOM
 70
     0
  3
Phantom ______  __  __  ______  __  __  ______
 72
    65
 73
     6
 40
12.7
 49
6.35
 74
     0
 49
-1.27
 74
     0
 49
1.27
 74
     0
 49
-1.27
 74
     0
 49
1.27
 74
     0
 49
-1.27
 74
     0
  0
LTYPE
  5
70
330
5
100
AcDbSymbolTableRecord
100
AcDbLinetypeTableRecord
  2
CENTER
 70
     0
  3
Center ____ _ ____ _ ____ _ ____ _ ____ _ ____
 72
    65
 73
     4
 40
10.16
 49
6.35
 74
     0
 49
-1.27
 74
     0
 49
1.27
 74
     0
 49
-1.27
 74
     0
  0
LTYPE
  5
71
330
5
100
AcDbSymbolTableRecord
100
AcDbLinetypeTableRecord
  2
CENTERX2
 70
     0
  3
Center (2x) ________  __  ________  __  _____
 72
    65
 73
     4
 40
20.32
 49
12.7
 74
     0
 49
-2.54
 74
     0
 49
2.54
 74
     0
 49
-2.54
 74
     0
  0
LTYPE
  5
72
330
5
100
AcDbSymbolTableRecord
100
AcDbLinetypeTableRecord
  2
DOT2
 70
     0
  3
Dot (.5x) ........................................
 72
    65
 73
     2
 40
0.635
 49
0.0
 74
     0
 49
-0.635
 74
     0
  0
ENDTAB
  0
TABLE
  2
LAYER
  5
2
102
{ACAD_XDICTIONARY
360
97F
102
}
330
0
100
AcDbSymbolTable
 70
     3
  0
LAYER
  5
10
330
2
100
AcDbSymbolTableRecord
100
AcDbLayerTableRecord
  2
0
 70
     0
 62
     7
  6
Continuous
370
    -3
390
F
347
39D
348
0
  0
LAYER
  5
73
330
2
100
AcDbSymbolTableRecord
100
AcDbLayerTableRecord
  2
FORMAT
 70
     0
 62
     7
  6
Continuous
370
    -3
390
F
347
39D
348
0
  0
LAYER
  5
968
330
2
100
AcDbSymbolTableRecord
100
AcDbLayerTableRecord
  2
997-図枠_文字
 70
     0
 62
     7
  6
Continuous
370
    -3
390
F
347
39D
348
0
1001
ACAECLAYERSTANDARD
1000

1000

  0
ENDTAB
  0
TABLE
  2
STYLE
  5
3
330
0
100
AcDbSymbolTable
 70
     2
  0
STYLE
  5
11
330
3
100
AcDbSymbolTableRecord
100
AcDbTextStyleTableRecord
  2
Standard
 70
     0
 40
0.0
 41
1.0
 50
0.0
 71
     0
 42
3.5
  3
txt
  4
bigfont
  0
STYLE
  5
974
330
3
100
AcDbSymbolTableRecord
100
AcDbTextStyleTableRecord
  2
ＭＳ_Ｐゴシック
 70
     0
 40
0.0
 41
1.0
 50
0.0
 71
     0
 42
3.5
  3
ＭＳ Ｐゴシック
  4

1001
ACAD
1000
ＭＳ Ｐゴシック
1071
        0
  0
ENDTAB
  0
TABLE
  2
VIEW
  5
6
330
0
100
AcDbSymbolTable
 70
     0
  0
ENDTAB
  0
TABLE
  2
UCS
  5
7
330
0
100
AcDbSymbolTable
 70
     0
  0
ENDTAB
  0
TABLE
  2
APPID
  5
9
330
0
100
AcDbSymbolTable
 70
     3
  0
APPID
  5
12
330
9
100
AcDbSymbolTableRecord
100
AcDbRegAppTableRecord
  2
ACAD
 70
     0
  0
APPID
  5
96A
330
9
100
AcDbSymbolTableRecord
100
AcDbRegAppTableRecord
  2
ACAECLAYERSTANDARD
 70
     0
  0
APPID
  5
987
330
9
100
AcDbSymbolTableRecord
100
AcDbRegAppTableRecord
  2
PLOTTRANSPARENCY
 70
     0
  0
ENDTAB
  0
TABLE
  2
DIMSTYLE
  5
A
330
0
100
AcDbSymbolTable
 70
     2
100
AcDbDimStyleTable
  0
DIMSTYLE
105
27
330
A
100
AcDbSymbolTableRecord
100
AcDbDimStyleTableRecord
  2
ISO-25
 70
     0
 41
2.5
 42
0.625
 43
3.75
 44
1.25
 73
     0
 74
     0
 77
     1
 78
     8
140
2.5
141
2.5
143
0.03937007874016
147
0.625
171
     3
172
     1
178
     0
271
     2
272
     2
274
     3
278
    44
283
     0
284
     8
340
11
  0
DIMSTYLE
105
96D
330
A
100
AcDbSymbolTableRecord
100
AcDbDimStyleTableRecord
  2
JIS-1
 70
     0
 41
2.5
 42
0.625
 43
3.75
 44
1.25
 73
     0
 74
     0
 77
     1
 78
     8
140
2.5
141
2.5
143
0.03937007874016
147
0.625
171
     3
172
     1
178
     0
271
     2
272
     2
274
     3
283
     0
284
     8
340
11
341
96E
342
96E
  0
ENDTAB
  0
TABLE
  2
BLOCK_RECORD
  5
1
330
0
100
AcDbSymbolTable
 70
     2
  0
BLOCK_RECORD
  5
1F
330
1
100
AcDbSymbolTableRecord
100
AcDbBlockTableRecord
  2
*Model_Space
340
22
 70
     0
280
     1
281
     0
  0
BLOCK_RECORD
  5
1B
330
1
100
AcDbSymbolTableRecord
100
AcDbBlockTableRecord
  2
*Paper_Space
340
1E
 70
     0
280
     1
281
     0
  0
BLOCK_RECORD
  5
23
330
1
100
AcDbSymbolTableRecord
100
AcDbBlockTableRecord
  2
*Paper_Space0
340
26
 70
     0
280
     1
281
     0
  0
BLOCK_RECORD
  5
96E
330
1
100
AcDbSymbolTableRecord
100
AcDbBlockTableRecord
  2
_OPEN
340
0
 70
     0
280
     1
281
     0
  0
ENDTAB
  0
ENDSEC
  0
SECTION
  2
BLOCKS
  0
BLOCK
  5
20
330
1F
100
AcDbEntity
  8
0
100
AcDbBlockBegin
  2
*Model_Space
 70
     0
 10
0.0
 20
0.0
 30
0.0
  3
*Model_Space
  1

  0
ENDBLK
  5
21
330
1F
100
AcDbEntity
  8
0
100
AcDbBlockEnd
  0
BLOCK
  5
1C
330
1B
100
AcDbEntity
 67
     1
  8
0
100
AcDbBlockBegin
  2
*Paper_Space
 70
     0
 10
0.0
 20
0.0
 30
0.0
  3
*Paper_Space
  1

  0
ENDBLK
  5
1D
330
1B
100
AcDbEntity
 67
     1
  8
0
100
AcDbBlockEnd
  0
BLOCK
  5
24
330
23
100
AcDbEntity
  8
0
100
AcDbBlockBegin
  2
*Paper_Space0
 70
     0
 10
0.0
 20
0.0
 30
0.0
  3
*Paper_Space0
  1

  0
ENDBLK
  5
25
330
23
100
AcDbEntity
  8
0
100
AcDbBlockEnd
  0
BLOCK
  5
96F
330
96E
100
AcDbEntity
  8
0
100
AcDbBlockBegin
  2
_OPEN
 70
     0
 10
0.0
 20
0.0
 30
0.0
  3
_OPEN
  1

  0
LINE
  5
970
330
96E
100
AcDbEntity
  8
0
  6
ByBlock
 62
     0
100
AcDbLine
 10
-1.0
 20
0.166667
 30
0.0
 11
0.0
 21
0.0
 31
0.0
  0
LINE
  5
971
330
96E
100
AcDbEntity
  8
0
  6
ByBlock
 62
     0
100
AcDbLine
 10
-1.0
 20
-0.166667
 30
0.0
 11
0.0
 21
0.0
 31
0.0
  0
LINE
  5
972
330
96E
100
AcDbEntity
  8
0
  6
ByBlock
 62
     0
100
AcDbLine
 10
0.0
 20
0.0
 30
0.0
 11
-1.0
 21
0.0
 31
0.0
  0
ENDBLK
  5
973
330
96E
100
AcDbEntity
  8
0
100
AcDbBlockEnd
  0
ENDSEC
  0
SECTION
  2
ENTITIES
  0
LINE
  5
95F
330
1F
100
AcDbEntity
  8
0
100
AcDbLine
 10
50.31577559696353
 20
38.23994223581994
 30
0.0
 11
50.31577559696353
 21
335.23994223582
 31
0.0
  0
LINE
  5
960
330
1F
100
AcDbEntity
  8
0
100
AcDbLine
 10
50.31577559696353
 20
335.23994223582
 30
0.0
 11
260.3157755969635
 21
335.23994223582
 31
0.0
  0
LINE
  5
961
330
1F
100
AcDbEntity
  8
0
100
AcDbLine
 10
260.3157755969635
 20
335.23994223582
 30
0.0
 11
260.3157755969635
 21
38.23994223581997
 31
0.0
  0
LINE
  5
962
330
1F
100
AcDbEntity
  8
0
100
AcDbLine
 10
260.3157755969635
 20
38.23994223581997
 30
0.0
 11
50.31577559696353
 21
38.23994223581994
 31
0.0
  0
MTEXT
  5
986
330
1F
100
AcDbEntity
  8
997-図枠_文字
  6
ByBlock
 62
     0
370
    -2
100
AcDbMText
 10
193.9219554333937
 20
163.2898652789691
 30
0.0
 40
3.0
 41
0.1000000014901161
 46
8.047073375407344
 71
     1
 72
     1
  1
{\W0.9;\C256;HEC-124S\PHEC-125S}
  7
ＭＳ_Ｐゴシック
 73
     1
 44
1.004016064257028
  0
LINE
  5
9AC
330
1F
100
AcDbEntity
  8
0
  6
Continuous
 62
     7
370
    25
100
AcDbLine
 10
173.1907755969635
 20
185.68112508922
 30
0.0
 11
173.1907755969635
 21
186.73994223582
 31
0.0
  0
LINE
  5
9AD
330
1F
100
AcDbEntity
  8
0
  6
Continuous
 62
     7
370
    25
100
AcDbLine
 10
137.4407755969635
 20
186.73994223582
 30
0.0
 11
137.4407755969635
 21
185.68112508922
 31
0.0
  0
LINE
  5
9AE
330
1F
100
AcDbEntity
  8
0
  6
Continuous
 62
     7
370
    25
100
AcDbLine
 10
171.2374589250635
 20
191.9360946585199
 30
0.0
 11
170.8292106346635
 21
192.2247697931199
 31
0.0
  0
LINE
  5
9AF
330
1F
100
AcDbEntity
  8
0
  6
Continuous
 62
     7
370
    25
100
AcDbLine
 10
139.8023405593635
 20
192.2247697931199
 30
0.0
 11
139.3940922688636
 21
191.9360946585199
 31
0.0
  0
LWPOLYLINE
  5
9B0
330
1F
100
AcDbEntity
  8
0
  6
Continuous
 62
     7
370
    25
100
AcDbPolyline
 90
       58
 70
   128
 43
0.0
 10
155.3157755969635
 20
179.86494223582
 10
154.5583188920635
 20
179.87538181032
 10
153.8031625583635
 20
179.90666882922
 10
153.0525999806636
 20
179.95870827492
 10
152.3089105928635
 20
180.0313421052199
 10
151.5743529553636
 20
180.12434973372
 10
150.8511578954635
 20
180.23744869912
 10
150.1415217327635
 20
180.37029552372
 10
149.4475996089635
 20
180.52248675602
 10
148.7714989427635
 20
180.69356019632
 10
148.1152730296635
 20
180.88299630002
 10
147.4809148062635
 20
181.09021975612
 10
146.8703507975636
 20
181.31460123372
 10
146.2854352663635
 20
181.5554592936199
 10
145.7279445819635
 20
181.81206245782
 10
145.1995718252635
 20
182.08363143092
 10
144.7019216468635
 20
182.36934146692
 10
144.2365053941635
 20
182.66832487372
 10
143.8047365208636
 20
182.97967364872
 10
143.4079262949635
 20
183.30244223582
 10
143.0472798159635
 20
183.63565039742
 10
142.7238923554635
 20
183.97828619132
 10
142.4387460305635
 20
184.32930904382
 10
142.1927068211635
 20
184.68765291022
 10
141.9865219403636
 20
185.05222951172
 10
141.8208175647635
 20
185.42193164132
 10
141.6960969332636
 20
185.79563652582
 10
141.6127388181635
 20
186.1722092357199
 10
141.5709963753635
 20
186.55050613202
 10
141.5709963753635
 20
186.9293783396199
 10
141.6127388181635
 20
187.30767523592
 10
141.6960969332636
 20
187.6842479458199
 10
141.8208175647635
 20
188.0579528303199
 10
141.9865219403636
 20
188.4276549599199
 10
142.1927068211635
 20
188.79223156142
 10
142.4387460305635
 20
189.15057542772
 10
142.7238923554635
 20
189.50159828032
 10
143.0472798159635
 20
189.84423407422
 10
143.4079262949635
 20
190.17744223582
 10
143.8047365208636
 20
190.50021082292
 10
144.2365053941635
 20
190.81155959792
 10
144.7019216468635
 20
191.1105430047199
 10
145.1995718252635
 20
191.39625304072
 10
145.7279445819635
 20
191.6678220138199
 10
146.2854352663635
 20
191.92442517802
 10
146.8703507975636
 20
192.16528323792
 10
147.4809148062635
 20
192.38966471552
 10
148.1152730296635
 20
192.59688817162
 10
148.7714989427635
 20
192.7863242753199
 10
149.4475996089635
 20
192.9573977156199
 10
150.1415217327635
 20
193.1095889479199
 10
150.8511578954635
 20
193.24243577252
 10
151.5743529553636
 20
193.35553473792
 10
152.3089105928635
 20
193.44854236642
 10
153.0525999806636
 20
193.5211761967199
 10
153.8031625583635
 20
193.57321564242
 10
154.5583188920635
 20
193.60450266132
 10
155.3157755969635
 20
193.61494223582
  0
LWPOLYLINE
  5
9B1
330
1F
100
AcDbEntity
  8
0
  6
Continuous
 62
     7
370
    25
100
AcDbPolyline
 90
       58
 70
   128
 43
0.0
 10
155.3157755969635
 20
193.61494223582
 10
156.0732323018635
 20
193.60450266132
 10
156.8283886356635
 20
193.57321564242
 10
157.5789512133636
 20
193.5211761967199
 10
158.3226406010635
 20
193.44854236642
 10
159.0571982386635
 20
193.35553473792
 10
159.7803932985635
 20
193.24243577252
 10
160.4900294612635
 20
193.1095889479199
 10
161.1839515850635
 20
192.9573977156199
 10
161.8600522512635
 20
192.7863242753199
 10
162.5162781643635
 20
192.59688817162
 10
163.1506363877635
 20
192.38966471552
 10
163.7612003964636
 20
192.16528323792
 10
164.3461159276635
 20
191.92442517802
 10
164.9036066120635
 20
191.6678220138199
 10
165.4319793687636
 20
191.39625304072
 10
165.9296295470635
 20
191.1105430047199
 10
166.3950457998635
 20
190.81155959792
 10
166.8268146730635
 20
190.50021082292
 10
167.2236248990636
 20
190.17744223582
 10
167.5842713779635
 20
189.84423407422
 10
167.9076588384635
 20
189.50159828032
 10
168.1928051634635
 20
189.15057542772
 10
168.4388443728635
 20
188.79223156142
 10
168.6450292536636
 20
188.4276549599199
 10
168.8107336292635
 20
188.0579528303199
 10
168.9354542607635
 20
187.6842479458199
 10
169.0188123758635
 20
187.30767523592
 10
169.0605548185636
 20
186.9293783396199
 10
169.0605548185636
 20
186.55050613202
 10
169.0188123758635
 20
186.1722092357199
 10
168.9354542607635
 20
185.79563652582
 10
168.8107336292635
 20
185.42193164132
 10
168.6450292536636
 20
185.05222951172
 10
168.4388443728635
 20
184.68765291022
 10
168.1928051634635
 20
184.32930904382
 10
167.9076588384635
 20
183.97828619132
 10
167.5842713779635
 20
183.63565039742
 10
167.2236248990636
 20
183.30244223582
 10
166.8268146730635
 20
182.97967364872
 10
166.3950457998635
 20
182.66832487372
 10
165.9296295470635
 20
182.36934146692
 10
165.4319793687636
 20
182.08363143092
 10
164.9036066120635
 20
181.81206245782
 10
164.3461159276635
 20
181.5554592936199
 10
163.7612003964636
 20
181.31460123372
 10
163.1506363877635
 20
181.09021975612
 10
162.5162781643635
 20
180.88299630002
 10
161.8600522512635
 20
180.69356019632
 10
161.1839515850635
 20
180.52248675602
 10
160.4900294612635
 20
180.37029552372
 10
159.7803932985635
 20
180.23744869912
 10
159.0571982386635
 20
180.12434973372
 10
158.3226406010635
 20
180.0313421052199
 10
157.5789512133636
 20
179.95870827492
 10
156.8283886356635
 20
179.90666882922
 10
156.0732323018635
 20
179.87538181032
 10
155.3157755969635
 20
179.86494223582
  0
LWPOLYLINE
  5
9B2
330
1F
100
AcDbEntity
  8
0
  6
Continuous
 62
     7
370
    25
100
AcDbPolyline
 90
       66
 70
   128
 43
0.0
 10
155.3157755969635
 20
195.67744223582
 10
156.1793772560635
 20
195.66700526312
 10
157.0409619333635
 20
195.63571872112
 10
157.8985173580635
 20
195.5836556809199
 10
158.7500406696636
 20
195.51093773822
 10
159.5935430961636
 20
195.41773472902
 10
160.4270545983635
 20
195.30426433352
 10
161.2486284716636
 20
195.17079156682
 10
162.0563458921636
 20
195.01762816092
 10
162.8483203984636
 20
194.8451318359199
 10
163.6227022972636
 20
194.65370546512
 10
164.3776829839635
 20
194.44379613352
 10
165.1114991659636
 20
194.21589409432
 10
165.8224369817635
 20
193.97053162302
 10
166.5088360029636
 20
193.7082817752199
 10
167.1690931130635
 20
193.4297570476199
 10
167.8016662508635
 20
193.1356079474199
 10
168.4050780124635
 20
192.82652147372
 10
168.9779191017635
 20
192.50321951212
 10
169.5188516218635
 20
192.16645714942
 10
170.0266121998635
 20
191.81702090972
 10
170.5000149372635
 20
191.45572691752
 10
170.9379541801635
 20
191.08341899172
 10
171.3394071011635
 20
190.70096667462
 10
171.7034360882635
 20
190.30926320142
 10
172.0291909349635
 20
189.90922341372
 10
172.3159108257635
 20
189.50178162302
 10
172.5629261130636
 20
189.0878894284199
 10
172.7696598810635
 20
188.66851349442
 10
172.9356292936635
 20
188.24463329282
 10
173.0604467214636
 20
187.81723881562
 10
173.1438206477635
 20
187.38732826222
 10
173.1855563486636
 20
186.95590570882
 10
173.1855563486636
 20
186.52397876272
 10
173.1438206477635
 20
186.09255620942
 10
173.0604467214636
 20
185.6626456560199
 10
172.9356292936635
 20
185.23525117882
 10
172.7696598810635
 20
184.81137097722
 10
172.5629261130636
 20
184.3919950431199
 10
172.3159108257635
 20
183.97810284862
 10
172.0291909349635
 20
183.5706610579199
 10
171.7034360882635
 20
183.17062127022
 10
171.3394071011635
 20
182.7789177970199
 10
170.9379541801635
 20
182.39646547992
 10
170.5000149372635
 20
182.02415755412
 10
170.0266121998635
 20
181.6628635619199
 10
169.5188516218635
 20
181.31342732222
 10
168.9779191017635
 20
180.97666495952
 10
168.4050780124635
 20
180.6533629979199
 10
167.8016662508635
 20
180.3442765241199
 10
167.1690931130635
 20
180.05012742402
 10
166.5088360029636
 20
179.77160269642
 10
165.8224369817635
 20
179.50935284862
 10
165.1114991659636
 20
179.2639903773199
 10
164.3776829839635
 20
179.03608833812
 10
163.6227022972636
 20
178.82617900652
 10
162.8483203984636
 20
178.63475263572
 10
162.0563458921636
 20
178.46225631072
 10
161.2486284716636
 20
178.3090929048199
 10
160.4270545983635
 20
178.17562013812
 10
159.5935430961636
 20
178.06214974262
 10
158.7500406696636
 20
177.96894673342
 10
157.8985173580635
 20
177.89622879072
 10
157.0409619333635
 20
177.8441657505199
 10
156.1793772560635
 20
177.8128792085199
 10
155.3157755969635
 20
177.80244223582
  0
LWPOLYLINE
  5
9B3
330
1F
100
AcDbEntity
  8
0
  6
Continuous
 62
     7
370
    25
100
AcDbPolyline
 90
       66
 70
   128
 43
0.0
 10
155.3157755969635
 20
177.80244223582
 10
154.4521739379635
 20
177.8128792085199
 10
153.5905892606635
 20
177.8441657505199
 10
152.7330338359635
 20
177.89622879072
 10
151.8815105242635
 20
177.96894673342
 10
151.0380080978636
 20
178.06214974262
 10
150.2044965956635
 20
178.17562013812
 10
149.3829227223636
 20
178.3090929048199
 10
148.5752053018635
 20
178.46225631072
 10
147.7832307955636
 20
178.63475263572
 10
147.0088488967635
 20
178.82617900652
 10
146.2538682100635
 20
179.03608833812
 10
145.5200520280636
 20
179.2639903773199
 10
144.8091142122635
 20
179.50935284862
 10
144.1227151909635
 20
179.77160269642
 10
143.4624580809635
 20
180.05012742402
 10
142.8298849431635
 20
180.3442765241199
 10
142.2264731815635
 20
180.6533629979199
 10
141.6536320922635
 20
180.97666495952
 10
141.1126995721635
 20
181.31342732222
 10
140.6049389941635
 20
181.6628635619199
 10
140.1315362566635
 20
182.02415755412
 10
139.6935970137636
 20
182.39646547992
 10
139.2921440928635
 20
182.7789177970199
 10
138.9281151057635
 20
183.17062127022
 10
138.6023602589635
 20
183.5706610579199
 10
138.3156403682635
 20
183.97810284862
 10
138.0686250809636
 20
184.3919950431199
 10
137.8618913129635
 20
184.81137097722
 10
137.6959219003635
 20
185.23525117882
 10
137.5711044724635
 20
185.6626456560199
 10
137.4877305462635
 20
186.09255620942
 10
137.4459948453635
 20
186.52397876272
 10
137.4459948453635
 20
186.95590570882
 10
137.4877305462635
 20
187.38732826222
 10
137.5711044724635
 20
187.81723881562
 10
137.6959219003635
 20
188.24463329282
 10
137.8618913129635
 20
188.66851349442
 10
138.0686250809636
 20
189.0878894284199
 10
138.3156403682635
 20
189.50178162302
 10
138.6023602589635
 20
189.90922341372
 10
138.9281151057635
 20
190.30926320142
 10
139.2921440928635
 20
190.70096667462
 10
139.6935970137636
 20
191.08341899172
 10
140.1315362566635
 20
191.45572691752
 10
140.6049389941635
 20
191.81702090972
 10
141.1126995721635
 20
192.16645714942
 10
141.6536320922635
 20
192.50321951212
 10
142.2264731815635
 20
192.82652147372
 10
142.8298849431635
 20
193.1356079474199
 10
143.4624580809635
 20
193.4297570476199
 10
144.1227151909635
 20
193.7082817752199
 10
144.8091142122635
 20
193.97053162302
 10
145.5200520280636
 20
194.21589409432
 10
146.2538682100635
 20
194.44379613352
 10
147.0088488967635
 20
194.65370546512
 10
147.7832307955636
 20
194.8451318359199
 10
148.5752053018635
 20
195.01762816092
 10
149.3829227223636
 20
195.17079156682
 10
150.2044965956635
 20
195.30426433352
 10
151.0380080978636
 20
195.41773472902
 10
151.8815105242635
 20
195.51093773822
 10
152.7330338359635
 20
195.5836556809199
 10
153.5905892606635
 20
195.63571872112
 10
154.4521739379635
 20
195.66700526312
 10
155.3157755969635
 20
195.67744223582
  0
LWPOLYLINE
  5
9B4
330
1F
100
AcDbEntity
  8
0
  6
Continuous
 62
     7
370
    25
100
AcDbPolyline
 90
       58
 70
   128
 43
0.0
 10
155.3157755969635
 20
193.61494223582
 10
154.5583188920635
 20
193.60450266132
 10
153.8031625583635
 20
193.57321564242
 10
153.0525999806636
 20
193.5211761967199
 10
152.3089105928635
 20
193.44854236642
 10
151.5743529553636
 20
193.35553473792
 10
150.8511578954635
 20
193.24243577252
 10
150.1415217327635
 20
193.1095889479199
 10
149.4475996089635
 20
192.9573977156199
 10
148.7714989427635
 20
192.7863242753199
 10
148.1152730296635
 20
192.59688817162
 10
147.4809148062635
 20
192.38966471552
 10
146.8703507975636
 20
192.16528323792
 10
146.2854352663635
 20
191.92442517802
 10
145.7279445819635
 20
191.6678220138199
 10
145.1995718252635
 20
191.39625304072
 10
144.7019216468635
 20
191.1105430047199
 10
144.2365053941635
 20
190.81155959792
 10
143.8047365208636
 20
190.50021082292
 10
143.4079262949635
 20
190.17744223582
 10
143.0472798159635
 20
189.84423407422
 10
142.7238923554635
 20
189.50159828032
 10
142.4387460305635
 20
189.15057542772
 10
142.1927068211635
 20
188.79223156142
 10
141.9865219403636
 20
188.4276549599199
 10
141.8208175647635
 20
188.0579528303199
 10
141.6960969332636
 20
187.6842479458199
 10
141.6127388181635
 20
187.30767523592
 10
141.5709963753635
 20
186.9293783396199
 10
141.5709963753635
 20
186.55050613202
 10
141.6127388181635
 20
186.1722092357199
 10
141.6960969332636
 20
185.79563652582
 10
141.8208175647635
 20
185.42193164132
 10
141.9865219403636
 20
185.05222951172
 10
142.1927068211635
 20
184.68765291022
 10
142.4387460305635
 20
184.32930904382
 10
142.7238923554635
 20
183.97828619132
 10
143.0472798159635
 20
183.63565039742
 10
143.4079262949635
 20
183.30244223582
 10
143.8047365208636
 20
182.97967364872
 10
144.2365053941635
 20
182.66832487372
 10
144.7019216468635
 20
182.36934146692
 10
145.1995718252635
 20
182.08363143092
 10
145.7279445819635
 20
181.81206245782
 10
146.2854352663635
 20
181.5554592936199
 10
146.8703507975636
 20
181.31460123372
 10
147.4809148062635
 20
181.09021975612
 10
148.1152730296635
 20
180.88299630002
 10
148.7714989427635
 20
180.69356019632
 10
149.4475996089635
 20
180.52248675602
 10
150.1415217327635
 20
180.37029552372
 10
150.8511578954635
 20
180.23744869912
 10
151.5743529553636
 20
180.12434973372
 10
152.3089105928635
 20
180.0313421052199
 10
153.0525999806636
 20
179.95870827492
 10
153.8031625583635
 20
179.90666882922
 10
154.5583188920635
 20
179.87538181032
 10
155.3157755969635
 20
179.86494223582
  0
LWPOLYLINE
  5
9B5
330
1F
100
AcDbEntity
  8
0
  6
Continuous
 62
     7
370
    25
100
AcDbPolyline
 90
       58
 70
   128
 43
0.0
 10
155.3157755969635
 20
179.86494223582
 10
156.0732323018635
 20
179.87538181032
 10
156.8283886356635
 20
179.90666882922
 10
157.5789512133636
 20
179.95870827492
 10
158.3226406010635
 20
180.0313421052199
 10
159.0571982386635
 20
180.12434973372
 10
159.7803932985635
 20
180.23744869912
 10
160.4900294612635
 20
180.37029552372
 10
161.1839515850635
 20
180.52248675602
 10
161.8600522512635
 20
180.69356019632
 10
162.5162781643635
 20
180.88299630002
 10
163.1506363877635
 20
181.09021975612
 10
163.7612003964636
 20
181.31460123372
 10
164.3461159276635
 20
181.5554592936199
 10
164.9036066120635
 20
181.81206245782
 10
165.4319793687636
 20
182.08363143092
 10
165.9296295470635
 20
182.36934146692
 10
166.3950457998635
 20
182.66832487372
 10
166.8268146730635
 20
182.97967364872
 10
167.2236248990636
 20
183.30244223582
 10
167.5842713779635
 20
183.63565039742
 10
167.9076588384635
 20
183.97828619132
 10
168.1928051634635
 20
184.32930904382
 10
168.4388443728635
 20
184.68765291022
 10
168.6450292536636
 20
185.05222951172
 10
168.8107336292635
 20
185.42193164132
 10
168.9354542607635
 20
185.79563652582
 10
169.0188123758635
 20
186.1722092357199
 10
169.0605548185636
 20
186.55050613202
 10
169.0605548185636
 20
186.9293783396199
 10
169.0188123758635
 20
187.30767523592
 10
168.9354542607635
 20
187.6842479458199
 10
168.8107336292635
 20
188.0579528303199
 10
168.6450292536636
 20
188.4276549599199
 10
168.4388443728635
 20
188.79223156142
 10
168.1928051634635
 20
189.15057542772
 10
167.9076588384635
 20
189.50159828032
 10
167.5842713779635
 20
189.84423407422
 10
167.2236248990636
 20
190.17744223582
 10
166.8268146730635
 20
190.50021082292
 10
166.3950457998635
 20
190.81155959792
 10
165.9296295470635
 20
191.1105430047199
 10
165.4319793687636
 20
191.39625304072
 10
164.9036066120635
 20
191.6678220138199
 10
164.3461159276635
 20
191.92442517802
 10
163.7612003964636
 20
192.16528323792
 10
163.1506363877635
 20
192.38966471552
 10
162.5162781643635
 20
192.59688817162
 10
161.8600522512635
 20
192.7863242753199
 10
161.1839515850635
 20
192.9573977156199
 10
160.4900294612635
 20
193.1095889479199
 10
159.7803932985635
 20
193.24243577252
 10
159.0571982386635
 20
193.35553473792
 10
158.3226406010635
 20
193.44854236642
 10
157.5789512133636
 20
193.5211761967199
 10
156.8283886356635
 20
193.57321564242
 10
156.0732323018635
 20
193.60450266132
 10
155.3157755969635
 20
193.61494223582
  0
LWPOLYLINE
  5
9B6
330
1F
100
AcDbEntity
  8
0
  6
Continuous
 62
     7
370
    25
100
AcDbPolyline
 90
       68
 70
   128
 43
0.0
 10
174.3157755969635
 20
186.73994223582
 10
174.2948925352636
 20
186.2946557423199
 10
174.2322892554636
 20
185.85034808522
 10
174.1281033731635
 20
185.40799594912
 10
173.9825639116635
 20
184.96857172002
 10
173.7959907981635
 20
184.53304134782
 10
173.5687941609635
 20
184.1023622226199
 10
173.3014734275636
 20
183.67748107082
 10
172.9946162268635
 20
183.25933187322
 10
172.6488970976635
 20
182.8488338126199
 10
172.2650760055635
 20
182.4468892528199
 10
171.8439966727635
 20
182.05438175522
 10
171.3865847229636
 20
181.67217413642
 10
170.8938456467636
 20
181.3011065717199
 10
170.3668625917635
 20
180.94199474822
 10
169.8067939810635
 20
180.59562807162
 10
169.2148709669635
 20
180.26276793112
 10
168.5923947247635
 20
179.94414602542
 10
167.9407335923635
 20
179.64046275462
 10
167.2613200622635
 20
179.3523856805199
 10
166.5556476328635
 20
179.08054805912
 10
165.8252675253635
 20
178.82554744832
 10
165.0717852737636
 20
178.5879443950199
 10
164.2968571955636
 20
178.36826120212
 10
163.5021867508635
 20
178.16698078102
 10
162.6895207977635
 20
177.98454558982
 10
161.8606457523636
 20
177.82135666062
 10
161.0173836619635
 20
177.67777271812
 10
160.1615881996635
 20
177.55410939092
 10
159.2951405895635
 20
177.45063851792
 10
158.4199454715636
 20
177.3675875505199
 10
157.5379267144635
 20
177.30513905282
 10
156.6510231869635
 20
177.26343030002
 10
155.7611844954636
 20
177.2425529773199
 10
154.8703666985635
 20
177.2425529773199
 10
153.9805280070635
 20
177.26343030002
 10
153.0936244795636
 20
177.30513905282
 10
152.2116057224636
 20
177.3675875505199
 10
151.3364106044635
 20
177.45063851792
 10
150.4699629943635
 20
177.55410939092
 10
149.6141675319635
 20
177.67777271812
 10
148.7709054415635
 20
177.82135666062
 10
147.9420303962635
 20
177.98454558982
 10
147.1293644431635
 20
178.16698078102
 10
146.3346939984635
 20
178.36826120212
 10
145.5597659202635
 20
178.5879443950199
 10
144.8062836686635
 20
178.82554744832
 10
144.0759035611635
 20
179.08054805912
 10
143.3702311317635
 20
179.3523856805199
 10
142.6908176016635
 20
179.64046275462
 10
142.0391564691636
 20
179.94414602542
 10
141.4166802269635
 20
180.26276793112
 10
140.8247572128636
 20
180.59562807162
 10
140.2646886021636
 20
180.94199474822
 10
139.7377055471635
 20
181.3011065717199
 10
139.2449664710635
 20
181.67217413642
 10
138.7875545212635
 20
182.05438175522
 10
138.3664751883636
 20
182.4468892528199
 10
137.9826540963635
 20
182.8488338126199
 10
137.6369349671635
 20
183.25933187322
 10
137.3300777664635
 20
183.67748107082
 10
137.0627570330636
 20
184.1023622226199
 10
136.8355603958635
 20
184.53304134782
 10
136.6489872823636
 20
184.96857172002
 10
136.5034478208635
 20
185.40799594912
 10
136.3992619385635
 20
185.85034808522
 10
136.3366586587636
 20
186.2946557423199
 10
136.3157755969635
 20
186.73994223582
  0
LWPOLYLINE
  5
9B7
330
1F
100
AcDbEntity
  8
0
  6
Continuous
 62
     7
370
    25
100
AcDbPolyline
 90
       68
 70
   128
 43
0.0
 10
174.8157755969635
 20
186.3069295339199
 10
174.7943429809635
 20
185.8499249748199
 10
174.7300922464635
 20
185.39392501092
 10
174.6231646304635
 20
184.93993202922
 10
174.4737951830635
 20
184.48894400462
 10
174.2823122508635
 20
184.04195230672
 10
174.0491367547635
 20
183.59993952042
 10
173.7747812651635
 20
183.1638772856199
 10
173.4598488749635
 20
182.73472416182
 10
173.1050318739635
 20
182.3134235206199
 10
172.7111102268635
 20
181.9009014724199
 10
172.2789498589635
 20
181.4980648301199
 10
171.8095007525635
 20
181.10579911612
 10
171.3037948586635
 20
180.7249666155199
 10
170.7629438285635
 20
180.35640448092
 10
170.1881365701635
 20
180.00092289172
 10
169.5806366346635
 20
179.6593032738199
 10
168.9417794386635
 20
179.3322965811199
 10
168.2729693290635
 20
179.0206216453199
 10
167.5756764955635
 20
178.72496359562
 10
166.8514337390635
 20
178.44597235252
 10
166.1018331024635
 20
178.18426119942
 10
165.3285223705635
 20
177.94040543412
 10
164.5332014481635
 20
177.71494110462
 10
163.7176186233635
 20
177.50836383032
 10
162.8835667240635
 20
177.32112771302
 10
162.0328791775635
 20
177.15364433832
 10
161.1674259794635
 20
177.00628187102
 10
160.2891095839635
 20
176.87936424572
 10
159.3998607209635
 20
176.77317045502
 10
158.5016341524636
 20
176.68793393582
 10
157.5964043754635
 20
176.62384205662
 10
156.6861612814636
 20
176.5810357051199
 10
155.7729057822635
 20
176.55960897912
 10
154.8586454117635
 20
176.55960897912
 10
153.9453899125635
 20
176.5810357051199
 10
153.0351468185635
 20
176.62384205662
 10
152.1299170415635
 20
176.68793393582
 10
151.2316904730635
 20
176.77317045502
 10
150.3424416100635
 20
176.87936424572
 10
149.4641252144635
 20
177.00628187102
 10
148.5986720164635
 20
177.15364433832
 10
147.7479844698635
 20
177.32112771302
 10
146.9139325706635
 20
177.50836383032
 10
146.0983497458635
 20
177.71494110462
 10
145.3030288234635
 20
177.94040543412
 10
144.5297180915635
 20
178.18426119942
 10
143.7801174549635
 20
178.44597235252
 10
143.0558746984635
 20
178.72496359562
 10
142.3585818649635
 20
179.0206216453199
 10
141.6897717552636
 20
179.3322965811199
 10
141.0509145593635
 20
179.6593032738199
 10
140.4434146238635
 20
180.00092289172
 10
139.8686073654635
 20
180.35640448092
 10
139.3277563353636
 20
180.7249666155199
 10
138.8220504414635
 20
181.10579911612
 10
138.3526013350635
 20
181.4980648301199
 10
137.9204409671635
 20
181.9009014724199
 10
137.5265193200635
 20
182.3134235206199
 10
137.1717023189635
 20
182.73472416182
 10
136.8567699288635
 20
183.1638772856199
 10
136.5824144392635
 20
183.59993952042
 10
136.3492389431635
 20
184.04195230672
 10
136.1577560109636
 20
184.48894400462
 10
136.0083865635635
 20
184.93993202922
 10
135.9014589475635
 20
185.39392501092
 10
135.8372082130635
 20
185.8499249748199
 10
135.8157755969635
 20
186.3069295339199
  0
LWPOLYLINE
  5
9B8
330
1F
100
AcDbEntity
  8
0
  6
Continuous
 62
     7
370
    25
100
AcDbPolyline
 90
       68
 70
   128
 43
0.0
 10
135.8157755969635
 20
178.9457136017199
 10
135.8372082130635
 20
178.48870904272
 10
135.9014589475635
 20
178.0327090788199
 10
136.0083865635635
 20
177.57871609702
 10
136.1577560109636
 20
177.12772807242
 10
136.3492389431635
 20
176.68073637452
 10
136.5824144392635
 20
176.23872358822
 10
136.8567699288635
 20
175.8026613534199
 10
137.1717023189635
 20
175.3735082296199
 10
137.5265193200635
 20
174.95220758852
 10
137.9204409671635
 20
174.5396855402199
 10
138.3526013350635
 20
174.1368488979199
 10
138.8220504414635
 20
173.74458318392
 10
139.3277563353636
 20
173.3637506833199
 10
139.8686073654635
 20
172.99518854872
 10
140.4434146238635
 20
172.63970695962
 10
141.0509145593635
 20
172.2980873416199
 10
141.6897717552636
 20
171.97108064892
 10
142.3585818649635
 20
171.65940571312
 10
143.0558746984635
 20
171.36374766342
 10
143.7801174549635
 20
171.08475642042
 10
144.5297180915635
 20
170.82304526722
 10
145.3030288234635
 20
170.5791895020199
 10
146.0983497458635
 20
170.35372517242
 10
146.9139325706635
 20
170.1471478982199
 10
147.7479844698635
 20
169.95991178092
 10
148.5986720164635
 20
169.79242840612
 10
149.4641252144635
 20
169.64506593882
 10
150.3424416100635
 20
169.51814831352
 10
151.2316904730635
 20
169.41195452282
 10
152.1299170415635
 20
169.32671800362
 10
153.0351468185635
 20
169.26262612442
 10
153.9453899125635
 20
169.2198197729199
 10
154.8586454117635
 20
169.19839304692
 10
155.7729057822635
 20
169.19839304692
 10
156.6861612814636
 20
169.2198197729199
 10
157.5964043754635
 20
169.26262612442
 10
158.5016341524636
 20
169.32671800362
 10
159.3998607209635
 20
169.41195452282
 10
160.2891095839635
 20
169.51814831352
 10
161.1674259794635
 20
169.64506593882
 10
162.0328791775635
 20
169.79242840612
 10
162.8835667240635
 20
169.95991178092
 10
163.7176186233635
 20
170.1471478982199
 10
164.5332014481635
 20
170.35372517242
 10
165.3285223705635
 20
170.5791895020199
 10
166.1018331024635
 20
170.82304526722
 10
166.8514337390635
 20
171.08475642042
 10
167.5756764955635
 20
171.36374766342
 10
168.2729693290635
 20
171.65940571312
 10
168.9417794386635
 20
171.97108064892
 10
169.5806366346635
 20
172.2980873416199
 10
170.1881365701635
 20
172.63970695962
 10
170.7629438285635
 20
172.99518854872
 10
171.3037948586635
 20
173.3637506833199
 10
171.8095007525635
 20
173.74458318392
 10
172.2789498589635
 20
174.1368488979199
 10
172.7111102268635
 20
174.5396855402199
 10
173.1050318739635
 20
174.95220758852
 10
173.4598488749635
 20
175.3735082296199
 10
173.7747812651635
 20
175.8026613534199
 10
174.0491367547635
 20
176.23872358822
 10
174.2823122508635
 20
176.68073637452
 10
174.4737951830635
 20
177.12772807242
 10
174.6231646304635
 20
177.57871609702
 10
174.7300922464635
 20
178.0327090788199
 10
174.7943429809635
 20
178.48870904272
 10
174.8157755969635
 20
178.9457136017199
  0
LINE
  5
9B9
330
1F
100
AcDbEntity
  8
0
  6
Continuous
 62
     7
370
    25
100
AcDbLine
 10
135.8157755969635
 20
178.9457136017199
 30
0.0
 11
135.8157755969635
 21
186.3069295339199
 31
0.0
  0
LINE
  5
9BA
330
1F
100
AcDbEntity
  8
0
  6
Continuous
 62
     7
370
    25
100
AcDbLine
 10
174.8157755969635
 20
178.9457136017199
 30
0.0
 11
174.8157755969635
 21
186.3069295339199
 31
0.0
  0
LWPOLYLINE
  5
9BB
330
1F
100
AcDbEntity
  8
0
  6
Continuous
 62
     7
370
    25
100
AcDbPolyline
 90
       68
 70
   128
 43
0.0
 10
136.3157755969635
 20
186.73994223582
 10
136.3366586587636
 20
187.18522872932
 10
136.3992619385635
 20
187.6295363864199
 10
136.5034478208635
 20
188.0718885225199
 10
136.6489872823636
 20
188.51131275162
 10
136.8355603958635
 20
188.9468431238199
 10
137.0627570330636
 20
189.37752224902
 10
137.3300777664635
 20
189.80240340082
 10
137.6369349671635
 20
190.2205525984199
 10
137.9826540963635
 20
190.63105065902
 10
138.3664751883636
 20
191.03299521882
 10
138.7875545212635
 20
191.4255027164199
 10
139.2449664710635
 20
191.80771033522
 10
139.7377055471635
 20
192.17877789992
 10
140.2646886021636
 20
192.53788972342
 10
140.8247572128636
 20
192.88425640002
 10
141.4166802269635
 20
193.21711654052
 10
142.0391564691636
 20
193.53573844622
 10
142.6908176016635
 20
193.8394217170199
 10
143.3702311317635
 20
194.12749879112
 10
144.0759035611635
 20
194.3993364125199
 10
144.8062836686635
 20
194.65433702332
 10
145.5597659202635
 20
194.89194007662
 10
146.3346939984635
 20
195.11162326952
 10
147.1293644431635
 20
195.3129036906199
 10
147.9420303962635
 20
195.4953388818199
 10
148.7709054415635
 20
195.65852781102
 10
149.6141675319635
 20
195.80211175352
 10
150.4699629943635
 20
195.9257750807199
 10
151.3364106044635
 20
196.02924595372
 10
152.2116057224636
 20
196.11229692112
 10
153.0936244795636
 20
196.17474541882
 10
153.9805280070635
 20
196.21645417152
 10
154.8703666985635
 20
196.23733149432
 10
155.7611844954636
 20
196.23733149432
 10
156.6510231869635
 20
196.21645417152
 10
157.5379267144635
 20
196.17474541882
 10
158.4199454715636
 20
196.11229692112
 10
159.2951405895635
 20
196.02924595372
 10
160.1615881996635
 20
195.9257750807199
 10
161.0173836619635
 20
195.80211175352
 10
161.8606457523636
 20
195.65852781102
 10
162.6895207977635
 20
195.4953388818199
 10
163.5021867508635
 20
195.3129036906199
 10
164.2968571955636
 20
195.11162326952
 10
165.0717852737636
 20
194.89194007662
 10
165.8252675253635
 20
194.65433702332
 10
166.5556476328635
 20
194.3993364125199
 10
167.2613200622635
 20
194.12749879112
 10
167.9407335923635
 20
193.8394217170199
 10
168.5923947247635
 20
193.53573844622
 10
169.2148709669635
 20
193.21711654052
 10
169.8067939810635
 20
192.88425640002
 10
170.3668625917635
 20
192.53788972342
 10
170.8938456467636
 20
192.17877789992
 10
171.3865847229636
 20
191.80771033522
 10
171.8439966727635
 20
191.4255027164199
 10
172.2650760055635
 20
191.03299521882
 10
172.6488970976635
 20
190.63105065902
 10
172.9946162268635
 20
190.2205525984199
 10
173.3014734275636
 20
189.80240340082
 10
173.5687941609635
 20
189.37752224902
 10
173.7959907981635
 20
188.9468431238199
 10
173.9825639116635
 20
188.51131275162
 10
174.1281033731635
 20
188.0718885225199
 10
174.2322892554636
 20
187.6295363864199
 10
174.2948925352636
 20
187.18522872932
 10
174.3157755969635
 20
186.73994223582
  0
LWPOLYLINE
  5
9BC
330
1F
100
AcDbEntity
  8
0
  6
Continuous
 62
     7
370
    25
100
AcDbPolyline
 90
       66
 70
   128
 43
0.0
 10
137.3157755969635
 20
186.73994223582
 10
137.3367955140635
 20
186.30512182012
 10
137.3998061720636
 20
185.87131694762
 10
137.5046604068635
 20
185.43954078972
 10
137.6511133264635
 20
185.01080177962
 10
137.8388228833635
 20
184.58610125722
 10
138.0673506730635
 20
184.16643113022
 10
138.3361629583635
 20
183.75277155762
 10
138.6446319157635
 20
183.34608866062
 10
138.9920371016635
 20
182.94733226582
 10
139.3775671352636
 20
182.5574336874199
 10
139.8003215931635
 20
182.17730355152
 10
140.2593131128635
 20
181.80782966962
 10
140.7534696982635
 20
181.4498749652199
 10
141.2816372238635
 20
181.1042754580199
 10
141.8425821299635
 20
180.7718383116199
 10
142.4349943035635
 20
180.4533399486199
 10
143.0574901388635
 20
180.1495242364199
 10
143.7086157677635
 20
179.8611007509199
 10
144.3868504562636
 20
179.58874311842
 10
145.0906101558635
 20
179.33308744282
 10
145.8182512030635
 20
179.09473081972
 10
146.5680741586635
 20
178.87422994222
 10
147.3383277761635
 20
178.67209980012
 10
148.1272130928635
 20
178.48881247792
 10
148.9328876302635
 20
178.32479605162
 10
149.7534696982635
 20
178.18043358912
 10
150.5870427894636
 20
178.05606225572
 10
151.4316600551635
 20
177.95197252632
 10
152.2853488527635
 20
177.86840750742
 10
153.1461153523635
 20
177.80556236892
 10
154.0119491940635
 20
177.76358388862
 10
154.8808281827635
 20
177.74257010912
 10
155.7507230112635
 20
177.74257010912
 10
156.6196019998636
 20
177.76358388862
 10
157.4854358415636
 20
177.80556236892
 10
158.3462023412635
 20
177.86840750742
 10
159.1998911388636
 20
177.95197252632
 10
160.0445084045635
 20
178.05606225572
 10
160.8780814957635
 20
178.18043358912
 10
161.6986635637635
 20
178.32479605162
 10
162.5043381011635
 20
178.48881247792
 10
163.2932234177636
 20
178.67209980012
 10
164.0634770353636
 20
178.87422994222
 10
164.8132999908635
 20
179.09473081972
 10
165.5409410381635
 20
179.33308744282
 10
166.2447007377635
 20
179.58874311842
 10
166.9229354262635
 20
179.8611007509199
 10
167.5740610551635
 20
180.1495242364199
 10
168.1965568903635
 20
180.4533399486199
 10
168.7889690640635
 20
180.7718383116199
 10
169.3499139701635
 20
181.1042754580199
 10
169.8780814957635
 20
181.4498749652199
 10
170.3722380811636
 20
181.80782966962
 10
170.8312296008635
 20
182.17730355152
 10
171.2539840587635
 20
182.5574336874199
 10
171.6395140922635
 20
182.94733226582
 10
171.9869192782635
 20
183.34608866062
 10
172.2953882356635
 20
183.75277155762
 10
172.5642005209635
 20
184.16643113022
 10
172.7927283106635
 20
184.58610125722
 10
172.9804378674635
 20
185.01080177962
 10
173.1268907871636
 20
185.43954078972
 10
173.2317450219635
 20
185.87131694762
 10
173.2947556799635
 20
186.30512182012
 10
173.3157755969635
 20
186.73994223582
  0
LWPOLYLINE
  5
9BD
330
1F
100
AcDbEntity
  8
0
  6
Continuous
 62
     7
370
    25
100
AcDbPolyline
 90
       66
 70
   128
 43
0.0
 10
173.3157755969635
 20
186.73994223582
 10
173.2947556799635
 20
187.17476265152
 10
173.2317450219635
 20
187.6085675240199
 10
173.1268907871636
 20
188.0403436819199
 10
172.9804378674635
 20
188.46908269202
 10
172.7927283106635
 20
188.89378321442
 10
172.5642005209635
 20
189.3134533414199
 10
172.2953882356635
 20
189.72711291402
 10
171.9869192782635
 20
190.13379581102
 10
171.6395140922635
 20
190.53255220582
 10
171.2539840587635
 20
190.92245078422
 10
170.8312296008635
 20
191.30258092012
 10
170.3722380811636
 20
191.6720548020199
 10
169.8780814957635
 20
192.03000950642
 10
169.3499139701635
 20
192.37560901362
 10
168.7889690640635
 20
192.70804616002
 10
168.1965568903635
 20
193.02654452302
 10
167.5740610551635
 20
193.33036023522
 10
166.9229354262635
 20
193.61878372072
 10
166.2447007377635
 20
193.89114135322
 10
165.5409410381635
 20
194.1467970288199
 10
164.8132999908635
 20
194.3851536519199
 10
164.0634770353636
 20
194.60565452942
 10
163.2932234177636
 20
194.80778467152
 10
162.5043381011635
 20
194.99107199362
 10
161.6986635637635
 20
195.15508842002
 10
160.8780814957635
 20
195.2994508825199
 10
160.0445084045635
 20
195.42382221592
 10
159.1998911388636
 20
195.5279119453199
 10
158.3462023412635
 20
195.6114769642199
 10
157.4854358415636
 20
195.67432210272
 10
156.6196019998636
 20
195.7163005830199
 10
155.7507230112635
 20
195.73731436252
 10
154.8808281827635
 20
195.73731436252
 10
154.0119491940635
 20
195.7163005830199
 10
153.1461153523635
 20
195.67432210272
 10
152.2853488527635
 20
195.6114769642199
 10
151.4316600551635
 20
195.5279119453199
 10
150.5870427894636
 20
195.42382221592
 10
149.7534696982635
 20
195.2994508825199
 10
148.9328876302635
 20
195.15508842002
 10
148.1272130928635
 20
194.99107199362
 10
147.3383277761635
 20
194.80778467152
 10
146.5680741586635
 20
194.60565452942
 10
145.8182512030635
 20
194.3851536519199
 10
145.0906101558635
 20
194.1467970288199
 10
144.3868504562636
 20
193.89114135322
 10
143.7086157677635
 20
193.61878372072
 10
143.0574901388635
 20
193.33036023522
 10
142.4349943035635
 20
193.02654452302
 10
141.8425821299635
 20
192.70804616002
 10
141.2816372238635
 20
192.37560901362
 10
140.7534696982635
 20
192.03000950642
 10
140.2593131128635
 20
191.6720548020199
 10
139.8003215931635
 20
191.30258092012
 10
139.3775671352636
 20
190.92245078422
 10
138.9920371016635
 20
190.53255220582
 10
138.6446319157635
 20
190.13379581102
 10
138.3361629583635
 20
189.72711291402
 10
138.0673506730635
 20
189.3134533414199
 10
137.8388228833635
 20
188.89378321442
 10
137.6511133264635
 20
188.46908269202
 10
137.5046604068635
 20
188.0403436819199
 10
137.3998061720636
 20
187.6085675240199
 10
137.3367955140635
 20
187.17476265152
 10
137.3157755969635
 20
186.73994223582
  0
LWPOLYLINE
  5
9BE
330
1F
100
AcDbEntity
  8
0
  6
Continuous
 62
     7
370
    25
100
AcDbPolyline
 90
        3
 70
   128
 43
0.0
 10
137.3993027298635
 20
185.8739168320199
 10
137.3998061720636
 20
185.8765167165199
 10
137.4407755969635
 20
186.0667085749199
  0
LWPOLYLINE
  5
9BF
330
1F
100
AcDbEntity
  8
0
  6
Continuous
 62
     7
370
    25
100
AcDbPolyline
 90
        3
 70
   128
 43
0.0
 10
173.1907755969635
 20
186.0667085749199
 10
173.2317450219635
 20
185.8765167165199
 10
173.2322484641635
 20
185.8739168320199
  0
LWPOLYLINE
  5
9C0
330
1F
100
AcDbEntity
  8
0
  6
Continuous
 62
     7
370
    25
100
AcDbPolyline
 90
       15
 70
   128
 43
0.0
 10
135.8157755969635
 20
186.3069295339199
 10
135.8372082130635
 20
186.76393409302
 10
135.9014589475635
 20
187.21993405692
 10
136.0083865635635
 20
187.67392703872
 10
136.1577560109636
 20
188.12491506322
 10
136.3492389431635
 20
188.5719067611199
 10
136.5824144392635
 20
189.01391954742
 10
136.8567699288635
 20
189.44998178222
 10
137.1717023189635
 20
189.8791349060199
 10
137.5265193200635
 20
190.30043554722
 10
137.9204409671635
 20
190.71295759542
 10
138.3526013350635
 20
191.11579423772
 10
138.8220504414635
 20
191.50805995172
 10
139.3277563353636
 20
191.88889245232
 10
139.3940922688636
 20
191.9360946585199
  0
LWPOLYLINE
  5
9C1
330
1F
100
AcDbEntity
  8
0
  6
Continuous
 62
     7
370
    25
100
AcDbPolyline
 90
       15
 70
   128
 43
0.0
 10
171.2374589250635
 20
191.9360946585199
 10
171.3037948586635
 20
191.88889245232
 10
171.8095007525635
 20
191.50805995172
 10
172.2789498589635
 20
191.11579423772
 10
172.7111102268635
 20
190.71295759542
 10
173.1050318739635
 20
190.30043554722
 10
173.4598488749635
 20
189.8791349060199
 10
173.7747812651635
 20
189.44998178222
 10
174.0491367547635
 20
189.01391954742
 10
174.2823122508635
 20
188.5719067611199
 10
174.4737951830635
 20
188.12491506322
 10
174.6231646304635
 20
187.67392703872
 10
174.7300922464635
 20
187.21993405692
 10
174.7943429809635
 20
186.76393409302
 10
174.8157755969635
 20
186.3069295339199
  0
LINE
  5
9C2
330
1F
100
AcDbEntity
  8
0
  6
Continuous
 62
     8
370
    25
100
AcDbLine
 10
155.3157755969635
 20
177.80244223582
 30
0.0
 11
155.3157755969635
 21
177.73994223582
 31
0.0
  0
ENDSEC
  0
SECTION
  2
OBJECTS
  0
DICTIONARY
  5
C
330
0
100
AcDbDictionary
281
     1
  3
ACAD_COLOR
350
976
  3
ACAD_DETAILVIEWSTYLE
350
3A8
  3
ACAD_GROUP
350
D
  3
ACAD_LAYOUT
350
1A
  3
ACAD_MATERIAL
350
39A
  3
ACAD_MLEADERSTYLE
350
3A0
  3
ACAD_MLINESTYLE
350
17
  3
ACAD_PLOTSETTINGS
350
19
  3
ACAD_PLOTSTYLENAME
350
E
  3
ACAD_SCALELIST
350
47
  3
ACAD_SECTIONVIEWSTYLE
350
3A9
  3
ACAD_TABLESTYLE
350
39E
  3
ACAD_VISUALSTYLE
350
381
  3
ACDB_RECOMPOSE_DATA
350
9C7
  3
AcDbVariableDictionary
350
3A3
  3
APPDATA
350
3A2
  0
SUN
  5
988
330
29
100
AcDbSun
 90
        1
290
     0
 63
     7
421
 16777215
 40
1.0
291
     1
 91
  2455826
 92
 54000000
292
     0
 70
     2
 71
   256
280
     1
  0
DICTIONARY
  5
97F
330
2
100
AcDbDictionary
280
     1
281
     1
  3
ACAD_LAYERSTATES
360
980
  0
DICTIONARY
  5
976
102
{ACAD_REACTORS
330
C
102
}
330
C
100
AcDbDictionary
281
     1
  0
DICTIONARY
  5
3A8
102
{ACAD_REACTORS
330
C
102
}
330
C
100
AcDbDictionary
281
     1
  0
DICTIONARY
  5
D
102
{ACAD_REACTORS
330
C
102
}
330
C
100
AcDbDictionary
281
     1
  0
DICTIONARY
  5
1A
102
{ACAD_REACTORS
330
C
102
}
330
C
100
AcDbDictionary
281
     1
  3
Layout1
350
1E
  3
Layout2
350
26
  3
Model
350
22
  0
DICTIONARY
  5
39A
102
{ACAD_REACTORS
330
C
102
}
330
C
100
AcDbDictionary
281
     1
  3
ByBlock
350
39C
  3
ByLayer
350
39B
  3
Global
350
39D
  0
DICTIONARY
  5
3A0
102
{ACAD_REACTORS
330
C
102
}
330
C
100
AcDbDictionary
281
     1
  3
Standard
350
3A1
  0
DICTIONARY
  5
17
102
{ACAD_REACTORS
330
C
102
}
330
C
100
AcDbDictionary
281
     1
  3
Standard
350
18
  0
DICTIONARY
  5
19
102
{ACAD_REACTORS
330
C
102
}
330
C
100
AcDbDictionary
281
     1
  0
ACDBDICTIONARYWDFLT
  5
E
102
{ACAD_REACTORS
330
C
102
}
330
C
100
AcDbDictionary
281
     1
  3
Normal
350
F
100
AcDbDictionaryWithDefault
340
F
  0
DICTIONARY
  5
47
102
{ACAD_REACTORS
330
C
102
}
330
C
100
AcDbDictionary
281
     1
  3
A0
350
48
  3
A1
350
49
  3
A2
350
4A
  3
A3
350
4B
  3
A4
350
4C
  3
A5
350
4D
  3
A6
350
4E
  3
A7
350
4F
  3
A8
350
50
  3
A9
350
51
  3
B0
350
52
  3
B1
350
53
  3
B2
350
54
  3
B3
350
55
  3
B4
350
56
  3
B5
350
57
  3
B6
350
58
  3
B7
350
59
  3
B8
350
5A
  3
B9
350
5B
  3
C0
350
5C
  3
C1
350
5D
  3
C2
350
5E
  3
C3
350
5F
  3
C4
350
60
  3
C5
350
61
  3
C6
350
62
  3
C7
350
63
  3
C8
350
64
  3
C9
350
65
  3
D0
350
66
  3
D1
350
67
  3
D2
350
68
  0
DICTIONARY
  5
3A9
102
{ACAD_REACTORS
330
C
102
}
330
C
100
AcDbDictionary
281
     1
  0
DICTIONARY
  5
39E
102
{ACAD_REACTORS
330
C
102
}
330
C
100
AcDbDictionary
281
     1
  3
Standard
350
39F
  0
DICTIONARY
  5
381
102
{ACAD_REACTORS
330
C
102
}
330
C
100
AcDbDictionary
281
     1
  3
2dWireframe
350
386
  3
Basic
350
389
  3
Brighten
350
38D
  3
ColorChange
350
391
  3
Conceptual
350
38B
  3
Dim
350
38C
  3
EdgeColorOff
350
394
  3
Facepattern
350
390
  3
Flat
350
382
  3
FlatWithEdges
350
383
  3
Gouraud
350
384
  3
GouraudWithEdges
350
385
  3
Hidden
350
388
  3
JitterOff
350
392
  3
Linepattern
350
38F
  3
OverhangOff
350
393
  3
Realistic
350
38A
  3
Shaded
350
399
  3
Shaded with edges
350
398
  3
Shades of Gray
350
395
  3
Sketchy
350
396
  3
Thicken
350
38E
  3
Wireframe
350
387
  3
X-Ray
350
397
  0
XRECORD
  5
9C7
102
{ACAD_REACTORS
330
C
102
}
330
C
100
AcDbXrecord
280
     1
 90
        1
330
39F
  0
DICTIONARY
  5
3A3
102
{ACAD_REACTORS
330
C
102
}
330
C
100
AcDbDictionary
281
     1
  3
CANNOSCALE
350
3A4
  3
CMLEADERSTYLE
350
3A6
  3
CTABLESTYLE
350
3A5
  3
MSLTSCALE
350
3A7
  0
DICTIONARY
  5
3A2
102
{ACAD_REACTORS
330
C
102
}
330
C
100
AcDbDictionary
281
     1
  0
DICTIONARY
  5
980
102
{ACAD_REACTORS
330
97F
102
}
330
97F
100
AcDbDictionary
281
     1
  0
LAYOUT
  5
1E
102
{ACAD_REACTORS
330
1A
102
}
330
1A
100
AcDbPlotSettings
  1

  2
none_device
  4

  6

 40
0.0
 41
0.0
 42
0.0
 43
0.0
 44
0.0
 45
0.0
 46
0.0
 47
0.0
 48
0.0
 49
0.0
140
0.0
141
0.0
142
1.0
143
1.0
 70
   688
 72
     1
 73
     0
 74
     5
  7

 75
    16
 76
     0
 77
     2
 78
   300
147
1.0
148
0.0
149
0.0
100
AcDbLayout
  1
Layout1
 70
     1
 71
     1
 10
0.0
 20
0.0
 11
420.0
 21
297.0
 12
0.0
 22
0.0
 32
0.0
 14
1.000000000000000E+20
 24
1.000000000000000E+20
 34
1.000000000000000E+20
 15
-1.000000000000000E+20
 25
-1.000000000000000E+20
 35
-1.000000000000000E+20
146
0.0
 13
0.0
 23
0.0
 33
0.0
 16
1.0
 26
0.0
 36
0.0
 17
0.0
 27
1.0
 37
0.0
 76
     0
330
1B
  0
LAYOUT
  5
26
102
{ACAD_REACTORS
330
1A
102
}
330
1A
100
AcDbPlotSettings
  1

  2
none_device
  4

  6

 40
0.0
 41
0.0
 42
0.0
 43
0.0
 44
0.0
 45
0.0
 46
0.0
 47
0.0
 48
0.0
 49
0.0
140
0.0
141
0.0
142
1.0
143
1.0
 70
   688
 72
     1
 73
     0
 74
     5
  7

 75
    16
 76
     0
 77
     2
 78
   300
147
1.0
148
0.0
149
0.0
100
AcDbLayout
  1
Layout2
 70
     1
 71
     2
 10
0.0
 20
0.0
 11
0.0
 21
0.0
 12
0.0
 22
0.0
 32
0.0
 14
0.0
 24
0.0
 34
0.0
 15
0.0
 25
0.0
 35
0.0
146
0.0
 13
0.0
 23
0.0
 33
0.0
 16
1.0
 26
0.0
 36
0.0
 17
0.0
 27
1.0
 37
0.0
 76
     0
330
23
  0
LAYOUT
  5
22
102
{ACAD_REACTORS
330
1A
102
}
330
1A
100
AcDbPlotSettings
  1

  2
none_device
  4
Letter_(8.50_x_11.00_Inches)
  6

 40
6.35
 41
6.35
 42
6.35000508
 43
6.35000508
 44
215.9
 45
279.4
 46
0.0
 47
0.0
 48
0.0
 49
0.0
140
0.0
141
0.0
142
1.0
143
1.0
 70
  1712
 72
     1
 73
     0
 74
     0
  7

 75
     0
 76
     0
 77
     2
 78
   300
147
1.0
148
0.0
149
0.0
100
AcDbLayout
  1
Model
 70
     1
 71
     0
 10
0.0
 20
0.0
 11
210.0
 21
297.0
 12
0.0
 22
0.0
 32
0.0
 14
50.31577559696353
 24
38.23994223581994
 34
0.0
 15
260.3157755969635
 25
335.23994223582
 35
0.0
146
0.0
 13
0.0
 23
0.0
 33
0.0
 16
1.0
 26
0.0
 36
0.0
 17
0.0
 27
1.0
 37
0.0
 76
     0
330
1F
331
29
  0
MATERIAL
  5
39C
102
{ACAD_REACTORS
330
39A
102
}
330
39A
100
AcDbMaterial
  1
ByBlock
 72
     1
 94
      127
  0
MATERIAL
  5
39B
102
{ACAD_REACTORS
330
39A
102
}
330
39A
100
AcDbMaterial
  1
ByLayer
 72
     1
 94
      127
  0
MATERIAL
  5
39D
102
{ACAD_REACTORS
330
39A
102
}
330
39A
100
AcDbMaterial
  1
Global
 72
     1
 94
      127
  0
MLEADERSTYLE
  5
3A1
102
{ACAD_REACTORS
330
3A0
102
}
330
3A0
100
AcDbMLeaderStyle
179
     2
170
     2
171
     1
172
     0
 90
        2
 40
0.0
 41
0.0
173
     1
 91
-1056964608
340
14
 92
       -2
290
     1
 42
2.0
291
     1
 43
8.0
  3
Standard
341
0
 44
4.0
300

342
11
174
     1
178
     1
175
     1
176
     0
 93
-1056964608
 45
4.0
292
     0
297
     0
 46
4.0
343
0
 94
-1056964608
 47
1.0
 49
1.0
140
1.0
293
     1
141
0.0
294
     1
177
     0
142
1.0
295
     0
296
     0
143
3.75
271
     0
272
     9
273
     9
298
     0
  0
MLINESTYLE
  5
18
102
{ACAD_REACTORS
330
17
102
}
330
17
100
AcDbMlineStyle
  2
Standard
 70
     0
  3

 62
   256
 51
90.0
 52
90.0
 71
     2
 49
0.5
 62
   256
  6
BYLAYER
 49
-0.5
 62
   256
  6
BYLAYER
  0
ACDBPLACEHOLDER
  5
F
102
{ACAD_REACTORS
330
E
102
}
330
E
  0
SCALE
  5
48
102
{ACAD_REACTORS
330
47
102
}
330
47
100
AcDbScale
 70
     0
300
1:1
140
1.0
141
1.0
290
     1
  0
SCALE
  5
49
102
{ACAD_REACTORS
330
47
102
}
330
47
100
AcDbScale
 70
     0
300
1:2
140
1.0
141
2.0
290
     0
  0
SCALE
  5
4A
102
{ACAD_REACTORS
330
47
102
}
330
47
100
AcDbScale
 70
     0
300
1:4
140
1.0
141
4.0
290
     0
  0
SCALE
  5
4B
102
{ACAD_REACTORS
330
47
102
}
330
47
100
AcDbScale
 70
     0
300
1:5
140
1.0
141
5.0
290
     0
  0
SCALE
  5
4C
102
{ACAD_REACTORS
330
47
102
}
330
47
100
AcDbScale
 70
     0
300
1:8
140
1.0
141
8.0
290
     0
  0
SCALE
  5
4D
102
{ACAD_REACTORS
330
47
102
}
330
47
100
AcDbScale
 70
     0
300
1:10
140
1.0
141
10.0
290
     0
  0
SCALE
  5
4E
102
{ACAD_REACTORS
330
47
102
}
330
47
100
AcDbScale
 70
     0
300
1:16
140
1.0
141
16.0
290
     0
  0
SCALE
  5
4F
102
{ACAD_REACTORS
330
47
102
}
330
47
100
AcDbScale
 70
     0
300
1:20
140
1.0
141
20.0
290
     0
  0
SCALE
  5
50
102
{ACAD_REACTORS
330
47
102
}
330
47
100
AcDbScale
 70
     0
300
1:30
140
1.0
141
30.0
290
     0
  0
SCALE
  5
51
102
{ACAD_REACTORS
330
47
102
}
330
47
100
AcDbScale
 70
     0
300
1:40
140
1.0
141
40.0
290
     0
  0
SCALE
  5
52
102
{ACAD_REACTORS
330
47
102
}
330
47
100
AcDbScale
 70
     0
300
1:50
140
1.0
141
50.0
290
     0
  0
SCALE
  5
53
102
{ACAD_REACTORS
330
47
102
}
330
47
100
AcDbScale
 70
     0
300
1:100
140
1.0
141
100.0
290
     0
  0
SCALE
  5
54
102
{ACAD_REACTORS
330
47
102
}
330
47
100
AcDbScale
 70
     0
300
2:1
140
2.0
141
1.0
290
     0
  0
SCALE
  5
55
102
{ACAD_REACTORS
330
47
102
}
330
47
100
AcDbScale
 70
     0
300
4:1
140
4.0
141
1.0
290
     0
  0
SCALE
  5
56
102
{ACAD_REACTORS
330
47
102
}
330
47
100
AcDbScale
 70
     0
300
8:1
140
8.0
141
1.0
290
     0
  0
SCALE
  5
57
102
{ACAD_REACTORS
330
47
102
}
330
47
100
AcDbScale
 70
     0
300
10:1
140
10.0
141
1.0
290
     0
  0
SCALE
  5
58
102
{ACAD_REACTORS
330
47
102
}
330
47
100
AcDbScale
 70
     0
300
100:1
140
100.0
141
1.0
290
     0
  0
SCALE
  5
59
102
{ACAD_REACTORS
330
47
102
}
330
47
100
AcDbScale
 70
     0
300
1/128" = 1'-0"
140
0.0078125
141
12.0
290
     0
  0
SCALE
  5
5A
102
{ACAD_REACTORS
330
47
102
}
330
47
100
AcDbScale
 70
     0
300
1/64" = 1'-0"
140
0.015625
141
12.0
290
     0
  0
SCALE
  5
5B
102
{ACAD_REACTORS
330
47
102
}
330
47
100
AcDbScale
 70
     0
300
1/32" = 1'-0"
140
0.03125
141
12.0
290
     0
  0
SCALE
  5
5C
102
{ACAD_REACTORS
330
47
102
}
330
47
100
AcDbScale
 70
     0
300
1/16" = 1'-0"
140
0.0625
141
12.0
290
     0
  0
SCALE
  5
5D
102
{ACAD_REACTORS
330
47
102
}
330
47
100
AcDbScale
 70
     0
300
3/32" = 1'-0"
140
0.09375
141
12.0
290
     0
  0
SCALE
  5
5E
102
{ACAD_REACTORS
330
47
102
}
330
47
100
AcDbScale
 70
     0
300
1/8" = 1'-0"
140
0.125
141
12.0
290
     0
  0
SCALE
  5
5F
102
{ACAD_REACTORS
330
47
102
}
330
47
100
AcDbScale
 70
     0
300
3/16" = 1'-0"
140
0.1875
141
12.0
290
     0
  0
SCALE
  5
60
102
{ACAD_REACTORS
330
47
102
}
330
47
100
AcDbScale
 70
     0
300
1/4" = 1'-0"
140
0.25
141
12.0
290
     0
  0
SCALE
  5
61
102
{ACAD_REACTORS
330
47
102
}
330
47
100
AcDbScale
 70
     0
300
3/8" = 1'-0"
140
0.375
141
12.0
290
     0
  0
SCALE
  5
62
102
{ACAD_REACTORS
330
47
102
}
330
47
100
AcDbScale
 70
     0
300
1/2" = 1'-0"
140
0.5
141
12.0
290
     0
  0
SCALE
  5
63
102
{ACAD_REACTORS
330
47
102
}
330
47
100
AcDbScale
 70
     0
300
3/4" = 1'-0"
140
0.75
141
12.0
290
     0
  0
SCALE
  5
64
102
{ACAD_REACTORS
330
47
102
}
330
47
100
AcDbScale
 70
     0
300
1" = 1'-0"
140
1.0
141
12.0
290
     0
  0
SCALE
  5
65
102
{ACAD_REACTORS
330
47
102
}
330
47
100
AcDbScale
 70
     0
300
1-1/2" = 1'-0"
140
1.5
141
12.0
290
     0
  0
SCALE
  5
66
102
{ACAD_REACTORS
330
47
102
}
330
47
100
AcDbScale
 70
     0
300
3" = 1'-0"
140
3.0
141
12.0
290
     0
  0
SCALE
  5
67
102
{ACAD_REACTORS
330
47
102
}
330
47
100
AcDbScale
 70
     0
300
6" = 1'-0"
140
6.0
141
12.0
290
     0
  0
SCALE
  5
68
102
{ACAD_REACTORS
330
47
102
}
330
47
100
AcDbScale
 70
     0
300
1'-0" = 1'-0"
140
12.0
141
12.0
290
     0
  0
TABLESTYLE
  5
39F
102
{ACAD_REACTORS
330
39E
102
}
102
{ACAD_XDICTIONARY
360
9C5
102
}
330
39E
100
AcDbTableStyle
  3
Standard
 70
     0
 71
     0
 40
1.5
 41
1.5
280
     0
281
     0
  7
Standard
140
4.5
170
     2
 62
     0
 63
   257
283
     0
 90
        4
 91
        0
  1

274
    -2
284
     1
 64
     0
275
    -2
285
     1
 65
     0
276
    -2
286
     1
 66
     0
277
    -2
287
     1
 67
     0
278
    -2
288
     1
 68
     0
279
    -2
289
     1
 69
     0
  7
Standard
140
6.0
170
     5
 62
     0
 63
   257
283
     0
 90
        4
 91
        0
  1

274
    -2
284
     1
 64
     0
275
    -2
285
     1
 65
     0
276
    -2
286
     1
 66
     0
277
    -2
287
     1
 67
     0
278
    -2
288
     1
 68
     0
279
    -2
289
     1
 69
     0
  7
Standard
140
4.5
170
     5
 62
     0
 63
   257
283
     0
 90
        4
 91
        0
  1

274
    -2
284
     1
 64
     0
275
    -2
285
     1
 65
     0
276
    -2
286
     1
 66
     0
277
    -2
287
     1
 67
     0
278
    -2
288
     1
 68
     0
279
    -2
289
     1
 69
     0
  0
VISUALSTYLE
  5
386
102
{ACAD_REACTORS
330
381
102
}
330
381
100
AcDbVisualStyle
  2
2dWireframe
 70
     4
177
     3
291
     0
 70
    58
 90
        0
176
     1
 90
        2
176
     1
 90
        0
176
     1
 90
        0
176
     1
 40
0.6
176
     1
 40
30.0
176
     1
 62
     7
420
 16777215
176
     1
 90
        1
176
     1
 90
        4
176
     1
 62
     7
176
     1
 62
   257
176
     1
 90
        1
176
     1
 90
        1
176
     1
 40
1.0
176
     1
 90
        0
176
     1
 62
   257
176
     1
 40
1.0
176
     1
 90
        1
176
     1
 90
        6
176
     1
 90
        2
176
     1
 62
     7
176
     1
 90
        5
176
     1
 90
        0
176
     1
 90
        0
176
     1
290
     0
176
     1
 90
        1
176
     1
 40
0.0
176
     1
 90
        0
176
     1
290
     1
176
     1
290
     1
176
     1
290
     0
176
     1
290
     0
176
     1
290
     0
176
     1
290
     0
176
     1
290
     0
176
     1
290
     0
176
     1
290
     0
176
     1
 90
       50
176
     1
 40
0.0
176
     1
 40
1.0
176
     1
 90
        0
176
     1
 62
    18
420
        0
176
     1
 90
       50
176
     1
 90
        3
176
     1
 62
     5
420
      255
176
     1
290
     0
176
     1
 90
       50
176
     1
 90
       50
176
     1
 90
       50
176
     1
290
     0
176
     1
 90
       50
176
     1
 62
   256
176
     0
 40
1.0
176
     0
 90
        2
176
     1
  1
strokes_ogs.tif
176
     1
290
     0
176
     1
 40
1.0
176
     1
 40
1.0
176
     1
  0
VISUALSTYLE
  5
389
102
{ACAD_REACTORS
330
381
102
}
330
381
100
AcDbVisualStyle
  2
Basic
 70
     7
177
     3
291
     1
 70
    58
 90
        1
176
     1
 90
        0
176
     1
 90
        1
176
     1
 90
        0
176
     1
 40
0.6
176
     1
 40
30.0
176
     1
 62
     7
420
 16777215
176
     1
 90
        0
176
     1
 90
        4
176
     1
 62
     7
176
     1
 62
   257
176
     1
 90
        1
176
     1
 90
        1
176
     1
 40
1.0
176
     1
 90
        8
176
     1
 62
     7
176
     1
 40
1.0
176
     1
 90
        1
176
     1
 90
        6
176
     1
 90
        2
176
     1
 62
     7
176
     1
 90
        5
176
     1
 90
        0
176
     1
 90
        0
176
     1
290
     0
176
     1
 90
        1
176
     1
 40
0.0
176
     1
 90
        0
176
     1
290
     0
176
     1
290
     1
176
     1
290
     1
176
     1
290
     0
176
     1
290
     0
176
     1
290
     0
176
     1
290
     0
176
     1
290
     0
176
     1
290
     0
176
     1
 90
       50
176
     1
 40
0.0
176
     1
 40
1.0
176
     1
 90
        0
176
     1
 62
    18
420
        0
176
     1
 90
       50
176
     1
 90
        3
176
     1
 62
     5
420
      255
176
     1
290
     0
176
     1
 90
       50
176
     1
 90
       50
176
     1
 90
       50
176
     1
290
     0
176
     1
 90
       50
176
     1
 62
   256
176
     0
 40
1.0
176
     0
 90
        2
176
     1
  1
strokes_ogs.tif
176
     1
290
     0
176
     1
 40
1.0
176
     1
 40
1.0
176
     1
  0
VISUALSTYLE
  5
38D
102
{ACAD_REACTORS
330
381
102
}
330
381
100
AcDbVisualStyle
  2
Brighten
 70
    12
177
     3
291
     1
 70
    58
 90
        2
176
     1
 90
        2
176
     1
 90
        0
176
     1
 90
        0
176
     1
 40
0.6
176
     1
 40
30.0
176
     1
 62
     7
420
 16777215
176
     1
 90
        1
176
     1
 90
        4
176
     1
 62
     7
176
     1
 62
   257
176
     1
 90
        1
176
     1
 90
        1
176
     1
 40
1.0
176
     1
 90
        8
176
     1
 62
     7
176
     1
 40
1.0
176
     1
 90
        1
176
     1
 90
        6
176
     1
 90
        2
176
     1
 62
     7
176
     1
 90
        5
176
     1
 90
        0
176
     1
 90
        0
176
     1
290
     0
176
     1
 90
        1
176
     1
 40
50.0
176
     1
 90
        0
176
     1
290
     0
176
     1
290
     1
176
     1
290
     1
176
     1
290
     0
176
     1
290
     0
176
     1
290
     0
176
     1
290
     0
176
     1
290
     0
176
     1
290
     0
176
     1
 90
       50
176
     1
 40
0.0
176
     1
 40
1.0
176
     1
 90
        0
176
     1
 62
    18
420
        0
176
     1
 90
       50
176
     1
 90
        3
176
     1
 62
     5
420
      255
176
     1
290
     0
176
     1
 90
       50
176
     1
 90
       50
176
     1
 90
       50
176
     1
290
     0
176
     1
 90
       50
176
     1
 62
   256
176
     0
 40
1.0
176
     0
 90
        2
176
     1
  1
strokes_ogs.tif
176
     1
290
     0
176
     1
 40
1.0
176
     1
 40
1.0
176
     1
  0
VISUALSTYLE
  5
391
102
{ACAD_REACTORS
330
381
102
}
330
381
100
AcDbVisualStyle
  2
ColorChange
 70
    16
177
     3
291
     1
 70
    58
 90
        2
176
     1
 90
        2
176
     1
 90
        3
176
     1
 90
        0
176
     1
 40
0.6
176
     1
 40
30.0
176
     1
 62
     8
420
  8421504
176
     1
 90
        1
176
     1
 90
        4
176
     1
 62
     7
176
     1
 62
   257
176
     1
 90
        1
176
     1
 90
        1
176
     1
 40
1.0
176
     1
 90
        8
176
     1
 62
     8
420
  8421504
176
     1
 40
1.0
176
     1
 90
        1
176
     1
 90
        6
176
     1
 90
        2
176
     1
 62
     7
176
     1
 90
        5
176
     1
 90
        0
176
     1
 90
        0
176
     1
290
     0
176
     1
 90
        1
176
     1
 40
0.0
176
     1
 90
        0
176
     1
290
     0
176
     1
290
     1
176
     1
290
     1
176
     1
290
     0
176
     1
290
     0
176
     1
290
     0
176
     1
290
     0
176
     1
290
     0
176
     1
290
     0
176
     1
 90
       50
176
     1
 40
0.0
176
     1
 40
1.0
176
     1
 90
        0
176
     1
 62
    18
420
        0
176
     1
 90
       50
176
     1
 90
        3
176
     1
 62
     5
420
      255
176
     1
290
     0
176
     1
 90
       50
176
     1
 90
       50
176
     1
 90
       50
176
     1
290
     0
176
     1
 90
       50
176
     1
 62
   256
176
     0
 40
1.0
176
     0
 90
        2
176
     1
  1
strokes_ogs.tif
176
     1
290
     0
176
     1
 40
1.0
176
     1
 40
1.0
176
     1
  0
VISUALSTYLE
  5
38B
102
{ACAD_REACTORS
330
381
102
}
330
381
100
AcDbVisualStyle
  2
Conceptual
 70
     9
177
     3
291
     0
 70
    58
 90
        3
176
     1
 90
        2
176
     1
 90
        0
176
     1
 90
        0
176
     1
 40
0.6
176
     1
 40
30.0
176
     1
 62
     7
420
 16777215
176
     1
 90
        2
176
     1
 90
        2
176
     1
 62
     7
176
     1
 62
   257
176
     1
 90
        1
176
     1
 90
        1
176
     1
 40
179.0
176
     1
 90
        8
176
     1
 62
     7
176
     1
 40
1.0
176
     1
 90
        1
176
     1
 90
        6
176
     1
 90
        2
176
     1
 62
     7
176
     1
 90
        3
176
     1
 90
        0
176
     1
 90
        0
176
     1
290
     0
176
     1
 90
        1
176
     1
 40
0.0
176
     1
 90
        0
176
     1
290
     0
176
     1
290
     1
176
     1
290
     1
176
     1
290
     0
176
     1
290
     0
176
     1
290
     0
176
     1
290
     0
176
     1
290
     0
176
     1
290
     0
176
     1
 90
       50
176
     1
 40
0.0
176
     1
 40
1.0
176
     1
 90
        0
176
     1
 62
    18
420
        0
176
     1
 90
       50
176
     1
 90
        3
176
     1
 62
     5
420
      255
176
     1
290
     0
176
     1
 90
       50
176
     1
 90
       50
176
     1
 90
       50
176
     1
290
     0
176
     1
 90
       50
176
     1
 62
   256
176
     0
 40
1.0
176
     0
 90
        2
176
     1
  1
strokes_ogs.tif
176
     1
290
     0
176
     1
 40
1.0
176
     1
 40
1.0
176
     1
  0
VISUALSTYLE
  5
38C
102
{ACAD_REACTORS
330
381
102
}
330
381
100
AcDbVisualStyle
  2
Dim
 70
    11
177
     3
291
     1
 70
    58
 90
        2
176
     1
 90
        2
176
     1
 90
        0
176
     1
 90
        0
176
     1
 40
0.6
176
     1
 40
30.0
176
     1
 62
     7
420
 16777215
176
     1
 90
        1
176
     1
 90
        4
176
     1
 62
     7
176
     1
 62
   257
176
     1
 90
        1
176
     1
 90
        1
176
     1
 40
1.0
176
     1
 90
        8
176
     1
 62
     7
176
     1
 40
1.0
176
     1
 90
        1
176
     1
 90
        6
176
     1
 90
        2
176
     1
 62
     7
176
     1
 90
        5
176
     1
 90
        0
176
     1
 90
        0
176
     1
290
     0
176
     1
 90
        1
176
     1
 40
-50.0
176
     1
 90
        0
176
     1
290
     0
176
     1
290
     1
176
     1
290
     1
176
     1
290
     0
176
     1
290
     0
176
     1
290
     0
176
     1
290
     0
176
     1
290
     0
176
     1
290
     0
176
     1
 90
       50
176
     1
 40
0.0
176
     1
 40
1.0
176
     1
 90
        0
176
     1
 62
    18
420
        0
176
     1
 90
       50
176
     1
 90
        3
176
     1
 62
     5
420
      255
176
     1
290
     0
176
     1
 90
       50
176
     1
 90
       50
176
     1
 90
       50
176
     1
290
     0
176
     1
 90
       50
176
     1
 62
   256
176
     0
 40
1.0
176
     0
 90
        2
176
     1
  1
strokes_ogs.tif
176
     1
290
     0
176
     1
 40
1.0
176
     1
 40
1.0
176
     1
  0
VISUALSTYLE
  5
394
102
{ACAD_REACTORS
330
381
102
}
330
381
100
AcDbVisualStyle
  2
EdgeColorOff
 70
    22
177
     3
291
     1
 70
    58
 90
        2
176
     0
 90
        2
176
     0
 90
        0
176
     0
 90
        0
176
     0
 40
0.6
176
     0
 40
30.0
176
     0
 62
     7
420
 16777215
176
     0
 90
        1
176
     0
 90
        4
176
     0
 62
     7
176
     0
 62
   257
176
     0
 90
        1
176
     0
 90
        1
176
     0
 40
1.0
176
     0
 90
        8
176
     2
 62
     7
176
     0
 40
1.0
176
     0
 90
        1
176
     0
 90
        6
176
     0
 90
        2
176
     0
 62
     7
176
     0
 90
        5
176
     0
 90
        0
176
     0
 90
        0
176
     0
290
     0
176
     0
 90
        1
176
     0
 40
0.0
176
     0
 90
        0
176
     0
290
     0
176
     0
290
     1
176
     0
290
     1
176
     0
290
     0
176
     0
290
     0
176
     0
290
     0
176
     0
290
     0
176
     0
290
     0
176
     0
290
     0
176
     0
 90
       50
176
     0
 40
0.0
176
     0
 40
1.0
176
     0
 90
        0
176
     0
 62
    18
420
        0
176
     0
 90
       50
176
     0
 90
        3
176
     0
 62
     5
420
      255
176
     0
290
     0
176
     0
 90
       50
176
     0
 90
       50
176
     0
 90
       50
176
     0
290
     0
176
     0
 90
       50
176
     0
 62
   256
176
     0
 40
1.0
176
     0
 90
        2
176
     0
  1
strokes_ogs.tif
176
     0
290
     0
176
     0
 40
1.0
176
     0
 40
1.0
176
     0
  0
VISUALSTYLE
  5
390
102
{ACAD_REACTORS
330
381
102
}
330
381
100
AcDbVisualStyle
  2
Facepattern
 70
    15
177
     3
291
     1
 70
    58
 90
        2
176
     1
 90
        2
176
     1
 90
        0
176
     1
 90
        0
176
     1
 40
0.6
176
     1
 40
30.0
176
     1
 62
     7
420
 16777215
176
     1
 90
        1
176
     1
 90
        4
176
     1
 62
     7
176
     1
 62
   257
176
     1
 90
        1
176
     1
 90
        1
176
     1
 40
1.0
176
     1
 90
        8
176
     1
 62
     7
176
     1
 40
1.0
176
     1
 90
        1
176
     1
 90
        6
176
     1
 90
        2
176
     1
 62
     7
176
     1
 90
        5
176
     1
 90
        0
176
     1
 90
        0
176
     1
290
     0
176
     1
 90
        1
176
     1
 40
0.0
176
     1
 90
        0
176
     1
290
     0
176
     1
290
     1
176
     1
290
     1
176
     1
290
     0
176
     1
290
     0
176
     1
290
     0
176
     1
290
     0
176
     1
290
     0
176
     1
290
     0
176
     1
 90
       50
176
     1
 40
0.0
176
     1
 40
1.0
176
     1
 90
        0
176
     1
 62
    18
420
        0
176
     1
 90
       50
176
     1
 90
        3
176
     1
 62
     5
420
      255
176
     1
290
     0
176
     1
 90
       50
176
     1
 90
       50
176
     1
 90
       50
176
     1
290
     0
176
     1
 90
       50
176
     1
 62
   256
176
     0
 40
1.0
176
     0
 90
        2
176
     1
  1
strokes_ogs.tif
176
     1
290
     0
176
     1
 40
1.0
176
     1
 40
1.0
176
     1
  0
VISUALSTYLE
  5
382
102
{ACAD_REACTORS
330
381
102
}
330
381
100
AcDbVisualStyle
  2
Flat
 70
     0
177
     3
291
     1
 70
    58
 90
        2
176
     1
 90
        1
176
     1
 90
        1
176
     1
 90
        2
176
     1
 40
0.6
176
     1
 40
30.0
176
     1
 62
     7
420
 16777215
176
     1
 90
        0
176
     1
 90
        0
176
     1
 62
     7
176
     1
 62
   257
176
     1
 90
        1
176
     1
 90
        1
176
     1
 40
1.0
176
     1
 90
        8
176
     1
 62
     7
176
     1
 40
1.0
176
     1
 90
        1
176
     1
 90
        6
176
     1
 90
        2
176
     1
 62
     7
176
     1
 90
        5
176
     1
 90
        0
176
     1
 90
        0
176
     1
290
     0
176
     1
 90
       13
176
     1
 40
0.0
176
     1
 90
        0
176
     1
290
     0
176
     1
290
     1
176
     1
290
     1
176
     1
290
     0
176
     1
290
     0
176
     1
290
     0
176
     1
290
     0
176
     1
290
     0
176
     1
290
     0
176
     1
 90
       50
176
     1
 40
0.0
176
     1
 40
1.0
176
     1
 90
        0
176
     1
 62
    18
420
        0
176
     1
 90
       50
176
     1
 90
        3
176
     1
 62
     5
420
      255
176
     1
290
     0
176
     1
 90
       50
176
     1
 90
       50
176
     1
 90
       50
176
     1
290
     0
176
     1
 90
       50
176
     1
 62
   256
176
     0
 40
1.0
176
     0
 90
        2
176
     1
  1
strokes_ogs.tif
176
     1
290
     0
176
     1
 40
1.0
176
     1
 40
1.0
176
     1
  0
VISUALSTYLE
  5
383
102
{ACAD_REACTORS
330
381
102
}
330
381
100
AcDbVisualStyle
  2
FlatWithEdges
 70
     1
177
     3
291
     1
 70
    58
 90
        2
176
     1
 90
        1
176
     1
 90
        1
176
     1
 90
        2
176
     1
 40
0.6
176
     1
 40
30.0
176
     1
 62
     7
420
 16777215
176
     1
 90
        1
176
     1
 90
        0
176
     1
 62
     7
176
     1
 62
   257
176
     1
 90
        1
176
     1
 90
        1
176
     1
 40
1.0
176
     1
 90
        0
176
     1
 62
   257
176
     1
 40
1.0
176
     1
 90
        1
176
     1
 90
        6
176
     1
 90
        2
176
     1
 62
     7
176
     1
 90
        5
176
     1
 90
        0
176
     1
 90
        0
176
     1
290
     0
176
     1
 90
       13
176
     1
 40
0.0
176
     1
 90
        0
176
     1
290
     0
176
     1
290
     1
176
     1
290
     1
176
     1
290
     0
176
     1
290
     0
176
     1
290
     0
176
     1
290
     0
176
     1
290
     0
176
     1
290
     0
176
     1
 90
       50
176
     1
 40
0.0
176
     1
 40
1.0
176
     1
 90
        0
176
     1
 62
    18
420
        0
176
     1
 90
       50
176
     1
 90
        3
176
     1
 62
     5
420
      255
176
     1
290
     0
176
     1
 90
       50
176
     1
 90
       50
176
     1
 90
       50
176
     1
290
     0
176
     1
 90
       50
176
     1
 62
   256
176
     0
 40
1.0
176
     0
 90
        2
176
     1
  1
strokes_ogs.tif
176
     1
290
     0
176
     1
 40
1.0
176
     1
 40
1.0
176
     1
  0
VISUALSTYLE
  5
384
102
{ACAD_REACTORS
330
381
102
}
330
381
100
AcDbVisualStyle
  2
Gouraud
 70
     2
177
     3
291
     1
 70
    58
 90
        2
176
     1
 90
        2
176
     1
 90
        1
176
     1
 90
        2
176
     1
 40
0.6
176
     1
 40
30.0
176
     1
 62
     7
420
 16777215
176
     1
 90
        0
176
     1
 90
        0
176
     1
 62
     7
176
     1
 62
   257
176
     1
 90
        1
176
     1
 90
        1
176
     1
 40
1.0
176
     1
 90
        0
176
     1
 62
     7
176
     1
 40
1.0
176
     1
 90
        1
176
     1
 90
        6
176
     1
 90
        2
176
     1
 62
     7
176
     1
 90
        5
176
     1
 90
        0
176
     1
 90
        0
176
     1
290
     0
176
     1
 90
       13
176
     1
 40
0.0
176
     1
 90
        0
176
     1
290
     0
176
     1
290
     1
176
     1
290
     1
176
     1
290
     0
176
     1
290
     0
176
     1
290
     0
176
     1
290
     0
176
     1
290
     0
176
     1
290
     0
176
     1
 90
       50
176
     1
 40
0.0
176
     1
 40
1.0
176
     1
 90
        0
176
     1
 62
    18
420
        0
176
     1
 90
       50
176
     1
 90
        3
176
     1
 62
     5
420
      255
176
     1
290
     0
176
     1
 90
       50
176
     1
 90
       50
176
     1
 90
       50
176
     1
290
     0
176
     1
 90
       50
176
     1
 62
   256
176
     0
 40
1.0
176
     0
 90
        2
176
     1
  1
strokes_ogs.tif
176
     1
290
     0
176
     1
 40
1.0
176
     1
 40
1.0
176
     1
  0
VISUALSTYLE
  5
385
102
{ACAD_REACTORS
330
381
102
}
330
381
100
AcDbVisualStyle
  2
GouraudWithEdges
 70
     3
177
     3
291
     1
 70
    58
 90
        2
176
     1
 90
        2
176
     1
 90
        1
176
     1
 90
        2
176
     1
 40
0.6
176
     1
 40
30.0
176
     1
 62
     7
420
 16777215
176
     1
 90
        1
176
     1
 90
        0
176
     1
 62
     7
176
     1
 62
   257
176
     1
 90
        1
176
     1
 90
        1
176
     1
 40
1.0
176
     1
 90
        0
176
     1
 62
   257
176
     1
 40
1.0
176
     1
 90
        1
176
     1
 90
        6
176
     1
 90
        2
176
     1
 62
     7
176
     1
 90
        5
176
     1
 90
        0
176
     1
 90
        0
176
     1
290
     0
176
     1
 90
       13
176
     1
 40
0.0
176
     1
 90
        0
176
     1
290
     0
176
     1
290
     1
176
     1
290
     1
176
     1
290
     0
176
     1
290
     0
176
     1
290
     0
176
     1
290
     0
176
     1
290
     0
176
     1
290
     0
176
     1
 90
       50
176
     1
 40
0.0
176
     1
 40
1.0
176
     1
 90
        0
176
     1
 62
    18
420
        0
176
     1
 90
       50
176
     1
 90
        3
176
     1
 62
     5
420
      255
176
     1
290
     0
176
     1
 90
       50
176
     1
 90
       50
176
     1
 90
       50
176
     1
290
     0
176
     1
 90
       50
176
     1
 62
   256
176
     0
 40
1.0
176
     0
 90
        2
176
     1
  1
strokes_ogs.tif
176
     1
290
     0
176
     1
 40
1.0
176
     1
 40
1.0
176
     1
  0
VISUALSTYLE
  5
388
102
{ACAD_REACTORS
330
381
102
}
330
381
100
AcDbVisualStyle
  2
Hidden
 70
     6
177
     3
291
     0
 70
    58
 90
        1
176
     1
 90
        2
176
     1
 90
        2
176
     1
 90
        0
176
     1
 40
0.6
176
     1
 40
30.0
176
     1
 62
     7
420
 16777215
176
     1
 90
        2
176
     1
 90
        2
176
     1
 62
     7
176
     1
 62
   257
176
     1
 90
        2
176
     1
 90
        1
176
     1
 40
40.0
176
     1
 90
        0
176
     1
 62
   257
176
     1
 40
1.0
176
     1
 90
        1
176
     1
 90
        6
176
     1
 90
        2
176
     1
 62
     7
176
     1
 90
        3
176
     1
 90
        0
176
     1
 90
        0
176
     1
290
     0
176
     1
 90
        1
176
     1
 40
0.0
176
     1
 90
        0
176
     1
290
     0
176
     1
290
     1
176
     1
290
     1
176
     1
290
     0
176
     1
290
     0
176
     1
290
     0
176
     1
290
     0
176
     1
290
     0
176
     1
290
     0
176
     1
 90
       50
176
     1
 40
0.0
176
     1
 40
1.0
176
     1
 90
        0
176
     1
 62
    18
420
        0
176
     1
 90
       50
176
     1
 90
        3
176
     1
 62
     5
420
      255
176
     1
290
     0
176
     1
 90
       50
176
     1
 90
       50
176
     1
 90
       50
176
     1
290
     0
176
     1
 90
       50
176
     1
 62
   256
176
     0
 40
1.0
176
     0
 90
        2
176
     1
  1
strokes_ogs.tif
176
     1
290
     0
176
     1
 40
1.0
176
     1
 40
1.0
176
     1
  0
VISUALSTYLE
  5
392
102
{ACAD_REACTORS
330
381
102
}
330
381
100
AcDbVisualStyle
  2
JitterOff
 70
    20
177
     3
291
     1
 70
    58
 90
        2
176
     0
 90
        2
176
     0
 90
        0
176
     0
 90
        0
176
     0
 40
0.6
176
     0
 40
30.0
176
     0
 62
     7
420
 16777215
176
     0
 90
        1
176
     0
 90
        4
176
     0
 62
     7
176
     0
 62
   257
176
     0
 90
        1
176
     0
 90
        1
176
     0
 40
1.0
176
     0
 90
       10
176
     2
 62
     7
176
     0
 40
1.0
176
     0
 90
        1
176
     0
 90
        6
176
     0
 90
        2
176
     0
 62
     7
176
     0
 90
        5
176
     0
 90
        0
176
     0
 90
        0
176
     0
290
     0
176
     0
 90
        1
176
     0
 40
0.0
176
     0
 90
        0
176
     0
290
     0
176
     0
290
     1
176
     0
290
     1
176
     0
290
     0
176
     0
290
     0
176
     0
290
     0
176
     0
290
     0
176
     0
290
     0
176
     0
290
     0
176
     0
 90
       50
176
     0
 40
0.0
176
     0
 40
1.0
176
     0
 90
        0
176
     0
 62
    18
420
        0
176
     0
 90
       50
176
     0
 90
        3
176
     0
 62
     5
420
      255
176
     0
290
     0
176
     0
 90
       50
176
     0
 90
       50
176
     0
 90
       50
176
     0
290
     0
176
     0
 90
       50
176
     0
 62
   256
176
     0
 40
1.0
176
     0
 90
        2
176
     0
  1
strokes_ogs.tif
176
     0
290
     0
176
     0
 40
1.0
176
     0
 40
1.0
176
     0
  0
VISUALSTYLE
  5
38F
102
{ACAD_REACTORS
330
381
102
}
330
381
100
AcDbVisualStyle
  2
Linepattern
 70
    14
177
     3
291
     1
 70
    58
 90
        2
176
     1
 90
        2
176
     1
 90
        0
176
     1
 90
        0
176
     1
 40
0.6
176
     1
 40
30.0
176
     1
 62
     7
420
 16777215
176
     1
 90
        1
176
     1
 90
        4
176
     1
 62
     7
176
     1
 62
   257
176
     1
 90
        7
176
     1
 90
        7
176
     1
 40
1.0
176
     1
 90
        8
176
     1
 62
     7
176
     1
 40
1.0
176
     1
 90
        1
176
     1
 90
        6
176
     1
 90
        2
176
     1
 62
     7
176
     1
 90
        5
176
     1
 90
        0
176
     1
 90
        0
176
     1
290
     0
176
     1
 90
        1
176
     1
 40
0.0
176
     1
 90
        0
176
     1
290
     0
176
     1
290
     1
176
     1
290
     1
176
     1
290
     0
176
     1
290
     0
176
     1
290
     0
176
     1
290
     0
176
     1
290
     0
176
     1
290
     0
176
     1
 90
       50
176
     1
 40
0.0
176
     1
 40
1.0
176
     1
 90
        0
176
     1
 62
    18
420
        0
176
     1
 90
       50
176
     1
 90
        3
176
     1
 62
     5
420
      255
176
     1
290
     0
176
     1
 90
       50
176
     1
 90
       50
176
     1
 90
       50
176
     1
290
     0
176
     1
 90
       50
176
     1
 62
   256
176
     0
 40
1.0
176
     0
 90
        2
176
     1
  1
strokes_ogs.tif
176
     1
290
     0
176
     1
 40
1.0
176
     1
 40
1.0
176
     1
  0
VISUALSTYLE
  5
393
102
{ACAD_REACTORS
330
381
102
}
330
381
100
AcDbVisualStyle
  2
OverhangOff
 70
    21
177
     3
291
     1
 70
    58
 90
        2
176
     0
 90
        2
176
     0
 90
        0
176
     0
 90
        0
176
     0
 40
0.6
176
     0
 40
30.0
176
     0
 62
     7
420
 16777215
176
     0
 90
        1
176
     0
 90
        4
176
     0
 62
     7
176
     0
 62
   257
176
     0
 90
        1
176
     0
 90
        1
176
     0
 40
1.0
176
     0
 90
        9
176
     2
 62
     7
176
     0
 40
1.0
176
     0
 90
        1
176
     0
 90
        6
176
     0
 90
        2
176
     0
 62
     7
176
     0
 90
        5
176
     0
 90
        0
176
     0
 90
        0
176
     0
290
     0
176
     0
 90
        1
176
     0
 40
0.0
176
     0
 90
        0
176
     0
290
     0
176
     0
290
     1
176
     0
290
     1
176
     0
290
     0
176
     0
290
     0
176
     0
290
     0
176
     0
290
     0
176
     0
290
     0
176
     0
290
     0
176
     0
 90
       50
176
     0
 40
0.0
176
     0
 40
1.0
176
     0
 90
        0
176
     0
 62
    18
420
        0
176
     0
 90
       50
176
     0
 90
        3
176
     0
 62
     5
420
      255
176
     0
290
     0
176
     0
 90
       50
176
     0
 90
       50
176
     0
 90
       50
176
     0
290
     0
176
     0
 90
       50
176
     0
 62
   256
176
     0
 40
1.0
176
     0
 90
        2
176
     0
  1
strokes_ogs.tif
176
     0
290
     0
176
     0
 40
1.0
176
     0
 40
1.0
176
     0
  0
VISUALSTYLE
  5
38A
102
{ACAD_REACTORS
330
381
102
}
330
381
100
AcDbVisualStyle
  2
Realistic
 70
     8
177
     3
291
     0
 70
    58
 90
        2
176
     1
 90
        3
176
     1
 90
        0
176
     1
 90
        2
176
     1
 40
0.6
176
     1
 40
30.0
176
     1
 62
     7
420
 16777215
176
     1
 90
        0
176
     1
 90
        0
176
     1
 62
     7
176
     1
 62
   257
176
     1
 90
        1
176
     1
 90
        1
176
     1
 40
1.0
176
     1
 90
        8
176
     1
 62
   257
176
     1
 40
1.0
176
     1
 90
        1
176
     1
 90
        6
176
     1
 90
        2
176
     1
 62
     7
176
     1
 90
        3
176
     1
 90
        0
176
     1
 90
        0
176
     1
290
     0
176
     1
 90
       13
176
     1
 40
0.0
176
     1
 90
        0
176
     1
290
     0
176
     1
290
     1
176
     1
290
     1
176
     1
290
     0
176
     1
290
     0
176
     1
290
     0
176
     1
290
     0
176
     1
290
     0
176
     1
290
     0
176
     1
 90
       50
176
     1
 40
0.0
176
     1
 40
1.0
176
     1
 90
        0
176
     1
 62
    18
420
        0
176
     1
 90
       50
176
     1
 90
        3
176
     1
 62
     5
420
      255
176
     1
290
     0
176
     1
 90
       50
176
     1
 90
       50
176
     1
 90
       50
176
     1
290
     0
176
     1
 90
       50
176
     1
 62
   256
176
     0
 40
1.0
176
     0
 90
        2
176
     1
  1
strokes_ogs.tif
176
     1
290
     0
176
     1
 40
1.0
176
     1
 40
1.0
176
     1
  0
VISUALSTYLE
  5
399
102
{ACAD_REACTORS
330
381
102
}
330
381
100
AcDbVisualStyle
  2
Shaded
 70
    27
177
     3
291
     0
 70
    58
 90
        2
176
     1
 90
        2
176
     1
 90
        1
176
     1
 90
        2
176
     1
 40
0.6
176
     1
 40
30.0
176
     1
 62
     7
420
 16777215
176
     1
 90
        0
176
     1
 90
        4
176
     1
 62
     7
176
     1
 62
   257
176
     1
 90
        1
176
     1
 90
        1
176
     1
 40
1.0
176
     1
 90
        8
176
     1
 62
   257
176
     1
 40
1.0
176
     1
 90
        1
176
     1
 90
        6
176
     1
 90
        2
176
     1
 62
     8
420
  7895160
176
     1
 90
        3
176
     1
 90
        0
176
     1
 90
        0
176
     1
290
     0
176
     1
 90
        5
176
     1
 40
0.0
176
     1
 90
        0
176
     1
290
     0
176
     1
290
     1
176
     1
290
     1
176
     1
290
     0
176
     1
290
     0
176
     1
290
     0
176
     1
290
     0
176
     1
290
     0
176
     1
290
     0
176
     1
 90
       50
176
     1
 40
0.0
176
     1
 40
1.0
176
     1
 90
        0
176
     1
 62
    18
420
        0
176
     1
 90
       50
176
     1
 90
        3
176
     1
 62
     5
420
      255
176
     1
290
     0
176
     1
 90
       50
176
     1
 90
       50
176
     1
 90
       50
176
     1
290
     0
176
     1
 90
       50
176
     1
 62
   256
176
     0
 40
1.0
176
     0
 90
        2
176
     1
  1
strokes_ogs.tif
176
     1
290
     0
176
     1
 40
1.0
176
     1
 40
1.0
176
     1
  0
VISUALSTYLE
  5
398
102
{ACAD_REACTORS
330
381
102
}
330
381
100
AcDbVisualStyle
  2
Shaded with edges
 70
    26
177
     3
291
     0
 70
    58
 90
        2
176
     1
 90
        2
176
     1
 90
        1
176
     1
 90
        2
176
     1
 40
0.6
176
     1
 40
30.0
176
     1
 62
     7
420
 16777215
176
     1
 90
        1
176
     1
 90
       10
176
     1
 62
     7
176
     1
 62
   257
176
     1
 90
        2
176
     1
 90
        1
176
     1
 40
1.0
176
     1
 90
        8
176
     1
 62
   257
176
     1
 40
1.0
176
     1
 90
        1
176
     1
 90
        6
176
     1
 90
        2
176
     1
 62
     7
176
     1
 90
        3
176
     1
 90
        0
176
     1
 90
        0
176
     1
290
     0
176
     1
 90
        5
176
     1
 40
0.0
176
     1
 90
        0
176
     1
290
     0
176
     1
290
     1
176
     1
290
     1
176
     1
290
     0
176
     1
290
     0
176
     1
290
     0
176
     1
290
     0
176
     1
290
     0
176
     1
290
     0
176
     1
 90
       50
176
     1
 40
0.0
176
     1
 40
1.0
176
     1
 90
        0
176
     1
 62
    18
420
        0
176
     1
 90
       50
176
     1
 90
        3
176
     1
 62
     5
420
      255
176
     1
290
     0
176
     1
 90
       50
176
     1
 90
       50
176
     1
 90
       50
176
     1
290
     0
176
     1
 90
       50
176
     1
 62
   256
176
     0
 40
1.0
176
     0
 90
        2
176
     1
  1
strokes_ogs.tif
176
     1
290
     0
176
     1
 40
1.0
176
     1
 40
1.0
176
     1
  0
VISUALSTYLE
  5
395
102
{ACAD_REACTORS
330
381
102
}
330
381
100
AcDbVisualStyle
  2
Shades of Gray
 70
    23
177
     3
291
     0
 70
    58
 90
        2
176
     1
 90
        2
176
     1
 90
        3
176
     1
 90
        0
176
     1
 40
0.6
176
     1
 40
30.0
176
     1
 62
     7
420
 16777215
176
     1
 90
        2
176
     1
 90
        2
176
     1
 62
     7
176
     1
 62
     7
176
     1
 90
        1
176
     1
 90
        1
176
     1
 40
40.0
176
     1
 90
        8
176
     1
 62
     7
176
     1
 40
1.0
176
     1
 90
        1
176
     1
 90
        6
176
     1
 90
        2
176
     1
 62
     7
176
     1
 90
        3
176
     1
 90
        0
176
     1
 90
        0
176
     1
290
     0
176
     1
 90
        1
176
     1
 40
0.0
176
     1
 90
        0
176
     1
290
     0
176
     1
290
     1
176
     1
290
     1
176
     1
290
     0
176
     1
290
     0
176
     1
290
     0
176
     1
290
     0
176
     1
290
     0
176
     1
290
     0
176
     1
 90
       50
176
     1
 40
0.0
176
     1
 40
1.0
176
     1
 90
        0
176
     1
 62
    18
420
        0
176
     1
 90
       50
176
     1
 90
        3
176
     1
 62
     5
420
      255
176
     1
290
     0
176
     1
 90
       50
176
     1
 90
       50
176
     1
 90
       50
176
     1
290
     0
176
     1
 90
       50
176
     1
 62
   256
176
     0
 40
1.0
176
     0
 90
        2
176
     1
  1
strokes_ogs.tif
176
     1
290
     0
176
     1
 40
1.0
176
     1
 40
1.0
176
     1
  0
VISUALSTYLE
  5
396
102
{ACAD_REACTORS
330
381
102
}
330
381
100
AcDbVisualStyle
  2
Sketchy
 70
    24
177
     3
291
     0
 70
    58
 90
        1
176
     1
 90
        2
176
     1
 90
        2
176
     1
 90
        0
176
     1
 40
0.6
176
     1
 40
30.0
176
     1
 62
     7
420
 16777215
176
     1
 90
        2
176
     1
 90
        2
176
     1
 62
     7
176
     1
 62
     7
176
     1
 90
        1
176
     1
 90
        1
176
     1
 40
40.0
176
     1
 90
       11
176
     1
 62
     7
176
     1
 40
1.0
176
     1
 90
        1
176
     1
 90
        6
176
     1
 90
        2
176
     1
 62
     7
176
     1
 90
        6
176
     1
 90
        0
176
     1
 90
        0
176
     1
290
     0
176
     1
 90
        1
176
     1
 40
0.0
176
     1
 90
        0
176
     1
290
     0
176
     1
290
     1
176
     1
290
     1
176
     1
290
     0
176
     1
290
     0
176
     1
290
     0
176
     1
290
     0
176
     1
290
     0
176
     1
290
     0
176
     1
 90
       50
176
     1
 40
0.0
176
     1
 40
1.0
176
     1
 90
        0
176
     1
 62
    18
420
        0
176
     1
 90
       50
176
     1
 90
        3
176
     1
 62
     5
420
      255
176
     1
290
     0
176
     1
 90
       50
176
     1
 90
       50
176
     1
 90
       50
176
     1
290
     0
176
     1
 90
       50
176
     1
 62
   256
176
     0
 40
1.0
176
     0
 90
        2
176
     1
  1
strokes_ogs.tif
176
     1
290
     0
176
     1
 40
1.0
176
     1
 40
1.0
176
     1
  0
VISUALSTYLE
  5
38E
102
{ACAD_REACTORS
330
381
102
}
330
381
100
AcDbVisualStyle
  2
Thicken
 70
    13
177
     3
291
     1
 70
    58
 90
        2
176
     1
 90
        2
176
     1
 90
        0
176
     1
 90
        0
176
     1
 40
0.6
176
     1
 40
30.0
176
     1
 62
     7
420
 16777215
176
     1
 90
        1
176
     1
 90
        4
176
     1
 62
     7
176
     1
 62
   257
176
     1
 90
        1
176
     1
 90
        1
176
     1
 40
1.0
176
     1
 90
       12
176
     1
 62
     7
176
     1
 40
1.0
176
     1
 90
        1
176
     1
 90
        6
176
     1
 90
        2
176
     1
 62
     7
176
     1
 90
        5
176
     1
 90
        0
176
     1
 90
        0
176
     1
290
     0
176
     1
 90
        1
176
     1
 40
0.0
176
     1
 90
        0
176
     1
290
     0
176
     1
290
     1
176
     1
290
     1
176
     1
290
     0
176
     1
290
     0
176
     1
290
     0
176
     1
290
     0
176
     1
290
     0
176
     1
290
     0
176
     1
 90
       50
176
     1
 40
0.0
176
     1
 40
1.0
176
     1
 90
        0
176
     1
 62
    18
420
        0
176
     1
 90
       50
176
     1
 90
        3
176
     1
 62
     5
420
      255
176
     1
290
     0
176
     1
 90
       50
176
     1
 90
       50
176
     1
 90
       50
176
     1
290
     0
176
     1
 90
       50
176
     1
 62
   256
176
     0
 40
1.0
176
     0
 90
        2
176
     1
  1
strokes_ogs.tif
176
     1
290
     0
176
     1
 40
1.0
176
     1
 40
1.0
176
     1
  0
VISUALSTYLE
  5
387
102
{ACAD_REACTORS
330
381
102
}
330
381
100
AcDbVisualStyle
  2
Wireframe
 70
     5
177
     3
291
     0
 70
    58
 90
        0
176
     1
 90
        2
176
     1
 90
        0
176
     1
 90
        0
176
     1
 40
0.6
176
     1
 40
30.0
176
     1
 62
     7
420
 16777215
176
     1
 90
        1
176
     1
 90
        4
176
     1
 62
     7
176
     1
 62
   257
176
     1
 90
        1
176
     1
 90
        1
176
     1
 40
1.0
176
     1
 90
        0
176
     1
 62
   257
176
     1
 40
1.0
176
     1
 90
        1
176
     1
 90
        6
176
     1
 90
        2
176
     1
 62
     7
176
     1
 90
        3
176
     1
 90
        0
176
     1
 90
        0
176
     1
290
     0
176
     1
 90
        1
176
     1
 40
0.0
176
     1
 90
        0
176
     1
290
     0
176
     1
290
     1
176
     1
290
     1
176
     1
290
     0
176
     1
290
     0
176
     1
290
     0
176
     1
290
     0
176
     1
290
     0
176
     1
290
     0
176
     1
 90
       50
176
     1
 40
0.0
176
     1
 40
1.0
176
     1
 90
        0
176
     1
 62
    18
420
        0
176
     1
 90
       50
176
     1
 90
        3
176
     1
 62
     5
420
      255
176
     1
290
     0
176
     1
 90
       50
176
     1
 90
       50
176
     1
 90
       50
176
     1
290
     0
176
     1
 90
       50
176
     1
 62
   256
176
     0
 40
1.0
176
     0
 90
        2
176
     1
  1
strokes_ogs.tif
176
     1
290
     0
176
     1
 40
1.0
176
     1
 40
1.0
176
     1
  0
VISUALSTYLE
  5
397
102
{ACAD_REACTORS
330
381
102
}
330
381
100
AcDbVisualStyle
  2
X-Ray
 70
    25
177
     3
291
     0
 70
    58
 90
        2
176
     1
 90
        2
176
     1
 90
        1
176
     1
 90
        1
176
     1
 40
0.5
176
     1
 40
30.0
176
     1
 62
     7
420
 16777215
176
     1
 90
        1
176
     1
 90
        0
176
     1
 62
     7
176
     1
 62
   257
176
     1
 90
        1
176
     1
 90
        1
176
     1
 40
1.0
176
     1
 90
        8
176
     1
 62
     7
176
     1
 40
1.0
176
     1
 90
        1
176
     1
 90
        6
176
     1
 90
        2
176
     1
 62
     7
176
     1
 90
        3
176
     1
 90
        0
176
     1
 90
        0
176
     1
290
     0
176
     1
 90
       13
176
     1
 40
0.0
176
     1
 90
        0
176
     1
290
     0
176
     1
290
     1
176
     1
290
     1
176
     1
290
     0
176
     1
290
     0
176
     1
290
     0
176
     1
290
     0
176
     1
290
     0
176
     1
290
     0
176
     1
 90
       50
176
     1
 40
0.0
176
     1
 40
1.0
176
     1
 90
        0
176
     1
 62
    18
420
        0
176
     1
 90
       50
176
     1
 90
        3
176
     1
 62
     5
420
      255
176
     1
290
     0
176
     1
 90
       50
176
     1
 90
       50
176
     1
 90
       50
176
     1
290
     0
176
     1
 90
       50
176
     1
 62
   256
176
     0
 40
1.0
176
     0
 90
        2
176
     1
  1
strokes_ogs.tif
176
     1
290
     0
176
     1
 40
1.0
176
     1
 40
1.0
176
     1
  0
DICTIONARYVAR
  5
3A4
102
{ACAD_REACTORS
330
3A3
102
}
330
3A3
100
DictionaryVariables
280
     0
  1
1:1
  0
DICTIONARYVAR
  5
3A6
102
{ACAD_REACTORS
330
3A3
102
}
330
3A3
100
DictionaryVariables
280
     0
  1
Standard
  0
DICTIONARYVAR
  5
3A5
102
{ACAD_REACTORS
330
3A3
102
}
330
3A3
100
DictionaryVariables
280
     0
  1
Standard
  0
DICTIONARYVAR
  5
3A7
102
{ACAD_REACTORS
330
3A3
102
}
330
3A3
100
DictionaryVariables
280
     0
  1
0
  0
DICTIONARY
  5
9C5
330
39F
100
AcDbDictionary
280
     1
281
     1
  3
ACAD_ROUNDTRIP_2008_TABLESTYLE_CELLSTYLEMAP
360
9C6
  0
CELLSTYLEMAP
  5
9C6
102
{ACAD_REACTORS
330
9C5
102
}
330
9C5
100
AcDbCellStyleMap
 90
        3
300
CELLSTYLE
  1
TABLEFORMAT_BEGIN
 90
        5
170
     1
 91
        0
 92
    32768
 62
   257
 93
        1
300
CONTENTFORMAT
  1
CONTENTFORMAT_BEGIN
 90
        0
 91
        0
 92
        4
 93
        0
300

 40
0.0
140
1.0
 94
        5
 62
     0
340
11
144
6.0
309
CONTENTFORMAT_END
171
     1
301
MARGIN
  1
CELLMARGIN_BEGIN
 40
1.5
 40
1.5
 40
1.5
 40
1.5
 40
1.5
 40
1.5
309
CELLMARGIN_END
 94
        6
 95
        1
302
GRIDFORMAT
  1
GRIDFORMAT_BEGIN
 90
        0
 91
        1
 62
     0
 92
       -2
340
14
 93
        0
 40
0.045
309
GRIDFORMAT_END
 95
        2
302
GRIDFORMAT
  1
GRIDFORMAT_BEGIN
 90
        0
 91
        1
 62
     0
 92
       -2
340
14
 93
        0
 40
0.045
309
GRIDFORMAT_END
 95
        4
302
GRIDFORMAT
  1
GRIDFORMAT_BEGIN
 90
        0
 91
        1
 62
     0
 92
       -2
340
14
 93
        0
 40
0.045
309
GRIDFORMAT_END
 95
        8
302
GRIDFORMAT
  1
GRIDFORMAT_BEGIN
 90
        0
 91
        1
 62
     0
 92
       -2
340
14
 93
        0
 40
0.045
309
GRIDFORMAT_END
 95
       16
302
GRIDFORMAT
  1
GRIDFORMAT_BEGIN
 90
        0
 91
        1
 62
     0
 92
       -2
340
14
 93
        0
 40
0.045
309
GRIDFORMAT_END
 95
       32
302
GRIDFORMAT
  1
GRIDFORMAT_BEGIN
 90
        0
 91
        1
 62
     0
 92
       -2
340
14
 93
        0
 40
0.045
309
GRIDFORMAT_END
309
TABLEFORMAT_END
  1
CELLSTYLE_BEGIN
 90
        1
 91
        1
300
_TITLE
309
CELLSTYLE_END
300
CELLSTYLE
  1
TABLEFORMAT_BEGIN
 90
        5
170
     1
 91
        0
 92
        0
 62
   257
 93
        1
300
CONTENTFORMAT
  1
CONTENTFORMAT_BEGIN
 90
        0
 91
        0
 92
        4
 93
        0
300

 40
0.0
140
1.0
 94
        5
 62
     0
340
11
144
4.5
309
CONTENTFORMAT_END
171
     1
301
MARGIN
  1
CELLMARGIN_BEGIN
 40
1.5
 40
1.5
 40
1.5
 40
1.5
 40
1.5
 40
1.5
309
CELLMARGIN_END
 94
        6
 95
        1
302
GRIDFORMAT
  1
GRIDFORMAT_BEGIN
 90
        0
 91
        1
 62
     0
 92
       -2
340
14
 93
        0
 40
0.045
309
GRIDFORMAT_END
 95
        2
302
GRIDFORMAT
  1
GRIDFORMAT_BEGIN
 90
        0
 91
        1
 62
     0
 92
       -2
340
14
 93
        0
 40
0.045
309
GRIDFORMAT_END
 95
        4
302
GRIDFORMAT
  1
GRIDFORMAT_BEGIN
 90
        0
 91
        1
 62
     0
 92
       -2
340
14
 93
        0
 40
0.045
309
GRIDFORMAT_END
 95
        8
302
GRIDFORMAT
  1
GRIDFORMAT_BEGIN
 90
        0
 91
        1
 62
     0
 92
       -2
340
14
 93
        0
 40
0.045
309
GRIDFORMAT_END
 95
       16
302
GRIDFORMAT
  1
GRIDFORMAT_BEGIN
 90
        0
 91
        1
 62
     0
 92
       -2
340
14
 93
        0
 40
0.045
309
GRIDFORMAT_END
 95
       32
302
GRIDFORMAT
  1
GRIDFORMAT_BEGIN
 90
        0
 91
        1
 62
     0
 92
       -2
340
14
 93
        0
 40
0.045
309
GRIDFORMAT_END
309
TABLEFORMAT_END
  1
CELLSTYLE_BEGIN
 90
        2
 91
        1
300
_HEADER
309
CELLSTYLE_END
300
CELLSTYLE
  1
TABLEFORMAT_BEGIN
 90
        5
170
     1
 91
        0
 92
        0
 62
   257
 93
        1
300
CONTENTFORMAT
  1
CONTENTFORMAT_BEGIN
 90
        0
 91
        0
 92
        4
 93
        0
300

 40
0.0
140
1.0
 94
        2
 62
     0
340
11
144
4.5
309
CONTENTFORMAT_END
171
     1
301
MARGIN
  1
CELLMARGIN_BEGIN
 40
1.5
 40
1.5
 40
1.5
 40
1.5
 40
1.5
 40
1.5
309
CELLMARGIN_END
 94
        6
 95
        1
302
GRIDFORMAT
  1
GRIDFORMAT_BEGIN
 90
        0
 91
        1
 62
     0
 92
       -2
340
14
 93
        0
 40
0.045
309
GRIDFORMAT_END
 95
        2
302
GRIDFORMAT
  1
GRIDFORMAT_BEGIN
 90
        0
 91
        1
 62
     0
 92
       -2
340
14
 93
        0
 40
0.045
309
GRIDFORMAT_END
 95
        4
302
GRIDFORMAT
  1
GRIDFORMAT_BEGIN
 90
        0
 91
        1
 62
     0
 92
       -2
340
14
 93
        0
 40
0.045
309
GRIDFORMAT_END
 95
        8
302
GRIDFORMAT
  1
GRIDFORMAT_BEGIN
 90
        0
 91
        1
 62
     0
 92
       -2
340
14
 93
        0
 40
0.045
309
GRIDFORMAT_END
 95
       16
302
GRIDFORMAT
  1
GRIDFORMAT_BEGIN
 90
        0
 91
        1
 62
     0
 92
       -2
340
14
 93
        0
 40
0.045
309
GRIDFORMAT_END
 95
       32
302
GRIDFORMAT
  1
GRIDFORMAT_BEGIN
 90
        0
 91
        1
 62
     0
 92
       -2
340
14
 93
        0
 40
0.045
309
GRIDFORMAT_END
309
TABLEFORMAT_END
  1
CELLSTYLE_BEGIN
 90
        3
 91
        2
300
_DATA
309
CELLSTYLE_END
  0
ENDSEC
  0
EOF
