  0
SECTION
  2
HEADER
  9
$ACADVER
  1
AC1015
  9
$ACADMAINTVER
 70
     6
  9
$DWGCODEPAGE
  3
DOS932
  9
$INSBASE
 10
0.0
 20
0.0
 30
0.0
  9
$EXTMIN
 10
0.0
 20
0.0
 30
0.0
  9
$EXTMAX
 10
105.0
 20
148.5
 30
0.0
  9
$LIMMIN
 10
0.0
 20
0.0
  9
$LIMMAX
 10
105.0
 20
148.5
  9
$ORTHOMODE
 70
     0
  9
$REGENMODE
 70
     1
  9
$FILLMODE
 70
     1
  9
$QTEXTMODE
 70
     0
  9
$MIRRTEXT
 70
     1
  9
$LTSCALE
 40
0.5
  9
$ATTMODE
 70
     1
  9
$TEXTSIZE
 40
1.75
  9
$TRACEWID
 40
1.0
  9
$TEXTSTYLE
  7
Standard
  9
$CLAYER
  8
0
  9
$CELTYPE
  6
ByLayer
  9
$CECOLOR
 62
   256
  9
$CELTSCALE
 40
1.0
  9
$DISPSILH
 70
     0
  9
$DIMSCALE
 40
1.0
  9
$DIMASZ
 40
0.75
  9
$DIMEXO
 40
0.5
  9
$DIMDLI
 40
3.75
  9
$DIMRND
 40
0.0
  9
$DIMDLE
 40
0.0
  9
$DIMEXE
 40
0.5
  9
$DIMTP
 40
0.0
  9
$DIMTM
 40
0.0
  9
$DIMTXT
 40
1.75
  9
$DIMCEN
 40
2.5
  9
$DIMTSZ
 40
0.0
  9
$DIMTOL
 70
     0
  9
$DIMLIM
 70
     0
  9
$DIMTIH
 70
     1
  9
$DIMTOH
 70
     1
  9
$DIMSE1
 70
     0
  9
$DIMSE2
 70
     0
  9
$DIMTAD
 70
     1
  9
$DIMZIN
 70
     0
  9
$DIMBLK
  1

  9
$DIMASO
 70
     1
  9
$DIMSHO
 70
     1
  9
$DIMPOST
  1

  9
$DIMAPOST
  1

  9
$DIMALT
 70
     0
  9
$DIMALTD
 70
     3
  9
$DIMALTF
 40
0.0393700787
  9
$DIMLFAC
 40
1.0
  9
$DIMTOFL
 70
     1
  9
$DIMTVP
 40
0.0
  9
$DIMTIX
 70
     0
  9
$DIMSOXD
 70
     0
  9
$DIMSAH
 70
     0
  9
$DIMBLK1
  1

  9
$DIMBLK2
  1

  9
$DIMSTYLE
  2
ISO-25
  9
$DIMCLRD
 70
     0
  9
$DIMCLRE
 70
     0
  9
$DIMCLRT
 70
     0
  9
$DIMTFAC
 40
1.0
  9
$DIMGAP
 40
0.75
  9
$DIMJUST
 70
     0
  9
$DIMSD1
 70
     0
  9
$DIMSD2
 70
     0
  9
$DIMTOLJ
 70
     0
  9
$DIMTZIN
 70
     0
  9
$DIMALTZ
 70
     0
  9
$DIMALTTZ
 70
     0
  9
$DIMUPT
 70
     0
  9
$DIMDEC
 70
     1
  9
$DIMTDEC
 70
     1
  9
$DIMALTU
 70
     2
  9
$DIMALTTD
 70
     3
  9
$DIMTXSTY
  7
Standard
  9
$DIMAUNIT
 70
     0
  9
$DIMADEC
 70
     2
  9
$DIMALTRND
 40
0.0
  9
$DIMAZIN
 70
     0
  9
$DIMDSEP
 70
    44
  9
$DIMATFIT
 70
     3
  9
$DIMFRAC
 70
     0
  9
$DIMLDRBLK
  1

  9
$DIMLUNIT
 70
     2
  9
$DIMLWD
 70
    -2
  9
$DIMLWE
 70
    -2
  9
$DIMTMOVE
 70
     0
  9
$LUNITS
 70
     2
  9
$LUPREC
 70
     2
  9
$SKETCHINC
 40
1.0
  9
$FILLETRAD
 40
10.0
  9
$AUNITS
 70
     0
  9
$AUPREC
 70
     2
  9
$MENU
  1
.
  9
$ELEVATION
 40
0.0
  9
$PELEVATION
 40
0.0
  9
$THICKNESS
 40
0.0
  9
$LIMCHECK
 70
     0
  9
$CHAMFERA
 40
0.0
  9
$CHAMFERB
 40
0.0
  9
$CHAMFERC
 40
0.0
  9
$CHAMFERD
 40
0.0
  9
$SKPOLY
 70
     0
  9
$TDCREATE
 40
2459755.594727222
  9
$TDUCREATE
 40
2459755.219727222
  9
$TDUPDATE
 40
2459755.594727616
  9
$TDUUPDATE
 40
2459755.219727616
  9
$TDINDWG
 40
0.0000000116
  9
$TDUSRTIMER
 40
0.0000000116
  9
$USRTIMER
 70
     1
  9
$ANGBASE
 50
0.0
  9
$ANGDIR
 70
     0
  9
$PDMODE
 70
     0
  9
$PDSIZE
 40
-1.0
  9
$PLINEWID
 40
0.0
  9
$SPLFRAME
 70
     0
  9
$SPLINETYPE
 70
     6
  9
$SPLINESEGS
 70
     8
  9
$HANDSEED
  5
15A
  9
$SURFTAB1
 70
     6
  9
$SURFTAB2
 70
     6
  9
$SURFTYPE
 70
     6
  9
$SURFU
 70
     6
  9
$SURFV
 70
     6
  9
$UCSBASE
  2

  9
$UCSNAME
  2

  9
$UCSORG
 10
0.0
 20
0.0
 30
0.0
  9
$UCSXDIR
 10
1.0
 20
0.0
 30
0.0
  9
$UCSYDIR
 10
0.0
 20
1.0
 30
0.0
  9
$UCSORTHOREF
  2

  9
$UCSORTHOVIEW
 70
     0
  9
$UCSORGTOP
 10
0.0
 20
0.0
 30
0.0
  9
$UCSORGBOTTOM
 10
0.0
 20
0.0
 30
0.0
  9
$UCSORGLEFT
 10
0.0
 20
0.0
 30
0.0
  9
$UCSORGRIGHT
 10
0.0
 20
0.0
 30
0.0
  9
$UCSORGFRONT
 10
0.0
 20
0.0
 30
0.0
  9
$UCSORGBACK
 10
0.0
 20
0.0
 30
0.0
  9
$PUCSBASE
  2

  9
$PUCSNAME
  2

  9
$PUCSORG
 10
0.0
 20
0.0
 30
0.0
  9
$PUCSXDIR
 10
1.0
 20
0.0
 30
0.0
  9
$PUCSYDIR
 10
0.0
 20
1.0
 30
0.0
  9
$PUCSORTHOREF
  2

  9
$PUCSORTHOVIEW
 70
     0
  9
$PUCSORGTOP
 10
0.0
 20
0.0
 30
0.0
  9
$PUCSORGBOTTOM
 10
0.0
 20
0.0
 30
0.0
  9
$PUCSORGLEFT
 10
0.0
 20
0.0
 30
0.0
  9
$PUCSORGRIGHT
 10
0.0
 20
0.0
 30
0.0
  9
$PUCSORGFRONT
 10
0.0
 20
0.0
 30
0.0
  9
$PUCSORGBACK
 10
0.0
 20
0.0
 30
0.0
  9
$USERI1
 70
     0
  9
$USERI2
 70
     0
  9
$USERI3
 70
     0
  9
$USERI4
 70
     0
  9
$USERI5
 70
     0
  9
$USERR1
 40
0.0
  9
$USERR2
 40
0.0
  9
$USERR3
 40
0.0
  9
$USERR4
 40
0.0
  9
$USERR5
 40
0.0
  9
$WORLDVIEW
 70
     1
  9
$SHADEDGE
 70
     3
  9
$SHADEDIF
 70
    70
  9
$TILEMODE
 70
     1
  9
$MAXACTVP
 70
    64
  9
$PINSBASE
 10
0.0
 20
0.0
 30
0.0
  9
$PLIMCHECK
 70
     0
  9
$PEXTMIN
 10
1.0000000000E+20
 20
1.0000000000E+20
 30
1.0000000000E+20
  9
$PEXTMAX
 10
-1.0000000000E+20
 20
-1.0000000000E+20
 30
-1.0000000000E+20
  9
$PLIMMIN
 10
0.0
 20
0.0
  9
$PLIMMAX
 10
420.0
 20
297.0
  9
$UNITMODE
 70
     0
  9
$VISRETAIN
 70
     1
  9
$PLINEGEN
 70
     0
  9
$PSLTSCALE
 70
     1
  9
$TREEDEPTH
 70
  3020
  9
$CMLSTYLE
  2
Standard
  9
$CMLJUST
 70
     0
  9
$CMLSCALE
 40
20.0
  9
$PROXYGRAPHICS
 70
     1
  9
$MEASUREMENT
 70
     1
  9
$CELWEIGHT
370
    -1
  9
$ENDCAPS
280
     0
  9
$JOINSTYLE
280
     0
  9
$LWDISPLAY
290
     1
  9
$INSUNITS
 70
     4
  9
$HYPERLINKBASE
  1

  9
$STYLESHEET
  1

  9
$XEDIT
290
     1
  9
$CEPSNTYPE
380
     0
  9
$PSTYLEMODE
290
     1
  9
$FINGERPRINTGUID
  2
{eff99fc1-7288-4a34-a481-b966d72fa12b}
  9
$VERSIONGUID
  2
{FAEB1C32-E019-11D5-929B-00C0DF256EC4}
  9
$EXTNAMES
290
     1
  9
$PSVPSCALE
 40
0.0
  9
$OLESTARTUP
290
     0
  0
ENDSEC
  0
SECTION
  2
CLASSES
  0
CLASS
  1
ACDBDICTIONARYWDFLT
  2
AcDbDictionaryWithDefault
  3
ObjectDBX Classes
 90
        0
280
     0
281
     0
  0
CLASS
  1
VISUALSTYLE
  2
AcDbVisualStyle
  3
ObjectDBX Classes
 90
     4095
280
     0
281
     0
  0
CLASS
  1
MATERIAL
  2
AcDbMaterial
  3
ObjectDBX Classes
 90
     1153
280
     0
281
     0
  0
CLASS
  1
SCALE
  2
AcDbScale
  3
ObjectDBX Classes
 90
     1153
280
     0
281
     0
  0
CLASS
  1
TABLESTYLE
  2
AcDbTableStyle
  3
ObjectDBX Classes
 90
     4095
280
     0
281
     0
  0
CLASS
  1
MLEADERSTYLE
  2
AcDbMLeaderStyle
  3
ACDB_MLEADERSTYLE_CLASS
 90
     4095
280
     0
281
     0
  0
CLASS
  1
SUN
  2
AcDbSun
  3
SCENEOE
 90
     1153
280
     0
281
     0
  0
CLASS
  1
ACDBPLACEHOLDER
  2
AcDbPlaceHolder
  3
ObjectDBX Classes
 90
        0
280
     0
281
     0
  0
CLASS
  1
LAYOUT
  2
AcDbLayout
  3
ObjectDBX Classes
 90
        0
280
     0
281
     0
  0
ENDSEC
  0
SECTION
  2
TABLES
  0
TABLE
  2
VPORT
  5
8
330
0
100
AcDbSymbolTable
 70
     1
  0
VPORT
  5
29
330
8
100
AcDbSymbolTableRecord
100
AcDbViewportTableRecord
  2
*Active
 70
     0
 10
0.0
 20
0.0
 11
1.0
 21
1.0
 12
52.5
 22
74.25
 13
0.0
 23
0.0
 14
10.0
 24
10.0
 15
10.0
 25
10.0
 16
0.0
 26
0.0
 36
1.0
 17
0.0
 27
0.0
 37
0.0
 40
148.5
 41
0.7070707071
 42
50.0
 43
0.0
 44
0.0
 50
0.0
 51
0.0
 71
     0
 72
  2000
 73
     1
 74
     3
 75
     0
 76
     0
 77
     0
 78
     0
281
     0
 65
     1
110
0.0
120
0.0
130
0.0
111
1.0
121
0.0
131
0.0
112
0.0
122
1.0
132
0.0
 79
     0
146
0.0
  0
ENDTAB
  0
TABLE
  2
LTYPE
  5
5
330
0
100
AcDbSymbolTable
 70
     6
  0
LTYPE
  5
14
330
5
100
AcDbSymbolTableRecord
100
AcDbLinetypeTableRecord
  2
ByBlock
 70
     0
  3

 72
    65
 73
     0
 40
0.0
  0
LTYPE
  5
15
330
5
100
AcDbSymbolTableRecord
100
AcDbLinetypeTableRecord
  2
ByLayer
 70
     0
  3

 72
    65
 73
     0
 40
0.0
  0
LTYPE
  5
16
330
5
100
AcDbSymbolTableRecord
100
AcDbLinetypeTableRecord
  2
Continuous
 70
     0
  3
Solid line
 72
    65
 73
     0
 40
0.0
  0
LTYPE
  5
6E
330
5
100
AcDbSymbolTableRecord
100
AcDbLinetypeTableRecord
  2
HIDDEN
 70
     0
  3
Hidden __ __ __ __ __ __ __ __ __ __ __ __ __ __
 72
    65
 73
     2
 40
1.905
 49
1.27
 74
     0
 49
-0.635
 74
     0
  0
LTYPE
  5
6F
330
5
100
AcDbSymbolTableRecord
100
AcDbLinetypeTableRecord
  2
PHANTOM
 70
     0
  3
Phantom ______  __  __  ______  __  __  ______
 72
    65
 73
     6
 40
12.7
 49
6.35
 74
     0
 49
-1.27
 74
     0
 49
1.27
 74
     0
 49
-1.27
 74
     0
 49
1.27
 74
     0
 49
-1.27
 74
     0
  0
LTYPE
  5
70
330
5
100
AcDbSymbolTableRecord
100
AcDbLinetypeTableRecord
  2
CENTER
 70
     0
  3
Center ____ _ ____ _ ____ _ ____ _ ____ _ ____
 72
    65
 73
     4
 40
10.16
 49
6.35
 74
     0
 49
-1.27
 74
     0
 49
1.27
 74
     0
 49
-1.27
 74
     0
  0
LTYPE
  5
71
330
5
100
AcDbSymbolTableRecord
100
AcDbLinetypeTableRecord
  2
CENTERX2
 70
     0
  3
Center (2x) ________  __  ________  __  _____
 72
    65
 73
     4
 40
20.32
 49
12.7
 74
     0
 49
-2.54
 74
     0
 49
2.54
 74
     0
 49
-2.54
 74
     0
  0
LTYPE
  5
72
330
5
100
AcDbSymbolTableRecord
100
AcDbLinetypeTableRecord
  2
DOT2
 70
     0
  3
Dot (.5x) ........................................
 72
    65
 73
     2
 40
0.635
 49
0.0
 74
     0
 49
-0.635
 74
     0
  0
ENDTAB
  0
TABLE
  2
LAYER
  5
2
330
0
100
AcDbSymbolTable
 70
     3
  0
LAYER
  5
10
330
2
100
AcDbSymbolTableRecord
100
AcDbLayerTableRecord
  2
0
 70
     0
 62
     7
  6
Continuous
370
    -3
390
F
  0
LAYER
  5
73
330
2
100
AcDbSymbolTableRecord
100
AcDbLayerTableRecord
  2
レイヤー_1
 70
     0
 62
   179
  6
Continuous
370
    -3
390
F
  0
LAYER
  5
74
330
2
100
AcDbSymbolTableRecord
100
AcDbLayerTableRecord
  2
FORMAT
 70
     0
 62
     7
  6
Continuous
370
    -3
390
F
  0
ENDTAB
  0
TABLE
  2
STYLE
  5
3
330
0
100
AcDbSymbolTable
 70
     2
  0
STYLE
  5
11
330
3
100
AcDbSymbolTableRecord
100
AcDbTextStyleTableRecord
  2
Standard
 70
     0
 40
0.0
 41
1.0
 50
0.0
 71
     0
 42
1.75
  3
txt
  4
bigfont
  0
STYLE
  5
75
330
3
100
AcDbSymbolTableRecord
100
AcDbTextStyleTableRecord
  2
SLDTEXTSTYLE0
 70
     0
 40
0.0
 41
0.7
 50
0.0
 71
     0
 42
1.75
  3
TXT
  4
bigfont
  0
ENDTAB
  0
TABLE
  2
VIEW
  5
6
330
0
100
AcDbSymbolTable
 70
     0
  0
ENDTAB
  0
TABLE
  2
UCS
  5
7
330
0
100
AcDbSymbolTable
 70
     0
  0
ENDTAB
  0
TABLE
  2
APPID
  5
9
330
0
100
AcDbSymbolTable
 70
     1
  0
APPID
  5
12
330
9
100
AcDbSymbolTableRecord
100
AcDbRegAppTableRecord
  2
ACAD
 70
     0
  0
ENDTAB
  0
TABLE
  2
DIMSTYLE
  5
A
330
0
100
AcDbSymbolTable
 70
     1
100
AcDbDimStyleTable
  0
DIMSTYLE
105
27
330
A
100
AcDbSymbolTableRecord
100
AcDbDimStyleTableRecord
  2
ISO-25
 70
     0
 41
2.5
 42
0.625
 43
3.75
 44
1.25
 73
     0
 74
     0
 77
     1
 78
     8
140
2.5
141
2.5
143
0.0393700787
147
0.625
171
     3
172
     1
178
     0
271
     2
272
     2
274
     3
278
    44
283
     0
284
     8
340
11
  0
ENDTAB
  0
TABLE
  2
BLOCK_RECORD
  5
1
330
0
100
AcDbSymbolTable
 70
     1
  0
BLOCK_RECORD
  5
1F
330
1
100
AcDbSymbolTableRecord
100
AcDbBlockTableRecord
  2
*Model_Space
340
22
  0
BLOCK_RECORD
  5
1B
330
1
100
AcDbSymbolTableRecord
100
AcDbBlockTableRecord
  2
*Paper_Space
340
1E
  0
BLOCK_RECORD
  5
23
330
1
100
AcDbSymbolTableRecord
100
AcDbBlockTableRecord
  2
*Paper_Space0
340
26
  0
ENDTAB
  0
ENDSEC
  0
SECTION
  2
BLOCKS
  0
BLOCK
  5
20
330
1F
100
AcDbEntity
  8
0
100
AcDbBlockBegin
  2
*Model_Space
 70
     0
 10
0.0
 20
0.0
 30
0.0
  3
*Model_Space
  1

  0
ENDBLK
  5
21
330
1F
100
AcDbEntity
  8
0
100
AcDbBlockEnd
  0
BLOCK
  5
1C
330
1B
100
AcDbEntity
 67
     1
  8
0
100
AcDbBlockBegin
  2
*Paper_Space
 70
     0
 10
0.0
 20
0.0
 30
0.0
  3
*Paper_Space
  1

  0
ENDBLK
  5
1D
330
1B
100
AcDbEntity
 67
     1
  8
0
100
AcDbBlockEnd
  0
BLOCK
  5
24
330
23
100
AcDbEntity
  8
0
100
AcDbBlockBegin
  2
*Paper_Space0
 70
     0
 10
0.0
 20
0.0
 30
0.0
  3
*Paper_Space0
  1

  0
ENDBLK
  5
25
330
23
100
AcDbEntity
  8
0
100
AcDbBlockEnd
  0
ENDSEC
  0
SECTION
  2
ENTITIES
  0
MTEXT
  5
76
330
1F
100
AcDbEntity
  8
レイヤー_1
100
AcDbMText
 10
76.2243696079
 20
49.1936538462
 30
0.0
 40
2.38125
 41
0.0
 71
     1
 72
     1
  1
HEC-129G
  7
SLDTEXTSTYLE0
 73
     1
 44
1.0
  0
LINE
  5
77
330
1F
100
AcDbEntity
  8
0
  6
Continuous
 62
     7
370
    25
100
AcDbLine
 10
61.1941509144
 20
69.3117358956
 30
0.0
 11
61.1941509144
 21
69.0655520608
 31
0.0
  0
LINE
  5
78
330
1F
100
AcDbEntity
  8
0
  6
Continuous
 62
     7
370
    25
100
AcDbLine
 10
70.3865390698
 20
71.3527561752
 30
0.0
 11
70.3865390698
 21
71.5989400098
 31
0.0
  0
LINE
  5
79
330
1F
100
AcDbEntity
  8
0
  6
Continuous
 62
     7
370
    25
100
AcDbLine
 10
33.9411025872
 20
84.2120464868
 30
0.0
 11
33.9411025872
 21
74.8218271501
 31
0.0
  0
LINE
  5
7A
330
1F
100
AcDbEntity
  8
0
  6
Continuous
 62
     7
370
    25
100
AcDbLine
 10
67.9411025872
 20
74.8593864764
 30
0.0
 11
67.9411025872
 21
84.2120464868
 31
0.0
  0
LINE
  5
7B
330
1F
100
AcDbEntity
  8
0
  6
Continuous
 62
     7
370
    25
100
AcDbLine
 10
62.9638711117
 20
91.1503876701
 30
0.0
 11
62.6102602728
 21
91.3545892177
 31
0.0
  0
LINE
  5
7C
330
1F
100
AcDbEntity
  8
0
  6
Continuous
 62
     7
370
    25
100
AcDbLine
 10
66.4974517733
 20
65.4535986751
 30
0.0
 11
66.8510051639
 21
65.6600543721
 31
0.0
  0
ARC
  5
7D
330
1F
100
AcDbEntity
  8
0
  6
Continuous
 62
     7
370
    25
100
AcDbCircle
 10
64.8335812851
 20
69.0607063395
 30
0.0
 40
3.972365882542984
100
AcDbArc
 50
293.8222247578
 51
294.7627198464
  0
SPLINE
  5
7E
330
1F
100
AcDbEntity
  8
0
  6
Continuous
 62
     7
370
    25
100
AcDbSpline
210
0.0
220
0.0
230
1.0
 70
     8
 71
     3
 72
    17
 73
    13
 74
     0
 42
0.00000001
 43
0.00000001
 40
0.0
 40
0.0
 40
0.0
 40
0.0
 40
0.1732982599908255
 40
0.2939717016834991
 40
0.3821144759122975
 40
0.4518255723612916
 40
0.5218977909583348
 40
0.5843720304875692
 40
0.6501898071270094
 40
0.7545067859690309
 40
0.9004051148626081
 40
1.0
 40
1.0
 40
1.0
 40
1.0
 10
66.1587159863386
 20
65.31661858501758
 30
0.0
 10
66.1872607523017
 20
65.33206927109069
 30
0.0
 10
66.23568220457
 20
65.358278792625
 30
0.0
 10
66.31891651315799
 20
65.39839418408934
 30
0.0
 10
66.3834318861082
 20
65.42782184144993
 30
0.0
 10
66.43490367797591
 20
65.45005016795703
 30
0.0
 10
66.47344314757727
 20
65.46553919251141
 30
0.0
 10
66.49878019722763
 20
65.47440764090523
 30
0.0
 10
66.5136361668649
 20
65.47766180859743
 30
0.0
 10
66.51107458823915
 20
65.47142588082909
 30
0.0
 10
66.48399390462659
 20
65.45331926120255
 30
0.0
 10
66.45128879351986
 20
65.43443504627795
 30
0.0
 10
66.43802055799271
 20
65.42677385196042
 30
0.0
  0
ARC
  5
7F
330
1F
100
AcDbEntity
  8
0
  6
Continuous
 62
     7
370
    25
100
AcDbCircle
 10
65.1064642073
 20
68.3423271301
 30
0.0
 40
3.203458444617409
100
AcDbArc
 50
284.2279655451
 51
289.1761601463
  0
SPLINE
  5
80
330
1F
100
AcDbEntity
  8
0
  6
Continuous
 62
     7
370
    25
100
AcDbSpline
210
0.0
220
0.0
230
1.0
 70
     8
 71
     3
 72
    17
 73
    13
 74
     0
 42
0.00000001
 43
0.00000001
 40
0.0
 40
0.0
 40
0.0
 40
0.0
 40
0.1732982599908601
 40
0.2939717016832875
 40
0.3821144759121429
 40
0.4518255723610969
 40
0.5218977909582024
 40
0.5843720304874008
 40
0.6501898071269124
 40
0.7545067859690479
 40
0.9004051148626958
 40
1.0
 40
1.0
 40
1.0
 40
1.0
 10
65.89381193457697
 20
65.23713316472187
 30
0.0
 10
65.91941405955241
 20
65.25170090070742
 30
0.0
 10
65.96284381035393
 20
65.27641264413504
 30
0.0
 10
65.98779585814385
 20
65.2990402321304
 30
0.0
 10
65.98633382986046
 20
65.30867113126023
 30
0.0
 10
65.96730704980554
 20
65.30974610589419
 30
0.0
 10
65.93484131675518
 20
65.30392976219004
 30
0.0
 10
65.89251735118438
 20
65.29249627787749
 30
0.0
 10
65.83761488705017
 20
65.2748191748298
 30
0.0
 10
65.76224853196958
 20
65.24673791016467
 30
0.0
 10
65.68571079397233
 20
65.21379152222119
 30
0.0
 10
65.64242647958336
 20
65.19173297903053
 30
0.0
 10
65.62486633505215
 20
65.1827839818697
 30
0.0
  0
ARC
  5
81
330
1F
100
AcDbEntity
  8
0
  6
Continuous
 62
     7
370
    25
100
AcDbCircle
 10
65.2579894627
 20
67.6057325408
 30
0.0
 40
2.45056694639244
100
AcDbArc
 50
272.6940450468
 51
278.6101800084
  0
SPLINE
  5
82
330
1F
100
AcDbEntity
  8
0
  6
Continuous
 62
     7
370
    25
100
AcDbSpline
210
0.0
220
0.0
230
1.0
 70
     8
 71
     3
 72
    17
 73
    13
 74
     0
 42
0.00000001
 43
0.00000001
 40
0.0
 40
0.0
 40
0.0
 40
0.0
 40
0.1732982164284998
 40
0.2939716797881477
 40
0.3821144625612598
 40
0.4518255626691267
 40
0.5218977851670665
 40
0.5843720231956272
 40
0.6501897928035624
 40
0.7545067541573311
 40
0.900405060665418
 40
1.0
 40
1.0
 40
1.0
 40
1.0
 10
65.3731725598249
 20
65.15787404554126
 30
0.0
 10
65.40213191965027
 20
65.17340851133223
 30
0.0
 10
65.451256670204
 20
65.19976015589788
 30
0.0
 10
65.48437138243402
 20
65.2297472572795
 30
0.0
 10
65.48859832993381
 20
65.24699168593355
 30
0.0
 10
65.47358197930664
 20
65.25578392906618
 30
0.0
 10
65.4435929744992
 20
65.25742455463967
 30
0.0
 10
65.40229308899609
 20
65.25282685032121
 30
0.0
 10
65.34711813120836
 20
65.2419289990545
 30
0.0
 10
65.26931714673876
 20
65.22048851135618
 30
0.0
 10
65.18807092828986
 20
65.19143598941903
 30
0.0
 10
65.14050533043553
 20
65.16954872919088
 30
0.0
 10
65.12120829105484
 20
65.16066921665218
 30
0.0
  0
ARC
  5
83
330
1F
100
AcDbEntity
  8
0
  6
Continuous
 62
     7
370
    25
100
AcDbCircle
 10
65.2563434262
 20
67.1034983185
 30
0.0
 40
1.947523151041499
100
AcDbArc
 50
259.1253656703
 51
266.0211515122
  0
SPLINE
  5
84
330
1F
100
AcDbEntity
  8
0
  6
Continuous
 62
     7
370
    25
100
AcDbSpline
210
0.0
220
0.0
230
1.0
 70
     8
 71
     3
 72
    17
 73
    13
 74
     0
 42
0.00000001
 43
0.00000001
 40
0.0
 40
0.0
 40
0.0
 40
0.0
 40
0.1732982164282136
 40
0.2939716797879581
 40
0.3821144625610561
 40
0.4518255626688387
 40
0.5218977851666752
 40
0.5843720231952366
 40
0.6501897928030226
 40
0.7545067541565234
 40
0.9004050606643833
 40
0.9999999999999999
 40
0.9999999999999999
 40
0.9999999999999999
 40
0.9999999999999999
 10
64.88892235079479
 20
65.19094814213972
 30
0.0
 10
64.92106602543016
 20
65.20675500590217
 30
0.0
 10
64.97559243788773
 20
65.23356872844475
 30
0.0
 10
65.01712793155664
 20
65.26955722218601
 30
0.0
 10
65.02756029563153
 20
65.29363233298068
 30
0.0
 10
65.01723680803262
 20
65.30974483497126
 30
0.0
 10
64.99051053077794
 20
65.31877456530675
 30
0.0
 10
64.95106806290981
 20
65.32123184040165
 30
0.0
 10
64.89656364957303
 20
65.31762147020528
 30
0.0
 10
64.8174480212811
 20
65.30380905465056
 30
0.0
 10
64.73244702407781
 20
65.2799701109064
 30
0.0
 10
64.68101088041209
 20
65.2592320987118
 30
0.0
 10
64.66014358693343
 20
65.25081882828002
 30
0.0
  0
ARC
  5
85
330
1F
100
AcDbEntity
  8
0
  6
Continuous
 62
     7
370
    25
100
AcDbCircle
 10
65.1983265391
 20
66.8623841178
 30
0.0
 40
1.699053728518857
100
AcDbArc
 50
243.9802903407
 51
251.5332347543
  0
SPLINE
  5
86
330
1F
100
AcDbEntity
  8
0
  6
Continuous
 62
     7
370
    25
100
AcDbSpline
210
0.0
220
0.0
230
1.0
 70
     8
 71
     3
 72
    17
 73
    13
 74
     0
 42
0.00000001
 43
0.00000001
 40
0.0
 40
0.0
 40
0.0
 40
0.0
 40
0.1732982164281644
 40
0.2939716797877726
 40
0.3821144625608187
 40
0.4518255626685824
 40
0.5218977851665401
 40
0.5843720231950817
 40
0.6501897928030171
 40
0.7545067541567828
 40
0.9004050606649189
 40
1.0
 40
1.0
 40
1.0
 40
1.0
 10
64.45298513196694
 20
65.33554104819973
 30
0.0
 10
64.48806179084693
 20
65.35091926857721
 30
0.0
 10
64.54756352459137
 20
65.37700586871478
 30
0.0
 10
64.59757058464108
 20
65.41748986491999
 30
0.0
 10
64.61457201955832
 20
65.44744462225016
 30
0.0
 10
64.60950828223551
 20
65.47030012846851
 30
0.0
 10
64.5867503966601
 20
65.48646915747408
 30
0.0
 10
64.54995295025182
 20
65.4960268961049
 30
0.0
 10
64.49704561315792
 20
65.5000327968876
 30
0.0
 10
64.41776770398745
 20
65.49464792405774
 30
0.0
 10
64.33005807387146
 20
65.47721389230156
 30
0.0
 10
64.27525741876426
 20
65.45857479077989
 30
0.0
 10
64.2530251658883
 20
65.45101303412571
 30
0.0
  0
ARC
  5
87
330
1F
100
AcDbEntity
  8
0
  6
Continuous
 62
     7
370
    25
100
AcDbCircle
 10
65.2029736444
 20
66.8598458677
 30
0.0
 40
1.699179821176578
100
AcDbArc
 50
228.456408073
 51
236.0089809647
  0
SPLINE
  5
88
330
1F
100
AcDbEntity
  8
0
  6
Continuous
 62
     7
370
    25
100
AcDbSpline
210
0.0
220
0.0
230
1.0
 70
     8
 71
     3
 72
    17
 73
    13
 74
     0
 42
0.00000001
 43
0.00000001
 40
0.0
 40
0.0
 40
0.0
 40
0.0
 40
0.1732982164279491
 40
0.2939716797877909
 40
0.3821144625607897
 40
0.45182556266857
 40
0.5218977851663688
 40
0.5843720231948333
 40
0.6501897928026346
 40
0.7545067541560163
 40
0.9004050606637396
 40
1.0
 40
1.0
 40
1.0
 40
1.0
 10
64.07609512446177
 20
65.58809240649751
 30
0.0
 10
64.1137812172152
 20
65.60235149675626
 30
0.0
 10
64.17770942270809
 20
65.62653967827372
 30
0.0
 10
64.23603023600118
 20
65.66990259285747
 30
0.0
 10
64.25980264370324
 20
65.70464118470689
 30
0.0
 10
64.2604360313968
 20
65.73349640538034
 30
0.0
 10
64.24225448665376
 20
65.75637913373644
 30
0.0
 10
64.20882453632382
 20
65.77290798304898
 30
0.0
 10
64.15840148194751
 20
65.78467140685105
 30
0.0
 10
64.08011765073647
 20
65.78830603325612
 30
0.0
 10
63.99081222908038
 20
65.77831053709316
 30
0.0
 10
63.93323594233875
 20
65.76266832673677
 30
0.0
 10
63.90987763459581
 20
65.75632238843541
 30
0.0
  0
ARC
  5
89
330
1F
100
AcDbEntity
  8
0
  6
Continuous
 62
     7
370
    25
100
AcDbCircle
 10
65.3829869958
 20
67.0307968662
 30
0.0
 40
1.947905640575265
100
AcDbArc
 50
213.9701416241
 51
220.8650306304
  0
SPLINE
  5
8A
330
1F
100
AcDbEntity
  8
0
  6
Continuous
 62
     7
370
    25
100
AcDbSpline
210
0.0
220
0.0
230
1.0
 70
     8
 71
     3
 72
    17
 73
    13
 74
     0
 42
0.00000001
 43
0.00000001
 40
0.0
 40
0.0
 40
0.0
 40
0.0
 40
0.1732982164280475
 40
0.2939716797877535
 40
0.3821144625608816
 40
0.4518255626686821
 40
0.5218977851666161
 40
0.5843720231951194
 40
0.6501897928030005
 40
0.7545067541567235
 40
0.9004050606648308
 40
0.9999999999999999
 40
0.9999999999999999
 40
0.9999999999999999
 40
0.9999999999999999
 10
63.76753261109122
 20
65.9423835644212
 30
0.0
 10
63.80744033442433
 20
65.95486059452531
 30
0.0
 10
63.87513716770137
 20
65.97602580657458
 30
0.0
 10
63.94140920890336
 20
66.02058016692565
 30
0.0
 10
63.97198776751017
 20
66.05888898739579
 30
0.0
 10
63.97861537283453
 20
66.09285289986944
 30
0.0
 10
63.96550543337731
 20
66.12185841469729
 30
0.0
 10
63.93608253481456
 20
66.14505736995636
 30
0.0
 10
63.88896979834472
 20
66.16452855285516
 30
0.0
 10
63.81281192643211
 20
66.17755254500013
 30
0.0
 10
63.72306284829324
 20
66.17584604660192
 30
0.0
 10
63.66336815498779
 20
66.1640249144969
 30
0.0
 10
63.63915042411716
 20
66.15922916164095
 30
0.0
  0
ARC
  5
8B
330
1F
100
AcDbEntity
  8
0
  6
Continuous
 62
     7
370
    25
100
AcDbCircle
 10
65.8173686486
 20
67.2834122059
 30
0.0
 40
2.45120830415368
100
AcDbArc
 50
201.3832432299
 51
207.2983546109
  0
SPLINE
  5
8C
330
1F
100
AcDbEntity
  8
0
  6
Continuous
 62
     7
370
    25
100
AcDbSpline
210
0.0
220
0.0
230
1.0
 70
     8
 71
     3
 72
    17
 73
    13
 74
     0
 42
0.00000001
 43
0.00000001
 40
0.0
 40
0.0
 40
0.0
 40
0.0
 40
0.1732982164281287
 40
0.2939716797877466
 40
0.3821144625608071
 40
0.4518255626686586
 40
0.5218977851664564
 40
0.5843720231949457
 40
0.6501897928027766
 40
0.754506754156249
 40
0.9004050606640209
 40
1.0
 40
1.0
 40
1.0
 40
1.0
 10
63.53489542499327
 20
66.38969069783867
 30
0.0
 10
63.57658227169455
 20
66.3997666179875
 30
0.0
 10
63.64729709266857
 20
66.41685874526152
 30
0.0
 10
63.72096205082582
 20
66.46088774141995
 30
0.0
 10
63.75821434843449
 20
66.5014652737345
 30
0.0
 10
63.77098566647255
 20
66.53952106240688
 30
0.0
 10
63.76331771700132
 20
66.57390768750427
 30
0.0
 10
63.73844275898155
 20
66.60331150382953
 30
0.0
 10
63.69538486459442
 20
66.6302508912934
 30
0.0
 10
63.62243248514606
 20
66.652802918337
 30
0.0
 10
63.533402809876
 20
66.66003177724093
 30
0.0
 10
63.47229909727658
 20
66.6527618228452
 30
0.0
 10
63.44750973686618
 20
66.64981245181657
 30
0.0
  0
ARC
  5
8D
330
1F
100
AcDbEntity
  8
0
  6
Continuous
 62
     7
370
    25
100
AcDbCircle
 10
66.531287661
 20
67.5204888756
 30
0.0
 40
3.204335144800852
100
AcDbArc
 50
190.8192362907
 51
195.7665399458
  0
SPLINE
  5
8E
330
1F
100
AcDbEntity
  8
0
  6
Continuous
 62
     7
370
    25
100
AcDbSpline
210
0.0
220
0.0
230
1.0
 70
     8
 71
     3
 72
    17
 73
    13
 74
     0
 42
0.00000001
 43
0.00000001
 40
0.0
 40
0.0
 40
0.0
 40
0.0
 40
0.1732982164280752
 40
0.2939716797878206
 40
0.3821144625609789
 40
0.4518255626687578
 40
0.5218977851666333
 40
0.5843720231952184
 40
0.6501897928030945
 40
0.7545067541566656
 40
0.9004050606645762
 40
1.0
 40
1.0
 40
1.0
 40
1.0
 10
63.38391186576933
 20
66.91899962059789
 30
0.0
 10
63.42689152070525
 20
66.92611450428652
 30
0.0
 10
63.49979937641572
 20
66.93818372434284
 30
0.0
 10
63.58011690242282
 20
66.97998348255899
 30
0.0
 10
63.62374619752698
 20
67.0214723467267
 30
0.0
 10
63.64265944476476
 20
67.06250244042398
 30
0.0
 10
63.64066987012475
 20
67.10139599879508
 30
0.0
 10
63.62077175603385
 20
67.13638664703397
 30
0.0
 10
63.58241338423579
 20
67.170370792549
 30
0.0
 10
63.51366710055434
 20
67.20235491180921
 30
0.0
 10
63.426502173419
 20
67.2189454694007
 30
0.0
 10
63.36473352352743
 20
67.2168447270726
 30
0.0
 10
63.3396744025824
 20
67.21599247020497
 30
0.0
  0
ARC
  5
8F
330
1F
100
AcDbEntity
  8
0
  6
Continuous
 62
     7
370
    25
100
AcDbCircle
 10
67.4876424354
 20
67.6616722301
 30
0.0
 40
4.171842428654054
100
AcDbArc
 50
181.983509856
 51
186.1326362795
  0
SPLINE
  5
90
330
1F
100
AcDbEntity
  8
0
  6
Continuous
 62
     7
370
    25
100
AcDbSpline
210
0.0
220
0.0
230
1.0
 70
     8
 71
     3
 72
    17
 73
    13
 74
     0
 42
0.00000001
 43
0.00000001
 40
0.0
 40
0.0
 40
0.0
 40
0.0
 40
0.1732982164279913
 40
0.2939716797877312
 40
0.3821144625607889
 40
0.4518255626686389
 40
0.521897785166544
 40
0.5843720231950201
 40
0.6501897928027649
 40
0.7545067541560907
 40
0.900405060663827
 40
1.0
 40
1.0
 40
1.0
 40
1.0
 10
63.31829964973293
 20
67.51727699034439
 30
0.0
 10
63.36205396454073
 20
67.5209438216128
 30
0.0
 10
63.43627590223362
 20
67.5271639926549
 30
0.0
 10
63.52234183868659
 20
67.56508553041539
 30
0.0
 10
63.57189436693768
 20
67.60610590643024
 30
0.0
 10
63.59679652518041
 20
67.64891949671785
 30
0.0
 10
63.60058188978351
 20
67.69133483571196
 30
0.0
 10
63.58596697659242
 20
67.73115672036852
 30
0.0
 10
63.55283709004735
 20
67.77158871209743
 30
0.0
 10
63.48919393739865
 20
67.81267673147849
 30
0.0
 10
63.40499318737558
 20
67.83882481305189
 30
0.0
 10
63.34332005515604
 20
67.84238403399284
 30
0.0
 10
63.31829968508045
 20
67.84382798570924
 30
0.0
  0
ARC
  5
91
330
1F
100
AcDbEntity
  8
0
  6
Continuous
 62
     7
370
    25
100
AcDbCircle
 10
68.5922752079
 20
67.6616746894
 30
0.0
 40
5.277120203168005
100
AcDbArc
 50
174.4746176265
 51
178.021896738
  0
LINE
  5
92
330
1F
100
AcDbEntity
  8
0
  6
Continuous
 62
     7
370
    25
100
AcDbLine
 10
63.3396744026
 20
68.1697912298
 30
0.0
 11
63.3783471977
 21
68.1682463003
 31
0.0
  0
SPLINE
  5
93
330
1F
100
AcDbEntity
  8
0
  6
Continuous
 62
     7
370
    25
100
AcDbSpline
210
0.0
220
0.0
230
1.0
 70
     8
 71
     3
 72
    17
 73
    13
 74
     0
 42
0.00000001
 43
0.00000001
 40
0.0
 40
0.0
 40
0.0
 40
0.0
 40
0.1738447008401919
 40
0.2866076861097251
 40
0.3726398052064654
 40
0.4426686390417464
 40
0.5129380016199904
 40
0.5784323654645057
 40
0.6683040060732214
 40
0.793200190656754
 40
0.9633204937787176
 40
0.9999999999999999
 40
0.9999999999999999
 40
0.9999999999999999
 40
0.9999999999999999
 10
63.37834719773948
 20
68.16824630029123
 30
0.0
 10
63.42008232278234
 20
68.17142940497347
 30
0.0
 10
63.48888860540254
 20
68.17667720524125
 30
0.0
 10
63.56913878610155
 20
68.21344601453833
 30
0.0
 10
63.61518481394184
 20
68.25346471260721
 30
0.0
 10
63.63899338904319
 20
68.2967735782148
 30
0.0
 10
63.64324222566177
 20
68.34059152825827
 30
0.0
 10
63.62915647393621
 20
68.38694197508158
 30
0.0
 10
63.59134700717464
 20
68.43677091934738
 30
0.0
 10
63.51734137292544
 20
68.4866389207912
 30
0.0
 10
63.44132662377054
 20
68.51063482576409
 30
0.0
 10
63.39256127494735
 20
68.5167712107567
 30
0.0
 10
63.38391190084384
 20
68.51785960427229
 30
0.0
  0
ARC
  5
94
330
1F
100
AcDbEntity
  8
0
  6
Continuous
 62
     7
370
    25
100
AcDbCircle
 10
69.7115251845
 20
67.5205105337
 30
0.0
 40
6.405731420857214
100
AcDbArc
 50
167.9255708954
 51
171.0428148807
  0
SPLINE
  5
95
330
1F
100
AcDbEntity
  8
0
  6
Continuous
 62
     7
370
    25
100
AcDbSpline
210
0.0
220
0.0
230
1.0
 70
     8
 71
     3
 72
    17
 73
    13
 74
     0
 42
0.00000001
 43
0.00000001
 40
0.0
 40
0.0
 40
0.0
 40
0.0
 40
0.1737031373189069
 40
0.2860007915341813
 40
0.3719112350470069
 40
0.4420004358609863
 40
0.5123221360602296
 40
0.5780667995991366
 40
0.6686669585298517
 40
0.7946750229911194
 40
0.9660072454463812
 40
1.0
 40
1.0
 40
1.0
 40
1.0
 10
63.48834424316161
 20
68.85496714942953
 30
0.0
 10
63.53003629203806
 20
68.85462947579217
 30
0.0
 10
63.59868190871138
 20
68.85407349891658
 30
0.0
 10
63.68238369800538
 20
68.8855148076284
 30
0.0
 10
63.73262215463568
 20
68.92333745513841
 30
0.0
 10
63.76126775470191
 20
68.96660189161976
 30
0.0
 10
63.77060454642702
 20
69.01213578823902
 30
0.0
 10
63.76206401387255
 20
69.0620484046473
 30
0.0
 10
63.73024158137833
 20
69.11787197444472
 30
0.0
 10
63.66227545810676
 20
69.1770181463482
 30
0.0
 10
63.58988906616886
 20
69.20882862232261
 30
0.0
 10
63.54270676597471
 20
69.21969194384907
 30
0.0
 10
63.53489545936633
 20
69.2214904304612
 30
0.0
  0
ARC
  5
96
330
1F
100
AcDbEntity
  8
0
  6
Continuous
 62
     7
370
    25
100
AcDbCircle
 10
70.6989404232
 20
67.2834924602
 30
0.0
 40
7.421548111800641
100
AcDbArc
 50
162.0369693363
 51
164.8628042202
  0
SPLINE
  5
97
330
1F
100
AcDbEntity
  8
0
  6
Continuous
 62
     7
370
    25
100
AcDbSpline
210
0.0
220
0.0
230
1.0
 70
     8
 71
     3
 72
    15
 73
    11
 74
     0
 42
0.00000001
 43
0.00000001
 40
0.0
 40
0.0
 40
0.0
 40
0.0
 40
0.1855324946094597
 40
0.3343689036973831
 40
0.4468665444948863
 40
0.5387732457458633
 40
0.6309902565792217
 40
0.7170597622650048
 40
0.8354299739155956
 40
1.0
 40
1.0
 40
1.0
 40
1.0
 10
63.70015073780036
 20
69.55925125102193
 30
0.0
 10
63.73388844098467
 20
69.55705783887753
 30
0.0
 10
63.79469093733849
 20
69.55310484500646
 30
0.0
 10
63.87435925274802
 20
69.57531963834427
 30
0.0
 10
63.92903274422368
 20
69.60972458480869
 30
0.0
 10
63.96265098623588
 20
69.65168281686356
 30
0.0
 10
63.97736639007484
 20
69.6979240129031
 30
0.0
 10
63.97467119987289
 20
69.75022885128658
 30
0.0
 10
63.95026010598976
 20
69.81154977567483
 30
0.0
 10
63.91457110623271
 20
69.84714789376858
 30
0.0
 10
63.89381287238105
 20
69.86785326699561
 30
0.0
  0
SPLINE
  5
98
330
1F
100
AcDbEntity
  8
0
  6
Continuous
 62
     7
370
    25
100
AcDbSpline
210
0.0
220
0.0
230
1.0
 70
     8
 71
     3
 72
     9
 73
     5
 74
     0
 42
0.00000001
 43
0.00000001
 40
0.0
 40
0.0
 40
0.0
 40
0.0
 40
0.6908703462804283
 40
1.0
 40
1.0
 40
1.0
 40
1.0
 10
63.83842800791721
 20
69.9007514650038
 30
0.0
 10
63.82315607585483
 20
69.9112300063783
 30
0.0
 10
63.80105072404083
 20
69.92639716680273
 30
0.0
 10
63.77544739316096
 20
69.9347978407045
 30
0.0
 10
63.767532644352
 20
69.93739473811875
 30
0.0
  0
ARC
  5
99
330
1F
100
AcDbEntity
  8
0
  6
Continuous
 62
     7
370
    25
100
AcDbCircle
 10
71.4245925014
 20
67.0310228898
 30
0.0
 40
8.190089314279149
100
AcDbArc
 50
156.5687099575
 51
159.2148606273
  0
SPLINE
  5
9A
330
1F
100
AcDbEntity
  8
0
  6
Continuous
 62
     7
370
    25
100
AcDbSpline
210
0.0
220
0.0
230
1.0
 70
     8
 71
     3
 72
     9
 73
     5
 74
     0
 42
0.00000001
 43
0.00000001
 40
0.0
 40
0.0
 40
0.0
 40
0.0
 40
0.7835448423780826
 40
1.0
 40
1.0
 40
1.0
 40
1.0
 10
63.90987760241579
 20
70.28780396351425
 30
0.0
 10
63.95138364656056
 20
70.27414393024934
 30
0.0
 10
64.00435578280585
 20
70.25671029719335
 30
0.0
 10
64.05990443604303
 20
70.25799393888035
 30
0.0
 10
64.07192822853516
 20
70.25827178974404
 30
0.0
  0
SPLINE
  5
9B
330
1F
100
AcDbEntity
  8
0
  6
Continuous
 62
     7
370
    25
100
AcDbSpline
210
0.0
220
0.0
230
1.0
 70
     8
 71
     3
 72
    16
 73
    12
 74
     0
 42
0.00000001
 43
0.00000001
 40
0.0
 40
0.0
 40
0.0
 40
0.0
 40
0.1424585273148354
 40
0.2433613499131708
 40
0.3278475428516544
 40
0.4125848400048773
 40
0.4924526767937326
 40
0.603972341905109
 40
0.7594349045754446
 40
0.969571873035266
 40
1.0
 40
1.0
 40
1.0
 40
1.0
 10
64.07192822853516
 20
70.25827178974404
 30
0.0
 10
64.09979402520878
 20
70.26185843428595
 30
0.0
 10
64.14739705763317
 20
70.26798548525181
 30
0.0
 10
64.20455174287561
 20
70.30023321684186
 30
0.0
 10
64.24070917096456
 20
70.33979844686269
 30
0.0
 10
64.25898189366106
 20
70.38574289009208
 30
0.0
 10
64.26093125871925
 20
70.43972539039484
 30
0.0
 10
64.24119187551385
 20
70.5046803146628
 30
0.0
 10
64.18645033661724
 20
70.57992532483863
 30
0.0
 10
64.12340448561567
 20
70.62567149040053
 30
0.0
 10
64.08140722369635
 20
70.64544368108204
 30
0.0
 10
64.07609515622622
 20
70.64794458723955
 30
0.0
  0
ARC
  5
9C
330
1F
100
AcDbEntity
  8
0
  6
Continuous
 62
     7
370
    25
100
AcDbCircle
 10
71.8016078932
 20
66.8602547186
 30
0.0
 40
8.604077033036152
100
AcDbArc
 50
151.3214952379
 51
153.8820583356
  0
SPLINE
  5
9D
330
1F
100
AcDbEntity
  8
0
  6
Continuous
 62
     7
370
    25
100
AcDbSpline
210
0.0
220
0.0
230
1.0
 70
     8
 71
     3
 72
     9
 73
     5
 74
     0
 42
0.00000001
 43
0.00000001
 40
0.0
 40
0.0
 40
0.0
 40
0.0
 40
0.6329777881815883
 40
1.0
 40
1.0
 40
1.0
 40
1.0
 10
64.25302513546761
 20
70.98930302781187
 30
0.0
 10
64.29274201994272
 20
70.97103153206002
 30
0.0
 10
64.35548811501378
 20
70.94216559696247
 30
0.0
 10
64.42429603497244
 20
70.94309159396589
 30
0.0
 10
64.44955006994631
 20
70.94343145543422
 30
0.0
  0
SPLINE
  5
9E
330
1F
100
AcDbEntity
  8
0
  6
Continuous
 62
     7
370
    25
100
AcDbSpline
210
0.0
220
0.0
230
1.0
 70
     8
 71
     3
 72
    15
 73
    11
 74
     0
 42
0.00000001
 43
0.00000001
 40
0.0
 40
0.0
 40
0.0
 40
0.0
 40
0.1270351316702182
 40
0.2270405577182666
 40
0.3276850491730001
 40
0.4147079181930203
 40
0.5035732877493156
 40
0.6412152126697453
 40
0.834425605187847
 40
1.0
 40
1.0
 40
1.0
 40
1.0
 10
64.44955006994631
 20
70.94343145543422
 30
0.0
 10
64.47245691341564
 20
70.94724100930377
 30
0.0
 10
64.51339663181058
 20
70.95404954505149
 30
0.0
 10
64.56538554551447
 20
70.98609674633796
 30
0.0
 10
64.59850587269358
 20
71.02851376371092
 30
0.0
 10
64.61297137152133
 20
71.07785230638652
 30
0.0
 10
64.61171840166978
 20
71.13564253701097
 30
0.0
 10
64.58604817005757
 20
71.20856937233829
 30
0.0
 10
64.53091747614698
 20
71.28182474061144
 30
0.0
 10
64.47759347658722
 20
71.31864966898952
 30
0.0
 10
64.45298516188757
 20
71.33564388236064
 30
0.0
  0
ARC
  5
9F
330
1F
100
AcDbEntity
  8
0
  6
Continuous
 62
     7
370
    25
100
AcDbCircle
 10
71.8029505184
 20
66.8630189811
 30
0.0
 40
8.603857521455891
100
AcDbArc
 50
146.1179079677
 51
148.6785146162
  0
SPLINE
  5
A0
330
1F
100
AcDbEntity
  8
0
  6
Continuous
 62
     7
370
    25
100
AcDbSpline
210
0.0
220
0.0
230
1.0
 70
     8
 71
     3
 72
    10
 73
     6
 74
     0
 42
0.00000001
 43
0.00000001
 40
0.0
 40
0.0
 40
0.0
 40
0.0
 40
0.5354632369731442
 40
0.9225056539206514
 40
1.0
 40
1.0
 40
1.0
 40
1.0
 10
64.66014355858533
 20
71.65954616064873
 30
0.0
 10
64.69746968228337
 20
71.63768156700975
 30
0.0
 10
64.76177579663964
 20
71.60001285352969
 30
0.0
 10
64.84331041245105
 20
71.58963270399437
 30
0.0
 10
64.8801306491741
 20
71.59377089996765
 30
0.0
 10
64.88627302668746
 20
71.59446123669969
 30
0.0
  0
SPLINE
  5
A1
330
1F
100
AcDbEntity
  8
0
  6
Continuous
 62
     7
370
    25
100
AcDbSpline
210
0.0
220
0.0
230
1.0
 70
     8
 71
     3
 72
    14
 73
    10
 74
     0
 42
0.00000001
 43
0.00000001
 40
0.0
 40
0.0
 40
0.0
 40
0.0
 40
0.1147634388228691
 40
0.230419363357276
 40
0.3302850327096111
 40
0.4225009490879785
 40
0.5534678440448924
 40
0.736524065806768
 40
1.0
 40
1.0
 40
1.0
 40
1.0
 10
64.88627302668746
 20
71.59446123669969
 30
0.0
 10
64.90510186540332
 20
71.59859294180777
 30
0.0
 10
64.9429059698652
 20
71.6068884832306
 30
0.0
 10
64.98883535091004
 20
71.6411079581971
 30
0.0
 10
65.0161394186438
 20
71.68650646313561
 30
0.0
 10
65.02728123213731
 20
71.7410353589338
 30
0.0
 10
65.01895496916191
 20
71.8106206356708
 30
0.0
 10
64.97779454847999
 20
71.90203013472482
 30
0.0
 10
64.92190183094057
 20
71.95330468056424
 30
0.0
 10
64.88892237857215
 20
71.98355918449012
 30
0.0
  0
ARC
  5
A2
330
1F
100
AcDbEntity
  8
0
  6
Continuous
 62
     7
370
    25
100
AcDbCircle
 10
71.4662210444
 20
67.1043747524
 30
0.0
 40
8.189462647916093
100
AcDbArc
 50
140.7848796113
 51
143.4311652687
  0
SPLINE
  5
A3
330
1F
100
AcDbEntity
  8
0
  6
Continuous
 62
     7
370
    25
100
AcDbSpline
210
0.0
220
0.0
230
1.0
 70
     8
 71
     3
 72
    10
 73
     6
 74
     0
 42
0.00000001
 43
0.00000001
 40
0.0
 40
0.0
 40
0.0
 40
0.0
 40
0.4672755980024996
 40
0.7926553573813149
 40
1.0
 40
1.0
 40
1.0
 40
1.0
 10
65.12120826504261
 20
72.28202975168449
 30
0.0
 10
65.15588231953217
 20
72.25620728916564
 30
0.0
 10
65.21470108766549
 20
72.21240377504283
 30
0.0
 10
65.3050531160665
 20
72.18818991423377
 30
0.0
 10
65.35274630857536
 20
72.19334422918595
 30
0.0
 10
65.3713092426535
 20
72.19535036892293
 30
0.0
  0
SPLINE
  5
A4
330
1F
100
AcDbEntity
  8
0
  6
Continuous
 62
     7
370
    25
100
AcDbSpline
210
0.0
220
0.0
230
1.0
 70
     8
 71
     3
 72
    14
 73
    10
 74
     0
 42
0.00000001
 43
0.00000001
 40
0.0
 40
0.0
 40
0.0
 40
0.0
 40
0.1084310165991157
 40
0.2174342712432406
 40
0.317993941899365
 40
0.4198491802370004
 40
0.5758872808390504
 40
0.7950816505240663
 40
1.0
 40
1.0
 40
1.0
 40
1.0
 10
65.3713092426535
 20
72.19535036892293
 30
0.0
 10
65.38723126169577
 20
72.20005204659202
 30
0.0
 10
65.41915932726008
 20
72.209480214746
 30
0.0
 10
65.4566700539028
 20
72.24255761759392
 30
0.0
 10
65.47960368235262
 20
72.28562698214117
 30
0.0
 10
65.48947524980767
 20
72.34157206084697
 30
0.0
 10
65.47921383337723
 20
72.41730339978997
 30
0.0
 10
65.44033076169477
 20
72.50271160515811
 30
0.0
 10
65.39505058673323
 20
72.55194742157636
 30
0.0
 10
65.37317258520699
 20
72.57573666858477
 30
0.0
  0
ARC
  5
A5
330
1F
100
AcDbEntity
  8
0
  6
Continuous
 62
     7
370
    25
100
AcDbCircle
 10
70.8844599497
 20
67.6068311385
 30
0.0
 40
7.420533038841376
100
AcDbArc
 50
135.1364860967
 51
137.9625876376
  0
SPLINE
  5
A6
330
1F
100
AcDbEntity
  8
0
  6
Continuous
 62
     7
370
    25
100
AcDbSpline
210
0.0
220
0.0
230
1.0
 70
     8
 71
     3
 72
    11
 73
     7
 74
     0
 42
0.00000001
 43
0.00000001
 40
0.0
 40
0.0
 40
0.0
 40
0.0
 40
0.4170140533983187
 40
0.7073951728955371
 40
0.9200421417603788
 40
1.0
 40
1.0
 40
1.0
 40
1.0
 10
65.6248663115813
 20
72.8414261890041
 30
0.0
 10
65.65663955738582
 20
72.81158671829358
 30
0.0
 10
65.71053759877358
 20
72.76096900560415
 30
0.0
 10
65.7989182831534
 20
72.72731037569605
 30
0.0
 10
65.85746511778534
 20
72.7228143507971
 30
0.0
 10
65.88512549584472
 20
72.7294954854449
 30
0.0
 10
65.89268403344512
 20
72.73132118744147
 30
0.0
  0
SPLINE
  5
A7
330
1F
100
AcDbEntity
  8
0
  6
Continuous
 62
     7
370
    25
100
AcDbSpline
210
0.0
220
0.0
230
1.0
 70
     8
 71
     3
 72
    13
 73
     9
 74
     0
 42
0.00000001
 43
0.00000001
 40
0.0
 40
0.0
 40
0.0
 40
0.0
 40
0.1100868693837648
 40
0.2204520494166517
 40
0.3270244473967072
 40
0.4768533843062728
 40
0.685955802312354
 40
1.0
 40
1.0
 40
1.0
 40
1.0
 10
65.89268403344512
 20
72.73132118744147
 30
0.0
 10
65.90668828292995
 20
72.73697348421048
 30
0.0
 10
65.93473218604716
 20
72.74829236732174
 30
0.0
 10
65.96517147947972
 20
72.78291390970814
 30
0.0
 10
65.98487825465415
 20
72.83088648369323
 30
0.0
 10
65.9889790359556
 20
72.89862918495243
 30
0.0
 10
65.96573520757349
 20
72.99647827038534
 30
0.0
 10
65.92079155045644
 20
73.0596644078086
 30
0.0
 10
65.89381193457618
 20
73.09759495965926
 30
0.0
  0
ARC
  5
A8
330
1F
100
AcDbEntity
  8
0
  6
Continuous
 62
     7
370
    25
100
AcDbCircle
 10
70.1854194822
 20
68.3435464978
 30
0.0
 40
6.404597732972179
100
AcDbArc
 50
128.9558047935
 51
132.0734166897
  0
SPLINE
  5
A9
330
1F
100
AcDbEntity
  8
0
  6
Continuous
 62
     7
370
    25
100
AcDbSpline
210
0.0
220
0.0
230
1.0
 70
     8
 71
     3
 72
    11
 73
     7
 74
     0
 42
0.00000001
 43
0.00000001
 40
0.0
 40
0.0
 40
0.0
 40
0.0
 40
0.3782916067369426
 40
0.6417088513833851
 40
0.8341151207094281
 40
1.0
 40
1.0
 40
1.0
 40
1.0
 10
66.1587159863381
 20
73.32396124729159
 30
0.0
 10
66.18729074129962
 20
73.29074081733441
 30
0.0
 10
66.23576306492075
 20
73.23438787803931
 30
0.0
 10
66.31872699104379
 20
73.19034550087056
 30
0.0
 10
66.38536397698333
 20
73.17532159625038
 30
0.0
 10
66.42102384296602
 20
73.18480177562058
 30
0.0
 10
66.43753397051704
 20
73.18919099488137
 30
0.0
  0
SPLINE
  5
AA
330
1F
100
AcDbEntity
  8
0
  6
Continuous
 62
     7
370
    25
100
AcDbSpline
210
0.0
220
0.0
230
1.0
 70
     8
 71
     3
 72
    13
 73
     9
 74
     0
 42
0.00000001
 43
0.00000001
 40
0.0
 40
0.0
 40
0.0
 40
0.0
 40
0.1201182321834313
 40
0.2401015992921154
 40
0.3904063057214717
 40
0.5972489823288079
 40
0.8834694714906978
 40
1.0
 40
1.0
 40
1.0
 40
1.0
 10
66.43753397051704
 20
73.18919099488137
 30
0.0
 10
66.45018444082524
 20
73.19625663242698
 30
0.0
 10
66.47547117788078
 20
73.21037997443662
 30
0.0
 10
66.50155461655089
 20
73.2519011355143
 30
0.0
 10
66.51525997196141
 20
73.311868975175
 30
0.0
 10
66.50682723385731
 20
73.39815120071918
 30
0.0
 10
66.47639410674276
 20
73.47692722891641
 30
0.0
 10
66.44663185941508
 20
73.52296404742467
 30
0.0
 10
66.43802055799421
 20
73.53628417464041
 30
0.0
  0
ARC
  5
AB
330
1F
100
AcDbEntity
  8
0
  6
Continuous
 62
     7
370
    25
100
AcDbCircle
 10
69.6288133915
 20
69.0620098953
 30
0.0
 40
5.495478981204876
100
AcDbArc
 50
124.7367585587
 51
125.4942621945
  0
LINE
  5
AC
330
1F
100
AcDbEntity
  8
0
  6
Continuous
 62
     7
370
    25
100
AcDbLine
 10
66.8510051639
 20
72.9634174192
 30
0.0
 11
66.4974517733
 21
73.5780771722
 31
0.0
  0
LWPOLYLINE
  5
AD
330
1F
100
AcDbEntity
  8
0
  6
Continuous
 62
     7
370
    25
100
AcDbPolyline
 90
       24
 70
   128
 43
0.0
 10
66.8510051639
 20
72.9634174192
 10
66.4536029149
 20
72.6529602786
 10
66.0682792835
 20
72.2920446295
 10
65.701231942
 20
71.886475558
 10
65.3583646004
 20
71.4427763706
 10
65.0451920501
 20
70.968083671
 10
64.7667514613
 20
70.4700325728
 10
64.5275213641
 20
69.9566338939
 10
64.3313496142
 20
69.4361453074
 10
64.1813915025
 20
68.9169385233
 10
64.0800590047
 20
68.4073646342
 10
64.028981986
 20
67.9156197943
 10
64.028981986
 20
67.4496133895
 10
64.0800590047
 20
67.0168408201
 10
64.1813915025
 20
66.6242629426
 10
64.3313496142
 20
66.2781941089
 10
64.5275213641
 20
65.9842006038
 10
64.7667514613
 20
65.7470111157
 10
65.0451920501
 20
65.5704406785
 10
65.3583646004
 20
65.457329309
 10
65.701231942
 20
65.4094963279
 10
66.0682792835
 20
65.4277110965
 10
66.4536029149
 20
65.5116806425
 10
66.8510051639
 20
65.6600543721
  0
LINE
  5
AE
330
1F
100
AcDbEntity
  8
0
  6
Continuous
 62
     7
370
    25
100
AcDbLine
 10
66.8510051639
 20
72.9634174192
 30
0.0
 11
66.8510051639
 21
65.6600543721
 31
0.0
  0
ARC
  5
AF
330
1F
100
AcDbEntity
  8
0
  6
Continuous
 62
     7
370
    25
100
AcDbCircle
 10
68.0730111636
 20
69.0144586762
 30
0.0
 40
6.885280827459721
100
AcDbArc
 50
122.4745577997
 51
177.5254420546
  0
LINE
  5
B0
330
1F
100
AcDbEntity
  8
0
  6
Continuous
 62
     7
370
    25
100
AcDbLine
 10
64.588263464
 20
74.9455888275
 30
0.0
 11
64.3761314298
 21
74.8230878008
 31
0.0
  0
SPLINE
  5
B1
330
1F
100
AcDbEntity
  8
0
  6
Continuous
 62
     7
370
    25
100
AcDbSpline
210
0.0
220
0.0
230
1.0
 70
     8
 71
     3
 72
    12
 73
     8
 74
     0
 42
0.00000001
 43
0.00000001
 40
0.0
 40
0.0
 40
0.0
 40
0.0
 40
0.3466424656394009
 40
0.5880213722088076
 40
0.7643303034090976
 40
0.9037709900775491
 40
1.0
 40
1.0
 40
1.0
 40
1.0
 10
64.58829175111664
 20
74.94236553407194
 30
0.0
 10
64.56959705991945
 20
74.93170625763238
 30
0.0
 10
64.53788462113755
 20
74.91362456545663
 30
0.0
 10
64.52762699177246
 20
74.90900297888717
 30
0.0
 10
64.53852727470196
 20
74.9162639217612
 30
0.0
 10
64.56039341912198
 20
74.92942203420826
 30
0.0
 10
64.58018296599796
 20
74.94090151030056
 30
0.0
 10
64.58826346395861
 20
74.94558882748545
 30
0.0
  0
ARC
  5
B2
330
1F
100
AcDbEntity
  8
0
  6
Continuous
 62
     7
370
    25
100
AcDbCircle
 10
67.3822201284
 20
70.4669291855
 30
0.0
 40
5.275942217998595
100
AcDbArc
 50
121.9757359498
 51
125.5235431553
  0
SPLINE
  5
B3
330
1F
100
AcDbEntity
  8
0
  6
Continuous
 62
     7
370
    25
100
AcDbSpline
210
0.0
220
0.0
230
1.0
 70
     8
 71
     3
 72
    13
 73
     9
 74
     0
 42
0.00000001
 43
0.00000001
 40
0.0
 40
0.0
 40
0.0
 40
0.0
 40
0.3200374922557035
 40
0.5428904260575262
 40
0.7056675504586294
 40
0.8344060876550828
 40
0.96381152494995
 40
1.0
 40
1.0
 40
1.0
 40
1.0
 10
64.31670021441283
 20
74.76089634239472
 30
0.0
 10
64.2949798832646
 20
74.74821652172434
 30
0.0
 10
64.25813495066603
 20
74.72670731292025
 30
0.0
 10
64.18820226942782
 20
74.68220279192876
 30
0.0
 10
64.13127022532682
 20
74.6441640634089
 30
0.0
 10
64.08371484717283
 20
74.61071591373926
 30
0.0
 10
64.05353644940733
 20
74.58814194368082
 30
0.0
 10
64.03996350107857
 20
74.57734980254646
 30
0.0
 10
64.03699730325768
 20
74.57499131530109
 30
0.0
  0
SPLINE
  5
B4
330
1F
100
AcDbEntity
  8
0
  6
Continuous
 62
     7
370
    25
100
AcDbSpline
210
0.0
220
0.0
230
1.0
 70
     8
 71
     3
 72
     9
 73
     5
 74
     0
 42
0.00000001
 43
0.00000001
 40
0.0
 40
0.0
 40
0.0
 40
0.0
 40
0.5019999575590642
 40
1.0
 40
1.0
 40
1.0
 40
1.0
 10
64.03699730325768
 20
74.57499131530109
 30
0.0
 10
64.02667745811863
 20
74.56641349333607
 30
0.0
 10
64.00611999594426
 20
74.5493261971404
 30
0.0
 10
63.99978565451513
 20
74.54143751070686
 30
0.0
 10
63.99663115221458
 20
74.53750894452814
 30
0.0
  0
SPLINE
  5
B5
330
1F
100
AcDbEntity
  8
0
  6
Continuous
 62
     7
370
    25
100
AcDbSpline
210
0.0
220
0.0
230
1.0
 70
     8
 71
     3
 72
     9
 73
     5
 74
     0
 42
0.00000001
 43
0.00000001
 40
0.0
 40
0.0
 40
0.0
 40
0.0
 40
0.1911771332119818
 40
1.0
 40
1.0
 40
1.0
 40
1.0
 10
63.99814135640548
 20
74.53329890294059
 30
0.0
 10
63.99813284291765
 20
74.5323834523968
 30
0.0
 10
63.99808831098181
 20
74.5275949584571
 30
0.0
 10
64.01981920153726
 20
74.53919280861298
 30
0.0
 10
64.03739564273418
 20
74.54857341502466
 30
0.0
  0
ARC
  5
B6
330
1F
100
AcDbEntity
  8
0
  6
Continuous
 62
     7
370
    25
100
AcDbCircle
 10
68.0640991443
 20
69.568158659
 30
0.0
 40
6.404597741620703
100
AcDbArc
 50
128.9558047965
 51
132.0734166883
  0
SPLINE
  5
B7
330
1F
100
AcDbEntity
  8
0
  6
Continuous
 62
     7
370
    25
100
AcDbSpline
210
0.0
220
0.0
230
1.0
 70
     8
 71
     3
 72
    13
 73
     9
 74
     0
 42
0.00000001
 43
0.00000001
 40
0.0
 40
0.0
 40
0.0
 40
0.0
 40
0.2966614796532603
 40
0.5032369049719876
 40
0.6541245470230598
 40
0.7734598307152054
 40
0.8934133031345853
 40
1.0
 40
1.0
 40
1.0
 40
1.0
 10
63.77249159099513
 20
74.32220712740539
 30
0.0
 10
63.75421769044259
 20
74.31186958526038
 30
0.0
 10
63.723219054669
 20
74.29433366276666
 30
0.0
 10
63.66099948226582
 20
74.25019469623554
 30
0.0
 10
63.60907676318156
 20
74.20973891639554
 30
0.0
 10
63.56481467503536
 20
74.17214613889267
 30
0.0
 10
63.52796544844558
 20
74.1378992386902
 30
0.0
 10
63.51093745434274
 20
74.11953812007746
 30
0.0
 10
63.502925817151
 20
74.11089925046832
 30
0.0
  0
SPLINE
  5
B8
330
1F
100
AcDbEntity
  8
0
  6
Continuous
 62
     7
370
    25
100
AcDbSpline
210
0.0
220
0.0
230
1.0
 70
     8
 71
     3
 72
     9
 73
     5
 74
     0
 42
0.00000001
 43
0.00000001
 40
0.0
 40
0.0
 40
0.0
 40
0.0
 40
0.4405857639840576
 40
1.0
 40
1.0
 40
1.0
 40
1.0
 10
63.502925817151
 20
74.11089925046832
 30
0.0
 10
63.49410006081929
 20
74.10023553593524
 30
0.0
 10
63.47406819176413
 20
74.07603204275685
 30
0.0
 10
63.47336644889019
 20
74.06723573847485
 30
0.0
 10
63.47297388393648
 20
74.06231496063518
 30
0.0
  0
SPLINE
  5
B9
330
1F
100
AcDbEntity
  8
0
  6
Continuous
 62
     7
370
    25
100
AcDbSpline
210
0.0
220
0.0
230
1.0
 70
     8
 71
     3
 72
     9
 73
     5
 74
     0
 42
0.00000001
 43
0.00000001
 40
0.0
 40
0.0
 40
0.0
 40
0.0
 40
0.6853158902111467
 40
1.0
 40
1.0
 40
1.0
 40
1.0
 10
63.47823084492979
 20
74.06193467441935
 30
0.0
 10
63.48128264565542
 20
74.06023761720698
 30
0.0
 10
63.4857357756196
 20
74.05776130338353
 30
0.0
 10
63.49928292028813
 20
74.0640571330459
 30
0.0
 10
63.50354599144833
 20
74.06603833059859
 30
0.0
  0
ARC
  5
BA
330
1F
100
AcDbEntity
  8
0
  6
Continuous
 62
     7
370
    25
100
AcDbCircle
 10
68.7631900319
 20
68.8313945573
 30
0.0
 40
7.420603133566854
100
AcDbArc
 50
135.1364939775
 51
137.9625687957
  0
SPLINE
  5
BB
330
1F
100
AcDbEntity
  8
0
  6
Continuous
 62
     7
370
    25
100
AcDbSpline
210
0.0
220
0.0
230
1.0
 70
     8
 71
     3
 72
    14
 73
    10
 74
     0
 42
0.00000001
 43
0.00000001
 40
0.0
 40
0.0
 40
0.0
 40
0.0
 40
0.2755331421208727
 40
0.4673961911747824
 40
0.6075375609616317
 40
0.7183737427268142
 40
0.8297840855951707
 40
0.9291141280253108
 40
0.9999999999999999
 40
0.9999999999999999
 40
0.9999999999999999
 40
0.9999999999999999
 10
63.25185224162639
 20
73.80034883633077
 30
0.0
 10
63.23693879141941
 20
73.79292304937884
 30
0.0
 10
63.2116406012621
 20
73.78032643573339
 30
0.0
 10
63.15755471350726
 20
73.7382315823969
 30
0.0
 10
63.11139078073487
 20
73.69678068694722
 30
0.0
 10
63.07094552134891
 20
73.65596215174818
 30
0.0
 10
63.03719924718572
 20
73.61755878062493
 30
0.0
 10
63.0133107464273
 20
73.58648995624245
 30
0.0
 10
63.00333675287759
 20
73.5711414733895
 30
0.0
 10
62.99918311523264
 20
73.56474964690062
 30
0.0
  0
SPLINE
  5
BC
330
1F
100
AcDbEntity
  8
0
  6
Continuous
 62
     7
370
    25
100
AcDbSpline
210
0.0
220
0.0
230
1.0
 70
     8
 71
     3
 72
    10
 73
     6
 74
     0
 42
0.00000001
 43
0.00000001
 40
0.0
 40
0.0
 40
0.0
 40
0.0
 40
0.2854468338847125
 40
0.6604069617375978
 40
1.0
 40
1.0
 40
1.0
 40
1.0
 10
62.99918311523264
 20
73.56474964690062
 30
0.0
 10
62.99220134758286
 20
73.55201172471311
 30
0.0
 10
62.97604839924431
 20
73.52254139436742
 30
0.0
 10
62.97833282489604
 20
73.50369251870207
 30
0.0
 10
62.99294396802298
 20
73.50569175457913
 30
0.0
 10
62.99988794745272
 20
73.50664189603522
 30
0.0
  0
ARC
  5
BD
330
1F
100
AcDbEntity
  8
0
  6
Continuous
 62
     7
370
    25
100
AcDbCircle
 10
69.3449632128
 20
68.3289373113
 30
0.0
 40
8.189542410277067
100
AcDbArc
 50
140.7848872242
 51
143.4311470858
  0
SPLINE
  5
BE
330
1F
100
AcDbEntity
  8
0
  6
Continuous
 62
     7
370
    25
100
AcDbSpline
210
0.0
220
0.0
230
1.0
 70
     8
 71
     3
 72
    14
 73
    10
 74
     0
 42
0.00000001
 43
0.00000001
 40
0.0
 40
0.0
 40
0.0
 40
0.0
 40
0.1147634707940495
 40
0.2304194283597127
 40
0.3302851002634381
 40
0.4225009907229249
 40
0.5534678171681443
 40
0.7365239368210575
 40
1.0
 40
1.0
 40
1.0
 40
1.0
 10
62.53814754955994
 20
72.95000513243657
 30
0.0
 10
62.54361172316374
 20
72.9618520926133
 30
0.0
 10
62.55458256388102
 20
72.9856381438092
 30
0.0
 10
62.58217280309437
 20
73.03044459286481
 30
0.0
 10
62.61348077844235
 20
73.07353170810491
 30
0.0
 10
62.64765176601429
 20
73.1147661489256
 30
0.0
 10
62.68759380865566
 20
73.15648672484201
 30
0.0
 10
62.73493939792131
 20
73.19680283049544
 30
0.0
 10
62.75548129825563
 20
73.20395262186635
 30
0.0
 10
62.76760203498726
 20
73.20817135224098
 30
0.0
  0
SPLINE
  5
BF
330
1F
100
AcDbEntity
  8
0
  6
Continuous
 62
     7
370
    25
100
AcDbSpline
210
0.0
220
0.0
230
1.0
 70
     8
 71
     3
 72
    10
 73
     6
 74
     0
 42
0.00000001
 43
0.00000001
 40
0.0
 40
0.0
 40
0.0
 40
0.0
 40
0.5354635084916
 40
0.9225062835216192
 40
1.0
 40
1.0
 40
1.0
 40
1.0
 10
62.53882324334361
 20
72.88415830808296
 30
0.0
 10
62.5323618207969
 20
72.88757173002087
 30
0.0
 10
62.52122996436729
 20
72.8934524354958
 30
0.0
 10
62.52837008035475
 20
72.92601930545987
 30
0.0
 10
62.53674967096333
 20
72.94657589390366
 30
0.0
 10
62.53814754955996
 20
72.95000513243656
 30
0.0
  0
ARC
  5
C0
330
1F
100
AcDbEntity
  8
0
  6
Continuous
 62
     7
370
    25
100
AcDbCircle
 10
69.6816813119
 20
68.0875972538
 30
0.0
 40
8.603918835951568
100
AcDbArc
 50
146.1179104316
 51
148.6784988256
  0
SPLINE
  5
C1
330
1F
100
AcDbEntity
  8
0
  6
Continuous
 62
     7
370
    25
100
AcDbSpline
210
0.0
220
0.0
230
1.0
 70
     8
 71
     3
 72
    15
 73
    11
 74
     0
 42
0.00000001
 43
0.00000001
 40
0.0
 40
0.0
 40
0.0
 40
0.0
 40
0.1270351655670383
 40
0.227040596812246
 40
0.3276850932078255
 40
0.414707971923737
 40
0.503573359258408
 40
0.6412153209544265
 40
0.8344257638884034
 40
1.0
 40
1.0
 40
1.0
 40
1.0
 10
62.13113989002826
 20
72.28182118004972
 30
0.0
 10
62.13561945660805
 20
72.29626857874821
 30
0.0
 10
62.14362545609013
 20
72.32208935056559
 30
0.0
 10
62.16570690944152
 20
72.37140176654223
 30
0.0
 10
62.19111544389612
 20
72.41827070334614
 30
0.0
 10
62.21810845710237
 20
72.4603772616927
 30
0.0
 10
62.24775374949498
 20
72.50033030396766
 30
0.0
 10
62.28242632798226
 20
72.53842197464645
 30
0.0
 10
62.31366758381162
 20
72.56181585408089
 30
0.0
 10
62.3259819138925
 20
72.56074858464439
 30
0.0
 10
62.33166480927641
 20
72.56025605435535
 30
0.0
  0
SPLINE
  5
C2
330
1F
100
AcDbEntity
  8
0
  6
Continuous
 62
     7
370
    25
100
AcDbSpline
210
0.0
220
0.0
230
1.0
 70
     8
 71
     3
 72
     9
 73
     5
 74
     0
 42
0.00000001
 43
0.00000001
 40
0.0
 40
0.0
 40
0.0
 40
0.0
 40
0.4914284637506789
 40
1.0
 40
1.0
 40
1.0
 40
1.0
 10
62.13113989002826
 20
72.28182118004972
 30
0.0
 10
62.1275111871552
 20
72.26466900699079
 30
0.0
 10
62.1201271971328
 20
72.22976632160699
 30
0.0
 10
62.12780175872529
 20
72.21925893587672
 30
0.0
 10
62.13170482230442
 20
72.21391517857391
 30
0.0
  0
ARC
  5
C3
330
1F
100
AcDbEntity
  8
0
  6
Continuous
 62
     7
370
    25
100
AcDbCircle
 10
69.6803629146
 20
68.0848269457
 30
0.0
 40
8.60416228511258
100
AcDbArc
 50
151.3215027399
 51
153.8820404555
  0
SPLINE
  5
C4
330
1F
100
AcDbEntity
  8
0
  6
Continuous
 62
     7
370
    25
100
AcDbSpline
210
0.0
220
0.0
230
1.0
 70
     8
 71
     3
 72
    16
 73
    12
 74
     0
 42
0.00000001
 43
0.00000001
 40
0.0
 40
0.0
 40
0.0
 40
0.0
 40
0.2225364807109929
 40
0.3774961613735064
 40
0.4906824263516542
 40
0.5802001287797973
 40
0.6701815568791358
 40
0.7504062365711869
 40
0.8349244330113011
 40
0.9688803847311606
 40
1.0
 40
1.0
 40
1.0
 40
1.0
 10
61.95477481264552
 20
71.87255675498584
 30
0.0
 10
61.94858759609426
 20
71.87648160187958
 30
0.0
 10
61.9380920113244
 20
71.88313945245595
 30
0.0
 10
61.90921675184352
 20
71.85677486332027
 30
0.0
 10
61.88258736594899
 20
71.82038749792694
 30
0.0
 10
61.85782209243045
 20
71.77759976640186
 30
0.0
 10
61.83577942797468
 20
71.7315011337135
 30
0.0
 10
61.8172517809744
 20
71.6849606026452
 30
0.0
 10
61.80062904478016
 20
71.63457142112524
 30
0.0
 10
61.79202886280049
 20
71.59924096294307
 30
0.0
 10
61.78876331378653
 20
71.5802503103794
 30
0.0
 10
61.78814770100501
 20
71.57667024209755
 30
0.0
  0
SPLINE
  5
C5
330
1F
100
AcDbEntity
  8
0
  6
Continuous
 62
     7
370
    25
100
AcDbSpline
210
0.0
220
0.0
230
1.0
 70
     8
 71
     3
 72
     9
 73
     5
 74
     0
 42
0.00000001
 43
0.00000001
 40
0.0
 40
0.0
 40
0.0
 40
0.0
 40
0.6057415784811289
 40
1.0
 40
1.0
 40
1.0
 40
1.0
 10
61.78814770100501
 20
71.57667024209755
 30
0.0
 10
61.78611669701205
 20
71.55923924236835
 30
0.0
 10
61.78276377546081
 20
71.53046294510162
 30
0.0
 10
61.78691904213407
 20
71.51751927049047
 30
0.0
 10
61.78855729101367
 20
71.51241611776962
 30
0.0
  0
ARC
  5
C6
330
1F
100
AcDbEntity
  8
0
  6
Continuous
 62
     7
370
    25
100
AcDbCircle
 10
69.3033461079
 20
68.2556042017
 30
0.0
 40
8.190169401141555
100
AcDbArc
 50
156.5687176133
 51
159.2148424006
  0
LINE
  5
C7
330
1F
100
AcDbEntity
  8
0
  6
Continuous
 62
     7
370
    25
100
AcDbLine
 10
61.6462123008
 20
71.1620069059
 30
0.0
 11
61.6367496319
 21
71.1713905433
 31
0.0
  0
SPLINE
  5
C8
330
1F
100
AcDbEntity
  8
0
  6
Continuous
 62
     7
370
    25
100
AcDbSpline
210
0.0
220
0.0
230
1.0
 70
     8
 71
     3
 72
    15
 73
    11
 74
     0
 42
0.00000001
 43
0.00000001
 40
0.0
 40
0.0
 40
0.0
 40
0.0
 40
0.1623605449806699
 40
0.2809525786482174
 40
0.3747456407502109
 40
0.4690245760313344
 40
0.5530807812331462
 40
0.6416355612646989
 40
0.781989240568391
 40
1.0
 40
1.0
 40
1.0
 40
1.0
 10
61.63105912600605
 20
71.17703352254976
 30
0.0
 10
61.62513978392743
 20
71.17330025828866
 30
0.0
 10
61.6148968125141
 20
71.16684012832879
 30
0.0
 10
61.59471895286482
 20
71.13367492763754
 30
0.0
 10
61.57601432215107
 20
71.09289832590228
 30
0.0
 10
61.55902785490501
 20
71.04648833357787
 30
0.0
 10
61.5445087515876
 20
70.99790113635076
 30
0.0
 10
61.53120614575258
 20
70.94369008680574
 30
0.0
 10
61.51866384911169
 20
70.87553409859937
 30
0.0
 10
61.51710960832419
 20
70.84103029665995
 30
0.0
 10
61.51616408701181
 20
70.82003993251935
 30
0.0
  0
ARC
  5
C9
330
1F
100
AcDbEntity
  8
0
  6
Continuous
 62
     7
370
    25
100
AcDbCircle
 10
68.5776200203
 20
68.5081046452
 30
0.0
 40
7.42154805004764
100
AcDbArc
 50
162.0369701082
 51
164.8628042291
  0
SPLINE
  5
CA
330
1F
100
AcDbEntity
  8
0
  6
Continuous
 62
     7
370
    25
100
AcDbSpline
210
0.0
220
0.0
230
1.0
 70
     8
 71
     3
 72
    17
 73
    13
 74
     0
 42
0.00000001
 43
0.00000001
 40
0.0
 40
0.0
 40
0.0
 40
0.0
 40
0.1833307202683193
 40
0.3109901034740495
 40
0.4042355768301391
 40
0.4779823387562989
 40
0.5521111286583563
 40
0.6182020826641635
 40
0.6878301354651222
 40
0.7981861590462165
 40
0.9525307307787164
 40
1.0
 40
1.0
 40
1.0
 40
1.0
 10
61.41357511578602
 20
70.44610259820735
 30
0.0
 10
61.41138864087996
 20
70.4588297598377
 30
0.0
 10
61.40767964952117
 20
70.48041927471311
 30
0.0
 10
61.39414866319727
 20
70.4711048387106
 30
0.0
 10
61.38099886187873
 20
70.44444144241787
 30
0.0
 10
61.36837236083517
 20
70.40646906150187
 30
0.0
 10
61.35684039520945
 20
70.36099920942713
 30
0.0
 10
61.34687762420292
 20
70.3114817831272
 30
0.0
 10
61.33757467166883
 20
70.25432529663274
 30
0.0
 10
61.32923648794963
 20
70.18477484494491
 30
0.0
 10
61.32593603105578
 20
70.13370752444823
 30
0.0
 10
61.32575783952213
 20
70.10919224649213
 30
0.0
 10
61.32571592653022
 20
70.10342593074375
 30
0.0
  0
ARC
  5
CB
330
1F
100
AcDbEntity
  8
0
  6
Continuous
 62
     7
370
    25
100
AcDbCircle
 10
67.5901949055
 20
68.7451244563
 30
0.0
 40
6.405721338115256
100
AcDbArc
 50
167.9255681858
 51
171.0428163053
  0
SPLINE
  5
CC
330
1F
100
AcDbEntity
  8
0
  6
Continuous
 62
     7
370
    25
100
AcDbSpline
210
0.0
220
0.0
230
1.0
 70
     8
 71
     3
 72
    17
 73
    13
 74
     0
 42
0.00000001
 43
0.00000001
 40
0.0
 40
0.0
 40
0.0
 40
0.0
 40
0.1738447004031246
 40
0.2866077028434342
 40
0.3726398248460907
 40
0.442668665556643
 40
0.5129380349314492
 40
0.5784324074750129
 40
0.6683040649657332
 40
0.7932002743001036
 40
0.9633206073302951
 40
1.0
 40
1.0
 40
1.0
 40
1.0
 10
61.2183315178771
 20
69.41519683059748
 30
0.0
 10
61.21876814602873
 20
69.44222104906733
 30
0.0
 10
61.21948798960891
 20
69.48677431505028
 30
0.0
 10
61.22355559553415
 20
69.56752238556109
 30
0.0
 10
61.22819044815509
 20
69.63144724537915
 30
0.0
 10
61.23345470967674
 20
69.68546151140107
 30
0.0
 10
61.2390420479928
 20
69.72850675759528
 30
0.0
 10
61.24518972637375
 20
69.763176691278
 30
0.0
 10
61.25200721121841
 20
69.78724304182819
 30
0.0
 10
61.25890026602659
 20
69.79040921887419
 30
0.0
 10
61.26197712864079
 20
69.76874650802621
 30
0.0
 10
61.2624989950643
 20
69.74643000506265
 30
0.0
 10
61.26259155680926
 20
69.7424717997389
 30
0.0
  0
LINE
  5
CD
330
1F
100
AcDbEntity
  8
0
  6
Continuous
 62
     7
370
    25
100
AcDbLine
 10
61.2183315179
 20
69.4151968306
 30
0.0
 11
61.218354059
 21
69.3944033975
 31
0.0
  0
ARC
  5
CE
330
1F
100
AcDbEntity
  8
0
  6
Continuous
 62
     7
370
    25
100
AcDbCircle
 10
66.4709548667
 20
68.886286857
 30
0.0
 40
5.27712020555315
100
AcDbArc
 50
174.4746176274
 51
178.0218967375
  0
SPLINE
  5
CF
330
1F
100
AcDbEntity
  8
0
  6
Continuous
 62
     7
370
    25
100
AcDbSpline
210
0.0
220
0.0
230
1.0
 70
     8
 71
     3
 72
    17
 73
    13
 74
     0
 42
0.00000001
 43
0.00000001
 40
0.0
 40
0.0
 40
0.0
 40
0.0
 40
0.1732982600038978
 40
0.2939717017153604
 40
0.3821144759556979
 40
0.4518255724126676
 40
0.5218977910178935
 40
0.584372030552571
 40
0.6501898071961794
 40
0.7545067860427761
 40
0.9004051149431667
 40
1.0
 40
1.0
 40
1.0
 40
1.0
 10
61.1969793415
 20
69.06844015344844
 30
0.0
 10
61.19686033531593
 20
69.08996345036208
 30
0.0
 10
61.19665846109951
 20
69.12647414712318
 30
0.0
 10
61.19552846306919
 20
69.13758506612034
 30
0.0
 10
61.19467887481681
 20
69.12468028874156
 30
0.0
 10
61.19418326103496
 20
69.09595629030383
 30
0.0
 10
61.19410444478314
 20
69.05568069334194
 30
0.0
 10
61.19440227660813
 20
69.00759373246167
 30
0.0
 10
61.19502476591619
 20
68.94839561576605
 30
0.0
 10
61.19601355029891
 20
68.87113799422609
 30
0.0
 10
61.19684283352359
 20
68.79686060186188
 30
0.0
 10
61.19693994432505
 20
68.75775430891044
 30
0.0
 10
61.19697934150003
 20
68.74188915855161
 30
0.0
  0
ARC
  5
D0
330
1F
100
AcDbEntity
  8
0
  6
Continuous
 62
     7
370
    25
100
AcDbCircle
 10
65.3663550738
 20
68.8862862484
 30
0.0
 40
4.171875419583534
100
AcDbArc
 50
181.9835195879
 51
186.1326131581
  0
SPLINE
  5
D1
330
1F
100
AcDbEntity
  8
0
  6
Continuous
 62
     7
370
    25
100
AcDbSpline
210
0.0
220
0.0
230
1.0
 70
     8
 71
     3
 72
    12
 73
     8
 74
     0
 42
0.00000001
 43
0.00000001
 40
0.0
 40
0.0
 40
0.0
 40
0.0
 40
0.0146604003346226
 40
0.1706962459859721
 40
0.4180031110936737
 40
0.7638879204869505
 40
1.0
 40
1.0
 40
1.0
 40
1.0
 10
61.24262948777314
 20
68.4265907312079
 30
0.0
 10
61.24280610377635
 20
68.42520103179504
 30
0.0
 10
61.24486250660581
 20
68.40902026814557
 30
0.0
 10
61.24955166739538
 20
68.36323630088916
 30
0.0
 10
61.25644456238769
 20
68.2851245873232
 30
0.0
 10
61.2612534172418
 20
68.20559527107764
 30
0.0
 10
61.26220536051495
 20
68.1615006657491
 30
0.0
 10
61.26259155726287
 20
68.14361179184293
 30
0.0
  0
ARC
  5
D2
330
1F
100
AcDbEntity
  8
0
  6
Continuous
 62
     7
370
    25
100
AcDbCircle
 10
64.4099897182
 20
68.7451059178
 30
0.0
 40
3.204358027302743
100
AcDbArc
 50
190.8192467701
 51
195.7665149909
  0
SPLINE
  5
D3
330
1F
100
AcDbEntity
  8
0
  6
Continuous
 62
     7
370
    25
100
AcDbSpline
210
0.0
220
0.0
230
1.0
 70
     8
 71
     3
 72
    10
 73
     6
 74
     0
 42
0.00000001
 43
0.00000001
 40
0.0
 40
0.0
 40
0.0
 40
0.0
 40
0.2569333274171425
 40
0.6985430324019081
 40
1.0
 40
1.0
 40
1.0
 40
1.0
 10
61.38710378205796
 20
67.83925949142665
 30
0.0
 10
61.39088138010197
 20
67.81815442057665
 30
0.0
 10
61.4011518063615
 20
67.76077455343828
 30
0.0
 10
61.40993491548743
 20
67.68246887498127
 30
0.0
 10
61.41252452803194
 20
67.63397606617346
 30
0.0
 10
61.41357511578367
 20
67.61430287178472
 30
0.0
  0
ARC
  5
D4
330
1F
100
AcDbEntity
  8
0
  6
Continuous
 62
     7
370
    25
100
AcDbCircle
 10
63.6960624974
 20
68.5080304294
 30
0.0
 40
2.451223693278642
100
AcDbArc
 50
201.3832542418
 51
207.2983282545
  0
SPLINE
  5
D5
330
1F
100
AcDbEntity
  8
0
  6
Continuous
 62
     7
370
    25
100
AcDbSpline
210
0.0
220
0.0
230
1.0
 70
     8
 71
     3
 72
     9
 73
     5
 74
     0
 42
0.00000001
 43
0.00000001
 40
0.0
 40
0.0
 40
0.0
 40
0.0
 40
0.5636197363655083
 40
1.0
 40
1.0
 40
1.0
 40
1.0
 10
61.6226480970064
 20
67.32333117647435
 30
0.0
 10
61.62894760591896
 20
67.292013708538
 30
0.0
 10
61.64012448370747
 20
67.23644881980947
 30
0.0
 10
61.64436278829405
 20
67.18809597000136
 30
0.0
 10
61.6462123007669
 20
67.16699574065461
 30
0.0
  0
ARC
  5
D6
330
1F
100
AcDbEntity
  8
0
  6
Continuous
 62
     7
370
    25
100
AcDbCircle
 10
63.2616751025
 20
68.2554151604
 30
0.0
 40
1.947916039584973
100
AcDbArc
 50
213.9701525263
 51
220.865004283
  0
SPLINE
  5
D7
330
1F
100
AcDbEntity
  8
0
  6
Continuous
 62
     7
370
    25
100
AcDbSpline
210
0.0
220
0.0
230
1.0
 70
     8
 71
     3
 72
     9
 73
     5
 74
     0
 42
0.00000001
 43
0.00000001
 40
0.0
 40
0.0
 40
0.0
 40
0.0
 40
0.1502696462911865
 40
1.0
 40
1.0
 40
1.0
 40
1.0
 10
61.94084935476037
 20
66.89301821912422
 30
0.0
 10
61.94196075333267
 20
66.88878763337244
 30
0.0
 10
61.94935678173713
 20
66.86063433790535
 30
0.0
 10
61.9522858740173
 20
66.83472258637359
 30
0.0
 10
61.95477481263658
 20
66.81270458457927
 30
0.0
  0
ARC
  5
D8
330
1F
100
AcDbEntity
  8
0
  6
Continuous
 62
     7
370
    25
100
AcDbCircle
 10
63.0816580281
 20
68.0844637801
 30
0.0
 40
1.699187227111208
100
AcDbArc
 50
228.4564178029
 51
236.0089570944
  0
LINE
  5
D9
330
1F
100
AcDbEntity
  8
0
  6
Continuous
 62
     7
370
    25
100
AcDbLine
 10
63.5348954594
 20
69.2214904305
 30
0.0
 11
61.4135751158
 21
70.4461025982
 31
0.0
  0
LINE
  5
DA
330
1F
100
AcDbEntity
  8
0
  6
Continuous
 62
     7
370
    25
100
AcDbLine
 10
61.4868712272
 20
70.8148065263
 30
0.0
 11
63.6701092185
 21
69.5544500613
 31
0.0
  0
LINE
  5
DB
330
1F
100
AcDbEntity
  8
0
  6
Continuous
 62
     7
370
    25
100
AcDbLine
 10
63.7675326444
 20
69.9373947381
 30
0.0
 11
61.6462123008
 21
71.1620069059
 31
0.0
  0
LINE
  5
DC
330
1F
100
AcDbEntity
  8
0
  6
Continuous
 62
     7
370
    25
100
AcDbLine
 10
64.4529851619
 20
71.3356438824
 30
0.0
 11
62.3316648093
 21
72.5602560544
 31
0.0
  0
LINE
  5
DD
330
1F
100
AcDbEntity
  8
0
  6
Continuous
 62
     7
370
    25
100
AcDbLine
 10
62.13113989
 20
72.28182118
 30
0.0
 11
64.4495500699
 21
70.9434314554
 31
0.0
  0
LINE
  5
DE
330
1F
100
AcDbEntity
  8
0
  6
Continuous
 62
     7
370
    25
100
AcDbLine
 10
64.0760951562
 20
70.6479445872
 30
0.0
 11
61.9547748126
 21
71.872556755
 31
0.0
  0
LINE
  5
DF
330
1F
100
AcDbEntity
  8
0
  6
Continuous
 62
     7
370
    25
100
AcDbLine
 10
62.1317048223
 20
72.2139151786
 30
0.0
 11
64.2530251355
 21
70.9893030278
 31
0.0
  0
LINE
  5
E0
330
1F
100
AcDbEntity
  8
0
  6
Continuous
 62
     7
370
    25
100
AcDbLine
 10
62.5388232433
 20
72.8841583081
 30
0.0
 11
64.6601435586
 21
71.6595461606
 31
0.0
  0
LINE
  5
E1
330
1F
100
AcDbEntity
  8
0
  6
Continuous
 62
     7
370
    25
100
AcDbLine
 10
61.788147701
 20
71.5766702421
 30
0.0
 11
64.0719282285
 21
70.2582717897
 31
0.0
  0
LINE
  5
E2
330
1F
100
AcDbEntity
  8
0
  6
Continuous
 62
     7
370
    25
100
AcDbLine
 10
62.5381475496
 20
72.9500051324
 30
0.0
 11
64.8862730267
 21
71.5944612367
 31
0.0
  0
LINE
  5
E3
330
1F
100
AcDbEntity
  8
0
  6
Continuous
 62
     7
370
    25
100
AcDbLine
 10
64.8889223786
 20
71.9835591845
 30
0.0
 11
62.767602035
 21
73.2081713522
 31
0.0
  0
LINE
  5
E4
330
1F
100
AcDbEntity
  8
0
  6
Continuous
 62
     7
370
    25
100
AcDbLine
 10
61.788557291
 20
71.5124161178
 30
0.0
 11
63.9098776024
 21
70.2878039635
 31
0.0
  0
LINE
  5
E5
330
1F
100
AcDbEntity
  8
0
  6
Continuous
 62
     7
370
    25
100
AcDbLine
 10
62.9998879475
 20
73.506641896
 30
0.0
 11
65.121208265
 21
72.2820297517
 31
0.0
  0
LINE
  5
E6
330
1F
100
AcDbEntity
  8
0
  6
Continuous
 62
     7
370
    25
100
AcDbLine
 10
61.3056332895
 20
70.0969542289
 30
0.0
 11
63.4680657817
 21
68.8486085229
 31
0.0
  0
LINE
  5
E7
330
1F
100
AcDbEntity
  8
0
  6
Continuous
 62
     7
370
    25
100
AcDbLine
 10
63.3839119008
 20
68.5178596043
 30
0.0
 11
61.2625915568
 21
69.7424717997
 31
0.0
  0
ARC
  5
E8
330
1F
100
AcDbEntity
  8
0
  6
Continuous
 62
     7
370
    25
100
AcDbCircle
 10
68.623501236
 20
70.3519962214
 30
0.0
 40
4.227878587833684
100
AcDbArc
 50
114.7866185869
 51
117.9967404278
  0
LINE
  5
E9
330
1F
100
AcDbEntity
  8
0
  6
Continuous
 62
     7
370
    25
100
AcDbLine
 10
66.8510051639
 20
74.190383256
 30
0.0
 11
66.8510051639
 21
72.9634174192
 31
0.0
  0
ARC
  5
EA
330
1F
100
AcDbEntity
  8
0
  6
Continuous
 62
     7
370
    25
100
AcDbCircle
 10
69.1168470223
 20
69.4974045333
 30
0.0
 40
5.215143100575767
100
AcDbArc
 50
121.9635199265
 51
124.7544655189
  0
ARC
  5
EB
330
1F
100
AcDbEntity
  8
0
  6
Continuous
 62
     7
370
    25
100
AcDbCircle
 10
66.4422137211
 20
73.9105195181
 30
0.0
 40
0.0868975778574862
100
AcDbArc
 50
172.5043451576
 51
309.4695828341
  0
ARC
  5
EC
330
1F
100
AcDbEntity
  8
0
  6
Continuous
 62
     7
370
    25
100
AcDbCircle
 10
66.3311060546
 20
74.1029586652
 30
0.0
 40
0.3082562860313038
100
AcDbArc
 50
302.6587593664
 51
356.6795507904
  0
LINE
  5
ED
330
1F
100
AcDbEntity
  8
0
  6
Continuous
 62
     7
370
    25
100
AcDbLine
 10
65.3731725852
 20
72.5757366686
 30
0.0
 11
63.2518522416
 21
73.8003488363
 31
0.0
  0
LINE
  5
EE
330
1F
100
AcDbEntity
  8
0
  6
Continuous
 62
     7
370
    25
100
AcDbLine
 10
62.9991831152
 20
73.5647496469
 30
0.0
 11
65.3713092427
 21
72.1953503689
 31
0.0
  0
LINE
  5
EF
330
1F
100
AcDbEntity
  8
0
  6
Continuous
 62
     7
370
    25
100
AcDbLine
 10
63.5035459914
 20
74.0660383306
 30
0.0
 11
65.6248663116
 21
72.841426189
 31
0.0
  0
ARC
  5
F0
330
1F
100
AcDbEntity
  8
0
  6
Continuous
 62
     7
370
    25
100
AcDbCircle
 10
68.5955461111
 20
71.0975528065
 30
0.0
 40
3.203458409822885
100
AcDbArc
 50
104.2279655292
 51
109.1761601841
  0
SPLINE
  5
F1
330
1F
100
AcDbEntity
  8
0
  6
Continuous
 62
     7
370
    25
100
AcDbSpline
210
0.0
220
0.0
230
1.0
 70
     8
 71
     3
 72
    13
 73
     9
 74
     0
 42
0.00000001
 43
0.00000001
 40
0.0
 40
0.0
 40
0.0
 40
0.0
 40
0.2966614796409191
 40
0.5032369049693236
 40
0.6541245470262684
 40
0.7734598307228473
 40
0.8934133031465252
 40
1.0
 40
1.0
 40
1.0
 40
1.0
 10
67.80819839319894
 20
74.20274673840568
 30
0.0
 10
67.82647229374807
 20
74.16284811551645
 30
0.0
 10
67.85747092951702
 20
74.09516673160499
 30
0.0
 10
67.91969050191918
 20
74.02223223589203
 30
0.0
 10
67.97161322100371
 20
73.98343195322634
 30
0.0
 10
68.01587530915025
 20
73.96789720670198
 30
0.0
 10
68.05272453573878
 20
73.97078619659042
 30
0.0
 10
68.06975252984132
 20
73.98571644381992
 30
0.0
 10
68.07776416703229
 20
73.99274109529995
 30
0.0
  0
SPLINE
  5
F2
330
1F
100
AcDbEntity
  8
0
  6
Continuous
 62
     7
370
    25
100
AcDbSpline
210
0.0
220
0.0
230
1.0
 70
     8
 71
     3
 72
    11
 73
     7
 74
     0
 42
0.00000001
 43
0.00000001
 40
0.0
 40
0.0
 40
0.0
 40
0.0
 40
0.218335354418427
 40
0.4955569886223541
 40
0.874842788318109
 40
1.0
 40
1.0
 40
1.0
 40
1.0
 10
68.07776416703229
 20
73.99274109529995
 30
0.0
 10
68.08644223368603
 20
74.00672907361607
 30
0.0
 10
68.10613889064497
 20
74.03847766710295
 30
0.0
 10
68.11081541443741
 20
74.11901712103422
 30
0.0
 10
68.09794167069202
 20
74.19578529831351
 30
0.0
 10
68.08127832956339
 20
74.24490808146565
 30
0.0
 10
68.07714399274847
 20
74.25709592118332
 30
0.0
  0
ARC
  5
F3
330
1F
100
AcDbEntity
  8
0
  6
Continuous
 62
     7
370
    25
100
AcDbCircle
 10
68.4440231757
 20
71.8341174197
 30
0.0
 40
2.450596897412089
100
AcDbArc
 50
92.6940663866
 51
98.6101286162
  0
SPLINE
  5
F4
330
1F
100
AcDbEntity
  8
0
  6
Continuous
 62
     7
370
    25
100
AcDbSpline
210
0.0
220
0.0
230
1.0
 70
     8
 71
     3
 72
    14
 73
    10
 74
     0
 42
0.00000001
 43
0.00000001
 40
0.0
 40
0.0
 40
0.0
 40
0.0
 40
0.1084310603087777
 40
0.2174343214489037
 40
0.3179940034105029
 40
0.4198492633375825
 40
0.5758874098876967
 40
0.7950818433140825
 40
0.9999999999999999
 40
0.9999999999999999
 40
0.9999999999999999
 40
0.9999999999999999
 10
68.58150686895448
 20
74.04855800578642
 30
0.0
 10
68.57485101107044
 20
74.04022575375852
 30
0.0
 10
68.56150417171877
 20
74.02351727963064
 30
0.0
 10
68.5311297965646
 20
74.01740545980459
 30
0.0
 10
68.49725544945854
 20
74.02768028534508
 30
0.0
 10
68.45766013263663
 20
74.05506874865969
 30
0.0
 10
68.40940898449642
 20
74.10886909621055
 30
0.0
 10
68.36143033834965
 20
74.18902650633727
 30
0.0
 10
68.33945538203953
 20
74.25171610460416
 30
0.0
 10
68.32883775915988
 20
74.28200578998424
 30
0.0
  0
SPLINE
  5
F5
330
1F
100
AcDbEntity
  8
0
  6
Continuous
 62
     7
370
    25
100
AcDbSpline
210
0.0
220
0.0
230
1.0
 70
     8
 71
     3
 72
    10
 73
     6
 74
     0
 42
0.00000001
 43
0.00000001
 40
0.0
 40
0.0
 40
0.0
 40
0.0
 40
0.2854468339026189
 40
0.6604069617789906
 40
1.0
 40
1.0
 40
1.0
 40
1.0
 10
68.58150686895448
 20
74.04855800578642
 30
0.0
 10
68.58848863660432
 20
74.06554508710342
 30
0.0
 10
68.60464158494307
 20
74.10484622983697
 30
0.0
 10
68.60235715928977
 20
74.18784278683988
 30
0.0
 10
68.5877460161694
 20
74.24977653154725
 30
0.0
 10
68.58080203674345
 20
74.27921068638902
 30
0.0
  0
ARC
  5
F6
330
1F
100
AcDbEntity
  8
0
  6
Continuous
 62
     7
370
    25
100
AcDbCircle
 10
68.4456661348
 20
72.3363768167
 30
0.0
 40
1.947527960562513
100
AcDbArc
 50
79.1253707147
 51
86.021138741
  0
SPLINE
  5
F7
330
1F
100
AcDbEntity
  8
0
  6
Continuous
 62
     7
370
    25
100
AcDbSpline
210
0.0
220
0.0
230
1.0
 70
     8
 71
     3
 72
    15
 73
    11
 74
     0
 42
0.00000001
 43
0.00000001
 40
0.0
 40
0.0
 40
0.0
 40
0.0
 40
0.256284320469751
 40
0.4347437637468388
 40
0.5650948186065253
 40
0.6681879540017748
 40
0.7718151394462016
 40
0.8642059575904051
 40
0.9615414078195369
 40
1.0
 40
1.0
 40
1.0
 40
1.0
 10
68.81308794920673
 20
74.24893174859584
 30
0.0
 10
68.82481767620426
 20
74.20779725707699
 30
0.0
 10
68.84471520896507
 20
74.13801942739961
 30
0.0
 10
68.89037497311261
 20
74.05169460890467
 30
0.0
 10
68.9303463682061
 20
73.99852103828152
 30
0.0
 10
68.96606306050131
 20
73.96775214136952
 30
0.0
 10
68.99666918239625
 20
73.9564730869787
 30
0.0
 10
69.02114540656092
 20
73.96268823307322
 30
0.0
 10
69.03507383764277
 20
73.97781481225192
 30
0.0
 10
69.04089405913267
 20
73.99029107628976
 30
0.0
 10
69.04254241955194
 20
73.99382451223475
 30
0.0
  0
SPLINE
  5
F8
330
1F
100
AcDbEntity
  8
0
  6
Continuous
 62
     7
370
    25
100
AcDbSpline
210
0.0
220
0.0
230
1.0
 70
     8
 71
     3
 72
    10
 73
     6
 74
     0
 42
0.00000001
 43
0.00000001
 40
0.0
 40
0.0
 40
0.0
 40
0.0
 40
0.5354633856549704
 40
0.9225060576304535
 40
1.0
 40
1.0
 40
1.0
 40
1.0
 10
69.04186674084923
 20
74.18906107480707
 30
0.0
 10
69.04832816338325
 20
74.14937867572353
 30
0.0
 10
69.05946001961883
 20
74.08101311700075
 30
0.0
 10
69.0523199023556
 20
74.0194421668928
 30
0.0
 10
69.04394030326812
 20
73.99748706046036
 30
0.0
 10
69.04254241955194
 20
73.99382451223475
 30
0.0
  0
ARC
  5
F9
330
1F
100
AcDbEntity
  8
0
  6
Continuous
 62
     7
370
    25
100
AcDbCircle
 10
68.5036814309
 20
72.5774904919
 30
0.0
 40
1.699059496191483
100
AcDbArc
 50
63.9802979345
 51
71.5332158832
  0
SPLINE
  5
FA
330
1F
100
AcDbEntity
  8
0
  6
Continuous
 62
     7
370
    25
100
AcDbSpline
210
0.0
220
0.0
230
1.0
 70
     8
 71
     3
 72
    15
 73
    11
 74
     0
 42
0.00000001
 43
0.00000001
 40
0.0
 40
0.0
 40
0.0
 40
0.0
 40
0.2386494865465702
 40
0.4048291983185556
 40
0.5262108429543758
 40
0.622210175974044
 40
0.718706811246852
 40
0.8047402497001996
 40
0.8953780818444816
 40
1.0
 40
1.0
 40
1.0
 40
1.0
 10
69.24902516588921
 20
74.10433884332943
 30
0.0
 10
69.25782192840016
 20
74.06363293547375
 30
0.0
 10
69.27274417427063
 20
73.99458212676468
 30
0.0
 10
69.30993218524155
 20
73.90376233709651
 30
0.0
 10
69.34333495969467
 20
73.8447078334278
 30
0.0
 10
69.37379065711234
 20
73.80719949795382
 30
0.0
 10
69.40043266377891
 20
73.78876890393936
 30
0.0
 10
69.42224926856835
 20
73.7879253827459
 30
0.0
 10
69.4393445989431
 20
73.80109380521569
 30
0.0
 10
69.4459896281567
 20
73.81983064953928
 30
0.0
 10
69.44955009415882
 20
73.82987001807433
 30
0.0
  0
SPLINE
  5
FB
330
1F
100
AcDbEntity
  8
0
  6
Continuous
 62
     7
370
    25
100
AcDbSpline
210
0.0
220
0.0
230
1.0
 70
     8
 71
     3
 72
     9
 73
     5
 74
     0
 42
0.00000001
 43
0.00000001
 40
0.0
 40
0.0
 40
0.0
 40
0.0
 40
0.4914284637909107
 40
1.0
 40
1.0
 40
1.0
 40
1.0
 10
69.44955009415882
 20
73.82987001807433
 30
0.0
 10
69.45317879703147
 20
73.8518934321183
 30
0.0
 10
69.46056278705244
 20
73.89670852865153
 30
0.0
 10
69.4528882254661
 20
73.95779833321531
 30
0.0
 10
69.44898516189039
 20
73.98886686896903
 30
0.0
  0
ARC
  5
FC
330
1F
100
AcDbEntity
  8
0
  6
Continuous
 62
     7
370
    25
100
AcDbCircle
 10
68.4990319507
 20
72.580028283
 30
0.0
 40
1.69918723652357
100
AcDbArc
 50
48.4564178435
 51
56.0089570907
  0
SPLINE
  5
FD
330
1F
100
AcDbEntity
  8
0
  6
Continuous
 62
     7
370
    25
100
AcDbSpline
210
0.0
220
0.0
230
1.0
 70
     8
 71
     3
 72
    16
 73
    12
 74
     0
 42
0.00000001
 43
0.00000001
 40
0.0
 40
0.0
 40
0.0
 40
0.0
 40
0.222536480716666
 40
0.3774961613741289
 40
0.4906824263511435
 40
0.5802001287795714
 40
0.6701815568789279
 40
0.7504062365729598
 40
0.8349244330168161
 40
0.9688803847447965
 40
1.0
 40
1.0
 40
1.0
 40
1.0
 10
69.62591517155045
 20
73.85178748636169
 30
0.0
 10
69.63210238809934
 20
73.81220087420621
 30
0.0
 10
69.64259797286493
 20
73.74504876466278
 30
0.0
 10
69.6714732323479
 20
73.65134855804321
 30
0.0
 10
69.69810261824172
 20
73.58751382632822
 30
0.0
 10
69.7228678917598
 20
73.54399577484142
 30
0.0
 10
69.74491055621485
 20
73.51888581564758
 30
0.0
 10
69.76343820321456
 20
73.51095395505209
 30
0.0
 10
69.78006093940849
 20
73.51873028432696
 30
0.0
 10
69.78866112138721
 20
73.5392087504338
 30
0.0
 10
69.79192667040085
 20
73.55730122847612
 30
0.0
 10
69.79254228318207
 20
73.56071197523882
 30
0.0
  0
SPLINE
  5
FE
330
1F
100
AcDbEntity
  8
0
  6
Continuous
 62
     7
370
    25
100
AcDbSpline
210
0.0
220
0.0
230
1.0
 70
     8
 71
     3
 72
     9
 73
     5
 74
     0
 42
0.00000001
 43
0.00000001
 40
0.0
 40
0.0
 40
0.0
 40
0.0
 40
0.605741578542465
 40
1.0
 40
1.0
 40
1.0
 40
1.0
 10
69.79254228318207
 20
73.56071197523882
 30
0.0
 10
69.79457328717415
 20
73.58239731458995
 30
0.0
 10
69.79792620872358
 20
73.61819696929308
 30
0.0
 10
69.79377094205722
 20
73.66507532725693
 30
0.0
 10
69.7921326931806
 20
73.68355751466828
 30
0.0
  0
ARC
  5
FF
330
1F
100
AcDbEntity
  8
0
  6
Continuous
 62
     7
370
    25
100
AcDbCircle
 10
68.319014875
 20
72.4090769048
 30
0.0
 40
1.947916048295357
100
AcDbArc
 50
33.9701525546
 51
40.8650042783
  0
SPLINE
  5
100
330
1F
100
AcDbEntity
  8
0
  6
Continuous
 62
     7
370
    25
100
AcDbSpline
210
0.0
220
0.0
230
1.0
 70
     8
 71
     3
 72
    16
 73
    12
 74
     0
 42
0.00000001
 43
0.00000001
 40
0.0
 40
0.0
 40
0.0
 40
0.0
 40
0.1890783835245929
 40
0.3207400591106687
 40
0.4169089027542082
 40
0.4929677242898939
 40
0.5694205508892428
 40
0.6375835446891536
 40
0.709394530063605
 40
0.823210362572043
 40
0.9999999999999999
 40
0.9999999999999999
 40
0.9999999999999999
 40
0.9999999999999999
 10
69.93447768342428
 20
73.49749633027189
 30
0.0
 10
69.93844326513016
 20
73.45969180029651
 30
0.0
 10
69.9451702155464
 20
73.39556269704886
 30
0.0
 10
69.96609427674646
 20
73.30067084202099
 30
0.0
 10
69.98591743869952
 20
73.2332663638845
 30
0.0
 10
70.00468869962599
 20
73.18463828056962
 30
0.0
 10
70.02165905786947
 20
73.15341013340063
 30
0.0
 10
70.03618204937318
 20
73.13879246574895
 30
0.0
 10
70.04948347082795
 20
73.13893311086571
 30
0.0
 10
70.06202631453817
 20
73.16353745390283
 30
0.0
 10
70.06358044374375
 20
73.20692935360597
 30
0.0
 10
70.06452589717529
 20
73.23332678589624
 30
0.0
  0
ARC
  5
101
330
1F
100
AcDbEntity
  8
0
  6
Continuous
 62
     7
370
    25
100
AcDbCircle
 10
67.8846274385
 20
72.1564616201
 30
0.0
 40
2.451223746069653
100
AcDbArc
 50
21.3832542947
 51
27.2983265821
  0
SPLINE
  5
102
330
1F
100
AcDbEntity
  8
0
  6
Continuous
 62
     7
370
    25
100
AcDbSpline
210
0.0
220
0.0
230
1.0
 70
     8
 71
     3
 72
    17
 73
    13
 74
     0
 42
0.00000001
 43
0.00000001
 40
0.0
 40
0.0
 40
0.0
 40
0.0
 40
0.183330720274776
 40
0.3109901034776933
 40
0.4042355768338537
 40
0.4779823387608808
 40
0.5521111286639893
 40
0.6182020826718762
 40
0.6878301354767891
 40
0.7981861590659786
 40
0.9525307308091294
 40
1.0
 40
1.0
 40
1.0
 40
1.0
 10
70.16711486840896
 20
73.05018919914679
 30
0.0
 10
70.1693013433122
 20
73.01478574291825
 30
0.0
 10
70.17301033466616
 20
72.9547296623035
 30
0.0
 10
70.18654132099209
 20
72.86036349558998
 30
0.0
 10
70.19969112231018
 20
72.7906895179045
 30
0.0
 10
70.21231762335358
 20
72.73797173852961
 30
0.0
 10
70.22384958897895
 20
72.70135499414447
 30
0.0
 10
70.2338123599852
 20
72.68055802767537
 30
0.0
 10
70.24311531251917
 20
72.67311312566304
 30
0.0
 10
70.25145349623811
 20
72.6878056187484
 30
0.0
 10
70.25475395313126
 20
72.72339176117904
 30
0.0
 10
70.25493214466493
 20
72.75404848959299
 30
0.0
 10
70.25497405765685
 20
72.7612593552445
 30
0.0
  0
ARC
  5
103
330
1F
100
AcDbEntity
  8
0
  6
Continuous
 62
     7
370
    25
100
AcDbCircle
 10
67.1707002235
 20
71.9193861434
 30
0.0
 40
3.204358070870775
100
AcDbArc
 50
10.8192467982
 51
15.7665141386
  0
SPLINE
  5
104
330
1F
100
AcDbEntity
  8
0
  6
Continuous
 62
     7
370
    25
100
AcDbSpline
210
0.0
220
0.0
230
1.0
 70
     8
 71
     3
 72
    15
 73
    11
 74
     0
 42
0.00000001
 43
0.00000001
 40
0.0
 40
0.0
 40
0.0
 40
0.0
 40
0.2559095623234424
 40
0.4341080488234856
 40
0.5642684945982931
 40
0.6672108794821017
 40
0.7706865334870794
 40
0.8629422508504224
 40
0.9601353698872025
 40
1.0
 40
1.0
 40
1.0
 40
1.0
 10
70.31809842693131
 20
72.52088027908279
 30
0.0
 10
70.3189922018211
 20
72.48843661693437
 30
0.0
 10
70.32050834240594
 20
72.4334013351572
 30
0.0
 10
70.32738577704858
 20
72.34127560719615
 30
0.0
 10
70.33416094959763
 20
72.27066328991562
 30
0.0
 10
70.34063895509455
 20
72.2150460828124
 30
0.0
 10
70.34651508990008
 20
72.17366534972865
 30
0.0
 10
70.35142404597865
 20
72.14815922970337
 30
0.0
 10
70.35473313830182
 20
72.13579637953573
 30
0.0
 10
70.35590253737855
 20
72.13774478440884
 30
0.0
 10
70.35624266890662
 20
72.13831149763779
 30
0.0
  0
SPLINE
  5
105
330
1F
100
AcDbEntity
  8
0
  6
Continuous
 62
     7
370
    25
100
AcDbSpline
210
0.0
220
0.0
230
1.0
 70
     8
 71
     3
 72
     9
 73
     5
 74
     0
 42
0.00000001
 43
0.00000001
 40
0.0
 40
0.0
 40
0.0
 40
0.0
 40
0.7511036646426533
 40
1.0
 40
1.0
 40
1.0
 40
1.0
 10
70.35936116722077
 20
72.14091846070815
 30
0.0
 10
70.36051181020622
 20
72.15159891006218
 30
0.0
 10
70.36204374652819
 20
72.16581858419876
 30
0.0
 10
70.36229574501306
 20
72.19321206366547
 30
0.0
 10
70.36235846651245
 20
72.20003020031743
 30
0.0
  0
LINE
  5
106
330
1F
100
AcDbEntity
  8
0
  6
Continuous
 62
     7
370
    25
100
AcDbLine
 10
70.3623584665
 20
72.2000302003
 30
0.0
 11
70.3623359252
 21
72.2238874329
 31
0.0
  0
ARC
  5
107
330
1F
100
AcDbEntity
  8
0
  6
Continuous
 62
     7
370
    25
100
AcDbCircle
 10
66.2143367164
 20
71.7782059423
 30
0.0
 40
4.171873611133384
100
AcDbArc
 50
1.9835190415
 51
6.1326141722
  0
SPLINE
  5
108
330
1F
100
AcDbEntity
  8
0
  6
Continuous
 62
     7
370
    25
100
AcDbSpline
210
0.0
220
0.0
230
1.0
 70
     8
 71
     3
 72
    12
 73
     8
 74
     0
 42
0.00000001
 43
0.00000001
 40
0.0
 40
0.0
 40
0.0
 40
0.0
 40
0.3468434130370405
 40
0.5883621860977992
 40
0.7647733051925408
 40
0.9042948028943232
 40
0.9999999999999999
 40
0.9999999999999999
 40
0.9999999999999999
 40
0.9999999999999999
 10
70.38371064269352
 20
71.92260292972053
 30
0.0
 10
70.38382887000505
 20
71.89363017271245
 30
0.0
 10
70.38402942298333
 20
71.84448270728625
 30
0.0
 10
70.38516644275823
 20
71.75602914733504
 30
0.0
 10
70.38599910393292
 20
71.68638202893075
 30
0.0
 10
70.38648867828704
 20
71.63334293985027
 30
0.0
 10
70.3864930063216
 20
71.60888926895664
 30
0.0
 10
70.38649476724166
 20
71.5989399585914
 30
0.0
  0
LINE
  5
109
330
1F
100
AcDbEntity
  8
0
  6
Continuous
 62
     7
370
    25
100
AcDbLine
 10
67.2045585545
 20
65.861802731
 30
0.0
 11
67.5581119451
 21
66.068258428
 31
0.0
  0
LWPOLYLINE
  5
10A
330
1F
100
AcDbEntity
  8
0
  6
Continuous
 62
     7
370
    25
100
AcDbPolyline
 90
       24
 70
   128
 43
0.0
 10
67.5581119451
 20
66.068258428
 10
67.9555141941
 20
66.3787155686
 10
68.3408378254
 20
66.7396312177
 10
68.707885167
 20
67.1452002892
 10
69.0507525085
 20
67.5888994766
 10
69.3639250589
 20
68.0635921762
 10
69.6423656477
 20
68.5616432744
 10
69.8815957448
 20
69.0750419534
 10
70.0777674947
 20
69.5955305398
 10
70.2277256064
 20
70.114737324
 10
70.3290581042
 20
70.6243112131
 10
70.3801351229
 20
71.1160560529
 10
70.3801351229
 20
71.5820624578
 10
70.3290581042
 20
72.0148350271
 10
70.2277256064
 20
72.4074129046
 10
70.0777674947
 20
72.7534817384
 10
69.8815957448
 20
73.0474752434
 10
69.6423656477
 20
73.2846647315
 10
69.3639250589
 20
73.4612351688
 10
69.0507525085
 20
73.5743465382
 10
68.707885167
 20
73.6221795193
 10
68.3408378254
 20
73.6039647507
 10
67.9555141941
 20
73.5199952047
 10
67.5581119451
 20
73.3716214751
  0
LINE
  5
10B
330
1F
100
AcDbEntity
  8
0
  6
Continuous
 62
     7
370
    25
100
AcDbLine
 10
67.5581119451
 20
73.3716214751
 30
0.0
 11
67.2045585547
 21
73.9862812277
 31
0.0
  0
ARC
  5
10C
330
1F
100
AcDbEntity
  8
0
  6
Continuous
 62
     7
370
    25
100
AcDbCircle
 10
68.8686435697
 20
70.3786939831
 30
0.0
 40
3.972891222392834
100
AcDbArc
 50
113.8222614804
 51
114.7626322127
  0
SPLINE
  5
10D
330
1F
100
AcDbEntity
  8
0
  6
Continuous
 62
     7
370
    25
100
AcDbSpline
210
0.0
220
0.0
230
1.0
 70
     8
 71
     3
 72
    13
 73
     9
 74
     0
 42
0.00000001
 43
0.00000001
 40
0.0
 40
0.0
 40
0.0
 40
0.0
 40
0.1201182204190861
 40
0.240101592111039
 40
0.3904062952635968
 40
0.5972489631641332
 40
0.8834694467623609
 40
1.0
 40
1.0
 40
1.0
 40
1.0
 10
67.5436926848427
 20
73.8277628291569
 30
0.0
 10
67.53311613497674
 20
73.82141979217896
 30
0.0
 10
67.51197490883307
 20
73.8087408391283
 30
0.0
 10
67.46825497888526
 20
73.80996536517827
 30
0.0
 10
67.41433298073619
 20
73.83089275580194
 30
0.0
 10
67.34780714568042
 20
73.88363853850744
 30
0.0
 10
67.29631844019836
 20
73.95025943484296
 30
0.0
 10
67.27124456763335
 20
73.99900279433045
 30
0.0
 10
67.2639897824818
 20
74.01310602468428
 30
0.0
  0
SPLINE
  5
10E
330
1F
100
AcDbEntity
  8
0
  6
Continuous
 62
     7
370
    25
100
AcDbSpline
210
0.0
220
0.0
230
1.0
 70
     8
 71
     3
 72
    11
 73
     7
 74
     0
 42
0.00000001
 43
0.00000001
 40
0.0
 40
0.0
 40
0.0
 40
0.0
 40
0.1715085349162477
 40
0.3416504774320172
 40
0.6126794163046547
 40
1.0
 40
1.0
 40
1.0
 40
1.0
 10
67.5436926848427
 20
73.8277628291569
 30
0.0
 10
67.55387144734202
 20
73.83902302006757
 30
0.0
 10
67.57414786722543
 20
73.86145367987405
 30
0.0
 10
67.58801510545848
 20
73.92107737045087
 30
0.0
 10
67.58564565494505
 20
74.0103107732197
 30
0.0
 10
67.55898144522236
 20
74.08142396353138
 30
0.0
 10
67.54329434145826
 20
74.12326131806078
 30
0.0
  0
LINE
  5
10F
330
1F
100
AcDbEntity
  8
0
  6
Continuous
 62
     7
370
    25
100
AcDbLine
 10
67.2045585545
 20
65.861802731
 30
0.0
 11
66.8510051639
 21
66.0659047589
 31
0.0
  0
LINE
  5
110
330
1F
100
AcDbEntity
  8
0
  6
Continuous
 62
     7
370
    25
100
AcDbLine
 10
66.8510051639
 20
74.190383256
 30
0.0
 11
67.2045585547
 21
73.9862812277
 31
0.0
  0
LINE
  5
111
330
1F
100
AcDbEntity
  8
0
  6
Continuous
 62
     7
370
    25
100
AcDbLine
 10
67.5581119451
 20
73.3716214751
 30
0.0
 11
67.5581119451
 21
66.068258428
 31
0.0
  0
LINE
  5
112
330
1F
100
AcDbEntity
  8
0
  6
Continuous
 62
     7
370
    25
100
AcDbLine
 10
63.5029258172
 20
74.1108992505
 30
0.0
 11
65.8926840334
 21
72.7313211874
 31
0.0
  0
LINE
  5
113
330
1F
100
AcDbEntity
  8
0
  6
Continuous
 62
     7
370
    25
100
AcDbLine
 10
65.8938119346
 20
73.0975949597
 30
0.0
 11
63.772491591
 21
74.3222071274
 31
0.0
  0
LINE
  5
114
330
1F
100
AcDbEntity
  8
0
  6
Continuous
 62
     7
370
    25
100
AcDbLine
 10
64.0373956427
 20
74.548573415
 30
0.0
 11
66.1587159863
 21
73.3239612473
 31
0.0
  0
LINE
  5
115
330
1F
100
AcDbEntity
  8
0
  6
Continuous
 62
     7
370
    25
100
AcDbLine
 10
61.2183315179
 20
69.4151968306
 30
0.0
 11
63.3783471977
 21
68.1682463003
 31
0.0
  0
LINE
  5
116
330
1F
100
AcDbEntity
  8
0
  6
Continuous
 62
     7
370
    25
100
AcDbLine
 10
64.0369973033
 20
74.5749913153
 30
0.0
 11
66.4375339705
 21
73.1891909949
 31
0.0
  0
LINE
  5
117
330
1F
100
AcDbEntity
  8
0
  6
Continuous
 62
     7
370
    25
100
AcDbLine
 10
66.438020558
 20
73.5362841746
 30
0.0
 11
64.3167002144
 21
74.7608963424
 31
0.0
  0
LINE
  5
118
330
1F
100
AcDbEntity
  8
0
  6
Continuous
 62
     7
370
    25
100
AcDbLine
 10
63.3182996851
 20
67.8438279857
 30
0.0
 11
61.1969793415
 21
69.0684401534
 31
0.0
  0
LINE
  5
119
330
1F
100
AcDbEntity
  8
0
  6
Continuous
 62
     7
370
    25
100
AcDbLine
 10
61.218354059
 20
69.3944033975
 30
0.0
 11
63.3396744026
 21
68.1697912298
 31
0.0
  0
LINE
  5
11A
330
1F
100
AcDbEntity
  8
0
  6
Continuous
 62
     7
370
    25
100
AcDbLine
 10
64.5882917511
 20
74.9423655341
 30
0.0
 11
66.3560587042
 21
73.9218553943
 31
0.0
  0
LINE
  5
11B
330
1F
100
AcDbEntity
  8
0
  6
Continuous
 62
     7
370
    25
100
AcDbLine
 10
66.4974517733
 20
73.5780771722
 30
0.0
 11
66.1438983827
 21
73.7821792001
 31
0.0
  0
LINE
  5
11C
330
1F
100
AcDbEntity
  8
0
  6
Continuous
 62
     7
370
    25
100
AcDbLine
 10
61.1969793415
 20
68.7418891586
 30
0.0
 11
63.3182996497
 21
67.5172769903
 31
0.0
  0
LINE
  5
11D
330
1F
100
AcDbEntity
  8
0
  6
Continuous
 62
     7
370
    25
100
AcDbLine
 10
63.3396744026
 20
67.2159924702
 30
0.0
 11
61.218354059
 21
68.4406046379
 31
0.0
  0
LINE
  5
11E
330
1F
100
AcDbEntity
  8
0
  6
Continuous
 62
     7
370
    25
100
AcDbLine
 10
66.6388448424
 20
74.0851043571
 30
0.0
 11
64.8710778895
 21
75.1056144969
 31
0.0
  0
ARC
  5
11F
330
1F
100
AcDbEntity
  8
0
  6
Continuous
 62
     7
370
    25
100
AcDbCircle
 10
66.830009118
 20
71.4234891401
 30
0.0
 40
4.170786340849931
100
AcDbArc
 50
113.8636531017
 51
118.0134690751
  0
LINE
  5
120
330
1F
100
AcDbEntity
  8
0
  6
Continuous
 62
     7
370
    25
100
AcDbLine
 10
65.1426694262
 20
75.2377182189
 30
0.0
 11
67.2639897825
 21
74.0131060247
 31
0.0
  0
LINE
  5
121
330
1F
100
AcDbEntity
  8
0
  6
Continuous
 62
     7
370
    25
100
AcDbLine
 10
64.588263464
 20
74.9455888275
 30
0.0
 11
66.4974517733
 21
73.8434378766
 31
0.0
  0
LINE
  5
122
330
1F
100
AcDbEntity
  8
0
  6
Continuous
 62
     7
370
    25
100
AcDbLine
 10
61.2625915573
 20
68.1436117918
 30
0.0
 11
63.3839118658
 21
66.9189996206
 31
0.0
  0
SPLINE
  5
123
330
1F
100
AcDbEntity
  8
0
  6
Continuous
 62
     7
370
    25
100
AcDbSpline
210
0.0
220
0.0
230
1.0
 70
     8
 71
     3
 72
    12
 73
     8
 74
     0
 42
0.00000001
 43
0.00000001
 40
0.0
 40
0.0
 40
0.0
 40
0.0
 40
0.3466424897665393
 40
0.5880213834667201
 40
0.7643303130269951
 40
0.9037709977646939
 40
1.0
 40
1.0
 40
1.0
 40
1.0
 10
64.87107788945033
 20
75.10561449688039
 30
0.0
 10
64.84591552036845
 20
75.09122150949132
 30
0.0
 10
64.80323174236767
 20
75.0668061980203
 30
0.0
 10
64.72614676872257
 20
75.02360600680996
 30
0.0
 10
64.66519797351806
 20
74.98938935971823
 30
0.0
 10
64.61949563701633
 20
74.96354101836806
 30
0.0
 10
64.5973187598929
 20
74.95079379355715
 30
0.0
 10
64.58826346395861
 20
74.94558882748545
 30
0.0
  0
SPLINE
  5
124
330
1F
100
AcDbEntity
  8
0
  6
Continuous
 62
     7
370
    25
100
AcDbSpline
210
0.0
220
0.0
230
1.0
 70
     8
 71
     3
 72
    11
 73
     7
 74
     0
 42
0.00000001
 43
0.00000001
 40
0.0
 40
0.0
 40
0.0
 40
0.0
 40
0.4104880696546124
 40
0.6963248007179564
 40
0.9051068002961676
 40
0.9999999999999999
 40
0.9999999999999999
 40
0.9999999999999999
 40
0.9999999999999999
 10
65.42197399785508
 20
75.3478734858552
 30
0.0
 10
65.39338498845393
 20
75.33239258541796
 30
0.0
 10
65.34488848454647
 20
75.30613181023647
 30
0.0
 10
65.262053077204
 20
75.26628883315958
 30
0.0
 10
65.20354616159409
 20
75.23940697762923
 30
0.0
 10
65.17558929514145
 20
75.22748316928823
 30
0.0
 10
65.1668532623088
 20
75.22375718728902
 30
0.0
  0
LINE
  5
125
330
1F
100
AcDbEntity
  8
0
  6
Continuous
 62
     7
370
    25
100
AcDbLine
 10
67.5432943415
 20
74.1232613181
 30
0.0
 11
65.4219739979
 21
75.3478734859
 31
0.0
  0
ARC
  5
126
330
1F
100
AcDbEntity
  8
0
  6
Continuous
 62
     7
370
    25
100
AcDbCircle
 10
66.3823634562
 20
73.802108865
 30
0.0
 40
1.699052880615332
100
AcDbArc
 50
63.9802779222
 51
71.5332245924
  0
LINE
  5
127
330
1F
100
AcDbEntity
  8
0
  6
Continuous
 62
     7
370
    25
100
AcDbLine
 10
66.9205464256
 20
75.4136732548
 30
0.0
 11
66.8428015963
 21
75.3863538494
 31
0.0
  0
ARC
  5
128
330
1F
100
AcDbEntity
  8
0
  6
Continuous
 62
     7
370
    25
100
AcDbCircle
 10
66.3243464322
 20
73.5609948315
 30
0.0
 40
1.947522097622904
100
AcDbArc
 50
79.1253567802
 51
86.0211448796
  0
SPLINE
  5
129
330
1F
100
AcDbEntity
  8
0
  6
Continuous
 62
     7
370
    25
100
AcDbSpline
210
0.0
220
0.0
230
1.0
 70
     8
 71
     3
 72
     9
 73
     5
 74
     0
 42
0.00000001
 43
0.00000001
 40
0.0
 40
0.0
 40
0.0
 40
0.0
 40
0.7594980329859355
 40
1.0
 40
1.0
 40
1.0
 40
1.0
 10
66.45948171916166
 20
75.50382286683714
 30
0.0
 10
66.42520539901365
 20
75.48800896116967
 30
0.0
 10
66.38007517002112
 20
75.46718743829447
 30
0.0
 10
66.3251654510048
 20
75.45036956780257
 30
0.0
 10
66.3119595555732
 20
75.44632483686827
 30
0.0
  0
ARC
  5
12A
330
1F
100
AcDbEntity
  8
0
  6
Continuous
 62
     7
370
    25
100
AcDbCircle
 10
66.3227002037
 20
73.0587607551
 30
0.0
 40
2.450565696378041
100
AcDbArc
 50
92.6940395791
 51
98.6101763652
  0
SPLINE
  5
12B
330
1F
100
AcDbEntity
  8
0
  6
Continuous
 62
     7
370
    25
100
AcDbSpline
210
0.0
220
0.0
230
1.0
 70
     8
 71
     3
 72
    10
 73
     6
 74
     0
 42
0.00000001
 43
0.00000001
 40
0.0
 40
0.0
 40
0.0
 40
0.0
 40
0.5246343410632297
 40
0.8899549278726251
 40
1.0
 40
1.0
 40
1.0
 40
1.0
 10
65.95582367262226
 20
75.48170810143762
 30
0.0
 10
65.92408650526184
 20
75.46599324608606
 30
0.0
 10
65.87024967782146
 20
75.43933560691481
 30
0.0
 10
65.79361228588272
 20
75.40792460618111
 30
0.0
 10
65.75637590333046
 20
75.39516800191853
 30
0.0
 10
65.74775584353715
 20
75.39221490379337
 30
0.0
  0
ARC
  5
12C
330
1F
100
AcDbEntity
  8
0
  6
Continuous
 62
     7
370
    25
100
AcDbCircle
 10
66.4742257784
 20
72.322164936
 30
0.0
 40
3.203458449570213
100
AcDbArc
 50
104.2279655504
 51
109.1761601441
  0
LINE
  5
12D
330
1F
100
AcDbEntity
  8
0
  6
Continuous
 62
     7
370
    25
100
AcDbLine
 10
63.4475097369
 20
66.6498124518
 30
0.0
 11
61.3261893933
 21
67.8744246196
 31
0.0
  0
LINE
  5
12E
330
1F
100
AcDbEntity
  8
0
  6
Continuous
 62
     7
370
    25
100
AcDbLine
 10
65.6868780496
 20
75.4273589062
 30
0.0
 11
67.8081983932
 21
74.2027467384
 31
0.0
  0
LINE
  5
12F
330
1F
100
AcDbEntity
  8
0
  6
Continuous
 62
     7
370
    25
100
AcDbLine
 10
61.4135751158
 20
67.6143028718
 30
0.0
 11
63.534895425
 21
66.3896906978
 31
0.0
  0
LINE
  5
130
330
1F
100
AcDbEntity
  8
0
  6
Continuous
 62
     7
370
    25
100
AcDbLine
 10
68.0771439927
 20
74.2570959212
 30
0.0
 11
65.9558236726
 21
75.4817081014
 31
0.0
  0
LINE
  5
131
330
1F
100
AcDbEntity
  8
0
  6
Continuous
 62
     7
370
    25
100
AcDbLine
 10
63.6391504241
 20
66.1592291616
 30
0.0
 11
61.5178300805
 21
67.3838413294
 31
0.0
  0
LINE
  5
132
330
1F
100
AcDbEntity
  8
0
  6
Continuous
 62
     7
370
    25
100
AcDbLine
 10
66.207517399
 20
75.5066180127
 30
0.0
 11
68.3288377592
 21
74.28200579
 31
0.0
  0
LINE
  5
133
330
1F
100
AcDbEntity
  8
0
  6
Continuous
 62
     7
370
    25
100
AcDbLine
 10
61.6462123008
 20
67.1669957407
 30
0.0
 11
63.7675326111
 21
65.9423835644
 31
0.0
  0
LINE
  5
134
330
1F
100
AcDbEntity
  8
0
  6
Continuous
 62
     7
370
    25
100
AcDbLine
 10
68.5808020367
 20
74.2792106864
 30
0.0
 11
66.4594817192
 21
75.5038228668
 31
0.0
  0
LINE
  5
135
330
1F
100
AcDbEntity
  8
0
  6
Continuous
 62
     7
370
    25
100
AcDbLine
 10
63.9098776346
 20
65.7563223884
 30
0.0
 11
61.788557291
 21
66.9809345562
 31
0.0
  0
LINE
  5
136
330
1F
100
AcDbEntity
  8
0
  6
Continuous
 62
     7
370
    25
100
AcDbLine
 10
66.6917676056
 20
75.4735439164
 30
0.0
 11
68.8130879492
 21
74.2489317486
 31
0.0
  0
LINE
  5
137
330
1F
100
AcDbEntity
  8
0
  6
Continuous
 62
     7
370
    25
100
AcDbLine
 10
61.9547748126
 20
66.8127045846
 30
0.0
 11
64.0760951245
 21
65.5880924065
 31
0.0
  0
LINE
  5
138
330
1F
100
AcDbEntity
  8
0
  6
Continuous
 62
     7
370
    25
100
AcDbLine
 10
69.0418667408
 20
74.1890610748
 30
0.0
 11
66.9205464256
 21
75.4136732548
 31
0.0
  0
LINE
  5
139
330
1F
100
AcDbEntity
  8
0
  6
Continuous
 62
     7
370
    25
100
AcDbLine
 10
64.2530251659
 20
65.4510130341
 30
0.0
 11
62.1317048223
 21
66.6756252019
 31
0.0
  0
LINE
  5
13A
330
1F
100
AcDbEntity
  8
0
  6
Continuous
 62
     7
370
    25
100
AcDbLine
 10
67.1277048223
 20
75.3289510111
 30
0.0
 11
69.2490251659
 21
74.1043388433
 31
0.0
  0
LINE
  5
13B
330
1F
100
AcDbEntity
  8
0
  6
Continuous
 62
     7
370
    25
100
AcDbLine
 10
62.3316648183
 20
66.5601532276
 30
0.0
 11
64.452985132
 21
65.3355410482
 31
0.0
  0
LINE
  5
13C
330
1F
100
AcDbEntity
  8
0
  6
Continuous
 62
     7
370
    25
100
AcDbLine
 10
69.4489851619
 20
73.988866869
 30
0.0
 11
69.2490363571
 21
74.1042948571
 31
0.0
  0
LINE
  5
13D
330
1F
100
AcDbEntity
  8
0
  6
Continuous
 62
     7
370
    25
100
AcDbLine
 10
64.7365763671
 20
65.2788956349
 30
0.0
 11
64.8889223508
 21
65.1909481421
 31
0.0
  0
LINE
  5
13E
330
1F
100
AcDbEntity
  8
0
  6
Continuous
 62
     7
370
    25
100
AcDbLine
 10
70.093818757
 20
73.2627785759
 30
0.0
 11
69.958465935
 21
73.3409160968
 31
0.0
  0
LINE
  5
13F
330
1F
100
AcDbEntity
  8
0
  6
Continuous
 62
     7
370
    25
100
AcDbLine
 10
69.7921326932
 20
73.6835575147
 30
0.0
 11
69.6411456723
 21
73.7707204665
 31
0.0
  0
LINE
  5
140
330
1F
100
AcDbEntity
  8
0
  6
Continuous
 62
     7
370
    25
100
AcDbLine
 10
65.2683096308
 20
65.2184101532
 30
0.0
 11
65.3731725598
 21
65.1578740455
 31
0.0
  0
LINE
  5
141
330
1F
100
AcDbEntity
  8
0
  6
Continuous
 62
     7
370
    25
100
AcDbLine
 10
70.2750566947
 20
72.7782006652
 30
0.0
 11
70.193663497
 21
72.8251879581
 31
0.0
  0
LINE
  5
142
330
1F
100
AcDbEntity
  8
0
  6
Continuous
 62
     7
370
    25
100
AcDbLine
 10
65.8328565296
 20
65.272321971
 30
0.0
 11
65.8938119346
 21
65.2371331647
 31
0.0
  0
LINE
  5
143
330
1F
100
AcDbEntity
  8
0
  6
Continuous
 62
     7
370
    25
100
AcDbLine
 10
66.4138071588
 20
65.4407519498
 30
0.0
 11
66.438020558
 21
65.426773852
 31
0.0
  0
LINE
  5
144
330
1F
100
AcDbEntity
  8
0
  6
Continuous
 62
     7
370
    25
100
AcDbLine
 10
70.3623359252
 20
72.2238874329
 30
0.0
 11
70.3381557358
 21
72.2378463591
 31
0.0
  0
LWPOLYLINE
  5
145
330
1F
100
AcDbEntity
  8
0
  6
Continuous
 62
     7
370
    25
100
AcDbPolyline
 90
       37
 70
   128
 43
0.0
 10
61.655002489
 20
67.2022340202
 10
61.3260394009
 20
67.0519315508
 10
60.4423613351
 20
66.6837884886
 10
59.5196405591
 20
66.3490863729
 10
58.5616687305
 20
66.0492005665
 10
57.5723823609
 20
65.7853633643
 10
56.5558466404
 20
65.5586589302
 10
55.5162387322
 20
65.3700188413
 10
54.4578306083
 20
65.2202182601
 10
53.3849714945
 20
65.1098727494
 10
52.3020699992
 20
65.0394357425
 10
51.2135759969
 20
65.0091966802
 10
50.1239623429
 20
65.0192798213
 10
49.0377064934
 20
65.0696437321
 10
47.9592721068
 20
65.1600814563
 10
46.8930907012
 20
65.2902213661
 10
45.8435434447
 20
65.4595286885
 10
44.8149431522
 20
65.6673077035
 10
43.8115165629
 20
65.9127046026
 10
42.8373869718
 20
66.1947109972
 10
41.8965572864
 20
66.5121680626
 10
40.9928935777
 20
66.8637712996
 10
40.1301091938
 20
67.248075895
 10
39.3117495006
 20
67.663502659
 10
38.5411773137
 20
68.1083445137
 10
37.8215590796
 20
68.5807735087
 10
37.1558518639
 20
69.0788483317
 10
36.5467912003
 20
69.6005222866
 10
35.9968798498
 20
70.1436517031
 10
35.508377516
 20
70.7060047461
 10
35.0832915599
 20
71.2852705861
 10
34.7233687508
 20
71.8790688956
 10
34.4300880887
 20
72.48495963
 10
34.2046547267
 20
73.1004530543
 10
34.047995019
 20
73.723019974
 10
33.9607527138
 20
74.3501021281
 10
33.9411025872
 20
74.8218271501
  0
LWPOLYLINE
  5
146
330
1F
100
AcDbEntity
  8
0
  6
Continuous
 62
     7
370
    25
100
AcDbPolyline
 90
       50
 70
   128
 43
0.0
 10
38.9202873182
 20
91.1515154438
 10
38.1748090923
 20
90.6926442587
 10
37.4817903048
 20
90.2071429074
 10
36.8440787184
 20
89.6970064189
 10
36.264294827
 20
89.1643310535
 10
35.7448210867
 20
88.6113056886
 10
35.2877921268
 20
88.040202824
 10
34.8950859772
 20
87.4533692439
 10
34.5683163516
 20
86.8532163733
 10
34.3088260167
 20
86.242210369
 10
34.1176812738
 20
85.622861986
 10
33.9956675777
 20
84.9977162594
 10
33.9432863089
 20
84.3693420472
 10
33.9607527131
 20
83.7403214738
 10
34.0479950173
 20
83.1132393197
 10
34.204654724
 20
82.4906723999
 10
34.4300880849
 20
81.8751789755
 10
34.7233687461
 20
81.2692882409
 10
35.0832915542
 20
80.6754899312
 10
35.5083775094
 20
80.096224091
 10
35.9968798423
 20
79.5338710478
 10
36.5467911919
 20
78.990741631
 10
37.1558518547
 20
78.4690676758
 10
37.8215590696
 20
77.9709928524
 10
38.541177303
 20
77.4985638571
 10
39.3117494891
 20
77.0537220019
 10
40.1301091816
 20
76.6382952375
 10
40.992893565
 20
76.2539906416
 10
41.8965572731
 20
75.9023874041
 10
42.837386958
 20
75.5849303382
 10
43.8115165486
 20
75.3029239431
 10
44.8149431375
 20
75.0575270435
 10
45.8435434297
 20
74.8497480279
 10
46.8930906859
 20
74.6804407049
 10
47.9592720913
 20
74.5503007946
 10
49.0377064778
 20
74.4598630698
 10
50.1239623272
 20
74.4094991585
 10
51.2135759812
 20
74.3994160168
 10
52.3020699835
 20
74.4296550785
 10
53.3849714789
 20
74.5000920848
 10
54.4578305929
 20
74.6104375949
 10
55.5162387171
 20
74.7602381755
 10
56.5558466256
 20
74.9488782639
 10
57.5723823464
 20
75.1755826975
 10
58.5616687164
 20
75.4394198991
 10
59.5196405455
 20
75.739305705
 10
60.442361322
 20
76.0740078202
 10
61.3260393884
 20
76.4421508819
 10
62.1670435219
 20
76.8422221113
 10
62.9619178562
 20
77.2725775299
  0
LWPOLYLINE
  5
147
330
1F
100
AcDbEntity
  8
0
  6
Continuous
 62
     7
370
    25
100
AcDbPolyline
 90
       49
 70
   128
 43
0.0
 10
39.2738406993
 20
91.3556838163
 10
38.5357457654
 20
90.9007488055
 10
37.8507724739
 20
90.4189200211
 10
37.2218539855
 20
89.9122607278
 10
36.651683426
 20
89.3829405187
 10
36.142702353
 20
88.833226024
 10
35.6970903017
 20
88.2654712056
 10
35.3167554513
 20
87.6821072768
 10
35.0033264541
 20
87.0856322916
 10
34.758145461
 20
86.4786004473
 10
34.5822623749
 20
85.8636111476
 10
34.476430354
 20
85.243297871
 10
34.4411025872
 20
84.6203168942
 10
34.4764303537
 20
83.9973359173
 10
34.5822623743
 20
83.3770226407
 10
34.7581454601
 20
82.762033341
 10
35.0033264529
 20
82.1550014966
 10
35.3167554498
 20
81.5585265113
 10
35.6970902999
 20
80.9751625825
 10
36.1427023509
 20
80.4074077641
 10
36.6516834236
 20
79.8576932693
 10
37.2218539829
 20
79.32837306
 10
37.850772471
 20
78.8217137667
 10
38.5357457623
 20
78.3398849821
 10
39.273840696
 20
77.8849499712
 10
40.0618966363
 20
77.4588568355
 10
40.8965390067
 20
77.0634301712
 10
41.7741937405
 20
76.700363256
 10
42.6911025852
 20
76.3712107981
 10
43.6433391965
 20
76.077382279
 10
44.626825951
 20
75.8201359175
 10
45.6373514075
 20
75.6005732819
 10
46.6705883408
 20
75.4196345731
 10
47.7221122716
 20
75.2780945986
 10
48.7874204132
 20
75.1765594542
 10
49.8619509526
 20
75.115463929
 10
50.9411025849
 20
75.0950696434
 10
52.0202542172
 20
75.1154639288
 10
53.0947847565
 20
75.1765594538
 10
54.1600928982
 20
75.2780945981
 10
55.2116168291
 20
75.4196345724
 10
56.2448537625
 20
75.600573281
 10
57.255379219
 20
75.8201359164
 10
58.2388659737
 20
76.0773822778
 10
59.1911025851
 20
76.3712107968
 10
60.10801143
 20
76.7003632544
 10
60.9856661639
 20
77.0634301695
 10
61.8203085345
 20
77.4588568337
 10
62.6083644751
 20
77.8849499693
  0
LINE
  5
148
330
1F
100
AcDbEntity
  8
0
  6
Continuous
 62
     7
370
    25
100
AcDbLine
 10
62.6083644751
 20
77.8849499693
 30
0.0
 11
62.9619178562
 21
77.2725775299
 31
0.0
  0
LINE
  5
149
330
1F
100
AcDbEntity
  8
0
  6
Continuous
 62
     7
370
    25
100
AcDbLine
 10
39.2738406993
 20
91.3556838163
 30
0.0
 11
38.9202873182
 21
91.1515154438
 31
0.0
  0
LWPOLYLINE
  5
14A
330
1F
100
AcDbEntity
  8
0
  6
Continuous
 62
     7
370
    25
100
AcDbPolyline
 90
       49
 70
   128
 43
0.0
 10
62.6083644751
 20
77.8849499693
 10
63.346459409
 20
78.3398849801
 10
64.0314327005
 20
78.8217137646
 10
64.6603511888
 20
79.3283730578
 10
65.2305217484
 20
79.857693267
 10
65.7395028214
 20
80.4074077617
 10
66.1851148727
 20
80.97516258
 10
66.5654497231
 20
81.5585265088
 10
66.8788787203
 20
82.1550014941
 10
67.1240597133
 20
82.7620333383
 10
67.2999427995
 20
83.3770226381
 10
67.4057748204
 20
83.9973359147
 10
67.4411025871
 20
84.6203168915
 10
67.4057748207
 20
85.2432978683
 10
67.2999428001
 20
85.8636111449
 10
67.1240597142
 20
86.4786004446
 10
66.8788787215
 20
87.0856322889
 10
66.5654497246
 20
87.6821072742
 10
66.1851148745
 20
88.2654712031
 10
65.7395028235
 20
88.8332260215
 10
65.2305217508
 20
89.3829405163
 10
64.6603511914
 20
89.9122607256
 10
64.0314327034
 20
90.4189200189
 10
63.3464594121
 20
90.9007488034
 10
62.6083644784
 20
91.3556838143
 10
61.8203085381
 20
91.78177695
 10
60.9856661677
 20
92.1772036143
 10
60.1080114339
 20
92.5402705295
 10
59.1911025892
 20
92.8694229874
 10
58.2388659779
 20
93.1632515065
 10
57.2553792234
 20
93.420497868
 10
56.2448537669
 20
93.6400605036
 10
55.2116168336
 20
93.8209992124
 10
54.1600929027
 20
93.9625391869
 10
53.0947847611
 20
94.0640743313
 10
52.0202542218
 20
94.1251698565
 10
50.9411025895
 20
94.1455641421
 10
49.8619509572
 20
94.1251698567
 10
48.7874204179
 20
94.0640743316
 10
47.7221122762
 20
93.9625391874
 10
46.6705883453
 20
93.820999213
 10
45.6373514119
 20
93.6400605045
 10
44.6268259553
 20
93.4204978691
 10
43.6433392007
 20
93.1632515077
 10
42.6911025892
 20
92.8694229887
 10
41.7741937443
 20
92.540270531
 10
40.8965390104
 20
92.1772036159
 10
40.0618966398
 20
91.7817769518
 10
39.2738406993
 20
91.3556838163
  0
LWPOLYLINE
  5
14B
330
1F
100
AcDbEntity
  8
0
  6
Continuous
 62
     7
370
    25
100
AcDbPolyline
 90
       37
 70
   128
 43
0.0
 10
44.2235881659
 20
88.4982554239
 10
44.8346202952
 20
88.82148331
 10
45.4921264419
 20
89.112737783
 10
46.1911025872
 20
89.3698022204
 10
46.9262291007
 20
89.5907202066
 10
47.6919112256
 20
89.7738104224
 10
48.4823216587
 20
89.9176794406
 10
49.2914448994
 20
90.0212323313
 10
50.1131230311
 20
90.0836809943
 10
50.9411025872
 20
90.1045501576
 10
51.7690821433
 20
90.0836809943
 10
52.590760275
 20
90.0212323313
 10
53.3998835157
 20
89.9176794406
 10
54.1902939488
 20
89.7738104224
 10
54.9559760737
 20
89.5907202066
 10
55.6911025872
 20
89.3698022204
 10
56.3900787325
 20
89.112737783
 10
57.0475848792
 20
88.82148331
 10
57.6586170085
 20
88.4982554239
 10
58.2185247968
 20
88.145514084
 10
58.7230470079
 20
87.7659438649
 10
59.1683439231
 20
87.3624335252
 10
59.551026564
 20
86.9380540221
 10
59.8681824847
 20
86.49603514
 10
60.1173979369
 20
86.0397409095
 10
60.2967762408
 20
85.5726440051
 10
60.4049522191
 20
85.0982993164
 10
60.4411025872
 20
84.6203168928
 10
60.4049522191
 20
84.1423344692
 10
60.2967762408
 20
83.6679897804
 10
60.1173979369
 20
83.2008928761
 10
59.8681824847
 20
82.7445986455
 10
59.551026564
 20
82.3025797634
 10
59.1683439231
 20
81.8782002604
 10
58.7230470079
 20
81.4746899206
 10
58.2185247968
 20
81.0951197015
 10
57.6586170085
 20
80.7423783616
  0
LWPOLYLINE
  5
14C
330
1F
100
AcDbEntity
  8
0
  6
Continuous
 62
     7
370
    25
100
AcDbPolyline
 90
       37
 70
   128
 43
0.0
 10
57.6586170085
 20
80.7423783616
 10
57.0475848792
 20
80.4191504755
 10
56.3900787325
 20
80.1278960025
 10
55.6911025872
 20
79.8708315652
 10
54.9559760737
 20
79.6499135789
 10
54.1902939488
 20
79.4668233632
 10
53.3998835157
 20
79.3229543449
 10
52.590760275
 20
79.2194014543
 10
51.7690821433
 20
79.1569527913
 10
50.9411025872
 20
79.136083628
 10
50.1131230311
 20
79.1569527913
 10
49.2914448994
 20
79.2194014543
 10
48.4823216587
 20
79.3229543449
 10
47.6919112256
 20
79.4668233632
 10
46.9262291007
 20
79.6499135789
 10
46.1911025872
 20
79.8708315652
 10
45.4921264419
 20
80.1278960025
 10
44.8346202952
 20
80.4191504755
 10
44.2235881659
 20
80.7423783616
 10
43.6636803776
 20
81.0951197015
 10
43.1591581664
 20
81.4746899206
 10
42.7138612512
 20
81.8782002604
 10
42.3311786103
 20
82.3025797634
 10
42.0140226897
 20
82.7445986455
 10
41.7648072374
 20
83.2008928761
 10
41.5854289336
 20
83.6679897804
 10
41.4772529553
 20
84.1423344692
 10
41.4411025872
 20
84.6203168928
 10
41.4772529553
 20
85.0982993164
 10
41.5854289336
 20
85.5726440051
 10
41.7648072374
 20
86.0397409095
 10
42.0140226897
 20
86.49603514
 10
42.3311786103
 20
86.9380540221
 10
42.7138612512
 20
87.3624335252
 10
43.1591581664
 20
87.7659438649
 10
43.6636803776
 20
88.145514084
 10
44.2235881659
 20
88.4982554239
  0
LINE
  5
14D
330
1F
100
AcDbEntity
  8
0
  6
Continuous
 62
     7
370
    25
100
AcDbLine
 10
44.2235881659
 20
87.2734442061
 30
0.0
 11
44.2235881659
 21
88.4982554239
 31
0.0
  0
ARC
  5
14E
330
1F
100
AcDbEntity
  8
0
  6
Continuous
 62
     7
370
    25
100
AcDbCircle
 10
46.4589124464
 20
82.6413205669
 30
0.0
 40
5.143271726076838
100
AcDbArc
 50
115.7605662072
 51
164.5911783297
  0
LWPOLYLINE
  5
14F
330
1F
100
AcDbEntity
  8
0
  6
Continuous
 62
     7
370
    25
100
AcDbPolyline
 90
       26
 70
   128
 43
0.0
 10
62.9619178562
 20
77.2725775299
 10
63.7073960821
 20
77.731448715
 10
64.4004148696
 20
78.2169500663
 10
65.0381264559
 20
78.7270865548
 10
65.6179103474
 20
79.2597619202
 10
66.1373840876
 20
79.8127872851
 10
66.5944130476
 20
80.3838901497
 10
66.9871191972
 20
80.9707237298
 10
67.3138888227
 20
81.5708766004
 10
67.5733791577
 20
82.1818826046
 10
67.7645239006
 20
82.8012309877
 10
67.8865375967
 20
83.4263767143
 10
67.9389188655
 20
84.0547509265
 10
67.9214524613
 20
84.6837714998
 10
67.8342101571
 20
85.310853654
 10
67.6775504504
 20
85.9334205738
 10
67.4521170895
 20
86.5489139982
 10
67.1588364283
 20
87.1548047327
 10
66.7989136201
 20
87.7486030425
 10
66.3738276649
 20
88.3278688827
 10
65.8853253321
 20
88.8902219259
 10
65.3354139824
 20
89.4333513427
 10
64.7263533197
 20
89.9550252979
 10
64.0606461048
 20
90.4531001213
 10
63.3410278714
 20
90.9255291166
 10
62.9638711117
 20
91.1503876701
  0
LWPOLYLINE
  5
150
330
1F
100
AcDbEntity
  8
0
  6
Continuous
 62
     7
370
    25
100
AcDbPolyline
 90
       27
 70
   128
 43
0.0
 10
44.2235881659
 20
87.2734442061
 10
44.8346202952
 20
87.5966720922
 10
45.4921264419
 20
87.8879265652
 10
46.1911025872
 20
88.1449910025
 10
46.9262291007
 20
88.3659089888
 10
47.6919112256
 20
88.5489992046
 10
48.4823216587
 20
88.6928682228
 10
49.2914448994
 20
88.7964211135
 10
50.1131230311
 20
88.8588697764
 10
50.9411025872
 20
88.8797389398
 10
51.7690821433
 20
88.8588697764
 10
52.590760275
 20
88.7964211135
 10
53.3998835157
 20
88.6928682228
 10
54.1902939488
 20
88.5489992046
 10
54.9559760737
 20
88.3659089888
 10
55.6911025872
 20
88.1449910025
 10
56.3900787325
 20
87.8879265652
 10
57.0475848792
 20
87.5966720922
 10
57.6586170085
 20
87.2734442061
 10
58.2185247968
 20
86.9207028662
 10
58.7230470079
 20
86.5411326471
 10
59.1683439231
 20
86.1376223073
 10
59.551026564
 20
85.7132428043
 10
59.8681824847
 20
85.2712239222
 10
60.1173979369
 20
84.8149296917
 10
60.2967762408
 20
84.3478327873
 10
60.3816870104
 20
84.0079112839
  0
LINE
  5
151
330
1F
100
AcDbEntity
  8
0
  6
Continuous
 62
     8
370
    25
100
AcDbLine
 10
67.2825765861
 20
73.978501939
 30
0.0
 11
67.5436926848
 21
73.8277628292
 31
0.0
  0
LINE
  5
152
330
1F
100
AcDbEntity
  8
0
  6
Continuous
 62
     8
370
    25
100
AcDbLine
 10
67.8491259698
 20
74.1247311171
 30
0.0
 11
68.077764167
 21
73.9927410953
 31
0.0
  0
LINE
  5
153
330
1F
100
AcDbEntity
  8
0
  6
Continuous
 62
     8
370
    25
100
AcDbLine
 10
68.3801232151
 20
74.1648143146
 30
0.0
 11
68.581506869
 21
74.0485580058
 31
0.0
  0
LINE
  5
154
330
1F
100
AcDbEntity
  8
0
  6
Continuous
 62
     8
370
    25
100
AcDbLine
 10
68.8717394446
 20
74.0924269265
 30
0.0
 11
69.0425424196
 21
73.9938245122
 31
0.0
  0
LINE
  5
155
330
1F
100
AcDbEntity
  8
0
  6
Continuous
 62
     8
370
    25
100
AcDbLine
 10
69.3093472079
 20
73.9108074215
 30
0.0
 11
69.4495500942
 21
73.8298700181
 31
0.0
  0
LINE
  5
156
330
1F
100
AcDbEntity
  8
0
  6
Continuous
 62
     8
370
    25
100
AcDbLine
 10
69.6843875078
 20
73.6231483981
 30
0.0
 11
69.7925422832
 21
73.5607119752
 31
0.0
  0
LINE
  5
157
330
1F
100
AcDbEntity
  8
0
  6
Continuous
 62
     8
370
    25
100
AcDbLine
 10
70.3412629115
 20
72.212208371
 30
0.0
 11
70.3623584665
 21
72.2000302003
 31
0.0
  0
LINE
  5
158
330
1F
100
AcDbEntity
  8
0
  6
Continuous
 62
     8
370
    25
100
AcDbLine
 10
62.9619178562
 20
77.2725775299
 30
0.0
 11
62.9619178674
 21
73.6238272792
 31
0.0
  0
ENDSEC
  0
SECTION
  2
OBJECTS
  0
DICTIONARY
  5
C
330
0
100
AcDbDictionary
281
     1
  3
ACAD_GROUP
350
D
  3
ACAD_LAYOUT
350
1A
  3
ACAD_MLINESTYLE
350
17
  3
ACAD_PLOTSETTINGS
350
19
  3
ACAD_PLOTSTYLENAME
350
E
  3
ACAD_SCALELIST
350
47
  3
DWGPROPS
350
159
  0
DICTIONARY
  5
D
102
{ACAD_REACTORS
330
C
102
}
330
C
100
AcDbDictionary
281
     1
  0
DICTIONARY
  5
1A
102
{ACAD_REACTORS
330
C
102
}
330
C
100
AcDbDictionary
281
     1
  3
Layout1
350
1E
  3
Layout2
350
26
  3
Model
350
22
  0
DICTIONARY
  5
17
102
{ACAD_REACTORS
330
C
102
}
330
C
100
AcDbDictionary
281
     1
  3
Standard
350
18
  0
DICTIONARY
  5
19
102
{ACAD_REACTORS
330
C
102
}
330
C
100
AcDbDictionary
281
     1
  0
ACDBDICTIONARYWDFLT
  5
E
102
{ACAD_REACTORS
330
C
102
}
330
C
100
AcDbDictionary
281
     1
  3
Normal
350
F
100
AcDbDictionaryWithDefault
340
F
  0
DICTIONARY
  5
47
102
{ACAD_REACTORS
330
C
102
}
330
C
100
AcDbDictionary
281
     1
  3
A0
350
48
  3
A1
350
49
  3
A2
350
4A
  3
A3
350
4B
  3
A4
350
4C
  3
A5
350
4D
  3
A6
350
4E
  3
A7
350
4F
  3
A8
350
50
  3
A9
350
51
  3
B0
350
52
  3
B1
350
53
  3
B2
350
54
  3
B3
350
55
  3
B4
350
56
  3
B5
350
57
  3
B6
350
58
  3
B7
350
59
  3
B8
350
5A
  3
B9
350
5B
  3
C0
350
5C
  3
C1
350
5D
  3
C2
350
5E
  3
C3
350
5F
  3
C4
350
60
  3
C5
350
61
  3
C6
350
62
  3
C7
350
63
  3
C8
350
64
  3
C9
350
65
  3
D0
350
66
  3
D1
350
67
  3
D2
350
68
  0
XRECORD
  5
159
102
{ACAD_REACTORS
330
C
102
}
330
C
100
AcDbXrecord
280
     1
  1
DWGPROPS COOKIE
  2

  3

  4

  6

  7

  8
9222
  9

300
=
301
=
302
=
303
=
304
=
305
=
306
=
307
=
308
=
309
=
 40
0.0
 41
2459755.219727222
 42
2459755.219727616
  1

 90
        0
  0
LAYOUT
  5
1E
102
{ACAD_REACTORS
330
1A
102
}
330
1A
100
AcDbPlotSettings
  1

  2
none_device
  4

  6

 40
0.0
 41
0.0
 42
0.0
 43
0.0
 44
0.0
 45
0.0
 46
0.0
 47
0.0
 48
0.0
 49
0.0
140
0.0
141
0.0
142
1.0
143
1.0
 70
   688
 72
     1
 73
     0
 74
     5
  7

 75
    16
147
1.0
148
0.0
149
0.0
100
AcDbLayout
  1
Layout1
 70
     1
 71
     1
 10
0.0
 20
0.0
 11
420.0
 21
297.0
 12
0.0
 22
0.0
 32
0.0
 14
1.0000000000E+20
 24
1.0000000000E+20
 34
1.0000000000E+20
 15
-1.0000000000E+20
 25
-1.0000000000E+20
 35
-1.0000000000E+20
146
0.0
 13
0.0
 23
0.0
 33
0.0
 16
1.0
 26
0.0
 36
0.0
 17
0.0
 27
1.0
 37
0.0
 76
     0
330
1B
  0
LAYOUT
  5
26
102
{ACAD_REACTORS
330
1A
102
}
330
1A
100
AcDbPlotSettings
  1

  2
none_device
  4

  6

 40
0.0
 41
0.0
 42
0.0
 43
0.0
 44
0.0
 45
0.0
 46
0.0
 47
0.0
 48
0.0
 49
0.0
140
0.0
141
0.0
142
1.0
143
1.0
 70
   688
 72
     1
 73
     0
 74
     5
  7

 75
    16
147
1.0
148
0.0
149
0.0
100
AcDbLayout
  1
Layout2
 70
     1
 71
     2
 10
0.0
 20
0.0
 11
0.0
 21
0.0
 12
0.0
 22
0.0
 32
0.0
 14
0.0
 24
0.0
 34
0.0
 15
0.0
 25
0.0
 35
0.0
146
0.0
 13
0.0
 23
0.0
 33
0.0
 16
1.0
 26
0.0
 36
0.0
 17
0.0
 27
1.0
 37
0.0
 76
     0
330
23
  0
LAYOUT
  5
22
102
{ACAD_REACTORS
330
1A
102
}
330
1A
100
AcDbPlotSettings
  1

  2
none_device
  4
Letter_(8.50_x_11.00_Inches)
  6

 40
6.35
 41
6.35
 42
6.35000508
 43
6.35000508
 44
215.9
 45
279.4
 46
0.0
 47
0.0
 48
0.0
 49
0.0
140
0.0
141
0.0
142
1.0
143
1.0
 70
  1712
 72
     1
 73
     0
 74
     0
  7

 75
     0
147
1.0
148
0.0
149
0.0
100
AcDbLayout
  1
Model
 70
     1
 71
     0
 10
0.0
 20
0.0
 11
105.0
 21
148.5
 12
0.0
 22
0.0
 32
0.0
 14
0.0
 24
0.0
 34
0.0
 15
105.0
 25
148.5
 35
0.0
146
0.0
 13
0.0
 23
0.0
 33
0.0
 16
1.0
 26
0.0
 36
0.0
 17
0.0
 27
1.0
 37
0.0
 76
     0
330
1F
331
29
  0
MLINESTYLE
  5
18
102
{ACAD_REACTORS
330
17
102
}
330
17
100
AcDbMlineStyle
  2
Standard
 70
     0
  3

 62
   256
 51
90.0
 52
90.0
 71
     2
 49
0.5
 62
   256
  6
BYLAYER
 49
-0.5
 62
   256
  6
BYLAYER
  0
ACDBPLACEHOLDER
  5
F
102
{ACAD_REACTORS
330
E
102
}
330
E
  0
SCALE
  5
48
102
{ACAD_REACTORS
330
47
102
}
330
47
100
AcDbScale
 70
     0
300
1:1
140
1.0
141
1.0
290
     1
  0
SCALE
  5
49
102
{ACAD_REACTORS
330
47
102
}
330
47
100
AcDbScale
 70
     0
300
1:2
140
1.0
141
2.0
290
     0
  0
SCALE
  5
4A
102
{ACAD_REACTORS
330
47
102
}
330
47
100
AcDbScale
 70
     0
300
1:4
140
1.0
141
4.0
290
     0
  0
SCALE
  5
4B
102
{ACAD_REACTORS
330
47
102
}
330
47
100
AcDbScale
 70
     0
300
1:5
140
1.0
141
5.0
290
     0
  0
SCALE
  5
4C
102
{ACAD_REACTORS
330
47
102
}
330
47
100
AcDbScale
 70
     0
300
1:8
140
1.0
141
8.0
290
     0
  0
SCALE
  5
4D
102
{ACAD_REACTORS
330
47
102
}
330
47
100
AcDbScale
 70
     0
300
1:10
140
1.0
141
10.0
290
     0
  0
SCALE
  5
4E
102
{ACAD_REACTORS
330
47
102
}
330
47
100
AcDbScale
 70
     0
300
1:16
140
1.0
141
16.0
290
     0
  0
SCALE
  5
4F
102
{ACAD_REACTORS
330
47
102
}
330
47
100
AcDbScale
 70
     0
300
1:20
140
1.0
141
20.0
290
     0
  0
SCALE
  5
50
102
{ACAD_REACTORS
330
47
102
}
330
47
100
AcDbScale
 70
     0
300
1:30
140
1.0
141
30.0
290
     0
  0
SCALE
  5
51
102
{ACAD_REACTORS
330
47
102
}
330
47
100
AcDbScale
 70
     0
300
1:40
140
1.0
141
40.0
290
     0
  0
SCALE
  5
52
102
{ACAD_REACTORS
330
47
102
}
330
47
100
AcDbScale
 70
     0
300
1:50
140
1.0
141
50.0
290
     0
  0
SCALE
  5
53
102
{ACAD_REACTORS
330
47
102
}
330
47
100
AcDbScale
 70
     0
300
1:100
140
1.0
141
100.0
290
     0
  0
SCALE
  5
54
102
{ACAD_REACTORS
330
47
102
}
330
47
100
AcDbScale
 70
     0
300
2:1
140
2.0
141
1.0
290
     0
  0
SCALE
  5
55
102
{ACAD_REACTORS
330
47
102
}
330
47
100
AcDbScale
 70
     0
300
4:1
140
4.0
141
1.0
290
     0
  0
SCALE
  5
56
102
{ACAD_REACTORS
330
47
102
}
330
47
100
AcDbScale
 70
     0
300
8:1
140
8.0
141
1.0
290
     0
  0
SCALE
  5
57
102
{ACAD_REACTORS
330
47
102
}
330
47
100
AcDbScale
 70
     0
300
10:1
140
10.0
141
1.0
290
     0
  0
SCALE
  5
58
102
{ACAD_REACTORS
330
47
102
}
330
47
100
AcDbScale
 70
     0
300
100:1
140
100.0
141
1.0
290
     0
  0
SCALE
  5
59
102
{ACAD_REACTORS
330
47
102
}
330
47
100
AcDbScale
 70
     0
300
1/128" = 1'-0"
140
0.0078125
141
12.0
290
     0
  0
SCALE
  5
5A
102
{ACAD_REACTORS
330
47
102
}
330
47
100
AcDbScale
 70
     0
300
1/64" = 1'-0"
140
0.015625
141
12.0
290
     0
  0
SCALE
  5
5B
102
{ACAD_REACTORS
330
47
102
}
330
47
100
AcDbScale
 70
     0
300
1/32" = 1'-0"
140
0.03125
141
12.0
290
     0
  0
SCALE
  5
5C
102
{ACAD_REACTORS
330
47
102
}
330
47
100
AcDbScale
 70
     0
300
1/16" = 1'-0"
140
0.0625
141
12.0
290
     0
  0
SCALE
  5
5D
102
{ACAD_REACTORS
330
47
102
}
330
47
100
AcDbScale
 70
     0
300
3/32" = 1'-0"
140
0.09375
141
12.0
290
     0
  0
SCALE
  5
5E
102
{ACAD_REACTORS
330
47
102
}
330
47
100
AcDbScale
 70
     0
300
1/8" = 1'-0"
140
0.125
141
12.0
290
     0
  0
SCALE
  5
5F
102
{ACAD_REACTORS
330
47
102
}
330
47
100
AcDbScale
 70
     0
300
3/16" = 1'-0"
140
0.1875
141
12.0
290
     0
  0
SCALE
  5
60
102
{ACAD_REACTORS
330
47
102
}
330
47
100
AcDbScale
 70
     0
300
1/4" = 1'-0"
140
0.25
141
12.0
290
     0
  0
SCALE
  5
61
102
{ACAD_REACTORS
330
47
102
}
330
47
100
AcDbScale
 70
     0
300
3/8" = 1'-0"
140
0.375
141
12.0
290
     0
  0
SCALE
  5
62
102
{ACAD_REACTORS
330
47
102
}
330
47
100
AcDbScale
 70
     0
300
1/2" = 1'-0"
140
0.5
141
12.0
290
     0
  0
SCALE
  5
63
102
{ACAD_REACTORS
330
47
102
}
330
47
100
AcDbScale
 70
     0
300
3/4" = 1'-0"
140
0.75
141
12.0
290
     0
  0
SCALE
  5
64
102
{ACAD_REACTORS
330
47
102
}
330
47
100
AcDbScale
 70
     0
300
1" = 1'-0"
140
1.0
141
12.0
290
     0
  0
SCALE
  5
65
102
{ACAD_REACTORS
330
47
102
}
330
47
100
AcDbScale
 70
     0
300
1-1/2" = 1'-0"
140
1.5
141
12.0
290
     0
  0
SCALE
  5
66
102
{ACAD_REACTORS
330
47
102
}
330
47
100
AcDbScale
 70
     0
300
3" = 1'-0"
140
3.0
141
12.0
290
     0
  0
SCALE
  5
67
102
{ACAD_REACTORS
330
47
102
}
330
47
100
AcDbScale
 70
     0
300
6" = 1'-0"
140
6.0
141
12.0
290
     0
  0
SCALE
  5
68
102
{ACAD_REACTORS
330
47
102
}
330
47
100
AcDbScale
 70
     0
300
1'-0" = 1'-0"
140
12.0
141
12.0
290
     0
  0
ENDSEC
  0
EOF
