  0
SECTION
  2
HEADER
  9
$ACADVER
  1
AC1015
  9
$ACADMAINTVER
 70
     6
  9
$DWGCODEPAGE
  3
DOS932
  9
$INSBASE
 10
0.0
 20
0.0
 30
0.0
  9
$EXTMIN
 10
0.0
 20
0.0
 30
0.0
  9
$EXTMAX
 10
210.0
 20
297.0
 30
0.0
  9
$LIMMIN
 10
0.0
 20
0.0
  9
$LIMMAX
 10
210.0
 20
297.0
  9
$ORTHOMODE
 70
     0
  9
$REGENMODE
 70
     1
  9
$FILLMODE
 70
     1
  9
$QTEXTMODE
 70
     0
  9
$MIRRTEXT
 70
     1
  9
$LTSCALE
 40
1.0
  9
$ATTMODE
 70
     1
  9
$TEXTSIZE
 40
3.5
  9
$TRACEWID
 40
1.0
  9
$TEXTSTYLE
  7
Standard
  9
$CLAYER
  8
0
  9
$CELTYPE
  6
ByLayer
  9
$CECOLOR
 62
   256
  9
$CELTSCALE
 40
1.0
  9
$DISPSILH
 70
     0
  9
$DIMSCALE
 40
1.0
  9
$DIMASZ
 40
3.302
  9
$DIMEXO
 40
1.0
  9
$DIMDLI
 40
3.75
  9
$DIMRND
 40
0.0
  9
$DIMDLE
 40
0.0
  9
$DIMEXE
 40
1.0
  9
$DIMTP
 40
0.0
  9
$DIMTM
 40
0.0
  9
$DIMTXT
 40
3.5
  9
$DIMCEN
 40
2.5
  9
$DIMTSZ
 40
0.0
  9
$DIMTOL
 70
     0
  9
$DIMLIM
 70
     0
  9
$DIMTIH
 70
     1
  9
$DIMTOH
 70
     1
  9
$DIMSE1
 70
     0
  9
$DIMSE2
 70
     0
  9
$DIMTAD
 70
     1
  9
$DIMZIN
 70
     1
  9
$DIMBLK
  1

  9
$DIMASO
 70
     1
  9
$DIMSHO
 70
     1
  9
$DIMPOST
  1

  9
$DIMAPOST
  1

  9
$DIMALT
 70
     0
  9
$DIMALTD
 70
     3
  9
$DIMALTF
 40
0.0393700787
  9
$DIMLFAC
 40
1.0
  9
$DIMTOFL
 70
     1
  9
$DIMTVP
 40
0.0
  9
$DIMTIX
 70
     0
  9
$DIMSOXD
 70
     0
  9
$DIMSAH
 70
     0
  9
$DIMBLK1
  1

  9
$DIMBLK2
  1

  9
$DIMSTYLE
  2
ISO-25
  9
$DIMCLRD
 70
     0
  9
$DIMCLRE
 70
     0
  9
$DIMCLRT
 70
     0
  9
$DIMTFAC
 40
1.0
  9
$DIMGAP
 40
1.524
  9
$DIMJUST
 70
     0
  9
$DIMSD1
 70
     0
  9
$DIMSD2
 70
     0
  9
$DIMTOLJ
 70
     0
  9
$DIMTZIN
 70
     1
  9
$DIMALTZ
 70
     0
  9
$DIMALTTZ
 70
     0
  9
$DIMUPT
 70
     0
  9
$DIMDEC
 70
     2
  9
$DIMTDEC
 70
     2
  9
$DIMALTU
 70
     2
  9
$DIMALTTD
 70
     3
  9
$DIMTXSTY
  7
Standard
  9
$DIMAUNIT
 70
     0
  9
$DIMADEC
 70
     2
  9
$DIMALTRND
 40
0.0
  9
$DIMAZIN
 70
     0
  9
$DIMDSEP
 70
    44
  9
$DIMATFIT
 70
     3
  9
$DIMFRAC
 70
     0
  9
$DIMLDRBLK
  1

  9
$DIMLUNIT
 70
     2
  9
$DIMLWD
 70
    -2
  9
$DIMLWE
 70
    -2
  9
$DIMTMOVE
 70
     0
  9
$LUNITS
 70
     2
  9
$LUPREC
 70
     2
  9
$SKETCHINC
 40
1.0
  9
$FILLETRAD
 40
10.0
  9
$AUNITS
 70
     0
  9
$AUPREC
 70
     2
  9
$MENU
  1
.
  9
$ELEVATION
 40
0.0
  9
$PELEVATION
 40
0.0
  9
$THICKNESS
 40
0.0
  9
$LIMCHECK
 70
     0
  9
$CHAMFERA
 40
0.0
  9
$CHAMFERB
 40
0.0
  9
$CHAMFERC
 40
0.0
  9
$CHAMFERD
 40
0.0
  9
$SKPOLY
 70
     0
  9
$TDCREATE
 40
2459669.492294757
  9
$TDUCREATE
 40
2459669.117294757
  9
$TDUPDATE
 40
2459669.492295301
  9
$TDUUPDATE
 40
2459669.117295301
  9
$TDINDWG
 40
0.0000000116
  9
$TDUSRTIMER
 40
0.0000000116
  9
$USRTIMER
 70
     1
  9
$ANGBASE
 50
0.0
  9
$ANGDIR
 70
     0
  9
$PDMODE
 70
     0
  9
$PDSIZE
 40
-1.0
  9
$PLINEWID
 40
0.0
  9
$SPLFRAME
 70
     0
  9
$SPLINETYPE
 70
     6
  9
$SPLINESEGS
 70
     8
  9
$HANDSEED
  5
C2
  9
$SURFTAB1
 70
     6
  9
$SURFTAB2
 70
     6
  9
$SURFTYPE
 70
     6
  9
$SURFU
 70
     6
  9
$SURFV
 70
     6
  9
$UCSBASE
  2

  9
$UCSNAME
  2

  9
$UCSORG
 10
0.0
 20
0.0
 30
0.0
  9
$UCSXDIR
 10
1.0
 20
0.0
 30
0.0
  9
$UCSYDIR
 10
0.0
 20
1.0
 30
0.0
  9
$UCSORTHOREF
  2

  9
$UCSORTHOVIEW
 70
     0
  9
$UCSORGTOP
 10
0.0
 20
0.0
 30
0.0
  9
$UCSORGBOTTOM
 10
0.0
 20
0.0
 30
0.0
  9
$UCSORGLEFT
 10
0.0
 20
0.0
 30
0.0
  9
$UCSORGRIGHT
 10
0.0
 20
0.0
 30
0.0
  9
$UCSORGFRONT
 10
0.0
 20
0.0
 30
0.0
  9
$UCSORGBACK
 10
0.0
 20
0.0
 30
0.0
  9
$PUCSBASE
  2

  9
$PUCSNAME
  2

  9
$PUCSORG
 10
0.0
 20
0.0
 30
0.0
  9
$PUCSXDIR
 10
1.0
 20
0.0
 30
0.0
  9
$PUCSYDIR
 10
0.0
 20
1.0
 30
0.0
  9
$PUCSORTHOREF
  2

  9
$PUCSORTHOVIEW
 70
     0
  9
$PUCSORGTOP
 10
0.0
 20
0.0
 30
0.0
  9
$PUCSORGBOTTOM
 10
0.0
 20
0.0
 30
0.0
  9
$PUCSORGLEFT
 10
0.0
 20
0.0
 30
0.0
  9
$PUCSORGRIGHT
 10
0.0
 20
0.0
 30
0.0
  9
$PUCSORGFRONT
 10
0.0
 20
0.0
 30
0.0
  9
$PUCSORGBACK
 10
0.0
 20
0.0
 30
0.0
  9
$USERI1
 70
     0
  9
$USERI2
 70
     0
  9
$USERI3
 70
     0
  9
$USERI4
 70
     0
  9
$USERI5
 70
     0
  9
$USERR1
 40
0.0
  9
$USERR2
 40
0.0
  9
$USERR3
 40
0.0
  9
$USERR4
 40
0.0
  9
$USERR5
 40
0.0
  9
$WORLDVIEW
 70
     1
  9
$SHADEDGE
 70
     3
  9
$SHADEDIF
 70
    70
  9
$TILEMODE
 70
     1
  9
$MAXACTVP
 70
    64
  9
$PINSBASE
 10
0.0
 20
0.0
 30
0.0
  9
$PLIMCHECK
 70
     0
  9
$PEXTMIN
 10
1.0000000000E+20
 20
1.0000000000E+20
 30
1.0000000000E+20
  9
$PEXTMAX
 10
-1.0000000000E+20
 20
-1.0000000000E+20
 30
-1.0000000000E+20
  9
$PLIMMIN
 10
0.0
 20
0.0
  9
$PLIMMAX
 10
420.0
 20
297.0
  9
$UNITMODE
 70
     0
  9
$VISRETAIN
 70
     1
  9
$PLINEGEN
 70
     0
  9
$PSLTSCALE
 70
     1
  9
$TREEDEPTH
 70
  3020
  9
$CMLSTYLE
  2
Standard
  9
$CMLJUST
 70
     0
  9
$CMLSCALE
 40
20.0
  9
$PROXYGRAPHICS
 70
     1
  9
$MEASUREMENT
 70
     1
  9
$CELWEIGHT
370
    -1
  9
$ENDCAPS
280
     0
  9
$JOINSTYLE
280
     0
  9
$LWDISPLAY
290
     1
  9
$INSUNITS
 70
     4
  9
$HYPERLINKBASE
  1

  9
$STYLESHEET
  1

  9
$XEDIT
290
     1
  9
$CEPSNTYPE
380
     0
  9
$PSTYLEMODE
290
     1
  9
$FINGERPRINTGUID
  2
{bd2dff28-5056-41f0-8f4a-36e3ab1ad874}
  9
$VERSIONGUID
  2
{FAEB1C32-E019-11D5-929B-00C0DF256EC4}
  9
$EXTNAMES
290
     1
  9
$PSVPSCALE
 40
0.0
  9
$OLESTARTUP
290
     0
  0
ENDSEC
  0
SECTION
  2
CLASSES
  0
CLASS
  1
ACDBDICTIONARYWDFLT
  2
AcDbDictionaryWithDefault
  3
ObjectDBX Classes
 90
        0
280
     0
281
     0
  0
CLASS
  1
VISUALSTYLE
  2
AcDbVisualStyle
  3
ObjectDBX Classes
 90
     4095
280
     0
281
     0
  0
CLASS
  1
MATERIAL
  2
AcDbMaterial
  3
ObjectDBX Classes
 90
     1153
280
     0
281
     0
  0
CLASS
  1
SCALE
  2
AcDbScale
  3
ObjectDBX Classes
 90
     1153
280
     0
281
     0
  0
CLASS
  1
TABLESTYLE
  2
AcDbTableStyle
  3
ObjectDBX Classes
 90
     4095
280
     0
281
     0
  0
CLASS
  1
MLEADERSTYLE
  2
AcDbMLeaderStyle
  3
ACDB_MLEADERSTYLE_CLASS
 90
     4095
280
     0
281
     0
  0
CLASS
  1
SUN
  2
AcDbSun
  3
SCENEOE
 90
     1153
280
     0
281
     0
  0
CLASS
  1
ACDBPLACEHOLDER
  2
AcDbPlaceHolder
  3
ObjectDBX Classes
 90
        0
280
     0
281
     0
  0
CLASS
  1
LAYOUT
  2
AcDbLayout
  3
ObjectDBX Classes
 90
        0
280
     0
281
     0
  0
ENDSEC
  0
SECTION
  2
TABLES
  0
TABLE
  2
VPORT
  5
8
330
0
100
AcDbSymbolTable
 70
     1
  0
VPORT
  5
29
330
8
100
AcDbSymbolTableRecord
100
AcDbViewportTableRecord
  2
*Active
 70
     0
 10
0.0
 20
0.0
 11
1.0
 21
1.0
 12
105.0
 22
148.5
 13
0.0
 23
0.0
 14
10.0
 24
10.0
 15
10.0
 25
10.0
 16
0.0
 26
0.0
 36
1.0
 17
0.0
 27
0.0
 37
0.0
 40
297.0
 41
0.7070707071
 42
50.0
 43
0.0
 44
0.0
 50
0.0
 51
0.0
 71
     0
 72
  2000
 73
     1
 74
     3
 75
     0
 76
     0
 77
     0
 78
     0
281
     0
 65
     1
110
0.0
120
0.0
130
0.0
111
1.0
121
0.0
131
0.0
112
0.0
122
1.0
132
0.0
 79
     0
146
0.0
  0
ENDTAB
  0
TABLE
  2
LTYPE
  5
5
330
0
100
AcDbSymbolTable
 70
     6
  0
LTYPE
  5
14
330
5
100
AcDbSymbolTableRecord
100
AcDbLinetypeTableRecord
  2
ByBlock
 70
     0
  3

 72
    65
 73
     0
 40
0.0
  0
LTYPE
  5
15
330
5
100
AcDbSymbolTableRecord
100
AcDbLinetypeTableRecord
  2
ByLayer
 70
     0
  3

 72
    65
 73
     0
 40
0.0
  0
LTYPE
  5
16
330
5
100
AcDbSymbolTableRecord
100
AcDbLinetypeTableRecord
  2
Continuous
 70
     0
  3
Solid line
 72
    65
 73
     0
 40
0.0
  0
LTYPE
  5
6E
330
5
100
AcDbSymbolTableRecord
100
AcDbLinetypeTableRecord
  2
HIDDEN
 70
     0
  3
Hidden __ __ __ __ __ __ __ __ __ __ __ __ __ __
 72
    65
 73
     2
 40
1.905
 49
1.27
 74
     0
 49
-0.635
 74
     0
  0
LTYPE
  5
6F
330
5
100
AcDbSymbolTableRecord
100
AcDbLinetypeTableRecord
  2
PHANTOM
 70
     0
  3
Phantom ______  __  __  ______  __  __  ______
 72
    65
 73
     6
 40
12.7
 49
6.35
 74
     0
 49
-1.27
 74
     0
 49
1.27
 74
     0
 49
-1.27
 74
     0
 49
1.27
 74
     0
 49
-1.27
 74
     0
  0
LTYPE
  5
70
330
5
100
AcDbSymbolTableRecord
100
AcDbLinetypeTableRecord
  2
CENTER
 70
     0
  3
Center ____ _ ____ _ ____ _ ____ _ ____ _ ____
 72
    65
 73
     4
 40
10.16
 49
6.35
 74
     0
 49
-1.27
 74
     0
 49
1.27
 74
     0
 49
-1.27
 74
     0
  0
LTYPE
  5
71
330
5
100
AcDbSymbolTableRecord
100
AcDbLinetypeTableRecord
  2
CENTERX2
 70
     0
  3
Center (2x) ________  __  ________  __  _____
 72
    65
 73
     4
 40
20.32
 49
12.7
 74
     0
 49
-2.54
 74
     0
 49
2.54
 74
     0
 49
-2.54
 74
     0
  0
LTYPE
  5
72
330
5
100
AcDbSymbolTableRecord
100
AcDbLinetypeTableRecord
  2
DOT2
 70
     0
  3
Dot (.5x) ........................................
 72
    65
 73
     2
 40
0.635
 49
0.0
 74
     0
 49
-0.635
 74
     0
  0
ENDTAB
  0
TABLE
  2
LAYER
  5
2
330
0
100
AcDbSymbolTable
 70
     2
  0
LAYER
  5
10
330
2
100
AcDbSymbolTableRecord
100
AcDbLayerTableRecord
  2
0
 70
     0
 62
     7
  6
Continuous
370
    -3
390
F
  0
LAYER
  5
73
330
2
100
AcDbSymbolTableRecord
100
AcDbLayerTableRecord
  2
FORMAT
 70
     0
 62
     7
  6
Continuous
370
    -3
390
F
  0
ENDTAB
  0
TABLE
  2
STYLE
  5
3
330
0
100
AcDbSymbolTable
 70
     2
  0
STYLE
  5
11
330
3
100
AcDbSymbolTableRecord
100
AcDbTextStyleTableRecord
  2
Standard
 70
     0
 40
0.0
 41
1.0
 50
0.0
 71
     0
 42
3.5
  3
txt
  4
bigfont
  0
STYLE
  5
BF
330
3
100
AcDbSymbolTableRecord
100
AcDbTextStyleTableRecord
  2
SLDTEXTSTYLE0
 70
     0
 40
0.0
 41
0.7
 50
0.0
 71
     0
 42
3.5
  3
TXT
  4
bigfont
  0
ENDTAB
  0
TABLE
  2
VIEW
  5
6
330
0
100
AcDbSymbolTable
 70
     0
  0
ENDTAB
  0
TABLE
  2
UCS
  5
7
330
0
100
AcDbSymbolTable
 70
     0
  0
ENDTAB
  0
TABLE
  2
APPID
  5
9
330
0
100
AcDbSymbolTable
 70
     1
  0
APPID
  5
12
330
9
100
AcDbSymbolTableRecord
100
AcDbRegAppTableRecord
  2
ACAD
 70
     0
  0
ENDTAB
  0
TABLE
  2
DIMSTYLE
  5
A
330
0
100
AcDbSymbolTable
 70
     1
100
AcDbDimStyleTable
  0
DIMSTYLE
105
27
330
A
100
AcDbSymbolTableRecord
100
AcDbDimStyleTableRecord
  2
ISO-25
 70
     0
 41
2.5
 42
0.625
 43
3.75
 44
1.25
 73
     0
 74
     0
 77
     1
 78
     8
140
2.5
141
2.5
143
0.0393700787
147
0.625
171
     3
172
     1
178
     0
271
     2
272
     2
274
     3
278
    44
283
     0
284
     8
340
11
  0
ENDTAB
  0
TABLE
  2
BLOCK_RECORD
  5
1
330
0
100
AcDbSymbolTable
 70
     1
  0
BLOCK_RECORD
  5
1F
330
1
100
AcDbSymbolTableRecord
100
AcDbBlockTableRecord
  2
*Model_Space
340
22
  0
BLOCK_RECORD
  5
1B
330
1
100
AcDbSymbolTableRecord
100
AcDbBlockTableRecord
  2
*Paper_Space
340
1E
  0
BLOCK_RECORD
  5
23
330
1
100
AcDbSymbolTableRecord
100
AcDbBlockTableRecord
  2
*Paper_Space0
340
26
  0
ENDTAB
  0
ENDSEC
  0
SECTION
  2
BLOCKS
  0
BLOCK
  5
20
330
1F
100
AcDbEntity
  8
0
100
AcDbBlockBegin
  2
*Model_Space
 70
     0
 10
0.0
 20
0.0
 30
0.0
  3
*Model_Space
  1

  0
ENDBLK
  5
21
330
1F
100
AcDbEntity
  8
0
100
AcDbBlockEnd
  0
BLOCK
  5
1C
330
1B
100
AcDbEntity
 67
     1
  8
0
100
AcDbBlockBegin
  2
*Paper_Space
 70
     0
 10
0.0
 20
0.0
 30
0.0
  3
*Paper_Space
  1

  0
ENDBLK
  5
1D
330
1B
100
AcDbEntity
 67
     1
  8
0
100
AcDbBlockEnd
  0
BLOCK
  5
24
330
23
100
AcDbEntity
  8
0
100
AcDbBlockBegin
  2
*Paper_Space0
 70
     0
 10
0.0
 20
0.0
 30
0.0
  3
*Paper_Space0
  1

  0
ENDBLK
  5
25
330
23
100
AcDbEntity
  8
0
100
AcDbBlockEnd
  0
ENDSEC
  0
SECTION
  2
ENTITIES
  0
LINE
  5
74
330
1F
100
AcDbEntity
  8
0
  6
Continuous
 62
     7
370
    25
100
AcDbLine
 10
95.93293336
 20
135.5613126683
 30
0.0
 11
96.2997795309
 21
135.7257653078
 31
0.0
  0
LINE
  5
75
330
1F
100
AcDbEntity
  8
0
  6
Continuous
 62
     7
370
    25
100
AcDbLine
 10
90.9001225054
 20
147.7708350048
 30
0.0
 11
90.5332763345
 21
147.6063823654
 31
0.0
  0
LINE
  5
76
330
1F
100
AcDbEntity
  8
0
  6
Continuous
 62
     7
370
    25
100
AcDbLine
 10
96.5760775029
 20
134.260594399
 30
0.0
 11
97.4168191714
 21
134.6374885782
 31
0.0
  0
LINE
  5
77
330
1F
100
AcDbEntity
  8
0
  6
Continuous
 62
     7
370
    25
100
AcDbLine
 10
90.8308738601
 20
149.3288235875
 30
0.0
 11
89.9901321916
 21
148.9519294083
 31
0.0
  0
LINE
  5
78
330
1F
100
AcDbEntity
  8
0
  6
Continuous
 62
     7
370
    25
100
AcDbLine
 10
98.2919125425
 20
131.9065126056
 30
0.0
 11
98.6419125425
 21
132.0634133132
 31
0.0
  0
LINE
  5
79
330
1F
100
AcDbEntity
  8
0
  6
Continuous
 62
     7
370
    25
100
AcDbLine
 10
89.724297152
 20
151.956028419
 30
0.0
 11
89.374297152
 21
151.7991277114
 31
0.0
  0
LINE
  5
7A
330
1F
100
AcDbEntity
  8
0
  6
Continuous
 62
     7
370
    25
100
AcDbLine
 10
109.1412385596
 20
135.0167178922
 30
0.0
 11
124.4964164244
 21
141.9002558144
 31
0.0
  0
LINE
  5
7B
330
1F
100
AcDbEntity
  8
0
  6
Continuous
 62
     7
370
    25
100
AcDbLine
 10
114.2697932701
 20
164.7128878164
 30
0.0
 11
98.9146154053
 21
157.8293498943
 31
0.0
  0
LINE
  5
7C
330
1F
100
AcDbEntity
  8
0
  6
Continuous
 62
     7
370
    25
100
AcDbLine
 10
126.1862638251
 20
130.790395089
 30
0.0
 11
125.9612638251
 21
130.9689055431
 31
0.0
  0
LINE
  5
7D
330
1F
100
AcDbEntity
  8
0
  6
Continuous
 62
     7
370
    25
100
AcDbLine
 10
105.5541726591
 20
173.4482672395
 30
0.0
 11
105.5541726591
 21
173.7380449874
 31
0.0
  0
LINE
  5
7E
330
1F
100
AcDbEntity
  8
0
  6
Continuous
 62
     7
370
    25
100
AcDbLine
 10
88.2790011023
 20
157.9930127504
 30
0.0
 11
87.7790011023
 21
157.7688688823
 31
0.0
  0
LINE
  5
7F
330
1F
100
AcDbEntity
  8
0
  6
Continuous
 62
     7
370
    25
100
AcDbLine
 10
101.6872085922
 20
126.7436893596
 30
0.0
 11
102.1872085922
 21
126.9678332276
 31
0.0
  0
LWPOLYLINE
  5
80
330
1F
100
AcDbEntity
  8
0
  6
Continuous
 62
     7
370
    25
100
AcDbPolyline
 90
       29
 70
   128
 43
0.0
 10
88.4148671086
 20
138.8743049018
 10
88.1008913448
 20
139.5444884506
 10
87.8514561436
 20
140.2403181228
 10
87.6696982973
 20
140.9530434568
 10
87.5579035164
 20
141.6737015178
 10
87.517477685
 20
142.3932296126
 10
87.5489291815
 20
143.1025792579
 10
87.651862485
 20
143.7928299704
 10
87.8249831495
 20
144.4553014469
 10
88.0661140823
 20
145.0816627241
 10
88.3722229218
 20
145.6640369457
 10
88.739460172
 20
146.1951004177
 10
89.1632076112
 20
146.6681747091
 10
89.6381363695
 20
147.077310636
 10
90.1582739423
 20
147.4173630768
 10
90.7170792978
 20
147.6840556747
 10
91.3075251344
 20
147.8740346157
 10
91.9221862532
 20
147.9849108042
 10
92.5533329338
 20
148.0152899079
 10
93.1930281407
 20
147.9647898919
 10
93.8332273355
 20
147.8340458232
 10
94.4658796417
 20
147.6247018844
 10
95.0830290897
 20
147.339390697
 10
95.6769146669
 20
146.9817002146
 10
96.2400679177
 20
146.5561286026
 10
96.7654068633
 20
146.068027671
 10
97.2463250614
 20
145.5235355721
 10
97.6767746869
 20
144.9294996101
 10
98.0513425859
 20
144.2933901319
  0
LWPOLYLINE
  5
81
330
1F
100
AcDbEntity
  8
0
  6
Continuous
 62
     7
370
    25
100
AcDbPolyline
 90
       29
 70
   128
 43
0.0
 10
98.0513425859
 20
144.2933901319
 10
98.3653183497
 20
143.6232065831
 10
98.6147535509
 20
142.9273769108
 10
98.7965113972
 20
142.2146515769
 10
98.9083061781
 20
141.4939935159
 10
98.9487320095
 20
140.7744654211
 10
98.917280513
 20
140.0651157757
 10
98.8143472095
 20
139.3748650632
 10
98.641226545
 20
138.7123935868
 10
98.4000956122
 20
138.0860323095
 10
98.0939867727
 20
137.503658088
 10
97.7267495225
 20
136.9725946159
 10
97.3030020833
 20
136.4995203246
 10
96.828073325
 20
136.0903843977
 10
96.3079357522
 20
135.7503319569
 10
95.7491303967
 20
135.4836393589
 10
95.1586845601
 20
135.293660418
 10
94.5440234413
 20
135.1827842295
 10
93.9128767607
 20
135.1524051258
 10
93.2731815538
 20
135.2029051418
 10
92.632982359
 20
135.3336492104
 10
92.0003300528
 20
135.5429931492
 10
91.3831806048
 20
135.8283043367
 10
90.7892950276
 20
136.1859948191
 10
90.2261417768
 20
136.6115664311
 10
89.7008028312
 20
137.0996673627
 10
89.219884633
 20
137.6441594615
 10
88.7894350076
 20
138.2381954235
 10
88.4148671086
 20
138.8743049018
  0
LINE
  5
82
330
1F
100
AcDbEntity
  8
0
  6
Continuous
 62
     7
370
    25
100
AcDbLine
 10
96.2997795309
 20
135.7257653078
 30
0.0
 11
96.6424321628
 21
135.8967623946
 31
0.0
  0
LWPOLYLINE
  5
83
330
1F
100
AcDbEntity
  8
0
  6
Continuous
 62
     7
370
    25
100
AcDbPolyline
 90
        3
 70
   128
 43
0.0
 10
91.2533610779
 20
147.9120271202
 10
91.0839254687
 20
147.8485083142
 10
90.9001225054
 20
147.7708350048
  0
LWPOLYLINE
  5
84
330
1F
100
AcDbEntity
  8
0
  6
Continuous
 62
     7
370
    25
100
AcDbPolyline
 90
       31
 70
   128
 43
0.0
 10
99.0368912142
 20
144.8476147577
 10
98.6179477036
 20
145.5642292742
 10
98.1400067278
 20
146.2372338952
 10
97.6083047081
 20
146.8592550413
 10
97.0286670832
 20
147.4234777185
 10
96.4074444842
 20
147.9237201853
 10
95.7514431558
 20
148.3545016804
 10
95.0678503859
 20
148.7111024717
 10
94.36415576
 20
148.9896155662
 10
93.6480691036
 20
149.1869895161
 10
92.9274360119
 20
149.3010618513
 10
92.210151892
 20
149.3305827713
 10
91.5040754587
 20
149.2752288388
 10
90.8169426332
 20
149.1356065229
 10
90.1562817865
 20
148.9132455551
 10
89.5293312572
 20
148.6105821686
 10
88.9429600464
 20
148.2309324068
 10
88.4035925598
 20
147.778455792
 10
87.9171382204
 20
147.2581097526
 10
87.4889267239
 20
146.6755953087
 10
87.1236496449
 20
146.0372946105
 10
86.8253090356
 20
145.350201014
 10
86.5971735781
 20
144.6218424604
 10
86.4417427723
 20
143.8601989985
 10
86.3607195506
 20
143.0736153534
 10
86.3549916203
 20
142.2707095001
 10
86.4246217378
 20
141.4602782432
 10
86.5688470211
 20
140.6512008371
 10
86.7860873077
 20
139.8523417032
 10
87.0739624676
 20
139.0724533094
 10
87.4293184803
 20
138.320080276
  0
LWPOLYLINE
  5
85
330
1F
100
AcDbEntity
  8
0
  6
Continuous
 62
     7
370
    25
100
AcDbPolyline
 90
       31
 70
   128
 43
0.0
 10
87.4293184803
 20
138.320080276
 10
87.8482619909
 20
137.6034657595
 10
88.3262029667
 20
136.9304611385
 10
88.8579049864
 20
136.3084399924
 10
89.4375426113
 20
135.7442173151
 10
90.0587652103
 20
135.2439748484
 10
90.7147665387
 20
134.8131933532
 10
91.3983593086
 20
134.456592562
 10
92.1020539345
 20
134.1780794675
 10
92.8181405909
 20
133.9807055175
 10
93.5387736826
 20
133.8666331823
 10
94.2560578025
 20
133.8371122623
 10
94.9621342358
 20
133.8924661949
 10
95.6492670613
 20
134.0320885108
 10
96.309927908
 20
134.2544494786
 10
96.9368784373
 20
134.5571128651
 10
97.5232496481
 20
134.9367626269
 10
98.0626171347
 20
135.3892392417
 10
98.5490714741
 20
135.9095852811
 10
98.9772829706
 20
136.492099725
 10
99.3425600496
 20
137.1304004232
 10
99.6409006589
 20
137.8174940197
 10
99.8690361164
 20
138.5458525733
 10
100.0244669222
 20
139.3074960352
 10
100.1054901439
 20
140.0940796803
 10
100.1112180742
 20
140.8969855336
 10
100.0415879567
 20
141.7074167905
 10
99.8973626734
 20
142.5164941966
 10
99.6801223868
 20
143.3153533304
 10
99.3922472269
 20
144.0952417243
 10
99.0368912142
 20
144.8476147577
  0
LWPOLYLINE
  5
86
330
1F
100
AcDbEntity
  8
0
  6
Continuous
 62
     7
370
    25
100
AcDbPolyline
 90
       29
 70
   128
 43
0.0
 10
98.0878443869
 20
144.3139169699
 10
98.404198755
 20
143.638656273
 10
98.6555236168
 20
142.9375551638
 10
98.8386584165
 20
142.2194303955
 10
98.9513001276
 20
141.4933128038
 10
98.9920322153
 20
140.7683337385
 10
98.9603424499
 20
140.0536102323
 10
98.8566293486
 20
139.3581303477
 10
98.6821971639
 20
138.6906401479
 10
98.4392394817
 20
138.0595337095
 10
98.1308116357
 20
137.472747562
 10
97.7607922852
 20
136.9376608818
 10
97.3338346382
 20
136.4610026943
 10
96.8553079347
 20
136.0487672528
 10
96.3312299257
 20
135.7061386572
 10
95.7681911963
 20
135.4374256608
 10
95.1732722852
 20
135.2460074854
 10
94.5539546428
 20
135.1342913258
 10
93.9180265479
 20
135.1036820774
 10
93.2734851652
 20
135.1545646692
 10
92.6284359765
 20
135.2862992233
 10
91.9909908498
 20
135.497229101
 10
91.3691660272
 20
135.7847017369
 10
90.7707813168
 20
136.1451019956
 10
90.2033617535
 20
136.573897635
 10
89.6740429675
 20
137.0656963009
 10
89.1894814496
 20
137.6143133399
 10
88.7557708421
 20
138.2128495743
 10
88.3783653076
 20
138.8537780638
  0
LWPOLYLINE
  5
87
330
1F
100
AcDbEntity
  8
0
  6
Continuous
 62
     7
370
    25
100
AcDbPolyline
 90
       29
 70
   128
 43
0.0
 10
88.3783653076
 20
138.8537780638
 10
88.0620109395
 20
139.5290387607
 10
87.8106860777
 20
140.2301398699
 10
87.627551278
 20
140.9482646381
 10
87.5149095669
 20
141.6743822299
 10
87.4741774792
 20
142.3993612951
 10
87.5058672446
 20
143.1140848014
 10
87.6095803459
 20
143.809564686
 10
87.7840125306
 20
144.4770548858
 10
88.0269702128
 20
145.1081613242
 10
88.3353980588
 20
145.6949474716
 10
88.7054174093
 20
146.2300341518
 10
89.1323750563
 20
146.7066923393
 10
89.6109017598
 20
147.1189277808
 10
90.1349797688
 20
147.4615563765
 10
90.6980184982
 20
147.7302693729
 10
91.2929374093
 20
147.9216875482
 10
91.9122550517
 20
148.0334037079
 10
92.5481831466
 20
148.0640129563
 10
93.1927245293
 20
148.0131303644
 10
93.837773718
 20
147.8813958104
 10
94.4752188447
 20
147.6704659327
 10
95.0970436673
 20
147.3829932968
 10
95.6954283777
 20
147.022593038
 10
96.262847941
 20
146.5937973987
 10
96.792166727
 20
146.1019987327
 10
97.2767282449
 20
145.5533816938
 10
97.7104388524
 20
144.9548454593
 10
98.0878443869
 20
144.3139169699
  0
ARC
  5
88
330
1F
100
AcDbEntity
  8
0
  6
Continuous
 62
     7
370
    25
100
AcDbCircle
 10
99.9477898447
 20
143.2331843241
 30
0.0
 40
1.85367794933227
100
AcDbArc
 50
115.1534600433
 51
119.4326867582
  0
LWPOLYLINE
  5
89
330
1F
100
AcDbEntity
  8
0
  6
Continuous
 62
     7
370
    25
100
AcDbPolyline
 90
       31
 70
   128
 43
0.0
 10
99.1598948163
 20
144.9110828205
 10
99.519720716
 20
144.1492459753
 10
99.8112169471
 20
143.3595476646
 10
100.0311898159
 20
142.5506399881
 10
100.1772292536
 20
141.7313855078
 10
100.2477352217
 20
140.910760147
 10
100.241935242
 20
140.097754849
 10
100.1598928602
 20
139.30127707
 10
100.0025069499
 20
138.5300531872
 10
99.7715018641
 20
137.7925328908
 10
99.4694085427
 20
137.0967966076
 10
99.0995367835
 20
136.4504669698
 10
98.6659389788
 20
135.8606253002
 10
98.1733657169
 20
135.3337340276
 10
97.6272137337
 20
134.875565883
 10
97.0334667843
 20
134.4911406525
 10
96.3986300848
 20
134.1846701794
 10
95.7296590388
 20
133.9595122182
 10
95.0338830332
 20
133.8181336468
 10
94.3189251353
 20
133.7620834384
 10
93.5926185736
 20
133.7919756907
 10
92.8629209148
 20
133.907482898
 10
92.137826879
 20
134.1073395392
 10
91.4252807483
 20
134.3893559431
 10
90.7330893273
 20
134.7504422789
 10
90.0688364099
 20
135.1866424091
 10
89.4397996901
 20
135.693177234
 10
88.8528710259
 20
136.2644970519
 10
88.3144809305
 20
136.8943423633
 10
87.8305281185
 20
137.5758124512
 10
87.4063148782
 20
138.3014409868
  0
LWPOLYLINE
  5
8A
330
1F
100
AcDbEntity
  8
0
  6
Continuous
 62
     7
370
    25
100
AcDbPolyline
 90
        9
 70
   128
 43
0.0
 10
87.4293184803
 20
138.320080276
 10
87.41603692
 20
138.3125017873
 10
87.4051872346
 20
138.306075908
 10
87.3971863714
 20
138.301049581
 10
87.3923417991
 20
138.2976159652
 10
87.3908396919
 20
138.2959070126
 10
87.3927377749
 20
138.2959883973
 10
87.3979631058
 20
138.2978569917
 10
87.4063148782
 20
138.3014409868
  0
LWPOLYLINE
  5
8B
330
1F
100
AcDbEntity
  8
0
  6
Continuous
 62
     7
370
    25
100
AcDbPolyline
 90
       31
 70
   128
 43
0.0
 10
87.4063148782
 20
138.3014409868
 10
87.0464889785
 20
139.0632778319
 10
86.7549927474
 20
139.8529761427
 10
86.5350198786
 20
140.6618838191
 10
86.3889804409
 20
141.4811382995
 10
86.3184744728
 20
142.3017636603
 10
86.3242744525
 20
143.1147689583
 10
86.4063168343
 20
143.9112467373
 10
86.5637027446
 20
144.6824706201
 10
86.7947078304
 20
145.4199909165
 10
87.0968011518
 20
146.1157271997
 10
87.466672911
 20
146.7620568375
 10
87.9002707157
 20
147.3518985071
 10
88.3928439775
 20
147.8787897797
 10
88.9389959608
 20
148.3369579243
 10
89.5327429102
 20
148.7213831548
 10
90.1675796097
 20
149.0278536279
 10
90.8365506557
 20
149.253011589
 10
91.5323266613
 20
149.3943901604
 10
92.2472845592
 20
149.4504403689
 10
92.9735911209
 20
149.4205481166
 10
93.7032887797
 20
149.3050409092
 10
94.4283828155
 20
149.1051842681
 10
95.1409289462
 20
148.8231678642
 10
95.8331203672
 20
148.4620815284
 10
96.4973732846
 20
148.0258813981
 10
97.1264100044
 20
147.5193465733
 10
97.7133386686
 20
146.9480267554
 10
98.251728764
 20
146.318181444
 10
98.735681576
 20
145.636711356
 10
99.1598948163
 20
144.9110828205
  0
LINE
  5
8C
330
1F
100
AcDbEntity
  8
0
  6
Continuous
 62
     7
370
    25
100
AcDbLine
 10
95.9112282363
 20
135.5516495
 30
0.0
 11
96.2486316859
 21
135.6607805743
 31
0.0
  0
LWPOLYLINE
  5
8D
330
1F
100
AcDbEntity
  8
0
  6
Continuous
 62
     7
370
    25
100
AcDbPolyline
 90
        3
 70
   128
 43
0.0
 10
90.8175780086
 20
147.7758871011
 10
90.7349797688
 20
147.7305290181
 10
90.511621209
 20
147.5966076656
  0
LWPOLYLINE
  5
8E
330
1F
100
AcDbEntity
  8
0
  6
Continuous
 62
     7
370
    25
100
AcDbPolyline
 90
       33
 70
   128
 43
0.0
 10
86.6627806582
 20
137.8890166781
 10
87.1053996545
 20
137.1271021441
 10
87.6070318016
 20
136.4081085043
 10
88.1628461076
 20
135.7389600605
 10
88.767489777
 20
135.1261010781
 10
89.4151397606
 20
134.5754337241
 10
90.0995588352
 20
134.092261226
 10
90.8141556708
 20
133.6812367993
 10
91.5520483093
 20
133.3463188337
 10
92.3061304413
 20
133.0907327725
 10
93.0691398435
 20
132.9169400491
 10
93.8337283183
 20
132.8266143824
 10
94.5925324608
 20
132.820625658
 10
95.3382445722
 20
132.8990315505
 10
96.0636830372
 20
133.0610769685
 10
96.761861487
 20
133.3052013258
 10
97.4260560813
 20
133.6290535715
 10
98.0498702631
 20
134.0295148314
 10
98.6272963608
 20
134.5027284447
 10
99.1527734455
 20
135.0441371056
 10
99.6212408856
 20
135.6485267527
 10
100.0281870835
 20
136.3100767834
 10
100.3696929249
 20
137.0224161091
 10
100.6424695219
 20
137.7786845129
 10
100.8438898867
 20
138.5715987165
 10
100.972014231
 20
139.3935225227
 10
101.0256086475
 20
140.2365403559
 10
101.0041569926
 20
141.0925334937
 10
100.9078658574
 20
141.953258254
 10
100.7376625783
 20
142.810425387
 10
100.4951863058
 20
143.6557799046
 10
100.182772219
 20
144.4811805807
 10
99.8034290363
 20
145.2786783555
  0
LWPOLYLINE
  5
8F
330
1F
100
AcDbEntity
  8
0
  6
Continuous
 62
     7
370
    25
100
AcDbPolyline
 90
       36
 70
   128
 43
0.0
 10
101.7904974762
 20
146.3276708409
 10
102.2136634012
 20
145.4460588159
 10
102.5693539964
 20
144.535516146
 10
102.8547054503
 20
143.6033739854
 10
103.0674202808
 20
142.6571373947
 10
103.2057858331
 20
141.7044249145
 10
103.2686880691
 20
140.7529072256
 10
103.255620537
 20
139.8102453889
 10
103.166688449
 20
138.8840291632
 10
103.0026078339
 20
137.981715897
 10
102.7646997723
 20
137.1105704861
 10
102.45487976
 20
136.2776068812
 10
102.0756422857
 20
135.4895316155
 10
101.6300407465
 20
134.7526898075
 10
101.1216628639
 20
134.0730140743
 10
100.5546017978
 20
133.4559767652
 10
99.9334231904
 20
132.9065459019
 10
99.2631284066
 20
132.4291451786
 10
98.5491142659
 20
132.0276183452
 10
97.7971295904
 20
131.7051982596
 10
97.0132289185
 20
131.4644808589
 10
96.2037237574
 20
131.307404258
 10
95.3751317667
 20
131.2352331453
 10
94.534124282
 20
131.2485486002
 10
93.687472601
 20
131.3472434144
 10
92.8419934652
 20
131.5305229555
 10
92.0044941755
 20
131.7969115642
 10
91.1817177837
 20
132.1442644361
 10
90.3802888015
 20
132.5697848902
 10
89.606659864
 20
133.0700468859
 10
88.8670597763
 20
133.6410226078
 10
88.1674433636
 20
134.2781148951
 10
87.5134435257
 20
134.9761942554
 10
86.910325885
 20
135.729640164
 10
86.3629463899
 20
136.5323863176
 10
85.8757122183
 20
137.3779694761
  0
LWPOLYLINE
  5
90
330
1F
100
AcDbEntity
  8
0
  6
Continuous
 62
     7
370
    25
100
AcDbPolyline
 90
       33
 70
   128
 43
0.0
 10
99.8034290363
 20
145.2786783555
 10
99.36081004
 20
146.0405928896
 10
98.8591778929
 20
146.7595865294
 10
98.3033635869
 20
147.4287349731
 10
97.6987199175
 20
148.0415939556
 10
97.0510699339
 20
148.5922613096
 10
96.3666508593
 20
149.0754338077
 10
95.6520540237
 20
149.4864582344
 10
94.9141613852
 20
149.8213761999
 10
94.1600792532
 20
150.0769622611
 10
93.397069851
 20
150.2507549846
 10
92.6324813762
 20
150.3410806513
 10
91.8736772337
 20
150.3470693757
 10
91.1279651223
 20
150.2686634831
 10
90.4025266573
 20
150.1066180652
 10
89.7043482075
 20
149.8624937079
 10
89.0401536132
 20
149.5386414622
 10
88.4163394314
 20
149.1381802023
 10
87.8389133337
 20
148.664966589
 10
87.313436249
 20
148.1235579281
 10
86.8449688089
 20
147.519168281
 10
86.438022611
 20
146.8576182503
 10
86.0965167696
 20
146.1452789245
 10
85.8237401726
 20
145.3890105208
 10
85.6223198078
 20
144.5960963172
 10
85.4941954634
 20
143.774172511
 10
85.440601047
 20
142.9311546777
 10
85.4620527019
 20
142.07516154
 10
85.5583438371
 20
141.2144367797
 10
85.7285471162
 20
140.3572696466
 10
85.9710233887
 20
139.511915129
 10
86.2834374755
 20
138.686514453
 10
86.6627806582
 20
137.8890166781
  0
LWPOLYLINE
  5
91
330
1F
100
AcDbEntity
  8
0
  6
Continuous
 62
     7
370
    25
100
AcDbPolyline
 90
       32
 70
   128
 43
0.0
 10
99.23765112
 20
144.9605123666
 10
99.5945097725
 20
144.2077145467
 10
99.8860918021
 20
143.4279923003
 10
100.1094051826
 20
142.6293466329
 10
100.2621584165
 20
141.8199727298
 10
100.342784049
 20
141.0081758625
 10
100.350454752
 20
140.2022861654
 10
100.2850918136
 20
139.4105731573
 10
100.1473659461
 20
138.641160885
 10
99.9386904032
 20
137.9019445597
 10
99.6612064784
 20
137.2005095411
 10
99.3177615323
 20
136.5440535018
 10
98.9118797747
 20
135.939312569
 10
98.4477261017
 20
135.392492203
 10
97.9300633582
 20
134.9092035208
 10
97.3642034643
 20
134.4944057182
 10
96.7559529084
 20
134.152355182
 10
96.1115531642
 20
133.8865618136
 10
95.437616645
 20
133.6997530126
 10
94.7410588517
 20
133.5938456901
 10
94.0290274097
 20
133.5699265985
 10
93.3088287251
 20
133.6282411802
 10
92.5878530111
 20
133.7681910485
 10
91.8734984541
 20
133.9883401284
 10
91.1730952985
 20
134.2864293925
 10
90.4938306285
 20
134.6594000416
 10
89.8426746189
 20
135.103424892
 10
89.2263090113
 20
135.6139476479
 10
88.6510585512
 20
136.1857296551
 10
88.1228260865
 20
136.8129036564
 10
87.6470319972
 20
137.4890339978
 10
87.2285585745
 20
138.207182667
  0
LWPOLYLINE
  5
92
330
1F
100
AcDbEntity
  8
0
  6
Continuous
 62
     7
370
    25
100
AcDbPolyline
 90
       32
 70
   128
 43
0.0
 10
87.2285585745
 20
138.207182667
 10
86.871699922
 20
138.959980487
 10
86.5801178924
 20
139.7397027334
 10
86.3568045119
 20
140.5383484008
 10
86.204051278
 20
141.3477223038
 10
86.1234256455
 20
142.1595191711
 10
86.1157549425
 20
142.9654088683
 10
86.1811178809
 20
143.7571218764
 10
86.3188437484
 20
144.5265341486
 10
86.5275192913
 20
145.265750474
 10
86.8050032161
 20
145.9671854925
 10
87.1484481622
 20
146.6236415319
 10
87.5543299198
 20
147.2283824647
 10
88.0184835928
 20
147.7752028307
 10
88.5361463363
 20
148.2584915129
 10
89.1020062302
 20
148.6732893155
 10
89.7102567861
 20
149.0153398517
 10
90.3546565303
 20
149.2811332201
 10
91.0285930495
 20
149.4679420211
 10
91.7251508428
 20
149.5738493436
 10
92.4371822848
 20
149.5977684351
 10
93.1573809694
 20
149.5394538535
 10
93.8783566834
 20
149.3995039852
 10
94.5927112404
 20
149.1793549053
 10
95.293114396
 20
148.8812656412
 10
95.972379066
 20
148.5082949921
 10
96.6235350756
 20
148.0642701417
 10
97.2399006831
 20
147.5537473857
 10
97.8151511433
 20
146.9819653786
 10
98.343383608
 20
146.3547913773
 10
98.8191776973
 20
145.6786610359
 10
99.23765112
 20
144.9605123666
  0
LWPOLYLINE
  5
93
330
1F
100
AcDbEntity
  8
0
  6
Continuous
 62
     7
370
    25
100
AcDbPolyline
 90
       36
 70
   128
 43
0.0
 10
85.8757122183
 20
137.3779694761
 10
85.4525462933
 20
138.2595815011
 10
85.0968556981
 20
139.170124171
 10
84.8115042442
 20
140.1022663316
 10
84.5987894137
 20
141.0485029223
 10
84.4604238614
 20
142.0012154025
 10
84.3975216254
 20
142.9527330914
 10
84.4105891575
 20
143.8953949281
 10
84.4995212455
 20
144.8216111538
 10
84.6636018606
 20
145.72392442
 10
84.9015099222
 20
146.5950698308
 10
85.2113299345
 20
147.4280334358
 10
85.5905674088
 20
148.2161087015
 10
86.036168948
 20
148.9529505095
 10
86.5445468306
 20
149.6326262427
 10
87.1116078967
 20
150.2496635517
 10
87.7327865041
 20
150.7990944151
 10
88.4030812879
 20
151.2764951384
 10
89.1170954286
 20
151.6780219718
 10
89.8690801041
 20
152.0004420573
 10
90.652980776
 20
152.2411594581
 10
91.4624859371
 20
152.398236059
 10
92.2910779278
 20
152.4704071717
 10
93.1320854125
 20
152.4570917168
 10
93.9787370935
 20
152.3583969025
 10
94.8242162293
 20
152.1751173615
 10
95.661715519
 20
151.9087287528
 10
96.4844919108
 20
151.5613758809
 10
97.285920893
 20
151.1358554268
 10
98.0595498305
 20
150.6355934311
 10
98.7991499182
 20
150.0646177092
 10
99.4987663309
 20
149.4275254219
 10
100.1527661688
 20
148.7294460616
 10
100.7558838095
 20
147.976000153
 10
101.3032633046
 20
147.1732539994
 10
101.7904974762
 20
146.3276708409
  0
LWPOLYLINE
  5
94
330
1F
100
AcDbEntity
  8
0
  6
Continuous
 62
     7
370
    25
100
AcDbPolyline
 90
       20
 70
   128
 43
0.0
 10
98.6419125425
 20
132.0634133132
 10
98.8991142659
 20
132.1845190528
 10
99.6131284066
 20
132.5860458862
 10
100.2834231904
 20
133.0634466095
 10
100.9046017978
 20
133.6128774729
 10
101.4716628639
 20
134.2299147819
 10
101.9800407465
 20
134.9095905151
 10
102.4256422857
 20
135.6464323231
 10
102.80487976
 20
136.4345075888
 10
103.1146997723
 20
137.2674711938
 10
103.3526078339
 20
138.1386166046
 10
103.516688449
 20
139.0409298708
 10
103.605620537
 20
139.9671460965
 10
103.6186880691
 20
140.9098079332
 10
103.5557858331
 20
141.8613256221
 10
103.4174202808
 20
142.8140381023
 10
103.2047054503
 20
143.760274693
 10
102.9193539964
 20
144.6924168536
 10
102.5636634012
 20
145.6029595235
 10
102.1404974762
 20
146.4845715485
  0
LWPOLYLINE
  5
95
330
1F
100
AcDbEntity
  8
0
  6
Continuous
 62
     7
370
    25
100
AcDbPolyline
 90
       18
 70
   128
 43
0.0
 10
102.1404974762
 20
146.4845715485
 10
101.6532633046
 20
147.330154707
 10
101.1058838095
 20
148.1329008606
 10
100.5027661688
 20
148.8863467692
 10
99.8487663309
 20
149.5844261295
 10
99.1491499182
 20
150.2215184168
 10
98.4095498305
 20
150.7924941387
 10
97.635920893
 20
151.2927561344
 10
96.8344919108
 20
151.7182765885
 10
96.011715519
 20
152.0656294604
 10
95.1742162293
 20
152.3320180691
 10
94.3287370935
 20
152.5152976102
 10
93.4820854125
 20
152.6139924244
 10
92.6410779278
 20
152.6273078793
 10
91.8124859371
 20
152.5551367666
 10
91.002980776
 20
152.3980601657
 10
90.2190801041
 20
152.157342765
 10
89.724297152
 20
151.956028419
  0
LINE
  5
96
330
1F
100
AcDbEntity
  8
0
  6
Continuous
 62
     7
370
    25
100
AcDbLine
 10
87.3515621766
 20
138.2706507298
 30
0.0
 11
87.2285585745
 21
138.207182667
 31
0.0
  0
LWPOLYLINE
  5
97
330
1F
100
AcDbEntity
  8
0
  6
Continuous
 62
     7
370
    25
100
AcDbPolyline
 90
       32
 70
   128
 43
0.0
 10
87.3515621766
 20
138.2706507298
 10
87.7649477765
 20
137.5612333514
 10
88.2349571352
 20
136.8933234397
 10
88.7567673207
 20
136.2737746542
 10
89.3250238543
 20
135.708944404
 10
89.9338956551
 20
135.2046286116
 10
90.5771348744
 20
134.7660022396
 10
91.2481410073
 20
134.3975661881
 10
91.940028623
 20
134.1031011096
 10
92.6456980182
 20
133.8856286142
 10
93.3579080701
 20
133.7473802641
 10
94.0693505396
 20
133.6897746743
 10
94.7727250644
 20
133.7134029563
 10
95.46081407
 20
133.8180226517
 10
96.126556832
 20
134.0025602211
 10
96.7631219289
 20
134.2651220592
 10
97.3639773413
 20
134.6030139263
 10
97.9229574796
 20
135.0127685945
 10
98.4343264512
 20
135.4901814264
 10
98.8928369184
 20
136.0303535205
 10
99.2937839434
 20
136.62774198
 10
99.6330532671
 20
137.2762167909
 10
99.9071635271
 20
137.9691237241
 10
100.1133019814
 20
138.6993526169
 10
100.2493533702
 20
139.4594103327
 10
100.3139216225
 20
140.2414976507
 10
100.3063441803
 20
141.0375892968
 10
100.2266987987
 20
141.8395162934
 10
100.0758027469
 20
142.6390497843
 10
99.8552044227
 20
143.4279854739
 10
99.5671674634
 20
144.1982278146
 10
99.2146475179
 20
144.9418730775
  0
LINE
  5
98
330
1F
100
AcDbEntity
  8
0
  6
Continuous
 62
     7
370
    25
100
AcDbLine
 10
99.23765112
 20
144.9605123666
 30
0.0
 11
99.2146475179
 21
144.9418730775
 31
0.0
  0
LWPOLYLINE
  5
99
330
1F
100
AcDbEntity
  8
0
  6
Continuous
 62
     7
370
    25
100
AcDbPolyline
 90
       32
 70
   128
 43
0.0
 10
99.2146475179
 20
144.9418730775
 10
98.801261918
 20
145.6512904559
 10
98.3312525593
 20
146.3192003676
 10
97.8094423738
 20
146.9387491531
 10
97.2411858402
 20
147.5035794033
 10
96.6323140394
 20
148.0078951957
 10
95.9890748201
 20
148.4465215677
 10
95.3180686872
 20
148.8149576192
 10
94.6261810715
 20
149.1094226977
 10
93.9205116763
 20
149.3268951931
 10
93.2083016244
 20
149.4651435432
 10
92.4968591549
 20
149.522749133
 10
91.7934846301
 20
149.499120851
 10
91.1053956245
 20
149.3945011555
 10
90.4396528625
 20
149.2099635862
 10
89.8030877656
 20
148.9474017481
 10
89.2022323532
 20
148.609509881
 10
88.6432522149
 20
148.1997552128
 10
88.1318832433
 20
147.7223423809
 10
87.6733727761
 20
147.1821702868
 10
87.2724257511
 20
146.5847818273
 10
86.9331564274
 20
145.9363070164
 10
86.6590461674
 20
145.2434000832
 10
86.4529077131
 20
144.5131711904
 10
86.3168563243
 20
143.7531134746
 10
86.252288072
 20
142.9710261566
 10
86.2598655142
 20
142.1749345105
 10
86.3395108958
 20
141.3730075139
 10
86.4904069476
 20
140.573474023
 10
86.7110052718
 20
139.7845383334
 10
86.9990422311
 20
139.0142959927
 10
87.3515621766
 20
138.2706507298
  0
LWPOLYLINE
  5
9A
330
1F
100
AcDbEntity
  8
0
  6
Continuous
 62
     7
370
    25
100
AcDbPolyline
 90
       40
 70
   128
 43
0.0
 10
114.2697932701
 20
164.7128878164
 10
114.8861054176
 20
164.9615180057
 10
115.7036952267
 20
165.2116315547
 10
116.5457708998
 20
165.3825188952
 10
117.4067285621
 20
165.4730428004
 10
118.2808386826
 20
165.4826008484
 10
119.1622842025
 20
165.4111294322
 10
120.0451992474
 20
165.2591041821
 10
120.9237081633
 20
165.0275368011
 10
121.7919646182
 20
164.717968332
 10
122.6441905089
 20
164.3324589018
 10
123.4747144125
 20
163.8735740122
 10
124.2780093296
 20
163.3443674664
 10
125.0487294649
 20
162.7483610467
 10
125.7817458031
 20
162.0895210774
 10
126.4721802415
 20
161.3722320299
 10
127.1154380527
 20
160.6012673444
 10
127.7072384622
 20
159.7817576637
 10
128.2436431359
 20
158.9191566895
 10
128.7210823892
 20
158.0192048889
 10
129.1363789425
 20
157.0878912928
 10
129.486769066
 20
156.1314136395
 10
129.769920971
 20
155.1561371298
 10
129.9839503285
 20
154.1685520682
 10
130.1274328083
 20
153.1752306702
 10
130.1994135582
 20
152.1827833258
 10
130.1994135582
 20
151.1978146085
 10
130.1274328083
 20
150.2268793224
 10
129.9839503285
 20
149.2764388818
 10
129.769920971
 20
148.3528183109
 10
129.486769066
 20
147.4621641522
 10
129.1363789425
 20
146.6104035623
 10
128.7210823892
 20
145.8032048674
 10
128.2436431359
 20
145.0459398415
 10
127.7072384622
 20
144.3436479584
 10
127.1154380527
 20
143.7010028549
 10
126.4721802415
 20
143.122281228
 10
125.7817458031
 20
142.6113343747
 10
125.0487294649
 20
142.1715625619
 10
124.4964164244
 20
141.9002558144
  0
SPLINE
  5
9B
330
1F
100
AcDbEntity
  8
0
  6
Continuous
 62
     7
370
    25
100
AcDbSpline
210
0.0
220
0.0
230
1.0
 70
    11
 71
     3
 72
    26
 73
    22
 74
     0
 42
0.00000001
 43
0.00000001
 40
0.0
 40
0.0
 40
0.0
 40
0.0
 40
0.0529539012625882
 40
0.1058818817263009
 40
0.159479971208113
 40
0.2135357838461843
 40
0.2668740036689341
 40
0.3194592991993025
 40
0.3723841857439783
 40
0.4262291255583521
 40
0.4801784904256159
 40
0.5332029751203867
 40
0.5857284234367546
 40
0.6389441746348482
 40
0.6929701096746439
 40
0.7466758392553591
 40
0.7994497029042581
 40
0.852112327906502
 40
0.905630654970215
 40
0.9596982992802303
 40
1.0
 40
1.0
 40
1.0
 40
1.0
 10
127.4897065650472
 20
153.0157305504065
 30
0.0
 10
127.3556469251344
 20
152.9265387798896
 30
0.0
 10
127.0875932671588
 20
152.7481988979987
 30
0.0
 10
126.7848478934687
 20
152.1647760138476
 30
0.0
 10
126.5754024257632
 20
151.4216652212817
 30
0.0
 10
126.4646304716594
 20
150.5765221836762
 30
0.0
 10
126.4477675472017
 20
149.7418468924047
 30
0.0
 10
126.5219030033678
 20
149.0130172940567
 30
0.0
 10
126.6898043227747
 20
148.4600255691524
 30
0.0
 10
126.9585471815587
 20
148.1383557308206
 30
0.0
 10
127.323958276397
 20
148.0882354025827
 30
0.0
 10
127.7551101647099
 20
148.312457786224
 30
0.0
 10
128.2000132656791
 20
148.7785561288757
 30
0.0
 10
128.5979225792209
 20
149.4414930598621
 30
0.0
 10
128.8807843364294
 20
150.2398837615634
 30
0.0
 10
128.9901063935315
 20
151.0826364285636
 30
0.0
 10
128.9065429787901
 20
151.867646257836
 30
0.0
 10
128.6503592550768
 20
152.5140231354805
 30
0.0
 10
128.2666073341036
 20
152.9491313304624
 30
0.0
 10
127.851819863171
 20
153.1213787449099
 30
0.0
 10
127.5980727077946
 20
153.0473468632729
 30
0.0
 10
127.4897065650472
 20
153.0157305504065
 30
0.0
  0
SPLINE
  5
9C
330
1F
100
AcDbEntity
  8
0
  6
Continuous
 62
     7
370
    25
100
AcDbSpline
210
0.0
220
0.0
230
1.0
 70
    11
 71
     3
 72
    26
 73
    22
 74
     0
 42
0.00000001
 43
0.00000001
 40
0.0
 40
0.0
 40
0.0
 40
0.0
 40
0.052965844519786
 40
0.1059071318570701
 40
0.1594899171670082
 40
0.2135506185562001
 40
0.2668967752307844
 40
0.3194457241085703
 40
0.3723582722386171
 40
0.4262196246418952
 40
0.4801545425419231
 40
0.5331859129116446
 40
0.5857491414747349
 40
0.6389617162931257
 40
0.6929782798251873
 40
0.7467010195943612
 40
0.7994519758254517
 40
0.8520845007736578
 40
0.9056168554554493
 40
0.9596823172482677
 40
1.0
 40
1.0
 40
1.0
 40
1.0
 10
115.633104847249
 20
163.6995656337311
 30
0.0
 10
115.8874309318051
 20
163.6642835158999
 30
0.0
 10
116.3959651846991
 20
163.5937356385043
 30
0.0
 10
117.2492566905479
 20
163.5171262109089
 30
0.0
 10
118.0566171934712
 20
163.497909265867
 30
0.0
 10
118.7395123506086
 20
163.5683876812549
 30
0.0
 10
119.210093321791
 20
163.7415106601852
 30
0.0
 10
119.4198975404938
 20
163.9980872566754
 30
0.0
 10
119.3526060591061
 20
164.2962254210987
 30
0.0
 10
119.0102378157769
 20
164.5804018631284
 30
0.0
 10
118.4256165846596
 20
164.7901045058671
 30
0.0
 10
117.6722587124151
 20
164.8846523475054
 30
0.0
 10
116.8384537243553
 20
164.8590213343505
 30
0.0
 10
116.0068248791164
 20
164.7343974076872
 30
0.0
 10
115.2654315285549
 20
164.5487233292502
 30
0.0
 10
114.7060199028032
 20
164.3488403070232
 30
0.0
 10
114.3939498684514
 20
164.1701771059886
 30
0.0
 10
114.3547251437247
 20
164.0227161891038
 30
0.0
 10
114.5958548542288
 20
163.898438481627
 30
0.0
 10
115.0486026614294
 20
163.7923588065165
 30
0.0
 10
115.4581558571902
 20
163.7273398187675
 30
0.0
 10
115.633104847249
 20
163.6995656337311
 30
0.0
  0
LINE
  5
9D
330
1F
100
AcDbEntity
  8
0
  6
Continuous
 62
     7
370
    25
100
AcDbLine
 10
124.1534914813
 20
129.9885204629
 30
0.0
 11
108.9610512561
 21
134.4963116872
 31
0.0
  0
LINE
  5
9E
330
1F
100
AcDbEntity
  8
0
  6
Continuous
 62
     7
370
    25
100
AcDbLine
 10
109.0125583992
 20
134.6390673352
 30
0.0
 11
123.9906235156
 21
130.194883946
 31
0.0
  0
LINE
  5
9F
330
1F
100
AcDbEntity
  8
0
  6
Continuous
 62
     7
370
    25
100
AcDbLine
 10
123.9906235156
 20
130.194883946
 30
0.0
 11
125.6784914813
 21
130.9515344552
 31
0.0
  0
LINE
  5
A0
330
1F
100
AcDbEntity
  8
0
  6
Continuous
 62
     7
370
    25
100
AcDbLine
 10
125.9034914813
 20
130.773024001
 30
0.0
 11
124.1534914813
 21
129.9885204629
 31
0.0
  0
LINE
  5
A1
330
1F
100
AcDbEntity
  8
0
  6
Continuous
 62
     7
370
    25
100
AcDbLine
 10
124.1534914813
 20
129.9885204629
 30
0.0
 11
122.8544533756
 21
127.6730858355
 31
0.0
  0
LINE
  5
A2
330
1F
100
AcDbEntity
  8
0
  6
Continuous
 62
     7
370
    25
100
AcDbLine
 10
122.8544533756
 20
127.6730858355
 30
0.0
 11
107.8461569166
 21
132.1262392504
 31
0.0
  0
LINE
  5
A3
330
1F
100
AcDbEntity
  8
0
  6
Continuous
 62
     7
370
    25
100
AcDbLine
 10
101.0051345534
 20
173.147655733
 30
0.0
 11
95.0315696789
 21
158.9297386844
 31
0.0
  0
LINE
  5
A4
330
1F
100
AcDbEntity
  8
0
  6
Continuous
 62
     7
370
    25
100
AcDbLine
 10
101.0051345534
 20
173.147655733
 30
0.0
 11
103.6032107648
 21
172.7594271654
 31
0.0
  0
LINE
  5
A5
330
1F
100
AcDbEntity
  8
0
  6
Continuous
 62
     7
370
    25
100
AcDbLine
 10
103.6032107648
 20
172.7594271654
 30
0.0
 11
97.549407739
 21
158.3505321324
 31
0.0
  0
LINE
  5
A6
330
1F
100
AcDbEntity
  8
0
  6
Continuous
 62
     7
370
    25
100
AcDbLine
 10
97.7004492
 20
158.300224242
 30
0.0
 11
103.6653427991
 21
172.4975024465
 31
0.0
  0
LINE
  5
A7
330
1F
100
AcDbEntity
  8
0
  6
Continuous
 62
     7
370
    25
100
AcDbLine
 10
105.3532107648
 20
173.5439307035
 30
0.0
 11
103.6032107648
 21
172.7594271654
 31
0.0
  0
LINE
  5
A8
330
1F
100
AcDbEntity
  8
0
  6
Continuous
 62
     7
370
    25
100
AcDbLine
 10
103.6653427991
 20
172.4975024465
 30
0.0
 11
105.3532107648
 21
173.2541529557
 31
0.0
  0
LWPOLYLINE
  5
A9
330
1F
100
AcDbEntity
  8
0
  6
Continuous
 62
     7
370
    25
100
AcDbPolyline
 90
        9
 70
   128
 43
0.0
 10
126.0039724284
 20
129.9515224894
 10
126.1162762699
 20
130.1709216405
 10
126.1954422584
 20
130.3689688207
 10
126.2384280892
 20
130.5380531876
 10
126.2435818411
 20
130.6716769241
 10
126.2107054583
 20
130.7647049448
 10
126.1410623616
 20
130.813562235
 10
126.0373288963
 20
130.8163712365
 10
125.9034914813
 20
130.773024001
  0
ARC
  5
AA
330
1F
100
AcDbEntity
  8
0
  6
Continuous
 62
     7
370
    25
100
AcDbCircle
 10
122.5511323641
 20
131.783646405
 30
0.0
 40
3.90880832891992
100
AcDbArc
 50
301.6888546694
 51
332.0489701443
  0
LINE
  5
AB
330
1F
100
AcDbEntity
  8
0
  6
Continuous
 62
     7
370
    25
100
AcDbLine
 10
124.6044533756
 20
128.4575893736
 30
0.0
 11
122.8544533756
 21
127.6730858355
 31
0.0
  0
ARC
  5
AC
330
1F
100
AcDbEntity
  8
0
  6
Continuous
 62
     7
370
    25
100
AcDbCircle
 10
104.0749950829
 20
169.7445226679
 30
0.0
 40
4.390709753368425
100
AcDbArc
 50
80.4404372344
 51
107.4938243672
  0
LWPOLYLINE
  5
AD
330
1F
100
AcDbEntity
  8
0
  6
Continuous
 62
     7
370
    25
100
AcDbPolyline
 90
        9
 70
   128
 43
0.0
 10
105.3532107648
 20
173.5439307035
 10
105.4745678534
 20
173.6132530042
 10
105.5413399512
 20
173.6873709907
 10
105.550961044
 20
173.7634363505
 10
105.5030613985
 20
173.8385259345
 10
105.3994817714
 20
173.9097540921
 10
105.2442026696
 20
173.974383565
 10
105.0431913818
 20
174.0299306789
 10
104.8041726591
 20
174.0742607894
  0
LINE
  5
AE
330
1F
100
AcDbEntity
  8
0
  6
Continuous
 62
     7
370
    25
100
AcDbLine
 10
102.7551345534
 20
173.9321592712
 30
0.0
 11
101.0051345534
 21
173.147655733
 31
0.0
  0
ARC
  5
AF
330
1F
100
AcDbEntity
  8
0
  6
Continuous
 62
     7
370
    25
100
AcDbCircle
 10
125.8339015188
 20
130.7319348537
 30
0.0
 40
0.2690283715489969
100
AcDbArc
 50
61.7437411079
 51
125.2869382573
  0
ARC
  5
B0
330
1F
100
AcDbEntity
  8
0
  6
Continuous
 62
     7
370
    25
100
AcDbCircle
 10
105.3002912952
 20
173.5100218951
 30
0.0
 40
0.2612841067447725
100
AcDbArc
 50
281.6853038369
 51
346.3287505543
  0
LINE
  5
B1
330
1F
100
AcDbEntity
  8
0
  6
Continuous
 62
     7
370
    25
100
AcDbLine
 10
81.7538919426
 20
133.8147117143
 30
0.0
 11
82.7970591442
 21
134.4270388072
 31
0.0
  0
LINE
  5
B2
330
1F
100
AcDbEntity
  8
0
  6
Continuous
 62
     7
370
    25
100
AcDbLine
 10
81.7538919426
 20
133.8147117143
 30
0.0
 11
80.4548538369
 21
136.5183749094
 31
0.0
  0
LINE
  5
B3
330
1F
100
AcDbEntity
  8
0
  6
Continuous
 62
     7
370
    25
100
AcDbLine
 10
80.4548538369
 20
136.5183749094
 30
0.0
 11
81.4687247638
 21
137.1135054275
 31
0.0
  0
LINE
  5
B4
330
1F
100
AcDbEntity
  8
0
  6
Continuous
 62
     7
370
    25
100
AcDbLine
 10
82.041023977
 20
133.9538320371
 30
0.0
 11
82.8600860911
 21
134.3210075379
 31
0.0
  0
LINE
  5
B5
330
1F
100
AcDbEntity
  8
0
  6
Continuous
 62
     7
370
    25
100
AcDbLine
 10
82.8649974945
 20
134.3128067067
 30
0.0
 11
81.7538919426
 21
133.8147117143
 31
0.0
  0
LINE
  5
B6
330
1F
100
AcDbEntity
  8
0
  6
Continuous
 62
     7
370
    25
100
AcDbLine
 10
82.809971536
 20
134.4051953685
 30
0.0
 11
82.041023977
 21
133.9538320371
 31
0.0
  0
LWPOLYLINE
  5
B7
330
1F
100
AcDbEntity
  8
0
  6
Continuous
 62
     7
370
    25
100
AcDbPolyline
 90
       86
 70
   128
 43
0.0
 10
106.9520269869
 20
144.162561883
 10
106.6503833431
 20
145.2443086849
 10
106.2809208302
 20
146.3085117095
 10
105.8456573241
 20
147.3493586487
 10
105.3469700834
 20
148.3611647577
 10
104.7875827647
 20
149.3384039022
 10
104.1705505476
 20
150.2757387409
 10
103.4992434481
 20
151.1680498761
 10
102.7773279128
 20
152.0104638136
 10
102.008746794
 20
152.7983795808
 10
101.1976978153
 20
153.5274938549
 10
100.3486106449
 20
154.1938244665
 10
99.4661227025
 20
154.793732149
 10
98.5550538313
 20
155.3239404146
 10
97.6203799735
 20
155.7815534496
 10
96.6672059935
 20
156.1640719304
 10
95.7007377971
 20
156.4694066735
 10
94.7262538985
 20
156.6958900466
 10
93.7490765908
 20
156.842285076
 10
92.7745428775
 20
156.9077922028
 10
91.807975324
 20
156.8920536498
 10
90.854652987
 20
156.7951553755
 10
89.9197825824
 20
156.6176266047
 10
89.0084700484
 20
156.360436938
 10
88.1256926578
 20
156.0249910561
 10
87.2762718348
 20
155.6131210481
 10
86.4648468212
 20
155.1270764052
 10
85.6958493392
 20
154.5695117347
 10
84.9734793862
 20
153.9434722615
 10
84.3016822966
 20
153.252377196
 10
83.684127193
 20
152.5000010599
 10
83.1241869473
 20
151.6904530708
 10
82.6249197589
 20
150.8281546989
 10
82.189052452
 20
149.917815519
 10
81.8189655828
 20
148.9644074881
 10
81.5166804374
 20
147.9731377901
 10
81.2838479924
 20
146.9494203964
 10
81.1217398979
 20
145.8988464964
 10
81.0312415321
 20
144.8271539605
 10
81.0128471657
 20
143.7401960017
 10
81.0666572624
 20
142.6439092073
 10
81.19237793
 20
141.5442811158
 10
81.3893225259
 20
140.4473175144
 10
81.656415407
 20
139.3590096379
 10
81.9921978046
 20
138.2853014465
 10
82.3948357916
 20
137.2320571621
 10
82.862130299
 20
136.2050292397
 10
83.3915291263
 20
135.2098269497
 10
83.9801408806
 20
134.2518857418
 10
84.6247507687
 20
133.3364375588
 10
85.3218381548
 20
132.4684822612
 10
86.0675957895
 20
131.6527603198
 10
86.857950603
 20
130.893726925
 10
87.6885859516
 20
130.1955276541
 10
88.5549651929
 20
129.5619758292
 10
89.452356464
 20
128.9965316908
 10
90.3758585249
 20
128.5022834987
 10
91.3204275276
 20
128.0819306651
 10
92.2809045638
 20
127.7377690114
 10
93.252043841
 20
127.4716782293
 10
94.2285413333
 20
127.2851116143
 10
95.2050637498
 20
127.1790881285
 10
96.1762776639
 20
127.1541868355
 10
97.1368786419
 20
127.2105437376
 10
98.0816202143
 20
127.3478510327
 10
99.0053425304
 20
127.5653587962
 10
99.9030005392
 20
127.8618790761
 10
100.7696915438
 20
128.2357923813
 10
101.6006819786
 20
128.6850565271
 10
102.3914332619
 20
129.2072177885
 10
103.1376265846
 20
129.7994243018
 10
103.8351864973
 20
130.4584416404
 10
104.4803031698
 20
131.18067048
 10
105.0694531985
 20
131.9621662573
 10
105.5994188503
 20
132.7986607132
 10
106.0673056365
 20
133.6855852052
 10
106.4705581217
 20
134.6180956592
 10
106.8069738807
 20
135.5910990264
 10
107.0747155274
 20
136.5992811
 10
107.2723207496
 20
137.6371355389
 10
107.3987102962
 20
138.6989939423
 10
107.4531938713
 20
139.7790568077
 10
107.4354739045
 20
140.8714252062
 10
107.3456471761
 20
141.9701330005
 10
107.1842042885
 20
143.0691794296
 10
106.9520269869
 20
144.162561883
  0
LWPOLYLINE
  5
B8
330
1F
100
AcDbEntity
  8
0
  6
Continuous
 62
     7
370
    25
100
AcDbPolyline
 90
       90
 70
   128
 43
0.0
 10
108.8949070414
 20
144.6283889737
 10
109.1434859789
 20
143.4658700279
 10
109.3202731224
 20
142.2973249611
 10
109.4243877273
 20
141.1285754059
 10
109.4553110999
 20
139.9654440139
 10
109.4128891815
 20
138.8137254472
 10
109.297333316
 20
137.6791575098
 10
109.1092191968
 20
136.5673925619
 10
108.8494839991
 20
135.4839693608
 10
108.5194217106
 20
134.4342854662
 10
108.1206766849
 20
133.4235703505
 10
107.6552354497
 20
132.4568593456
 10
107.1254168098
 20
131.5389685571
 10
106.5338602951
 20
130.6744708708
 10
105.8835130104
 20
129.8676731706
 10
105.1776149531
 20
129.122594882
 10
104.4196828718
 20
128.4429479477
 10
103.613492746
 20
127.8321183345
 10
102.7630609744
 20
127.2931491647
 10
101.8726243653
 20
126.8287255557
 10
100.9466190292
 20
126.4411612426
 10
99.9896582779
 20
126.1323870512
 10
99.0065096418
 20
125.903941279
 10
98.002071118
 20
125.7569620314
 10
96.9813467686
 20
125.6921815516
 10
95.9494217911
 20
125.7099225727
 10
94.9114371838
 20
125.8100967098
 10
93.8725641338
 20
125.9922049005
 10
92.8379782542
 20
126.2553398907
 10
91.8128338001
 20
126.5981907554
 10
90.8022379894
 20
127.0190494287
 10
89.8112255597
 20
127.5158192138
 10
88.844733685
 20
128.0860252287
 10
87.9075773792
 20
128.7268267358
 10
87.004425508
 20
129.435031294
 10
86.1397775284
 20
130.207110664
 10
85.3179410733
 20
131.0392183852
 10
84.5430104905
 20
131.9272089387
 10
83.8188464453
 20
132.8666584003
 10
83.1490566863
 20
133.85288648
 10
82.5369780727
 20
134.8809798392
 10
81.9856599491
 20
135.9458165684
 10
81.4978489548
 20
137.0420917046
 10
81.0759753396
 20
138.1643436602
 10
80.7221408567
 20
139.3069814324
 10
80.4381082915
 20
140.4643124574
 10
80.2252926802
 20
141.6305709702
 10
80.0847542593
 20
142.7999467295
 10
80.0171931841
 20
143.9666139641
 10
80.0229460407
 20
145.1247603966
 10
80.1019841685
 20
146.2686161996
 10
80.2539138036
 20
147.3924827411
 10
80.4779780401
 20
148.4907609746
 10
80.7730606013
 20
149.5579793331
 10
81.1376914007
 20
150.5888209884
 10
81.570053866
 20
151.5781503392
 10
82.0679939892
 20
152.5210385966
 10
82.6290310577
 20
153.4127883386
 10
83.2503700129
 20
154.2489569128
 10
83.9289153754
 20
155.0253785696
 10
84.6612866664
 20
155.7381852151
 10
85.443835249
 20
156.3838256827
 10
86.2726625055
 20
156.959083424
 10
87.1436392601
 20
157.4610925338
 10
88.0524263505
 20
157.887352028
 10
88.9944962451
 20
158.2357383032
 10
89.9651555992
 20
158.5045157166
 10
90.9595686365
 20
158.6923452326
 10
91.9727812415
 20
158.7982910939
 10
92.9997456397
 20
158.8218254837
 10
94.0353455464
 20
158.7628311548
 10
95.0744216548
 20
158.621602014
 10
96.1117973401
 20
158.3988416577
 10
97.1423044487
 20
158.0956598669
 10
98.1608090461
 20
157.7135670779
 10
99.1622369935
 20
157.2544668578
 10
100.1415992274
 20
156.7206464209
 10
101.0940166144
 20
156.1147652337
 10
102.0147442589
 20
155.4398417657
 10
102.8991951421
 20
154.6992384518
 10
103.7429629743
 20
153.8966449405
 10
104.5418441464
 20
153.0360597121
 10
105.2918586728
 20
152.1217701591
 10
105.9892700188
 20
151.158331226
 10
106.630603716
 20
150.150542717
 10
107.2126646724
 20
149.103425384
 10
107.7325530894
 20
148.0221959126
 10
108.1876789092
 20
146.9122409339
 10
108.5757747178
 20
145.7790901876
 10
108.8949070414
 20
144.6283889737
  0
LWPOLYLINE
  5
B9
330
1F
100
AcDbEntity
  8
0
  6
Continuous
 62
     7
370
    25
100
AcDbPolyline
 90
       27
 70
   128
 43
0.0
 10
109.3949070414
 20
144.8525328418
 10
109.0757747178
 20
146.0032340556
 10
108.6876789092
 20
147.1363848019
 10
108.2325530894
 20
148.2463397807
 10
107.7126646724
 20
149.327569252
 10
107.130603716
 20
150.3746865851
 10
106.4892700188
 20
151.382475094
 10
105.7918586728
 20
152.3459140271
 10
105.0418441464
 20
153.2602035802
 10
104.2429629743
 20
154.1207888085
 10
103.3991951421
 20
154.9233823199
 10
102.5147442589
 20
155.6639856338
 10
101.5940166144
 20
156.3389091017
 10
100.6415992274
 20
156.944790289
 10
99.6622369935
 20
157.4786107259
 10
98.6608090461
 20
157.9377109459
 10
97.6423044487
 20
158.3198037349
 10
96.6117973401
 20
158.6229855258
 10
95.5744216548
 20
158.845745882
 10
94.5353455464
 20
158.9869750229
 10
93.4997456397
 20
159.0459693518
 10
92.4727812415
 20
159.022434962
 10
91.4595686365
 20
158.9164891006
 10
90.4651555992
 20
158.7286595846
 10
89.4944962451
 20
158.4598821712
 10
88.5524263505
 20
158.111495896
 10
88.2790011023
 20
157.9930127504
  0
LWPOLYLINE
  5
BA
330
1F
100
AcDbEntity
  8
0
  6
Continuous
 62
     7
370
    25
100
AcDbPolyline
 90
       21
 70
   128
 43
0.0
 10
102.1872085922
 20
126.9678332276
 10
102.3726243654
 20
127.0528694238
 10
103.2630609744
 20
127.5172930328
 10
104.113492746
 20
128.0562622025
 10
104.9196828718
 20
128.6670918158
 10
105.6776149531
 20
129.3467387501
 10
106.3835130104
 20
130.0918170386
 10
107.0338602951
 20
130.8986147388
 10
107.6254168098
 20
131.7631124252
 10
108.1552354497
 20
132.6810032137
 10
108.6206766849
 20
133.6477142185
 10
109.0194217106
 20
134.6584293342
 10
109.3494839991
 20
135.7081132288
 10
109.6092191968
 20
136.79153643
 10
109.797333316
 20
137.9033013778
 10
109.9128891815
 20
139.0378693153
 10
109.9553110999
 20
140.189587882
 10
109.9243877273
 20
141.352719274
 10
109.8202731224
 20
142.5214688291
 10
109.6434859789
 20
143.690013896
 10
109.3949070414
 20
144.8525328418
  0
LINE
  5
BB
330
1F
100
AcDbEntity
  8
0
  6
Continuous
 62
     8
370
    25
100
AcDbLine
 10
98.0896186871
 20
144.3105488386
 30
0.0
 11
98.0513425859
 21
144.2933901319
 31
0.0
  0
LINE
  5
BC
330
1F
100
AcDbEntity
  8
0
  6
Continuous
 62
     8
370
    25
100
AcDbLine
 10
99.2173086828
 20
144.9368207527
 30
0.0
 11
99.1598948163
 21
144.9110828205
 31
0.0
  0
LINE
  5
BD
330
1F
100
AcDbEntity
  8
0
  6
Continuous
 62
     8
370
    25
100
AcDbLine
 10
88.4166430864
 20
138.8709375226
 30
0.0
 11
88.3783653076
 21
138.8537780638
 31
0.0
  0
LINE
  5
BE
330
1F
100
AcDbEntity
  8
0
  6
Continuous
 62
     8
370
    25
100
AcDbLine
 10
87.4089791351
 20
138.2963900482
 30
0.0
 11
87.3515621766
 21
138.2706507298
 31
0.0
  0
MTEXT
  5
C0
330
1F
100
AcDbEntity
  8
0
  6
Continuous
 62
     7
370
     0
100
AcDbMText
 10
130.4924623737
 20
124.7594384268
 30
0.0
 40
2.9104166667
 41
0.0
 71
     1
 72
     1
  1
HEC-131S
  7
SLDTEXTSTYLE0
 73
     1
 44
1.0
  0
ENDSEC
  0
SECTION
  2
OBJECTS
  0
DICTIONARY
  5
C
330
0
100
AcDbDictionary
281
     1
  3
ACAD_GROUP
350
D
  3
ACAD_LAYOUT
350
1A
  3
ACAD_MLINESTYLE
350
17
  3
ACAD_PLOTSETTINGS
350
19
  3
ACAD_PLOTSTYLENAME
350
E
  3
ACAD_SCALELIST
350
47
  3
DWGPROPS
350
C1
  0
DICTIONARY
  5
D
102
{ACAD_REACTORS
330
C
102
}
330
C
100
AcDbDictionary
281
     1
  0
DICTIONARY
  5
1A
102
{ACAD_REACTORS
330
C
102
}
330
C
100
AcDbDictionary
281
     1
  3
Layout1
350
1E
  3
Layout2
350
26
  3
Model
350
22
  0
DICTIONARY
  5
17
102
{ACAD_REACTORS
330
C
102
}
330
C
100
AcDbDictionary
281
     1
  3
Standard
350
18
  0
DICTIONARY
  5
19
102
{ACAD_REACTORS
330
C
102
}
330
C
100
AcDbDictionary
281
     1
  0
ACDBDICTIONARYWDFLT
  5
E
102
{ACAD_REACTORS
330
C
102
}
330
C
100
AcDbDictionary
281
     1
  3
Normal
350
F
100
AcDbDictionaryWithDefault
340
F
  0
DICTIONARY
  5
47
102
{ACAD_REACTORS
330
C
102
}
330
C
100
AcDbDictionary
281
     1
  3
A0
350
48
  3
A1
350
49
  3
A2
350
4A
  3
A3
350
4B
  3
A4
350
4C
  3
A5
350
4D
  3
A6
350
4E
  3
A7
350
4F
  3
A8
350
50
  3
A9
350
51
  3
B0
350
52
  3
B1
350
53
  3
B2
350
54
  3
B3
350
55
  3
B4
350
56
  3
B5
350
57
  3
B6
350
58
  3
B7
350
59
  3
B8
350
5A
  3
B9
350
5B
  3
C0
350
5C
  3
C1
350
5D
  3
C2
350
5E
  3
C3
350
5F
  3
C4
350
60
  3
C5
350
61
  3
C6
350
62
  3
C7
350
63
  3
C8
350
64
  3
C9
350
65
  3
D0
350
66
  3
D1
350
67
  3
D2
350
68
  0
XRECORD
  5
C1
102
{ACAD_REACTORS
330
C
102
}
330
C
100
AcDbXrecord
280
     1
  1
DWGPROPS COOKIE
  2

  3

  4

  6

  7

  8
9128
  9

300
=
301
=
302
=
303
=
304
=
305
=
306
=
307
=
308
=
309
=
 40
0.0
 41
2459669.117294757
 42
2459669.117295301
  1

 90
        0
  0
LAYOUT
  5
1E
102
{ACAD_REACTORS
330
1A
102
}
330
1A
100
AcDbPlotSettings
  1

  2
none_device
  4

  6

 40
0.0
 41
0.0
 42
0.0
 43
0.0
 44
0.0
 45
0.0
 46
0.0
 47
0.0
 48
0.0
 49
0.0
140
0.0
141
0.0
142
1.0
143
1.0
 70
   688
 72
     1
 73
     0
 74
     5
  7

 75
    16
147
1.0
148
0.0
149
0.0
100
AcDbLayout
  1
Layout1
 70
     1
 71
     1
 10
0.0
 20
0.0
 11
420.0
 21
297.0
 12
0.0
 22
0.0
 32
0.0
 14
1.0000000000E+20
 24
1.0000000000E+20
 34
1.0000000000E+20
 15
-1.0000000000E+20
 25
-1.0000000000E+20
 35
-1.0000000000E+20
146
0.0
 13
0.0
 23
0.0
 33
0.0
 16
1.0
 26
0.0
 36
0.0
 17
0.0
 27
1.0
 37
0.0
 76
     0
330
1B
  0
LAYOUT
  5
26
102
{ACAD_REACTORS
330
1A
102
}
330
1A
100
AcDbPlotSettings
  1

  2
none_device
  4

  6

 40
0.0
 41
0.0
 42
0.0
 43
0.0
 44
0.0
 45
0.0
 46
0.0
 47
0.0
 48
0.0
 49
0.0
140
0.0
141
0.0
142
1.0
143
1.0
 70
   688
 72
     1
 73
     0
 74
     5
  7

 75
    16
147
1.0
148
0.0
149
0.0
100
AcDbLayout
  1
Layout2
 70
     1
 71
     2
 10
0.0
 20
0.0
 11
0.0
 21
0.0
 12
0.0
 22
0.0
 32
0.0
 14
0.0
 24
0.0
 34
0.0
 15
0.0
 25
0.0
 35
0.0
146
0.0
 13
0.0
 23
0.0
 33
0.0
 16
1.0
 26
0.0
 36
0.0
 17
0.0
 27
1.0
 37
0.0
 76
     0
330
23
  0
LAYOUT
  5
22
102
{ACAD_REACTORS
330
1A
102
}
330
1A
100
AcDbPlotSettings
  1

  2
none_device
  4
Letter_(8.50_x_11.00_Inches)
  6

 40
6.35
 41
6.35
 42
6.35000508
 43
6.35000508
 44
215.9
 45
279.4
 46
0.0
 47
0.0
 48
0.0
 49
0.0
140
0.0
141
0.0
142
1.0
143
1.0
 70
  1712
 72
     1
 73
     0
 74
     0
  7

 75
     0
147
1.0
148
0.0
149
0.0
100
AcDbLayout
  1
Model
 70
     1
 71
     0
 10
0.0
 20
0.0
 11
210.0
 21
297.0
 12
0.0
 22
0.0
 32
0.0
 14
0.0
 24
0.0
 34
0.0
 15
210.0
 25
297.0
 35
0.0
146
0.0
 13
0.0
 23
0.0
 33
0.0
 16
1.0
 26
0.0
 36
0.0
 17
0.0
 27
1.0
 37
0.0
 76
     0
330
1F
331
29
  0
MLINESTYLE
  5
18
102
{ACAD_REACTORS
330
17
102
}
330
17
100
AcDbMlineStyle
  2
Standard
 70
     0
  3

 62
   256
 51
90.0
 52
90.0
 71
     2
 49
0.5
 62
   256
  6
BYLAYER
 49
-0.5
 62
   256
  6
BYLAYER
  0
ACDBPLACEHOLDER
  5
F
102
{ACAD_REACTORS
330
E
102
}
330
E
  0
SCALE
  5
48
102
{ACAD_REACTORS
330
47
102
}
330
47
100
AcDbScale
 70
     0
300
1:1
140
1.0
141
1.0
290
     1
  0
SCALE
  5
49
102
{ACAD_REACTORS
330
47
102
}
330
47
100
AcDbScale
 70
     0
300
1:2
140
1.0
141
2.0
290
     0
  0
SCALE
  5
4A
102
{ACAD_REACTORS
330
47
102
}
330
47
100
AcDbScale
 70
     0
300
1:4
140
1.0
141
4.0
290
     0
  0
SCALE
  5
4B
102
{ACAD_REACTORS
330
47
102
}
330
47
100
AcDbScale
 70
     0
300
1:5
140
1.0
141
5.0
290
     0
  0
SCALE
  5
4C
102
{ACAD_REACTORS
330
47
102
}
330
47
100
AcDbScale
 70
     0
300
1:8
140
1.0
141
8.0
290
     0
  0
SCALE
  5
4D
102
{ACAD_REACTORS
330
47
102
}
330
47
100
AcDbScale
 70
     0
300
1:10
140
1.0
141
10.0
290
     0
  0
SCALE
  5
4E
102
{ACAD_REACTORS
330
47
102
}
330
47
100
AcDbScale
 70
     0
300
1:16
140
1.0
141
16.0
290
     0
  0
SCALE
  5
4F
102
{ACAD_REACTORS
330
47
102
}
330
47
100
AcDbScale
 70
     0
300
1:20
140
1.0
141
20.0
290
     0
  0
SCALE
  5
50
102
{ACAD_REACTORS
330
47
102
}
330
47
100
AcDbScale
 70
     0
300
1:30
140
1.0
141
30.0
290
     0
  0
SCALE
  5
51
102
{ACAD_REACTORS
330
47
102
}
330
47
100
AcDbScale
 70
     0
300
1:40
140
1.0
141
40.0
290
     0
  0
SCALE
  5
52
102
{ACAD_REACTORS
330
47
102
}
330
47
100
AcDbScale
 70
     0
300
1:50
140
1.0
141
50.0
290
     0
  0
SCALE
  5
53
102
{ACAD_REACTORS
330
47
102
}
330
47
100
AcDbScale
 70
     0
300
1:100
140
1.0
141
100.0
290
     0
  0
SCALE
  5
54
102
{ACAD_REACTORS
330
47
102
}
330
47
100
AcDbScale
 70
     0
300
2:1
140
2.0
141
1.0
290
     0
  0
SCALE
  5
55
102
{ACAD_REACTORS
330
47
102
}
330
47
100
AcDbScale
 70
     0
300
4:1
140
4.0
141
1.0
290
     0
  0
SCALE
  5
56
102
{ACAD_REACTORS
330
47
102
}
330
47
100
AcDbScale
 70
     0
300
8:1
140
8.0
141
1.0
290
     0
  0
SCALE
  5
57
102
{ACAD_REACTORS
330
47
102
}
330
47
100
AcDbScale
 70
     0
300
10:1
140
10.0
141
1.0
290
     0
  0
SCALE
  5
58
102
{ACAD_REACTORS
330
47
102
}
330
47
100
AcDbScale
 70
     0
300
100:1
140
100.0
141
1.0
290
     0
  0
SCALE
  5
59
102
{ACAD_REACTORS
330
47
102
}
330
47
100
AcDbScale
 70
     0
300
1/128" = 1'-0"
140
0.0078125
141
12.0
290
     0
  0
SCALE
  5
5A
102
{ACAD_REACTORS
330
47
102
}
330
47
100
AcDbScale
 70
     0
300
1/64" = 1'-0"
140
0.015625
141
12.0
290
     0
  0
SCALE
  5
5B
102
{ACAD_REACTORS
330
47
102
}
330
47
100
AcDbScale
 70
     0
300
1/32" = 1'-0"
140
0.03125
141
12.0
290
     0
  0
SCALE
  5
5C
102
{ACAD_REACTORS
330
47
102
}
330
47
100
AcDbScale
 70
     0
300
1/16" = 1'-0"
140
0.0625
141
12.0
290
     0
  0
SCALE
  5
5D
102
{ACAD_REACTORS
330
47
102
}
330
47
100
AcDbScale
 70
     0
300
3/32" = 1'-0"
140
0.09375
141
12.0
290
     0
  0
SCALE
  5
5E
102
{ACAD_REACTORS
330
47
102
}
330
47
100
AcDbScale
 70
     0
300
1/8" = 1'-0"
140
0.125
141
12.0
290
     0
  0
SCALE
  5
5F
102
{ACAD_REACTORS
330
47
102
}
330
47
100
AcDbScale
 70
     0
300
3/16" = 1'-0"
140
0.1875
141
12.0
290
     0
  0
SCALE
  5
60
102
{ACAD_REACTORS
330
47
102
}
330
47
100
AcDbScale
 70
     0
300
1/4" = 1'-0"
140
0.25
141
12.0
290
     0
  0
SCALE
  5
61
102
{ACAD_REACTORS
330
47
102
}
330
47
100
AcDbScale
 70
     0
300
3/8" = 1'-0"
140
0.375
141
12.0
290
     0
  0
SCALE
  5
62
102
{ACAD_REACTORS
330
47
102
}
330
47
100
AcDbScale
 70
     0
300
1/2" = 1'-0"
140
0.5
141
12.0
290
     0
  0
SCALE
  5
63
102
{ACAD_REACTORS
330
47
102
}
330
47
100
AcDbScale
 70
     0
300
3/4" = 1'-0"
140
0.75
141
12.0
290
     0
  0
SCALE
  5
64
102
{ACAD_REACTORS
330
47
102
}
330
47
100
AcDbScale
 70
     0
300
1" = 1'-0"
140
1.0
141
12.0
290
     0
  0
SCALE
  5
65
102
{ACAD_REACTORS
330
47
102
}
330
47
100
AcDbScale
 70
     0
300
1-1/2" = 1'-0"
140
1.5
141
12.0
290
     0
  0
SCALE
  5
66
102
{ACAD_REACTORS
330
47
102
}
330
47
100
AcDbScale
 70
     0
300
3" = 1'-0"
140
3.0
141
12.0
290
     0
  0
SCALE
  5
67
102
{ACAD_REACTORS
330
47
102
}
330
47
100
AcDbScale
 70
     0
300
6" = 1'-0"
140
6.0
141
12.0
290
     0
  0
SCALE
  5
68
102
{ACAD_REACTORS
330
47
102
}
330
47
100
AcDbScale
 70
     0
300
1'-0" = 1'-0"
140
12.0
141
12.0
290
     0
  0
ENDSEC
  0
EOF
