  0
SECTION
  2
HEADER
  9
$ACADVER
  1
AC1014
  9
$ACADMAINTVER
 70
     9
  9
$DWGCODEPAGE
  3
DOS932
  9
$INSBASE
 10
0.0
 20
0.0
 30
0.0
  9
$EXTMIN
 10
0.0
 20
0.0
 30
0.0
  9
$EXTMAX
 10
210.0
 20
297.0
 30
0.0
  9
$LIMMIN
 10
0.0
 20
0.0
  9
$LIMMAX
 10
210.0
 20
297.0
  9
$ORTHOMODE
 70
     0
  9
$REGENMODE
 70
     1
  9
$FILLMODE
 70
     1
  9
$QTEXTMODE
 70
     0
  9
$MIRRTEXT
 70
     1
  9
$DRAGMODE
 70
     2
  9
$LTSCALE
 40
1.0
  9
$OSMODE
 70
    37
  9
$ATTMODE
 70
     1
  9
$TEXTSIZE
 40
3.5
  9
$TRACEWID
 40
1.0
  9
$TEXTSTYLE
  7
STANDARD
  9
$CLAYER
  8
0
  9
$CELTYPE
  6
BYLAYER
  9
$CECOLOR
 62
   256
  9
$CELTSCALE
 40
1.0
  9
$DELOBJ
 70
     1
  9
$DISPSILH
 70
     0
  9
$DIMSCALE
 40
1.0
  9
$DIMASZ
 40
3.302
  9
$DIMEXO
 40
1.0
  9
$DIMDLI
 40
3.75
  9
$DIMRND
 40
0.0
  9
$DIMDLE
 40
0.0
  9
$DIMEXE
 40
1.0
  9
$DIMTP
 40
0.0
  9
$DIMTM
 40
0.0
  9
$DIMTXT
 40
3.5
  9
$DIMCEN
 40
2.5
  9
$DIMTSZ
 40
0.0
  9
$DIMTOL
 70
     0
  9
$DIMLIM
 70
     0
  9
$DIMTIH
 70
     1
  9
$DIMTOH
 70
     1
  9
$DIMSE1
 70
     0
  9
$DIMSE2
 70
     0
  9
$DIMTAD
 70
     1
  9
$DIMZIN
 70
     1
  9
$DIMBLK
  1

  9
$DIMASO
 70
     1
  9
$DIMSHO
 70
     1
  9
$DIMPOST
  1

  9
$DIMAPOST
  1

  9
$DIMALT
 70
     0
  9
$DIMALTD
 70
     3
  9
$DIMALTF
 40
0.0393700787
  9
$DIMLFAC
 40
2.0
  9
$DIMTOFL
 70
     1
  9
$DIMTVP
 40
0.0
  9
$DIMTIX
 70
     0
  9
$DIMSOXD
 70
     0
  9
$DIMSAH
 70
     0
  9
$DIMBLK1
  1

  9
$DIMBLK2
  1

  9
$DIMSTYLE
  2
ISO-25
  9
$DIMCLRD
 70
     0
  9
$DIMCLRE
 70
     0
  9
$DIMCLRT
 70
     0
  9
$DIMTFAC
 40
1.0
  9
$DIMGAP
 40
1.524
  9
$DIMJUST
 70
     0
  9
$DIMSD1
 70
     0
  9
$DIMSD2
 70
     0
  9
$DIMTOLJ
 70
     0
  9
$DIMTZIN
 70
     1
  9
$DIMALTZ
 70
     0
  9
$DIMALTTZ
 70
     0
  9
$DIMFIT
 70
     3
  9
$DIMUPT
 70
     0
  9
$DIMUNIT
 70
     2
  9
$DIMDEC
 70
     2
  9
$DIMTDEC
 70
     2
  9
$DIMALTU
 70
     2
  9
$DIMALTTD
 70
     3
  9
$DIMTXSTY
  7
STANDARD
  9
$DIMAUNIT
 70
     0
  9
$LUNITS
 70
     2
  9
$LUPREC
 70
     2
  9
$SKETCHINC
 40
1.0
  9
$FILLETRAD
 40
0.0
  9
$AUNITS
 70
     0
  9
$AUPREC
 70
     2
  9
$MENU
  1
.
  9
$ELEVATION
 40
0.0
  9
$PELEVATION
 40
0.0
  9
$THICKNESS
 40
0.0
  9
$LIMCHECK
 70
     0
  9
$CHAMFERA
 40
0.0
  9
$CHAMFERB
 40
0.0
  9
$CHAMFERC
 40
0.0
  9
$CHAMFERD
 40
0.0
  9
$SKPOLY
 70
     0
  9
$TDCREATE
 40
2460417.66028978
  9
$TDUPDATE
 40
2460417.660290012
  9
$TDINDWG
 40
0.0000000116
  9
$TDUSRTIMER
 40
0.0000000116
  9
$USRTIMER
 70
     1
  9
$ANGBASE
 50
0.0
  9
$ANGDIR
 70
     0
  9
$PDMODE
 70
     0
  9
$PDSIZE
 40
-1.0
  9
$PLINEWID
 40
0.0
  9
$COORDS
 70
     1
  9
$SPLFRAME
 70
     0
  9
$SPLINETYPE
 70
     6
  9
$SPLINESEGS
 70
     8
  9
$ATTDIA
 70
     0
  9
$ATTREQ
 70
     1
  9
$HANDLING
 70
     1
  9
$HANDSEED
  5
9D
  9
$SURFTAB1
 70
     6
  9
$SURFTAB2
 70
     6
  9
$SURFTYPE
 70
     6
  9
$SURFU
 70
     6
  9
$SURFV
 70
     6
  9
$UCSNAME
  2

  9
$UCSORG
 10
0.0
 20
0.0
 30
0.0
  9
$UCSXDIR
 10
1.0
 20
0.0
 30
0.0
  9
$UCSYDIR
 10
0.0
 20
1.0
 30
0.0
  9
$PUCSNAME
  2

  9
$PUCSORG
 10
0.0
 20
0.0
 30
0.0
  9
$PUCSXDIR
 10
1.0
 20
0.0
 30
0.0
  9
$PUCSYDIR
 10
0.0
 20
1.0
 30
0.0
  9
$USERI1
 70
     0
  9
$USERI2
 70
     0
  9
$USERI3
 70
     0
  9
$USERI4
 70
     0
  9
$USERI5
 70
     0
  9
$USERR1
 40
0.0
  9
$USERR2
 40
0.0
  9
$USERR3
 40
0.0
  9
$USERR4
 40
0.0
  9
$USERR5
 40
0.0
  9
$WORLDVIEW
 70
     1
  9
$SHADEDGE
 70
     3
  9
$SHADEDIF
 70
    70
  9
$TILEMODE
 70
     1
  9
$MAXACTVP
 70
    64
  9
$PINSBASE
 10
0.0
 20
0.0
 30
0.0
  9
$PLIMCHECK
 70
     0
  9
$PEXTMIN
 10
1.0000000000E+20
 20
1.0000000000E+20
 30
1.0000000000E+20
  9
$PEXTMAX
 10
-1.0000000000E+20
 20
-1.0000000000E+20
 30
-1.0000000000E+20
  9
$PLIMMIN
 10
0.0
 20
0.0
  9
$PLIMMAX
 10
420.0
 20
297.0
  9
$UNITMODE
 70
     0
  9
$VISRETAIN
 70
     1
  9
$PLINEGEN
 70
     0
  9
$PSLTSCALE
 70
     1
  9
$TREEDEPTH
 70
  3020
  9
$PICKSTYLE
 70
     1
  9
$CMLSTYLE
  2
STANDARD
  9
$CMLJUST
 70
     0
  9
$CMLSCALE
 40
20.0
  9
$PROXYGRAPHICS
 70
     1
  9
$MEASUREMENT
 70
     1
  0
ENDSEC
  0
SECTION
  2
CLASSES
  0
CLASS
  1
ACDBDICTIONARYWDFLT
  2
AcDbDictionaryWithDefault
  3
ObjectDBX Classes
 90
        0
280
     0
281
     0
  0
CLASS
  1
VISUALSTYLE
  2
AcDbVisualStyle
  3
ObjectDBX Classes
 90
     4095
280
     0
281
     0
  0
CLASS
  1
MATERIAL
  2
AcDbMaterial
  3
ObjectDBX Classes
 90
     1153
280
     0
281
     0
  0
CLASS
  1
SCALE
  2
AcDbScale
  3
ObjectDBX Classes
 90
     1153
280
     0
281
     0
  0
CLASS
  1
TABLESTYLE
  2
AcDbTableStyle
  3
ObjectDBX Classes
 90
     4095
280
     0
281
     0
  0
CLASS
  1
MLEADERSTYLE
  2
AcDbMLeaderStyle
  3
ACDB_MLEADERSTYLE_CLASS
 90
     4095
280
     0
281
     0
  0
CLASS
  1
SUN
  2
AcDbSun
  3
SCENEOE
 90
     1153
280
     0
281
     0
  0
CLASS
  1
XRECORD
  2
AcDbXrecord
  3
ObjectDBX Classes
 90
        0
280
     0
281
     0
  0
CLASS
  1
LWPOLYLINE
  2
AcDbPolyline
  3
ObjectDBX Classes
 90
        0
280
     0
281
     1
  0
CLASS
  1
HATCH
  2
AcDbHatch
  3
ObjectDBX Classes
 90
        0
280
     0
281
     1
  0
ENDSEC
  0
SECTION
  2
TABLES
  0
TABLE
  2
VPORT
  5
8
330
0
100
AcDbSymbolTable
 70
     1
  0
VPORT
  5
29
330
8
100
AcDbSymbolTableRecord
100
AcDbViewportTableRecord
  2
*ACTIVE
 70
     0
 10
0.0
 20
0.0
 11
1.0
 21
1.0
 12
105.0
 22
148.5
 13
0.0
 23
0.0
 14
10.0
 24
10.0
 15
10.0
 25
10.0
 16
0.0
 26
0.0
 36
1.0
 17
0.0
 27
0.0
 37
0.0
 40
297.0
 41
0.7070707071
 42
50.0
 43
0.0
 44
0.0
 50
0.0
 51
0.0
 71
     0
 72
  2000
 73
     1
 74
     3
 75
     0
 76
     0
 77
     0
 78
     0
  0
ENDTAB
  0
TABLE
  2
LTYPE
  5
5
330
0
100
AcDbSymbolTable
 70
     6
  0
LTYPE
  5
14
330
5
100
AcDbSymbolTableRecord
100
AcDbLinetypeTableRecord
  2
BYBLOCK
 70
     0
  3

 72
    65
 73
     0
 40
0.0
  0
LTYPE
  5
15
330
5
100
AcDbSymbolTableRecord
100
AcDbLinetypeTableRecord
  2
BYLAYER
 70
     0
  3

 72
    65
 73
     0
 40
0.0
  0
LTYPE
  5
16
330
5
100
AcDbSymbolTableRecord
100
AcDbLinetypeTableRecord
  2
CONTINUOUS
 70
     0
  3
Solid line
 72
    65
 73
     0
 40
0.0
  0
LTYPE
  5
5E
330
5
100
AcDbSymbolTableRecord
100
AcDbLinetypeTableRecord
  2
HIDDEN
 70
     0
  3
Hidden __ __ __ __ __ __ __ __ __ __ __ __ __ __
 72
    65
 73
     2
 40
1.905
 49
1.27
 74
     0
 49
-0.635
 74
     0
  0
LTYPE
  5
5F
330
5
100
AcDbSymbolTableRecord
100
AcDbLinetypeTableRecord
  2
PHANTOM
 70
     0
  3
Phantom ______  __  __  ______  __  __  ______
 72
    65
 73
     6
 40
12.7
 49
6.35
 74
     0
 49
-1.27
 74
     0
 49
1.27
 74
     0
 49
-1.27
 74
     0
 49
1.27
 74
     0
 49
-1.27
 74
     0
  0
LTYPE
  5
60
330
5
100
AcDbSymbolTableRecord
100
AcDbLinetypeTableRecord
  2
CENTER
 70
     0
  3
Center ____ _ ____ _ ____ _ ____ _ ____ _ ____
 72
    65
 73
     4
 40
10.16
 49
6.35
 74
     0
 49
-1.27
 74
     0
 49
1.27
 74
     0
 49
-1.27
 74
     0
  0
LTYPE
  5
61
330
5
100
AcDbSymbolTableRecord
100
AcDbLinetypeTableRecord
  2
CENTERX2
 70
     0
  3
Center (2x) ________  __  ________  __  _____
 72
    65
 73
     4
 40
20.32
 49
12.7
 74
     0
 49
-2.54
 74
     0
 49
2.54
 74
     0
 49
-2.54
 74
     0
  0
LTYPE
  5
62
330
5
100
AcDbSymbolTableRecord
100
AcDbLinetypeTableRecord
  2
DOT2
 70
     0
  3
Dot (.5x) ........................................
 72
    65
 73
     2
 40
0.635
 49
0.0
 74
     0
 49
-0.635
 74
     0
  0
ENDTAB
  0
TABLE
  2
LAYER
  5
2
330
0
100
AcDbSymbolTable
 70
     2
  0
LAYER
  5
10
330
2
100
AcDbSymbolTableRecord
100
AcDbLayerTableRecord
  2
0
 70
     0
 62
     7
  6
CONTINUOUS
  0
LAYER
  5
63
330
2
100
AcDbSymbolTableRecord
100
AcDbLayerTableRecord
  2
FORMAT
 70
     0
 62
     7
  6
CONTINUOUS
  0
ENDTAB
  0
TABLE
  2
STYLE
  5
3
330
0
100
AcDbSymbolTable
 70
     2
  0
STYLE
  5
11
330
3
100
AcDbSymbolTableRecord
100
AcDbTextStyleTableRecord
  2
STANDARD
 70
     0
 40
0.0
 41
1.0
 50
0.0
 71
     0
 42
3.5
  3
txt
  4
bigfont
  0
STYLE
  5
64
330
3
100
AcDbSymbolTableRecord
100
AcDbTextStyleTableRecord
  2
SLDTEXTSTYLE0
 70
     0
 40
0.0
 41
0.7
 50
0.0
 71
     0
 42
3.5
  3
TXT
  4
bigfont
  0
ENDTAB
  0
TABLE
  2
VIEW
  5
6
330
0
100
AcDbSymbolTable
 70
     0
  0
ENDTAB
  0
TABLE
  2
UCS
  5
7
330
0
100
AcDbSymbolTable
 70
     0
  0
ENDTAB
  0
TABLE
  2
APPID
  5
9
330
0
100
AcDbSymbolTable
 70
     1
  0
APPID
  5
12
330
9
100
AcDbSymbolTableRecord
100
AcDbRegAppTableRecord
  2
ACAD
 70
     0
  0
ENDTAB
  0
TABLE
  2
DIMSTYLE
  5
A
330
0
100
AcDbSymbolTable
 70
     1
  0
DIMSTYLE
105
27
330
A
100
AcDbSymbolTableRecord
100
AcDbDimStyleTableRecord
  2
ISO-25
 70
     0
  3

  4

  5

  6

  7

 40
1.0
 41
2.5
 42
0.625
 43
3.75
 44
1.25
 45
0.0
 46
0.0
 47
0.0
 48
0.0
140
2.5
141
2.5
142
0.0
143
0.0393700787
144
1.0
145
0.0
146
1.0
147
0.625
 71
     0
 72
     0
 73
     0
 74
     0
 75
     0
 76
     0
 77
     1
 78
     8
170
     0
171
     3
172
     1
173
     0
174
     0
175
     0
176
     0
177
     0
178
     0
270
     2
271
     2
272
     2
273
     2
274
     3
340
11
275
     0
280
     0
281
     0
282
     0
283
     0
284
     8
285
     0
286
     0
287
     3
288
     0
  0
ENDTAB
  0
TABLE
  2
BLOCK_RECORD
  5
1
330
0
100
AcDbSymbolTable
 70
     1
  0
BLOCK_RECORD
  5
1F
330
1
100
AcDbSymbolTableRecord
100
AcDbBlockTableRecord
  2
*MODEL_SPACE
  0
BLOCK_RECORD
  5
1B
330
1
100
AcDbSymbolTableRecord
100
AcDbBlockTableRecord
  2
*PAPER_SPACE
  0
BLOCK_RECORD
  5
23
330
1
100
AcDbSymbolTableRecord
100
AcDbBlockTableRecord
  2
*PAPER_SPACE0
  0
ENDTAB
  0
ENDSEC
  0
SECTION
  2
BLOCKS
  0
BLOCK
  5
20
330
1F
100
AcDbEntity
  8
0
100
AcDbBlockBegin
  2
*MODEL_SPACE
 70
     0
 10
0.0
 20
0.0
 30
0.0
  3
*MODEL_SPACE
  1

  0
ENDBLK
  5
21
330
1F
100
AcDbEntity
  8
0
100
AcDbBlockEnd
  0
BLOCK
  5
1C
330
1B
100
AcDbEntity
 67
     1
  8
0
100
AcDbBlockBegin
  2
*PAPER_SPACE
 70
     0
 10
0.0
 20
0.0
 30
0.0
  3
*PAPER_SPACE
  1

  0
ENDBLK
  5
1D
330
1B
100
AcDbEntity
 67
     1
  8
0
100
AcDbBlockEnd
  0
BLOCK
  5
24
330
23
100
AcDbEntity
  8
0
100
AcDbBlockBegin
  2
*PAPER_SPACE0
 70
     0
 10
0.0
 20
0.0
 30
0.0
  3
*PAPER_SPACE0
  1

  0
ENDBLK
  5
25
330
23
100
AcDbEntity
  8
0
100
AcDbBlockEnd
  0
ENDSEC
  0
SECTION
  2
ENTITIES
  0
MTEXT
  5
65
330
1F
100
AcDbEntity
  8
0
  6
CONTINUOUS
 62
     7
100
AcDbMText
 10
147.4017034437
 20
100.6114694345
 30
0.0
 40
3.5
 41
0.0
 71
     1
 72
     1
  1
HEC-136K
  7
SLDTEXTSTYLE0
  0
LINE
  5
66
330
1F
100
AcDbEntity
  8
0
  6
CONTINUOUS
 62
     7
100
AcDbLine
 10
109.0274153683
 20
193.7851201834
 30
0.0
 11
63.7823900048
 21
181.28800605
 31
0.0
  0
LINE
  5
67
330
1F
100
AcDbEntity
  8
0
  6
CONTINUOUS
 62
     7
100
AcDbLine
 10
79.0912105188
 20
125.8633724069
 30
0.0
 11
124.3362358823
 21
138.3604865403
 31
0.0
  0
LINE
  5
68
330
1F
100
AcDbEntity
  8
0
  6
CONTINUOUS
 62
     7
100
AcDbLine
 10
114.3570720461
 20
194.1129794028
 30
0.0
 11
114.3421160835
 21
193.6024581158
 31
0.0
  0
LINE
  5
69
330
1F
100
AcDbEntity
  8
0
  6
CONTINUOUS
 62
     7
100
AcDbLine
 10
84.5598119751
 20
154.6855535827
 30
0.0
 11
82.1467439557
 21
154.019040829
 31
0.0
  0
LINE
  5
6A
330
1F
100
AcDbEntity
  8
0
  6
CONTINUOUS
 62
     7
100
AcDbLine
 10
87.5761469993
 20
155.518694525
 30
0.0
 11
86.7478963335
 21
155.2899236707
 31
0.0
  0
LINE
  5
6B
330
1F
100
AcDbEntity
  8
0
  6
CONTINUOUS
 62
     7
100
AcDbLine
 10
112.1247502846
 20
134.9875559689
 30
0.0
 11
112.1209783768
 21
134.8588020221
 31
0.0
  0
LINE
  5
6C
330
1F
100
AcDbEntity
  8
0
  6
CONTINUOUS
 62
     7
100
AcDbLine
 10
116.1192630313
 20
134.7416703815
 30
0.0
 11
116.1591111771
 21
136.101885514
 31
0.0
  0
LINE
  5
6D
330
1F
100
AcDbEntity
  8
0
  6
CONTINUOUS
 62
     7
100
AcDbLine
 10
112.1743656783
 20
134.7485978669
 30
0.0
 11
112.646555077
 21
134.2751060969
 31
0.0
  0
LINE
  5
6E
330
1F
100
AcDbEntity
  8
0
  6
CONTINUOUS
 62
     7
100
AcDbLine
 10
115.5604177124
 20
134.1897431124
 30
0.0
 11
116.0595158589
 21
134.6347805543
 31
0.0
  0
LINE
  5
6F
330
1F
100
AcDbEntity
  8
0
  6
CONTINUOUS
 62
     7
100
AcDbLine
 10
118.6955926977
 20
193.7614338056
 30
0.0
 11
117.0366084344
 21
193.3032062874
 31
0.0
  0
LWPOLYLINE
  5
70
330
1F
100
AcDbEntity
  8
0
  6
CONTINUOUS
 62
     7
100
AcDbPolyline
 90
       44
 70
   128
 43
0.0
 10
124.3362358823
 20
138.3604865403
 10
125.5286000936
 20
138.7361610217
 10
126.8485116322
 20
139.2654116501
 10
128.1277321974
 20
139.9019557329
 10
129.3611418583
 20
140.6432455768
 10
130.5438040369
 20
141.4863142559
 10
131.6709852658
 20
142.4277874861
 10
132.7381741339
 20
143.4638971308
 10
133.7410993423
 20
144.5904962822
 10
134.6757467999
 20
145.8030758588
 10
135.5383756897
 20
147.0967826524
 10
136.32553344
 20
148.4664387526
 10
137.034069544
 20
149.9065622709
 10
137.6611481687
 20
151.4113892812
 10
138.2042595051
 20
152.9748968889
 10
138.6612298136
 20
154.5908273377
 10
139.0302301237
 20
156.2527130544
 10
139.3097835549
 20
157.9539025357
 10
139.4987712273
 20
159.6875869694
 10
139.5964367397
 20
161.4468274859
 10
139.6023891973
 20
163.2245829307
 10
139.5166047761
 20
165.013738045
 10
139.3394268183
 20
166.8071319446
 10
139.0715644579
 20
168.5975867798
 10
138.7140897828
 20
170.3779364642
 10
138.2684335435
 20
172.1410553562
 10
137.7363794271
 20
173.8798867783
 10
137.1200569181
 20
175.5874712608
 10
136.4219327754
 20
177.2569743963
 10
135.6448011592
 20
178.8817141934
 10
134.7917724482
 20
180.4551878209
 10
133.8662607901
 20
181.9710976343
 10
132.8719704373
 20
183.4233763817
 10
131.8128809207
 20
184.806211487
 10
130.6932311224
 20
186.1140683141
 10
129.51750231
 20
187.3417123188
 10
128.2904002008
 20
188.4842299995
 10
127.0168361277
 20
189.5370485625
 10
125.701907382
 20
190.4959542245
 10
124.3508768125
 20
191.3571090776
 10
122.9691517614
 20
192.11706645
 10
121.5622624217
 20
192.7727847012
 10
120.1358397037
 20
193.3216393953
 10
118.6955926977
 20
193.7614338056
  0
ARC
  5
71
330
1F
100
AcDbEntity
  8
0
  6
CONTINUOUS
 62
     7
100
AcDbCircle
 10
113.7534913737
 20
176.561976765
 30
0.0
 40
17.85980021217383
100
AcDbArc
 50
86.239455577
 51
105.3444265051
  0
SPLINE
  5
72
330
1F
100
AcDbEntity
  8
0
  6
CONTINUOUS
 62
     7
100
AcDbSpline
210
0.0
220
0.0
230
1.0
 70
     8
 71
     3
 72
    15
 73
    11
 74
     0
 42
0.00000001
 43
0.00000001
 40
0.0
 40
0.0
 40
0.0
 40
0.0
 40
0.1348052407026084
 40
0.2696060343453213
 40
0.4045222106341784
 40
0.5395137037104157
 40
0.6743799411493923
 40
0.8091161022067137
 40
0.9439198277665756
 40
1.0
 40
1.0
 40
1.0
 40
1.0
 10
117.036608434422
 20
193.3032062874162
 30
0.0
 10
116.9217539188166
 20
193.2786528032892
 30
0.0
 10
116.6920486765158
 20
193.2295466450245
 30
0.0
 10
116.2159755229934
 20
193.208352722571
 30
0.0
 10
115.7070678091617
 20
193.2260406408795
 30
0.0
 10
115.2111691260823
 20
193.2795505805175
 30
0.0
 10
114.7842792590552
 20
193.3588934457677
 30
0.0
 10
114.4864182151417
 20
193.4546120142875
 30
0.0
 10
114.3389275267414
 20
193.5387208237779
 30
0.0
 10
114.3573688720798
 20
193.5874123700106
 30
0.0
 10
114.3627867927884
 20
193.6017175593462
 30
0.0
  0
LWPOLYLINE
  5
73
330
1F
100
AcDbEntity
  8
0
  6
CONTINUOUS
 62
     7
100
AcDbPolyline
 90
      102
 70
   128
 43
0.0
 10
72.2561383337
 20
181.5437670687
 10
70.8299603389
 20
181.7772607817
 10
69.4061300899
 20
181.9016480931
 10
67.9901561093
 20
181.9164477724
 10
66.5875165253
 20
181.8216025625
 10
65.2036378781
 20
181.6174794012
 10
63.8438741252
 20
181.3048680014
 10
62.5134859285
 20
180.8849777957
 10
61.2176203015
 20
180.3594332579
 10
59.9612906964
 20
179.7302676176
 10
58.7493576086
 20
178.9999149945
 10
57.5865097716
 20
178.1712009811
 10
56.4772460179
 20
177.2473317107
 10
55.4258578734
 20
176.2318814542
 10
54.4364129546
 20
175.1287787914
 10
53.5127392316
 20
173.942291412
 10
52.6584102188
 20
172.6770096054
 10
51.876731149
 20
171.3378285011
 10
51.1707261867
 20
169.9299291304
 10
50.543126728
 20
168.4587583827
 10
49.9963608332
 20
166.9300079317
 10
49.5325438334
 20
165.349592216
 10
49.1534701464
 20
163.7236255569
 10
48.8606063347
 20
162.0583985035
 10
48.6550854316
 20
160.3603534959
 10
48.5377025573
 20
158.6360599402
 10
48.5089118436
 20
156.8921887934
 10
48.568824676
 20
155.135486754
 10
48.7172092634
 20
153.372750161
 10
48.9534915347
 20
151.6107986998
 10
49.2767573598
 20
149.8564490184
 10
49.6857560858
 20
148.1164883548
 10
50.1789053763
 20
146.3976482788
 10
50.7542973323
 20
144.7065786489
 10
51.4097058743
 20
143.0498218847
 10
52.1425953538
 20
141.4337876565
 10
52.9501303639
 20
139.8647280868
 10
53.8291867085
 20
138.348713562
 10
54.7763634893
 20
136.8916092481
 10
55.7879962635
 20
135.4990523984
 10
56.8601712202
 20
134.1764305449
 10
57.988740323
 20
132.9288606546
 10
59.1693373571
 20
131.761169333
 10
60.397394822
 20
130.6778741511
 10
61.6681616021
 20
129.6831661675
 10
62.9767213473
 20
128.780893714
 10
64.3180114944
 20
127.9745475075
 10
65.6868428522
 20
127.2672471449
 10
67.0779196782
 20
126.6617290339
 10
68.4858601665
 20
126.1603358064
 10
69.9052172687
 20
125.7650072553
 10
71.3304997679
 20
125.4772728301
 10
72.7561935231
 20
125.2982457193
 10
74.1767828021
 20
125.2286185441
 10
75.586771621
 20
125.2686606785
 10
76.9807050068
 20
125.4182172072
 10
78.3531901022
 20
125.6767095251
 10
79.6989170289
 20
126.0431375756
 10
81.012679431
 20
126.5160837197
 10
82.2893946167
 20
127.0937182208
 10
83.5241232233
 20
127.7738063231
 10
84.7120883254
 20
128.553716898
 10
85.848693917
 20
129.4304326228
 10
86.9295426918
 20
130.4005616548
 10
87.9504530559
 20
131.4603507533
 10
88.9074753054
 20
132.6056998
 10
89.7969069071
 20
133.832177662
 10
90.615306823
 20
135.1350393347
 10
91.3595088227
 20
136.5092442995
 10
92.0266337334
 20
137.9494760243
 10
92.6141005782
 20
139.4501625323
 10
93.1196365622
 20
141.0054979589
 10
93.5412858648
 20
142.6094650136
 10
93.8774172068
 20
144.2558582594
 10
94.1267301613
 20
145.9383081207
 10
94.288260185
 20
147.6503055258
 10
94.3613823495
 20
149.3852270893
 10
94.3458137594
 20
151.1363607368
 10
94.2416146465
 20
152.8969316723
 10
94.049188137
 20
154.660128589
 10
93.7692786916
 20
156.4191300205
 10
93.4029692257
 20
158.1671307319
 10
92.9516769194
 20
159.8973680481
 10
92.4171477349
 20
161.603148017
 10
91.8014496618
 20
163.2778713074
 10
91.1069647164
 20
164.9150587401
 10
90.336379726
 20
166.508376355
 10
89.4926759342
 20
168.0516599159
 10
88.5791174671
 20
169.5389387583
 10
87.5992387049
 20
170.9644588895
 10
86.5568306082
 20
172.3227052489
 10
85.4559260514
 20
173.6084230452
 10
84.3007842204
 20
174.8166380862
 10
83.0958741345
 20
175.9426760224
 10
81.8458573568
 20
176.9821804319
 10
80.5555699593
 20
177.931129674
 10
79.2300038133
 20
178.7858524485
 10
77.8742872768
 20
179.543041999
 10
76.4936653536
 20
180.1997689063
 10
75.0934794017
 20
180.7534924214
 10
73.6791464686
 20
181.2020702958
 10
72.2561383337
 20
181.5437670687
  0
SPLINE
  5
74
330
1F
100
AcDbEntity
  8
0
  6
CONTINUOUS
 62
     7
100
AcDbSpline
210
0.0
220
0.0
230
1.0
 70
    11
 71
     3
 72
    56
 73
    52
 74
     0
 42
0.00000001
 43
0.00000001
 40
0.0
 40
0.0
 40
0.0
 40
0.0
 40
0.0312499999999991
 40
0.0312499999999991
 40
0.0624999999999982
 40
0.0624999999999982
 40
0.0937499999999973
 40
0.0937499999999973
 40
0.1249999999999964
 40
0.1249999999999964
 40
0.1874999999999953
 40
0.1874999999999953
 40
0.2499999999999943
 40
0.2499999999999943
 40
0.2812499999999942
 40
0.2812499999999942
 40
0.3124999999999941
 40
0.3124999999999941
 40
0.3437499999999939
 40
0.3437499999999939
 40
0.3749999999999938
 40
0.3749999999999938
 40
0.4062499999999937
 40
0.4062499999999937
 40
0.4374999999999936
 40
0.4374999999999936
 40
0.4687499999999934
 40
0.4687499999999934
 40
0.4999999999999933
 40
0.4999999999999933
 40
0.5624999999999933
 40
0.5624999999999933
 40
0.6249999999999933
 40
0.6249999999999933
 40
0.6562499999999937
 40
0.6562499999999937
 40
0.687499999999994
 40
0.687499999999994
 40
0.7187499999999943
 40
0.7187499999999943
 40
0.7499999999999946
 40
0.7499999999999946
 40
0.8124999999999951
 40
0.8124999999999951
 40
0.8437499999999958
 40
0.8437499999999958
 40
0.8749999999999964
 40
0.8749999999999964
 40
0.9374999999999982
 40
0.9374999999999982
 40
1.0
 40
1.0
 40
1.0
 40
1.0
 10
126.2485428934422
 20
139.3642186702639
 30
0.0
 10
126.2844145163284
 20
139.3741267598662
 30
0.0
 10
126.3156444635216
 20
139.3816738734809
 30
0.0
 10
126.3691936689716
 20
139.3922583309288
 30
0.0
 10
126.3916799131439
 20
139.395291036619
 30
0.0
 10
126.4260929314908
 20
139.3965673797248
 30
0.0
 10
126.4380913828672
 20
139.3948720066749
 30
0.0
 10
126.4517333175955
 20
139.3869368249015
 30
0.0
 10
126.453243792276
 20
139.3806009397524
 30
0.0
 10
126.4416525592909
 20
139.3555798928497
 30
0.0
 10
126.4120582949474
 20
139.3302083006449
 30
0.0
 10
126.3145995583619
 20
139.2676026181849
 30
0.0
 10
126.2457072498752
 20
139.2297308997511
 30
0.0
 10
126.1217070320418
 20
139.1686294967015
 30
0.0
 10
126.0761122087737
 20
139.147135066368
 30
0.0
 10
125.9806788104796
 20
139.1038995070998
 30
0.0
 10
125.9307135646237
 20
139.0820744932135
 30
0.0
 10
125.8262821601336
 20
139.0379532788635
 30
0.0
 10
125.7718554412576
 20
139.0156933490641
 30
0.0
 10
125.6632109763396
 20
138.972553771509
 30
0.0
 10
125.6084097681225
 20
138.9514240163925
 30
0.0
 10
125.4978500743341
 20
138.9099805066325
 30
0.0
 10
125.4437440401728
 20
138.8902870833961
 30
0.0
 10
125.3383857446203
 20
138.8529865204576
 30
0.0
 10
125.2865190426224
 20
138.8351735875215
 30
0.0
 10
125.1883910107989
 20
138.8025192525904
 30
0.0
 10
125.1423578837008
 20
138.7877394329082
 30
0.0
 10
125.0563023834221
 20
138.7611833383
 30
0.0
 10
125.016088112473
 20
138.7493668286805
 30
0.0
 10
124.9097438409842
 20
138.7199859873441
 30
0.0
 10
124.8551857143285
 20
138.707722591249
 30
0.0
 10
124.7885563006446
 20
138.7003175072498
 30
0.0
 10
124.7758239399465
 20
138.7051269383531
 30
0.0
 10
124.7892965788319
 20
138.7249793318628
 30
0.0
 10
124.7992794136111
 20
138.7338298441032
 30
0.0
 10
124.8293694183336
 20
138.755313436017
 30
0.0
 10
124.8493610123145
 20
138.7679175917505
 30
0.0
 10
124.8992317001802
 20
138.7969421361371
 30
0.0
 10
124.9292570398872
 20
138.8134193593347
 30
0.0
 10
124.996714779615
 20
138.8488691832663
 30
0.0
 10
125.034399746533
 20
138.8679952594196
 30
0.0
 10
125.1597378582781
 20
138.9297575829656
 30
0.0
 10
125.2558081501654
 20
138.9748833097493
 30
0.0
 10
125.4112850846067
 20
139.0448055469621
 30
0.0
 10
125.4640929751525
 20
139.0680714716515
 30
0.0
 10
125.5716767336731
 20
139.1144417434928
 30
0.0
 10
125.6269059013483
 20
139.1377238460235
 30
0.0
 10
125.7888646266372
 20
139.2043061752157
 30
0.0
 10
125.8959447629443
 20
139.2460019095917
 30
0.0
 10
126.0889797560001
 20
139.3157071798512
 30
0.0
 10
126.17679964767
 20
139.3444024910594
 30
0.0
 10
126.2485428934422
 20
139.364218670264
 30
0.0
  0
LWPOLYLINE
  5
75
330
1F
100
AcDbEntity
  8
0
  6
CONTINUOUS
 62
     7
100
AcDbPolyline
 90
      100
 70
   128
 43
0.0
 10
72.2276396181
 20
180.5709643612
 10
70.823263712
 20
180.7998065297
 10
69.421358301
 20
180.9190267864
 10
68.0275683634
 20
180.9281450735
 10
66.6475061994
 20
180.8271246747
 10
65.2867288323
 20
180.6163723636
 10
63.9507156322
 20
180.2967367653
 10
62.6448462527
 20
179.8695049397
 10
61.374378969
 20
179.3363971984
 10
60.1444295043
 20
178.6995601782
 10
58.9599504311
 20
177.961558197
 10
57.8257112285
 20
177.1253629283
 10
56.7462790776
 20
176.1943414354
 10
55.7260004705
 20
175.1722426131
 10
54.7689837091
 20
174.0631820927
 10
53.8790823622
 20
172.8716256694
 10
53.0598797484
 20
171.6023713205
 10
52.3146745075
 20
170.2605298853
 10
51.6464673179
 20
168.8515044855
 10
51.0579488143
 20
167.3809687691
 10
50.5514887528
 20
165.8548440646
 10
50.1291264694
 20
164.2792755374
 10
49.792562668
 20
162.6606074458
 10
49.5431525722
 20
161.0053575951
 10
49.3819004684
 20
159.3201910921
 10
49.3094556619
 20
157.6118935076
 10
49.3261098625
 20
155.887343553
 10
49.4317960094
 20
154.1534853824
 10
49.6260885419
 20
152.4173006305
 10
49.9082051126
 20
150.6857803007
 10
50.2770097376
 20
148.9658966142
 10
50.7310173707
 20
147.2645749355
 10
51.2683998836
 20
145.5886658866
 10
51.8869934266
 20
143.9449177618
 10
52.5843071416
 20
142.3399493545
 10
53.3575331926
 20
140.7802233061
 10
54.2035580711
 20
139.2720200829
 10
55.1189751335
 20
137.8214126869
 10
56.1000983185
 20
136.4342422023
 10
57.1429769892
 20
135.1160942748
 10
58.2434118413
 20
133.872276621
 10
59.396971812
 20
132.7077976556
 10
60.5990119226
 20
131.6273463243
 10
61.8446919816
 20
130.6352732234
 10
63.1289960752
 20
129.7355730811
 10
64.4467527641
 20
128.9318686722
 10
65.7926559071
 20
128.2273962309
 10
67.1612860274
 20
127.624992419
 10
68.5471321346
 20
127.1270829039
 10
69.9446139153
 20
126.7356725917
 10
71.3481042039
 20
126.4523375534
 10
72.7519516401
 20
126.2782186793
 10
74.1505034259
 20
126.2140170847
 10
75.5381280869
 20
126.2599912866
 10
76.9092381483
 20
126.4159561633
 10
78.2583126337
 20
126.6812836991
 10
79.5799192965
 20
127.0549055138
 10
80.8687364929
 20
127.5353171642
 10
82.1195746111
 20
128.1205842021
 10
83.3273969674
 20
128.8083499637
 10
84.4873400875
 20
129.595845059
 10
85.5947332898
 20
130.4798985233
 10
86.6451174927
 20
131.4569505852
 10
87.6342631699
 20
132.523067001
 10
88.5581873807
 20
133.6739548961
 10
89.4131698085
 20
134.9049800511
 10
90.1957677408
 20
136.2111855623
 10
90.9028299318
 20
137.5873118011
 10
91.5315092918
 20
139.0278175928
 10
92.0792743509
 20
140.526902529
 10
92.5439194524
 20
142.0785303237
 10
92.9235736346
 20
143.6764531195
 10
93.216708164
 20
145.3142366452
 10
93.4221426914
 20
146.9852861246
 10
93.5390500044
 20
148.6828728313
 10
93.5669593586
 20
150.4001611828
 10
93.5057583727
 20
152.1302362649
 10
93.3556934817
 20
153.8661316759
 10
93.1173689438
 20
155.6008575777
 10
92.7917444078
 20
157.3274288413
 10
92.3801310489
 20
159.0388931737
 10
91.8841862887
 20
160.728359112
 10
91.3059071217
 20
162.3890237731
 10
90.6476220741
 20
164.0142002466
 10
89.9119818274
 20
165.5973445205
 10
89.1019485452
 20
167.1320818315
 10
88.2207839457
 20
168.6122323341
 10
87.2720361677
 20
170.0318359847
 10
86.2595254837
 20
171.3851765404
 10
85.1873289168
 20
172.6668045764
 10
84.0597638241
 20
173.8715594291
 10
82.8813705124
 20
174.9945899757
 10
81.6568939556
 20
176.0313741687
 10
80.3912646885
 20
176.977737244
 10
79.0895789537
 20
177.8298685315
 10
77.7570781801
 20
178.5843367994
 10
76.399127878
 20
179.2381040702
 10
75.021196034
 20
179.7885378537
 10
73.6288310933
 20
180.2334217476
 10
72.2276396181
 20
180.5709643612
  0
ARC
  5
76
330
1F
100
AcDbEntity
  8
0
  6
CONTINUOUS
 62
     7
100
AcDbCircle
 10
115.796042174
 20
165.8272307195
 30
0.0
 40
35.43194273415864
100
AcDbArc
 50
186.4180157909
 51
199.3621894974
  0
ARC
  5
77
330
1F
100
AcDbEntity
  8
0
  6
CONTINUOUS
 62
     7
100
AcDbCircle
 10
113.0937494389
 20
165.0466558158
 30
0.0
 40
35.12120841683786
100
AcDbArc
 50
200.0196330617
 51
204.0816271993
  0
LINE
  5
78
330
1F
100
AcDbEntity
  8
0
  6
CONTINUOUS
 62
     7
100
AcDbLine
 10
81.0293130105
 20
150.7158778471
 30
0.0
 11
83.4423810299
 21
151.3823906009
 31
0.0
  0
ARC
  5
79
330
1F
100
AcDbEntity
  8
0
  6
CONTINUOUS
 62
     7
100
AcDbCircle
 10
113.1725008386
 20
164.5278017548
 30
0.0
 40
32.50664329407146
100
AcDbArc
 50
203.8530027797
 51
222.4086604719
  0
LINE
  5
7A
330
1F
100
AcDbEntity
  8
0
  6
CONTINUOUS
 62
     7
100
AcDbLine
 10
89.171109952
 20
142.6048664186
 30
0.0
 11
89.7743769568
 21
142.7714946071
 31
0.0
  0
LINE
  5
7B
330
1F
100
AcDbEntity
  8
0
  6
CONTINUOUS
 62
     7
100
AcDbLine
 10
80.5861577915
 20
161.8665984859
 30
0.0
 11
81.1894247963
 21
162.0332266744
 31
0.0
  0
ARC
  5
7C
330
1F
100
AcDbEntity
  8
0
  6
CONTINUOUS
 62
     7
100
AcDbCircle
 10
108.7398395435
 20
166.3009910113
 30
0.0
 40
28.31348201626668
100
AcDbArc
 50
160.5671461931
 51
169.9498917804
  0
ARC
  5
7D
330
1F
100
AcDbEntity
  8
0
  6
CONTINUOUS
 62
     7
100
AcDbCircle
 10
111.9992925303
 20
164.7794423779
 30
0.0
 40
27.63465674537109
100
AcDbArc
 50
164.0218185321
 51
226.8595175238
  0
ARC
  5
7E
330
1F
100
AcDbEntity
  8
0
  6
CONTINUOUS
 62
     7
100
AcDbCircle
 10
109.3357801706
 20
161.6277809315
 30
0.0
 40
26.26574283959122
100
AcDbArc
 50
222.6333309879
 51
229.8436109689
  0
LINE
  5
7F
330
1F
100
AcDbEntity
  8
0
  6
CONTINUOUS
 62
     7
100
AcDbLine
 10
90.0119891179
 20
143.8378864331
 30
0.0
 11
89.171109952
 21
142.6048664186
 31
0.0
  0
LINE
  5
80
330
1F
100
AcDbEntity
  8
0
  6
CONTINUOUS
 62
     7
100
AcDbLine
 10
83.4423810299
 20
151.3823906009
 30
0.0
 11
85.3599053764
 21
152.3270157278
 31
0.0
  0
LWPOLYLINE
  5
81
330
1F
100
AcDbEntity
  8
0
  6
CONTINUOUS
 62
     7
100
AcDbPolyline
 90
       11
 70
   128
 43
0.0
 10
85.3599053764
 20
152.3270157278
 10
85.6091615731
 20
152.5175368984
 10
85.7882769463
 20
152.8023362713
 10
85.8797184353
 20
153.1535356995
 10
85.8745351101
 20
153.5367573361
 10
85.7732343506
 20
153.9144887772
 10
85.585732181
 20
154.2497550376
 10
85.33038262
 20
154.5097379197
 10
85.0321810619
 20
154.6689884876
 10
84.7203175527
 20
154.7119181863
 10
84.5598119751
 20
154.6855535827
  0
LINE
  5
82
330
1F
100
AcDbEntity
  8
0
  6
CONTINUOUS
 62
     7
100
AcDbLine
 10
80.5861577915
 20
161.8665984859
 30
0.0
 11
81.9684303369
 21
161.8849146763
 31
0.0
  0
ARC
  5
83
330
1F
100
AcDbEntity
  8
0
  6
CONTINUOUS
 62
     7
100
AcDbCircle
 10
112.4048112902
 20
165.3890967243
 30
0.0
 40
30.63743751294086
100
AcDbArc
 50
170.0763212884
 51
186.5676246406
  0
LINE
  5
84
330
1F
100
AcDbEntity
  8
0
  6
CONTINUOUS
 62
     7
100
AcDbLine
 10
82.2257653379
 20
170.6690363803
 30
0.0
 11
80.8608134176
 21
171.2419591508
 31
0.0
  0
ARC
  5
85
330
1F
100
AcDbEntity
  8
0
  6
CONTINUOUS
 62
     7
100
AcDbCircle
 10
112.7592084244
 20
164.9893385065
 30
0.0
 40
27.78706663609845
100
AcDbArc
 50
165.603415905
 51
225.2779201509
  0
LWPOLYLINE
  5
86
330
1F
100
AcDbEntity
  8
0
  6
CONTINUOUS
 62
     7
100
AcDbPolyline
 90
       12
 70
   128
 43
0.0
 10
117.0519737193
 20
193.8276997745
 10
116.7486058157
 20
193.7670594802
 10
116.3729590357
 20
193.7308850699
 10
115.9554660472
 20
193.7221071792
 10
115.5299496492
 20
193.7414369406
 10
115.1308826497
 20
193.7873083718
 10
114.7905950837
 20
193.8560052422
 10
114.5366550258
 20
193.9419621401
 10
114.3896351895
 20
194.0382153486
 10
114.3614462475
 20
194.1369670054
 10
114.4543719002
 20
194.2302168384
 10
114.6608838638
 20
194.3104103007
  0
LINE
  5
87
330
1F
100
AcDbEntity
  8
0
  6
CONTINUOUS
 62
     7
100
AcDbLine
 10
117.0519737193
 20
193.8276997745
 30
0.0
 11
117.0366084344
 21
193.3032062874
 31
0.0
  0
LINE
  5
88
330
1F
100
AcDbEntity
  8
0
  6
CONTINUOUS
 62
     7
100
AcDbLine
 10
118.7109579826
 20
194.2859272928
 30
0.0
 11
117.0519737193
 21
193.8276997745
 31
0.0
  0
LINE
  5
89
330
1F
100
AcDbEntity
  8
0
  6
CONTINUOUS
 62
     7
100
AcDbLine
 10
114.6608838638
 20
194.3104103007
 30
0.0
 11
116.3198681272
 21
194.7686378189
 31
0.0
  0
LWPOLYLINE
  5
8A
330
1F
100
AcDbEntity
  8
0
  6
CONTINUOUS
 62
     7
100
AcDbPolyline
 90
       18
 70
   128
 43
0.0
 10
115.1988790813
 20
194.2018004323
 10
115.0634936755
 20
194.1431771701
 10
115.0351985508
 20
194.0745433032
 10
115.1178151208
 20
194.0051682156
 10
115.3001855598
 20
193.9444213973
 10
115.5576797296
 20
193.9005070428
 10
115.8555216155
 20
193.8793560289
 10
116.1534860206
 20
193.8838249173
 10
116.4113312009
 20
193.9133101599
 10
116.594233736
 20
193.9638296112
 10
116.677491625
 20
194.0285603394
 10
116.6498604287
 20
194.098760101
 10
116.5150718932
 20
194.1649480292
 10
116.2913299572
 20
194.2181850776
 10
116.0088522089
 20
194.2512812876
 10
115.7057888335
 20
194.2597668329
 10
115.4230702191
 20
194.2424956934
 10
115.1988790813
 20
194.2018004323
  0
LINE
  5
8B
330
1F
100
AcDbEntity
  8
0
  6
CONTINUOUS
 62
     7
100
AcDbLine
 10
116.3198681272
 20
194.7686378189
 30
0.0
 11
118.7109579826
 21
194.2859272928
 31
0.0
  0
LINE
  5
8C
330
1F
100
AcDbEntity
  8
0
  6
CONTINUOUS
 62
     7
100
AcDbLine
 10
118.7109579826
 20
194.2859272928
 30
0.0
 11
118.6955926977
 21
193.7614338056
 31
0.0
  0
LWPOLYLINE
  5
8D
330
1F
100
AcDbEntity
  8
0
  6
CONTINUOUS
 62
     7
100
AcDbPolyline
 90
       11
 70
   128
 43
0.0
 10
82.0122514463
 20
153.9678120038
 10
82.3072495333
 20
154.0454054325
 10
82.6191130425
 20
154.0024757339
 10
82.9173146006
 20
153.8432251659
 10
83.1726641616
 20
153.5832422838
 10
83.3601663312
 20
153.2479760234
 10
83.4614670907
 20
152.8702445823
 10
83.4666504159
 20
152.4870229457
 10
83.3752089269
 20
152.1358235175
 10
83.1960935537
 20
151.8510241446
 10
82.946837357
 20
151.660502974
  0
LINE
  5
8E
330
1F
100
AcDbEntity
  8
0
  6
CONTINUOUS
 62
     7
100
AcDbLine
 10
82.946837357
 20
151.660502974
 30
0.0
 11
85.3599053764
 21
152.3270157278
 31
0.0
  0
LINE
  5
8F
330
1F
100
AcDbEntity
  8
0
  6
CONTINUOUS
 62
     7
100
AcDbLine
 10
82.946837357
 20
151.660502974
 30
0.0
 11
81.0293130105
 21
150.7158778471
 31
0.0
  0
LINE
  5
90
330
1F
100
AcDbEntity
  8
0
  6
CONTINUOUS
 62
     7
100
AcDbLine
 10
80.0947270999
 20
153.0231868769
 30
0.0
 11
82.0122514463
 21
153.9678120038
 31
0.0
  0
LWPOLYLINE
  5
91
330
1F
100
AcDbEntity
  8
0
  6
CONTINUOUS
 62
     7
100
AcDbPolyline
 90
       17
 70
   128
 43
0.0
 10
82.4617327045
 20
152.2061557967
 10
82.2724571906
 20
152.2909216116
 10
82.1147088275
 20
152.4553453457
 10
82.0125033732
 20
152.674394976
 10
81.9814006818
 20
152.9147221819
 10
82.0261358561
 20
153.1397393249
 10
82.1398983712
 20
153.3151895847
 10
82.3053689156
 20
153.4143622499
 10
82.4973560989
 20
153.4221591811
 10
82.6866316127
 20
153.3373933662
 10
82.8443799759
 20
153.1729696321
 10
82.9465854301
 20
152.9539200018
 10
82.9776881216
 20
152.7135927959
 10
82.9329529473
 20
152.4885756529
 10
82.8191904321
 20
152.3131253931
 10
82.6537198877
 20
152.2139527279
 10
82.4617327045
 20
152.2061557967
  0
LINE
  5
92
330
1F
100
AcDbEntity
  8
0
  6
CONTINUOUS
 62
     7
100
AcDbLine
 10
89.7743769568
 20
142.7714946071
 30
0.0
 11
90.2953558926
 21
143.5354301177
 31
0.0
  0
LWPOLYLINE
  5
93
330
1F
100
AcDbEntity
  8
0
  6
CONTINUOUS
 62
     7
100
AcDbPolyline
 90
       11
 70
   128
 43
0.0
 10
87.5761469993
 20
155.518694525
 10
87.7366525769
 20
155.5450591285
 10
88.0485160861
 20
155.5021294299
 10
88.3467176442
 20
155.3428788619
 10
88.6020672052
 20
155.0828959798
 10
88.7895693748
 20
154.7476297194
 10
88.8908701343
 20
154.3698982783
 10
88.8960534595
 20
153.9866766417
 10
88.8046119705
 20
153.6354772135
 10
88.6254965973
 20
153.3506778406
 10
88.3762404006
 20
153.16015667
  0
LINE
  5
94
330
1F
100
AcDbEntity
  8
0
  6
CONTINUOUS
 62
     7
100
AcDbLine
 10
81.9510962504
 20
162.0433194158
 30
0.0
 11
81.1894247963
 21
162.0332266744
 31
0.0
  0
LINE
  5
95
330
1F
100
AcDbEntity
  8
0
  6
CONTINUOUS
 62
     7
100
AcDbLine
 10
88.3762404006
 20
153.16015667
 30
0.0
 11
87.770599609
 21
152.8618013919
 31
0.0
  0
ARC
  5
96
330
1F
100
AcDbEntity
  8
0
  6
CONTINUOUS
 62
     7
100
AcDbCircle
 10
115.1074396995
 20
137.9089088283
 30
0.0
 40
2.07331865992885
100
AcDbArc
 50
272.6411502796
 51
298.2401857763
  0
LWPOLYLINE
  5
97
330
1F
100
AcDbEntity
  8
0
  6
CONTINUOUS
 62
     7
100
AcDbPolyline
 90
        6
 70
   128
 43
0.0
 10
114.9149914332
 20
134.3561610724
 10
115.3308886176
 20
134.400648273
 10
115.6764203718
 20
134.4683580716
 10
115.9315056463
 20
134.5553554207
 10
116.081319812
 20
134.6565843508
 10
116.1192630313
 20
134.7416703815
  0
LWPOLYLINE
  5
98
330
1F
100
AcDbEntity
  8
0
  6
CONTINUOUS
 62
     7
100
AcDbPolyline
 90
       10
 70
   128
 43
0.0
 10
112.1209783768
 20
134.8588020221
 10
112.1230851939
 20
134.8343105994
 10
112.2033092365
 20
134.7227528658
 10
112.3949313944
 20
134.615698182
 10
112.6868152841
 20
134.5193681772
 10
113.0619976749
 20
134.4393612011
 10
113.4986743301
 20
134.3803269683
 10
113.9714671897
 20
134.3456963338
 10
114.4528992512
 20
134.3374819042
 10
114.9149914332
 20
134.3561610724
  0
ARC
  5
99
330
1F
100
AcDbEntity
  8
0
  6
CONTINUOUS
 62
     7
100
AcDbCircle
 10
114.1068564327
 20
137.1488196716
 30
0.0
 40
3.223462386867567
100
AcDbArc
 50
243.0622222774
 51
280.6399248792
  0
ARC
  5
9A
330
1F
100
AcDbEntity
  8
0
  6
CONTINUOUS
 62
     7
100
AcDbCircle
 10
114.7706326203
 20
135.5665006177
 30
0.0
 40
1.587205632569898
100
AcDbArc
 50
267.5225724039
 51
299.8409930446
  0
LINE
  5
9B
330
1F
100
AcDbEntity
  8
0
  6
CONTINUOUS
 62
     7
100
AcDbLine
 10
87.7156826917
 20
152.9777042343
 30
0.0
 11
88.3762404006
 21
153.16015667
 31
0.0
  0
ENDSEC
  0
SECTION
  2
OBJECTS
  0
DICTIONARY
  5
C
330
0
100
AcDbDictionary
  3
ACAD_GROUP
350
D
  3
ACAD_MLINESTYLE
350
17
  3
ACAD_SCALELIST
350
47
  3
DWGPROPS
350
9C
  0
DICTIONARY
  5
D
102
{ACAD_REACTORS
330
C
102
}
330
C
100
AcDbDictionary
  0
DICTIONARY
  5
17
102
{ACAD_REACTORS
330
C
102
}
330
C
100
AcDbDictionary
  3
STANDARD
350
18
  0
DICTIONARY
  5
47
102
{ACAD_REACTORS
330
C
102
}
330
C
100
AcDbDictionary
  0
XRECORD
  5
9C
102
{ACAD_REACTORS
330
C
102
}
330
C
100
AcDbXrecord
  1
DWGPROPS COOKIE
  2

  3

  4

  6

  7

  8
9148
  9

300
=
301
=
302
=
303
=
304
=
305
=
306
=
307
=
308
=
309
=
 40
0.0
 41
2460417.28528978
 42
2460417.285290012
  1

 90
        0
  0
MLINESTYLE
  5
18
102
{ACAD_REACTORS
330
17
102
}
330
17
100
AcDbMlineStyle
  2
Standard
 70
     0
  3

 62
   256
 51
90.0
 52
90.0
 71
     2
 49
0.5
 62
   256
  6
BYLAYER
 49
-0.5
 62
   256
  6
BYLAYER
  0
ENDSEC
  0
EOF
