  0
SECTION
  2
HEADER
  9
$ACADVER
  1
AC1015
  9
$ACADMAINTVER
 70
               6
  9
$DWGCODEPAGE
  3
ANSI_932
  9
$INSBASE
 10
0.0
 20
0.0
 30
0.0
  9
$EXTMIN
 10
157.5981795377491
 20
128.745
 30
0.0
  9
$EXTMAX
 10
281.28830839956368
 20
207.62101622990156
 30
0.0
  9
$LIMMIN
 10
0.0
 20
0.0
  9
$LIMMAX
 10
0.0
 20
0.0
  9
$ORTHOMODE
 70
               0
  9
$REGENMODE
 70
               1
  9
$FILLMODE
 70
               1
  9
$QTEXTMODE
 70
               0
  9
$MIRRTEXT
 70
               1
  9
$LTSCALE
 40
12.699999999999999
  9
$ATTMODE
 70
               1
  9
$TEXTSIZE
 40
0.2
  9
$TRACEWID
 40
1.0
  9
$TEXTSTYLE
  7
Standard
  9
$CLAYER
  8
0
  9
$CELTYPE
  6
Continuous
  9
$CECOLOR
 62
             256
  9
$CELTSCALE
 40
1.0
  9
$DISPSILH
 70
               0
  9
$DIMSCALE
 40
1.0
  9
$DIMASZ
 40
0.18
  9
$DIMEXO
 40
0.0625
  9
$DIMDLI
 40
0.38
  9
$DIMRND
 40
0.0
  9
$DIMDLE
 40
0.0
  9
$DIMEXE
 40
0.18
  9
$DIMTP
 40
0.0
  9
$DIMTM
 40
0.0
  9
$DIMTXT
 40
0.18
  9
$DIMCEN
 40
0.09
  9
$DIMTSZ
 40
0.0
  9
$DIMTOL
 70
               0
  9
$DIMLIM
 70
               0
  9
$DIMTIH
 70
               1
  9
$DIMTOH
 70
               1
  9
$DIMSE1
 70
               0
  9
$DIMSE2
 70
               0
  9
$DIMTAD
 70
               0
  9
$DIMZIN
 70
               0
  9
$DIMBLK
  1

  9
$DIMASO
 70
               1
  9
$DIMSHO
 70
               1
  9
$DIMPOST
  1

  9
$DIMAPOST
  1

  9
$DIMALT
 70
               0
  9
$DIMALTD
 70
               2
  9
$DIMALTF
 40
25.399999999999999
  9
$DIMLFAC
 40
1.0
  9
$DIMTOFL
 70
               0
  9
$DIMTVP
 40
0.0
  9
$DIMTIX
 70
               0
  9
$DIMSOXD
 70
               0
  9
$DIMSAH
 70
               0
  9
$DIMBLK1
  1

  9
$DIMBLK2
  1

  9
$DIMSTYLE
  2
Standard
  9
$DIMCLRD
 70
               0
  9
$DIMCLRE
 70
               0
  9
$DIMCLRT
 70
               0
  9
$DIMTFAC
 40
1.0
  9
$DIMGAP
 40
0.09
  9
$DIMJUST
 70
               0
  9
$DIMSD1
 70
               0
  9
$DIMSD2
 70
               0
  9
$DIMTOLJ
 70
               1
  9
$DIMTZIN
 70
               0
  9
$DIMALTZ
 70
               0
  9
$DIMALTTZ
 70
               0
  9
$DIMUPT
 70
               0
  9
$DIMDEC
 70
               4
  9
$DIMTDEC
 70
               4
  9
$DIMALTU
 70
               2
  9
$DIMALTTD
 70
               2
  9
$DIMTXSTY
  7
Standard
  9
$DIMAUNIT
 70
               0
  9
$DIMADEC
 70
               0
  9
$DIMALTRND
 40
0.0
  9
$DIMAZIN
 70
               0
  9
$DIMDSEP
 70
               0
  9
$DIMATFIT
 70
               3
  9
$DIMFRAC
 70
               0
  9
$DIMLDRBLK
  1

  9
$DIMLUNIT
 70
               2
  9
$DIMLWD
 70
               0
  9
$DIMLWE
 70
               0
  9
$DIMTMOVE
 70
               0
  9
$LUNITS
 70
               2
  9
$LUPREC
 70
               4
  9
$SKETCHINC
 40
0.1
  9
$FILLETRAD
 40
0.0
  9
$AUNITS
 70
               0
  9
$AUPREC
 70
               0
  9
$MENU
  1
acad
  9
$ELEVATION
 40
0.0
  9
$PELEVATION
 40
0.0
  9
$THICKNESS
 40
0.0
  9
$LIMCHECK
 70
               0
  9
$CHAMFERA
 40
0.0
  9
$CHAMFERB
 40
0.0
  9
$CHAMFERC
 40
0.0
  9
$CHAMFERD
 40
0.0
  9
$SKPOLY
 70
               0
  9
$TDCREATE
 40
2458075.648935185
  9
$TDUCREATE
 40
0.000000000
  9
$TDUPDATE
 40
2458075.648935185
  9
$TDUUPDATE
 40
0.000000000
  9
$TDINDWG
 40
0.0000000000
  9
$TDUSRTIMER
 40
0.0000000000
  9
$USRTIMER
 70
               1
  9
$ANGBASE
 50
0.0
  9
$ANGDIR
 70
               0
  9
$PDMODE
 70
               1
  9
$PDSIZE
 40
-2.0
  9
$PLINEWID
 40
0.0
  9
$SPLFRAME
 70
               0
  9
$SPLINETYPE
 70
               6
  9
$SPLINESEGS
 70
               8
  9
$HANDSEED
  5
180
  9
$SURFTAB1
 70
               6
  9
$SURFTAB2
 70
               6
  9
$SURFTYPE
 70
               6
  9
$SURFU
 70
               6
  9
$SURFV
 70
               6
  9
$UCSBASE
  2

  9
$UCSNAME
  2

  9
$UCSORG
 10
0.0
 20
0.0
 30
0.0
  9
$UCSXDIR
 10
1.0
 20
0.0
 30
0.0
  9
$UCSYDIR
 10
0.0
 20
1.0
 30
0.0
  9
$UCSORTHOREF
  2

  9
$UCSORTHOVIEW
 70
               0
  9
$UCSORGTOP
 10
0.0
 20
0.0
 30
0.0
  9
$UCSORGBOTTOM
 10
0.0
 20
0.0
 30
0.0
  9
$UCSORGLEFT
 10
0.0
 20
0.0
 30
0.0
  9
$UCSORGRIGHT
 10
0.0
 20
0.0
 30
0.0
  9
$UCSORGFRONT
 10
0.0
 20
0.0
 30
0.0
  9
$UCSORGBACK
 10
0.0
 20
0.0
 30
0.0
  9
$PUCSBASE
  2

  9
$PUCSNAME
  2

  9
$PUCSORG
 10
0.0
 20
0.0
 30
0.0
  9
$PUCSXDIR
 10
1.0
 20
0.0
 30
0.0
  9
$PUCSYDIR
 10
0.0
 20
1.0
 30
0.0
  9
$PUCSORTHOREF
  2

  9
$PUCSORTHOVIEW
 70
               0
  9
$PUCSORGTOP
 10
0.0
 20
0.0
 30
0.0
  9
$PUCSORGBOTTOM
 10
0.0
 20
0.0
 30
0.0
  9
$PUCSORGLEFT
 10
0.0
 20
0.0
 30
0.0
  9
$PUCSORGRIGHT
 10
0.0
 20
0.0
 30
0.0
  9
$PUCSORGFRONT
 10
0.0
 20
0.0
 30
0.0
  9
$PUCSORGBACK
 10
0.0
 20
0.0
 30
0.0
  9
$USERI1
 70
               0
  9
$USERI2
 70
               0
  9
$USERI3
 70
               0
  9
$USERI4
 70
               0
  9
$USERI5
 70
               0
  9
$USERR1
 40
0.0
  9
$USERR2
 40
0.0
  9
$USERR3
 40
0.0
  9
$USERR4
 40
0.0
  9
$USERR5
 40
0.0
  9
$WORLDVIEW
 70
               1
  9
$SHADEDGE
 70
               3
  9
$SHADEDIF
 70
              70
  9
$TILEMODE
 70
               1
  9
$MAXACTVP
 70
              16
  9
$PINSBASE
 10
0.0
 20
0.0
 30
0.0
  9
$PLIMCHECK
 70
               0
  9
$PEXTMIN
 10
1.0000000000000000E+20
 20
1.0000000000000000E+20
 30
1.0000000000000000E+20
  9
$PEXTMAX
 10
-1.0000000000000000E+20
 20
-1.0000000000000000E+20
 30
-1.0000000000000000E+20
  9
$PLIMMIN
 10
0.0
 20
0.0
  9
$PLIMMAX
 10
12.0
 20
9.0
  9
$UNITMODE
 70
               0
  9
$VISRETAIN
 70
               0
  9
$PLINEGEN
 70
               1
  9
$PSLTSCALE
 70
               0
  9
$TREEDEPTH
 70
            3020
  9
$CMLSTYLE
  2
Standard
  9
$CMLJUST
 70
               0
  9
$CMLSCALE
 40
1.0
  9
$PROXYGRAPHICS
 70
               0
  9
$MEASUREMENT
 70
               1
  9
$CELWEIGHT
370
               0
  9
$ENDCAPS
280
               0
  9
$JOINSTYLE
280
               0
  9
$LWDISPLAY
290
               1
  9
$INSUNITS
 70
               4
  9
$HYPERLINKBASE
  1

  9
$STYLESHEET
  1

  9
$XEDIT
290
               1
  9
$CEPSNTYPE
380
               0
  9
$PSTYLEMODE
290
               1
  9
$FINGERPRINTGUID
  2

  9
$VERSIONGUID
  2

  9
$EXTNAMES
290
               1
  9
$PSVPSCALE
 40
0.0
  0
ENDSEC
  0
SECTION
  2
CLASSES
  0
CLASS
  1
LWPOLYLINE
  2
AcDbPolyline
  3
AutoCAD 2000
 90
    32768
280
               0
281
               1
  0
CLASS
  1
IMAGE
  2
AcDbRasterImage
  3
ISM
 90
    32895
280
               0
281
               1
  0
CLASS
  1
OLE2FRAME
  2
AcDbOle2Frame
  3
AutoCAD 2000
 90
    32768
280
               0
281
               1
  0
CLASS
  1
HATCH
  2
AcDbHatch
  3
AutoCAD 2000
 90
    32768
280
               0
281
               1
  0
CLASS
  1
DICTIONARYVAR
  2
AcDbDictionaryVar
  3
AutoCAD 2000
 90
    32768
280
               0
281
               0
  0
CLASS
  1
RASTERVARIABLES
  2
AcDbRasterVariables
  3
ISM
 90
    32768
280
               0
281
               0
  0
CLASS
  1
IMAGEDEF
  2
AcDbRasterImageDef
  3
ISM
 90
    32768
280
               0
281
               0
  0
CLASS
  1
IMAGEDEF_REACTOR
  2
AcDbRasterImageDefReactor
  3
ISM
 90
    32769
280
               0
281
               0
  0
CLASS
  1
IDBUFFER
  2
AcDbIdBuffer
  3
AutoCAD 2000
 90
    32768
280
               0
281
               0
  0
CLASS
  1
SPATIAL_FILTER
  2
AcDbSpatialFilter
  3
AutoCAD 2000
 90
    32768
280
               0
281
               0
  0
CLASS
  1
XRECORD
  2
AcDbXrecord
  3
AutoCAD 2000
 90
    32768
280
               0
281
               0
  0
CLASS
  1
SORTENTSTABLE
  2
AcDbSortentsTable
  3
AutoCAD 2000
 90
    32768
280
               0
281
               0
  0
CLASS
  1
LAYER_INDEX
  2
AcDbLayerIndex
  3
AutoCAD 2000
 90
    32768
280
               0
281
               0
  0
CLASS
  1
SPATIAL_INDEX
  2
AcDbSpatialIndex
  3
AutoCAD 2000
 90
    32768
280
               0
281
               0
  0
CLASS
  1
OBJECT_PTR
  2
CAseDLPNTableRecord
  3
"ASE-LPNTableRecord"
 90
    32769
280
               0
281
               0
  0
CLASS
  1
LAYOUT
  2
AcDbLayout
  3
AutoCAD 2000
 90
        0
280
               0
281
               0
  0
CLASS
  1
PLOTSETTINGS
  2
AcDbPlotSettings
  3
AutoCAD 2000
 90
    32768
280
               0
281
               0
  0
CLASS
  1
ACDBDICTIONARYWDFLT
  2
AcDbDictionaryWithDefault
  3
AutoCAD 2000
 90
        0
280
               0
281
               0
  0
CLASS
  1
ACDBPLACEHOLDER
  2
AcDbPlaceHolder
  3
AutoCAD 2000
 90
        0
280
               0
281
               0
  0
CLASS
  1
VBA_PROJECT
  2
AcDbVbaProject
  3
acadvba
 90
    32768
280
               0
281
               0
  0
CLASS
  1
WIPEOUT
  2
AcDbWipeout
  3
WipeOut|AutoCAD Express Tool|expresstools@autodesk.com
 90
    32895
280
               0
281
               1
  0
CLASS
  1
WIPEOUTVARIABLES
  2
AcDbWipeoutVariables
  3
WipeOut|AutoCAD Express Tool|expresstools@autodesk.com
 90
        0
280
               0
281
               0
  0
CLASS
  1
RTEXT
  2
RText
  3
RText|AutoCAD Express Tool|expresstools@autodesk.com
 90
    32768
280
               0
281
               1
  0
CLASS
  1
ARCALIGNEDTEXT
  2
AcDbArcAlignedText
  3
ATEXT|AutoCAD Express Tool|expresstools@autodesk.com
 90
    32768
280
               0
281
               1
  0
ENDSEC
  0
SECTION
  2
TABLES
  0
TABLE
  2
VPORT
  5
7
100
AcDbSymbolTable
 70
               1
  0
VPORT
  5
15
100
AcDbSymbolTableRecord
100
AcDbViewportTableRecord
  2
*ACTIVE
 70
               0
 10
0.0
 20
0.0
 11
1.0
 21
1.0
 12
219.44324396865639
 22
168.18300811495078
 13
0.0
 23
0.0
 14
1.0
 24
1.0
 15
0.0
 25
0.0
 16
0.0
 26
0.0
 36
1.0
 17
0.0
 27
0.0
 37
0.0
 40
78.876016229901552
 41
0.688564
 42
50.0
 43
0.0
 44
0.0
 50
0.0
 51
0.0
 71
               0
 72
             100
 73
               1
 74
               1
 75
               0
 76
               0
 77
               0
 78
               0
281
               0
 65
               0
110
0.0
120
0.0
130
0.0
111
1.0
121
0.0
131
0.0
112
0.0
122
1.0
132
0.0
345
0
346
0
 79
               0
146
0.0
  0
ENDTAB
  0
TABLE
  2
LTYPE
  5
4
100
AcDbSymbolTable
 70
              13
  0
LTYPE
  5
11
100
AcDbSymbolTableRecord
100
AcDbLinetypeTableRecord
  2
ByBlock
 70
              64
  3

 72
              65
 73
               0
 40
0.0
  0
LTYPE
  5
12
100
AcDbSymbolTableRecord
100
AcDbLinetypeTableRecord
  2
ByLayer
 70
              64
  3

 72
              65
 73
               0
 40
0.0
  0
LTYPE
  5
13
100
AcDbSymbolTableRecord
100
AcDbLinetypeTableRecord
  2
Continuous
 70
              64
  3
Solid line
 72
              65
 73
               0
 40
0.0
  0
LTYPE
  5
25
100
AcDbSymbolTableRecord
100
AcDbLinetypeTableRecord
  2
STYLE_01
 70
               0
  3

 72
              65
 73
               2
 40
0.15
 49
0.1
 74
               0
 49
-0.05
 74
               0
  0
LTYPE
  5
26
100
AcDbSymbolTableRecord
100
AcDbLinetypeTableRecord
  2
STYLE_02
 70
               0
  3

 72
              65
 73
               6
 40
0.9999999999999999
 49
0.4999999999999999
 74
               0
 49
-0.1
 74
               0
 49
0.1
 74
               0
 49
-0.1
 74
               0
 49
0.1
 74
               0
 49
-0.1
 74
               0
  0
LTYPE
  5
27
100
AcDbSymbolTableRecord
100
AcDbLinetypeTableRecord
  2
STYLE_03
 70
               0
  3

 72
              65
 73
               4
 40
0.7999999999999999
 49
0.4999999999999999
 74
               0
 49
-0.1
 74
               0
 49
0.1
 74
               0
 49
-0.1
 74
               0
  0
LTYPE
  5
28
100
AcDbSymbolTableRecord
100
AcDbLinetypeTableRecord
  2
STYLE_04
 70
               0
  3

 72
              65
 73
               4
 40
1.5999999999999999
 49
0.9999999999999999
 74
               0
 49
-0.2000000000000001
 74
               0
 49
0.2
 74
               0
 49
-0.2
 74
               0
  0
LTYPE
  5
29
100
AcDbSymbolTableRecord
100
AcDbLinetypeTableRecord
  2
STYLE_05
 70
               0
  3

 72
              65
 73
               2
 40
0.05
 49
0.0002
 74
               0
 49
-0.0498
 74
               0
  0
LTYPE
  5
2A
100
AcDbSymbolTableRecord
100
AcDbLinetypeTableRecord
  2
STYLE_06
 70
               0
  3

 72
              65
 73
               4
 40
0.416656
 49
0.25
 74
               0
 49
-0.083312
 74
               0
 49
0.027772
 74
               0
 49
-0.055572
 74
               0
  0
LTYPE
  5
2B
100
AcDbSymbolTableRecord
100
AcDbLinetypeTableRecord
  2
STYLE_07
 70
               0
  3

 72
              65
 73
               6
 40
0.75
 49
0.25
 74
               0
 49
-0.083312
 74
               0
 49
0.2500000000000001
 74
               0
 49
-0.083344
 74
               0
 49
0.027772
 74
               0
 49
-0.055572
 74
               0
  0
LTYPE
  5
2C
100
AcDbSymbolTableRecord
100
AcDbLinetypeTableRecord
  2
STYLE_08
 70
               0
  3

 72
              65
 73
               6
 40
0.5
 49
0.25
 74
               0
 49
-0.083312
 74
               0
 49
0.027772
 74
               0
 49
-0.055572
 74
               0
 49
0.027772
 74
               0
 49
-0.055572
 74
               0
  0
LTYPE
  5
2D
100
AcDbSymbolTableRecord
100
AcDbLinetypeTableRecord
  2
STYLE_09
 70
               0
  3

 72
              65
 73
               4
 40
2.0
 49
1.5
 74
               0
 49
-0.1111139999999999
 74
               0
 49
0.2777720000000001
 74
               0
 49
-0.1111139999999999
 74
               0
  0
LTYPE
  5
2E
100
AcDbSymbolTableRecord
100
AcDbLinetypeTableRecord
  2
STYLE_10
 70
               0
  3

 72
              65
 73
               6
 40
2.375
 49
1.5
 74
               0
 49
-0.1111139999999999
 74
               0
 49
0.2777720000000001
 74
               0
 49
-0.1111139999999999
 74
               0
 49
0.25
 74
               0
 49
-0.125
 74
               0
  0
ENDTAB
  0
TABLE
  2
LAYER
  5
2
100
AcDbSymbolTable
 70
               6
  0
LAYER
  5
14
100
AcDbSymbolTableRecord
100
AcDbLayerTableRecord
  2
0
 70
               0
 62
               7
  6
Continuous
290
               1
370
              15
390
1D
  0
LAYER
  5
2F
100
AcDbSymbolTableRecord
100
AcDbLayerTableRecord
  2
Defpoints
 70
               0
 62
               7
  6
Continuous
290
               0
370
              -3
390
1D
  0
LAYER
  5
30
100
AcDbSymbolTableRecord
100
AcDbLayerTableRecord
  2
一般
 70
               0
 62
               7
  6
Continuous
290
               1
370
               5
390
1D
  0
LAYER
  5
31
100
AcDbSymbolTableRecord
100
AcDbLayerTableRecord
  2
寸法
 70
               0
 62
               7
  6
Continuous
290
               1
370
               5
390
1D
  0
LAYER
  5
32
100
AcDbSymbolTableRecord
100
AcDbLayerTableRecord
  2
レイヤー_1
 70
               0
 62
              19
  6
Continuous
290
               1
370
              15
390
1D
  0
LAYER
  5
33
100
AcDbSymbolTableRecord
100
AcDbLayerTableRecord
  2
FORMAT
 70
               0
 62
               7
  6
Continuous
290
               1
370
              15
390
1D
  0
ENDTAB
  0
TABLE
  2
STYLE
  5
3
100
AcDbSymbolTable
 70
               2
  0
STYLE
  5
17
100
AcDbSymbolTableRecord
100
AcDbTextStyleTableRecord
  2
Standard
 70
               0
 40
0.0
 41
1.0
 50
0.0
 71
               0
 42
0.0
  3
txt
  4
BIGFONT.SHX
  0
STYLE
  5
24
100
AcDbSymbolTableRecord
100
AcDbTextStyleTableRecord
  2
Arial
 70
               0
 40
0.0
 41
1.0
 50
0.0
 71
               0
 42
0.0
  3
Arial
  4

1001
ACAD
1000
Arial
1071
        0
  0
ENDTAB
  0
TABLE
  2
VIEW
  5
5
100
AcDbSymbolTable
 70
               0
  0
ENDTAB
  0
TABLE
  2
UCS
  5
6
100
AcDbSymbolTable
 70
               0
  0
ENDTAB
  0
TABLE
  2
APPID
  5
8
100
AcDbSymbolTable
 70
               1
  0
APPID
  5
16
100
AcDbSymbolTableRecord
100
AcDbRegAppTableRecord
  2
ACAD
 70
               0
  0
ENDTAB
  0
TABLE
  2
DIMSTYLE
  5
9
100
AcDbSymbolTable
 70
               1
100
AcDbDimStyleTable
 71
               0
  0
DIMSTYLE
105
18
100
AcDbSymbolTableRecord
100
AcDbDimStyleTableRecord
  2
Standard
 70
               0
  3

  4

 40
1.0
 41
0.18
 42
0.0625
 43
0.38
 44
0.18
 45
0.0
 46
0.0
 47
0.0
 48
0.0
 71
               0
 72
               0
 73
               1
 74
               1
 75
               0
 76
               0
 77
               0
 78
               0
 79
               0
140
0.18
141
0.09
142
0.0
143
25.399999999999999
144
1.0
145
0.0
146
1.0
147
0.09
148
0.0
170
               0
171
               2
172
               0
173
               0
174
               0
175
               0
176
               0
177
               0
178
               0
179
               0
271
               4
272
               4
273
               2
274
               2
275
               0
276
               0
277
               2
278
              46
279
               0
280
               0
281
               0
282
               0
283
               1
284
               0
285
               0
286
               0
288
               0
340
17
341
0
342
0
343
0
344
0
371
              -2
372
              -2
  0
ENDTAB
  0
TABLE
  2
BLOCK_RECORD
  5
1
100
AcDbSymbolTable
 70
               0
  0
BLOCK_RECORD
  5
A
100
AcDbSymbolTableRecord
100
AcDbBlockTableRecord
  2
*MODEL_SPACE
340
20
  0
BLOCK_RECORD
  5
B
100
AcDbSymbolTableRecord
100
AcDbBlockTableRecord
  2
*PAPER_SPACE
340
21
  0
ENDTAB
  0
ENDSEC
  0
SECTION
  2
BLOCKS
  0
BLOCK
  5
D
100
AcDbEntity
  8
0
100
AcDbBlockBegin
  2
*MODEL_SPACE
 70
               0
 10
0.0
 20
0.0
 30
0.0
  3
*MODEL_SPACE
  1

  0
ENDBLK
  5
E
100
AcDbEntity
  8
0
100
AcDbBlockEnd
  0
BLOCK
  5
F
100
AcDbEntity
 67
               1
  8
0
100
AcDbBlockBegin
  2
*PAPER_SPACE
 70
               0
 10
0.0
 20
0.0
 30
0.0
  3
*PAPER_SPACE
  1

  0
ENDBLK
  5
10
100
AcDbEntity
 67
               1
  8
0
100
AcDbBlockEnd
  0
ENDSEC
  0
SECTION
  2
ENTITIES
  0
LINE
  5
34
100
AcDbEntity
  8
0
370
              25
  6
Continuous
 62
               7
100
AcDbLine
 10
224.2682124554
 20
154.19785676999999
 30
0.0
 11
224.70769487230001
 21
154.5885060043
 31
0.0
  0
LINE
  5
35
100
AcDbEntity
  8
0
370
              25
  6
Continuous
 62
               7
100
AcDbLine
 10
217.0059950102
 20
154.88769174469999
 30
0.0
 11
217.416017826
 21
154.46230475580001
 31
0.0
  0
LINE
  5
36
100
AcDbEntity
  8
0
370
              25
  6
Continuous
 62
               7
100
AcDbLine
 10
216.9827622505
 20
158.0516067682
 30
0.0
 11
216.86933590979999
 21
155.1125598584
 31
0.0
  0
LINE
  5
37
100
AcDbEntity
  8
0
370
              25
  6
Continuous
 62
               7
100
AcDbLine
 10
224.86338409800001
 20
154.80404545709999
 30
0.0
 11
224.97681053080001
 21
157.74309602619999
 31
0.0
  0
LINE
  5
38
100
AcDbEntity
  8
0
370
              25
  6
Continuous
 62
               7
100
AcDbLine
 10
260.74305264809999
 20
201.6340355104
 30
0.0
 11
223.42233368379999
 21
207.6084439768
 31
0.0
  0
ARC
  5
39
100
AcDbEntity
  8
0
370
              25
  6
Continuous
 62
               7
100
AcDbCircle
 10
223.2642646253
 20
206.62101622989999
 30
0.0
 40
1.0000000000015663
100
AcDbArc
 50
80.90509159269935
 51
100.54193228900024
  0
LINE
  5
3A
100
AcDbEntity
  8
0
370
              25
  6
Continuous
 62
               7
100
AcDbLine
 10
223.08131103260001
 20
207.60413757929999
 30
0.0
 11
159.36452875239999
 21
195.74669009210001
 31
0.0
  0
LINE
  5
3B
100
AcDbEntity
  8
0
370
              25
  6
Continuous
 62
               7
100
AcDbLine
 10
158.5478018048
 20
194.78874212829999
 30
0.0
 11
157.6080821271
 21
157.4695560847
 31
0.0
  0
ARC
  5
3C
100
AcDbEntity
  8
0
370
              25
  6
Continuous
 62
               7
100
AcDbCircle
 10
159.54748433500001
 20
194.76356911299999
 30
0.0
 40
1.000000000000048
100
AcDbArc
 50
100.54193232310001
 51
178.55756242940058
  0
LINE
  5
3D
100
AcDbEntity
  8
0
370
              25
  6
Continuous
 62
               7
100
AcDbLine
 10
219.46658889259999
 20
155.39178239149999
 30
0.0
 11
219.27876231869999
 21
155.642207942
 31
0.0
  0
LINE
  5
3E
100
AcDbEntity
  8
0
370
              25
  6
Continuous
 62
               7
100
AcDbLine
 10
219.5251865159
 20
155.75073135279999
 30
0.0
 11
219.46658889259999
 21
155.39178239149999
 31
0.0
  0
ARC
  5
3F
100
AcDbEntity
  8
0
370
              25
  6
Continuous
 62
               7
100
AcDbCircle
 10
220.0973143329
 20
138.4861479324
 30
0.0
 40
17.274060637807125
100
AcDbArc
 50
91.563763403800039
 51
91.898019588200029
  0
LINE
  5
40
100
AcDbEntity
  8
0
370
              25
  6
Continuous
 62
               7
100
AcDbLine
 10
219.85899457350001
 20
155.4036411971
 30
0.0
 11
219.62591503229999
 21
155.7537752627
 31
0.0
  0
LINE
  5
41
100
AcDbEntity
  8
0
370
              25
  6
Continuous
 62
               7
100
AcDbLine
 10
219.95521270489999
 20
155.75972819660001
 30
0.0
 11
219.85899457350001
 21
155.4036411971
 31
0.0
  0
ARC
  5
42
100
AcDbEntity
  8
0
370
              25
  6
Continuous
 62
               7
100
AcDbCircle
 10
220.12750051079999
 20
136.73755916659999
 30
0.0
 40
19.022949237528216
100
AcDbArc
 50
90.205847405100002
 51
90.51892579710001
  0
LINE
  5
43
100
AcDbEntity
  8
0
370
              25
  6
Continuous
 62
               7
100
AcDbLine
 10
220.26392600489999
 20
155.40619993390001
 30
0.0
 11
220.05915662320001
 21
155.7603856339
 31
0.0
  0
LINE
  5
44
100
AcDbEntity
  8
0
370
              25
  6
Continuous
 62
               7
100
AcDbLine
 10
220.3966971799
 20
155.7586473085
 30
0.0
 11
220.26392600489999
 21
155.40619993390001
 31
0.0
  0
ARC
  5
45
100
AcDbEntity
  8
0
370
              25
  6
Continuous
 62
               7
100
AcDbCircle
 10
220.12157247939999
 20
135.7987711232
 30
0.0
 40
19.961772239305262
100
AcDbArc
 50
88.906426106200016
 51
89.21029139579997
  0
LINE
  5
46
100
AcDbEntity
  8
0
370
              25
  6
Continuous
 62
               7
100
AcDbLine
 10
220.67629051430001
 20
155.39942873749999
 30
0.0
 11
220.50254901560001
 21
155.75690750449999
 31
0.0
  0
LINE
  5
47
100
AcDbEntity
  8
0
370
              25
  6
Continuous
 62
               7
100
AcDbLine
 10
220.8440878463
 20
155.74750058710001
 30
0.0
 11
220.67629051430001
 21
155.39942873749999
 31
0.0
  0
ARC
  5
48
100
AcDbEntity
  8
0
370
              25
  6
Continuous
 62
               7
100
AcDbCircle
 10
220.09954967269999
 20
135.081353398
 30
0.0
 40
20.679554558358987
100
AcDbArc
 50
87.641602562699987
 51
87.936700403599971
  0
LINE
  5
49
100
AcDbEntity
  8
0
370
              25
  6
Continuous
 62
               7
100
AcDbLine
 10
221.09090274990001
 20
155.38341791510001
 30
0.0
 11
220.95051702320001
 21
155.74339180909999
 31
0.0
  0
LINE
  5
4A
100
AcDbEntity
  8
0
370
              25
  6
Continuous
 62
               7
100
AcDbLine
 10
221.29175878020001
 20
155.72642935970001
 30
0.0
 11
221.09090274990001
 21
155.38341791510001
 31
0.0
  0
ARC
  5
4B
100
AcDbEntity
  8
0
370
              25
  6
Continuous
 62
               7
100
AcDbCircle
 10
220.1607913803
 20
136.27647469370001
 30
0.0
 40
19.482808415863659
100
AcDbArc
 50
86.360810401800038
 51
86.672137519900048
  0
LINE
  5
4C
100
AcDbEntity
  8
0
370
              25
  6
Continuous
 62
               7
100
AcDbLine
 10
221.50254829709999
 20
155.35836371600001
 30
0.0
 11
221.3974264574
 21
155.7199969429
 31
0.0
  0
LINE
  5
4D
100
AcDbEntity
  8
0
370
              25
  6
Continuous
 62
               7
100
AcDbLine
 10
221.73407978649999
 20
155.69569983349999
 30
0.0
 11
221.50254829709999
 21
155.35836371600001
 31
0.0
  0
ARC
  5
4E
100
AcDbEntity
  8
0
370
              25
  6
Continuous
 62
               7
100
AcDbCircle
 10
220.1730328491
 20
136.42793692340001
 30
0.0
 40
19.330896386288945
100
AcDbArc
 50
85.060021218799974
 51
85.368093817500025
  0
LINE
  5
4F
100
AcDbEntity
  8
0
370
              25
  6
Continuous
 62
               7
100
AcDbLine
 10
221.9060514052
 20
155.32458060709999
 30
0.0
 11
221.83765719350001
 21
155.68702778700001
 31
0.0
  0
LINE
  5
50
100
AcDbEntity
  8
0
370
              25
  6
Continuous
 62
               7
100
AcDbLine
 10
222.1654891366
 20
155.65569340510001
 30
0.0
 11
221.9060514052
 21
155.32458060709999
 31
0.0
  0
ARC
  5
51
100
AcDbEntity
  8
0
370
              25
  6
Continuous
 62
               7
100
AcDbCircle
 10
220.3726632968
 20
138.5561800456
 30
0.0
 40
17.193242324335401
100
AcDbArc
 50
83.678805209000018
 51
84.014600509899964
  0
LINE
  5
52
100
AcDbEntity
  8
0
370
              25
  6
Continuous
 62
               7
100
AcDbLine
 10
222.29633653330001
 20
155.2824952329
 30
0.0
 11
222.26567346549999
 21
155.64489252269999
 31
0.0
  0
LINE
  5
53
100
AcDbEntity
  8
0
370
              25
  6
Continuous
 62
               7
100
AcDbLine
 10
222.58056032670001
 20
155.6069213529
 30
0.0
 11
222.29633653330001
 21
155.2824952329
 31
0.0
  0
ARC
  5
54
100
AcDbEntity
  8
0
370
              25
  6
Continuous
 62
               7
100
AcDbCircle
 10
220.60637791159999
 20
140.50644753239999
 30
0.0
 40
15.22897586223173
100
AcDbArc
 50
82.188966424500052
 51
82.551597282600028
  0
LINE
  5
55
100
AcDbEntity
  8
0
370
              25
  6
Continuous
 62
               7
100
AcDbLine
 10
222.66849637000001
 20
155.23264156350001
 30
0.0
 11
222.6760925941
 21
155.5941241907
 31
0.0
  0
LINE
  5
56
100
AcDbEntity
  8
0
370
              25
  6
Continuous
 62
               7
100
AcDbLine
 10
222.9740752509
 20
155.5499897155
 30
0.0
 11
222.66849637000001
 21
155.23264156350001
 31
0.0
  0
ARC
  5
57
100
AcDbEntity
  8
0
370
              25
  6
Continuous
 62
               7
100
AcDbCircle
 10
221.01858815360001
 20
143.28327705769999
 30
0.0
 40
12.42160091192715
100
AcDbArc
 50
80.523340133200008
 51
80.942457101299993
  0
LINE
  5
58
100
AcDbEntity
  8
0
370
              25
  6
Continuous
 62
               7
100
AcDbLine
 10
223.01785082750001
 20
155.17563693599999
 30
0.0
 11
223.06375278089999
 21
155.53535732450001
 31
0.0
  0
LINE
  5
59
100
AcDbEntity
  8
0
370
              25
  6
Continuous
 62
               7
100
AcDbLine
 10
223.34108477219999
 20
155.4856188103
 30
0.0
 11
223.01785082750001
 21
155.17563693599999
 31
0.0
  0
ARC
  5
5A
100
AcDbEntity
  8
0
370
              25
  6
Continuous
 62
               7
100
AcDbCircle
 10
221.44672689079999
 20
145.64758150879999
 30
0.0
 40
10.018760887825977
100
AcDbArc
 50
78.618832538099952
 51
79.10083949900006
  0
LINE
  5
5B
100
AcDbEntity
  8
0
370
              25
  6
Continuous
 62
               7
100
AcDbLine
 10
223.34000608209999
 20
155.1122051916
 30
0.0
 11
223.42378031870001
 21
155.4693343804
 31
0.0
  0
LINE
  5
5C
100
AcDbEntity
  8
0
370
              25
  6
Continuous
 62
               7
100
AcDbLine
 10
223.67697244670001
 20
155.41461389950001
 30
0.0
 11
223.34000608209999
 21
155.1122051916
 31
0.0
  0
ARC
  5
5D
100
AcDbEntity
  8
0
370
              25
  6
Continuous
 62
               7
100
AcDbCircle
 10
221.95580140499999
 20
147.9974608174
 30
0.0
 40
7.6142359825297312
100
AcDbArc
 50
76.35805260539999
 51
76.935578971900014
  0
LINE
  5
5E
100
AcDbEntity
  8
0
370
              25
  6
Continuous
 62
               7
100
AcDbLine
 10
223.63091251500001
 20
155.04314210039999
 30
0.0
 11
223.75164669450001
 21
155.3968884503
 31
0.0
  0
LINE
  5
5F
100
AcDbEntity
  8
0
370
              25
  6
Continuous
 62
               7
100
AcDbLine
 10
223.97751451170001
 20
155.33787365699999
 30
0.0
 11
223.63091251500001
 21
155.04314210039999
 31
0.0
  0
ARC
  5
60
100
AcDbEntity
  8
0
370
              25
  6
Continuous
 62
               7
100
AcDbCircle
 10
222.52675016059999
 20
150.18408012820001
 30
0.0
 40
5.3540923544602244
100
AcDbArc
 50
73.546492495199928
 51
74.27838294
  0
LINE
  5
61
100
AcDbEntity
  8
0
370
              25
  6
Continuous
 62
               7
100
AcDbLine
 10
223.88690923390001
 20
154.9693152502
 30
0.0
 11
224.04322839349999
 21
155.31892177220001
 31
0.0
  0
LINE
  5
62
100
AcDbEntity
  8
0
370
              25
  6
Continuous
 62
               7
100
AcDbLine
 10
224.23893376730001
 20
155.25635795689999
 30
0.0
 11
223.88690923390001
 21
154.9693152502
 31
0.0
  0
ARC
  5
63
100
AcDbEntity
  8
0
370
              25
  6
Continuous
 62
               7
100
AcDbCircle
 10
223.0953146873
 20
151.95931751539999
 30
0.0
 40
3.4897478810384763
100
AcDbArc
 50
69.895484304599918
 51
70.870267096200081
  0
LINE
  5
64
100
AcDbEntity
  8
0
370
              25
  6
Continuous
 62
               7
100
AcDbLine
 10
224.1047782178
 20
154.89165269259999
 30
0.0
 11
224.29485866319999
 21
155.23642516140001
 31
0.0
  0
LINE
  5
65
100
AcDbEntity
  8
0
370
              25
  6
Continuous
 62
               7
100
AcDbLine
 10
224.45793899200001
 20
155.17109721649999
 30
0.0
 11
224.1047782178
 21
154.89165269259999
 31
0.0
  0
ARC
  5
66
100
AcDbEntity
  8
0
370
              25
  6
Continuous
 62
               7
100
AcDbCircle
 10
223.62514151330001
 20
153.28030649900001
 30
0.0
 40
2.0660690157788215
100
AcDbArc
 50
64.844630202799877
 51
66.22894077829956
  0
LINE
  5
67
100
AcDbEntity
  8
0
370
              25
  6
Continuous
 62
               7
100
AcDbLine
 10
224.28177951149999
 20
154.8111369305
 30
0.0
 11
224.5033744632
 21
155.1504262983
 31
0.0
  0
LINE
  5
68
100
AcDbEntity
  8
0
370
              25
  6
Continuous
 62
               7
100
AcDbLine
 10
224.63177868060001
 20
155.08315961880001
 30
0.0
 11
224.28177951149999
 21
154.8111369305
 31
0.0
  0
ARC
  5
69
100
AcDbEntity
  8
0
370
              25
  6
Continuous
 62
               7
100
AcDbCircle
 10
224.0703428324
 20
154.13193176230001
 30
0.0
 40
1.1045563120997928
100
AcDbArc
 50
57.356437611300287
 51
59.449950077400509
  0
LINE
  5
6A
100
AcDbEntity
  8
0
370
              25
  6
Continuous
 62
               7
100
AcDbLine
 10
224.41568735289999
 20
154.7287714947
 30
0.0
 11
224.6661528249
 21
155.06201514540001
 31
0.0
  0
LINE
  5
6B
100
AcDbEntity
  8
0
370
              25
  6
Continuous
 62
               7
100
AcDbLine
 10
224.75826722319999
 20
154.99364811059999
 30
0.0
 11
224.41568735289999
 21
154.7287714947
 31
0.0
  0
ARC
  5
6C
100
AcDbEntity
  8
0
370
              25
  6
Continuous
 62
               7
100
AcDbCircle
 10
224.42040909490001
 20
154.60866987150001
 30
0.0
 40
0.5122073402571066
100
AcDbArc
 50
45.228750807601905
 51
48.729708579499537
  0
LINE
  5
6D
100
AcDbEntity
  8
0
370
              25
  6
Continuous
 62
               7
100
AcDbLine
 10
224.5048181642
 20
154.6455985632
 30
0.0
 11
224.7811454875
 21
154.97229827320001
 31
0.0
  0
LINE
  5
6E
100
AcDbEntity
  8
0
370
              25
  6
Continuous
 62
               7
100
AcDbLine
 10
224.8358108212
 20
154.90369473839999
 30
0.0
 11
224.5048181642
 21
154.6455985632
 31
0.0
  0
ARC
  5
6F
100
AcDbEntity
  8
0
370
              25
  6
Continuous
 62
               7
100
AcDbCircle
 10
224.63536253550001
 20
154.7856613836
 30
0.0
 40
0.2326185463510538
100
AcDbArc
 50
24.575987020402803
 51
30.491572725999212
  0
LINE
  5
70
100
AcDbEntity
  8
0
370
              25
  6
Continuous
 62
               7
100
AcDbLine
 10
224.54804896819999
 20
154.56266173610001
 30
0.0
 11
224.8469082828
 21
154.8824073648
 31
0.0
  0
LINE
  5
71
100
AcDbEntity
  8
0
370
              25
  6
Continuous
 62
               7
100
AcDbLine
 10
224.86343788849999
 20
154.81442770960001
 30
0.0
 11
224.54804896819999
 21
154.56266173610001
 31
0.0
  0
ARC
  5
72
100
AcDbEntity
  8
0
370
              25
  6
Continuous
 62
               7
100
AcDbCircle
 10
224.7080413571
 20
154.8100366189
 30
0.0
 40
0.1554585592461541
100
AcDbArc
 50
353.88197617109574
 51
1.6185948734979549
  0
LINE
  5
73
100
AcDbEntity
  8
0
370
              25
  6
Continuous
 62
               7
100
AcDbLine
 10
224.54483969899999
 20
154.48100334150001
 30
0.0
 11
224.86261449689999
 21
154.79346833380001
 31
0.0
  0
LINE
  5
74
100
AcDbEntity
  8
0
370
              25
  6
Continuous
 62
               7
100
AcDbLine
 10
224.84079828669999
 20
154.7269712003
 30
0.0
 11
224.54483969899999
 21
154.48100334150001
 31
0.0
  0
ARC
  5
75
100
AcDbEntity
  8
0
370
              25
  6
Continuous
 62
               7
100
AcDbCircle
 10
224.63769948620001
 20
154.8397820433
 30
0.0
 40
0.2323260834630171
100
AcDbArc
 50
325.02339877530289
 51
330.95010075500039
  0
LINE
  5
76
100
AcDbEntity
  8
0
370
              25
  6
Continuous
 62
               7
100
AcDbLine
 10
224.49522834379999
 20
154.40165048119999
 30
0.0
 11
224.82806427669999
 21
154.70660300750001
 31
0.0
  0
LINE
  5
77
100
AcDbEntity
  8
0
370
              25
  6
Continuous
 62
               7
100
AcDbLine
 10
224.76817963810001
 20
154.6424228125
 30
0.0
 11
224.49522834379999
 21
154.40165048119999
 31
0.0
  0
POLYLINE
  5
78
100
AcDbEntity
  8
0
370
              25
  6
Continuous
 62
               7
100
AcDb2dPolyline
 66
               1
 10
0.0
 20
0.0
 30
0.0
 75
               5
  0
VERTEX
  5
79
100
AcDbEntity
  8
0
370
              25
  6
Continuous
 62
               7
100
AcDbVertex
100
AcDb2dVertex
 10
223.4172871152
 20
153.9052014653
 30
0.0
  0
VERTEX
  5
7A
100
AcDbEntity
  8
0
370
              25
  6
Continuous
 62
               7
100
AcDbVertex
100
AcDb2dVertex
 10
223.8256225582
 20
153.9962851745
 30
0.0
  0
VERTEX
  5
7B
100
AcDbEntity
  8
0
370
              25
  6
Continuous
 62
               7
100
AcDbVertex
100
AcDb2dVertex
 10
224.12274060280001
 20
154.105000808
 30
0.0
  0
VERTEX
  5
7C
100
AcDbEntity
  8
0
370
              25
  6
Continuous
 62
               7
100
AcDbVertex
100
AcDb2dVertex
 10
224.29754556360001
 20
154.22728993960001
 30
0.0
  0
VERTEX
  5
7D
100
AcDbEntity
  8
0
370
              25
  6
Continuous
 62
               7
100
AcDbVertex
100
AcDb2dVertex
 10
224.34351082250001
 20
154.3585847448
 30
0.0
  0
VERTEX
  5
7E
100
AcDbEntity
  8
0
370
              25
  6
Continuous
 62
               7
100
AcDbVertex
100
AcDb2dVertex
 10
224.25892052520001
 20
154.49397891589999
 30
0.0
  0
VERTEX
  5
7F
100
AcDbEntity
  8
0
370
              25
  6
Continuous
 62
               7
100
AcDbVertex
100
AcDb2dVertex
 10
224.04693055569999
 20
154.62842706250001
 30
0.0
  0
VERTEX
  5
80
100
AcDbEntity
  8
0
370
              25
  6
Continuous
 62
               7
100
AcDbVertex
100
AcDb2dVertex
 10
223.7154607361
 20
154.7568977617
 30
0.0
  0
VERTEX
  5
81
100
AcDbEntity
  8
0
370
              25
  6
Continuous
 62
               7
100
AcDbVertex
100
AcDb2dVertex
 10
223.27688813730001
 20
154.87459643220001
 30
0.0
  0
VERTEX
  5
82
100
AcDbEntity
  8
0
370
              25
  6
Continuous
 62
               7
100
AcDbVertex
100
AcDb2dVertex
 10
222.7475894705
 20
154.97712845469999
 30
0.0
  0
VERTEX
  5
83
100
AcDbEntity
  8
0
370
              25
  6
Continuous
 62
               7
100
AcDbVertex
100
AcDb2dVertex
 10
222.14733334909999
 20
155.06066510970001
 30
0.0
  0
VERTEX
  5
84
100
AcDbEntity
  8
0
370
              25
  6
Continuous
 62
               7
100
AcDbVertex
100
AcDb2dVertex
 10
221.49853407489999
 20
155.12208611439999
 30
0.0
  0
VERTEX
  5
85
100
AcDbEntity
  8
0
370
              25
  6
Continuous
 62
               7
100
AcDbVertex
100
AcDb2dVertex
 10
220.82542077310001
 20
155.15910166820001
 30
0.0
  0
VERTEX
  5
86
100
AcDbEntity
  8
0
370
              25
  6
Continuous
 62
               7
100
AcDbVertex
100
AcDb2dVertex
 10
220.15313050930001
 20
155.170323602
 30
0.0
  0
VERTEX
  5
87
100
AcDbEntity
  8
0
370
              25
  6
Continuous
 62
               7
100
AcDbVertex
100
AcDb2dVertex
 10
219.50676940209999
 20
155.1553333132
 30
0.0
  0
SEQEND
  5
88
100
AcDbEntity
  8
0
370
              25
  6
Continuous
 62
               7
  0
LINE
  5
89
100
AcDbEntity
  8
0
370
              25
  6
Continuous
 62
               7
100
AcDbLine
 10
219.27876231869999
 20
155.642207942
 30
0.0
 11
219.50676940209999
 21
155.1553333132
 31
0.0
  0
LINE
  5
8A
100
AcDbEntity
  8
0
370
              25
  6
Continuous
 62
               7
100
AcDbLine
 10
219.50676940209999
 20
155.1553333132
 30
0.0
 11
223.4172871152
 21
153.9052014653
 31
0.0
  0
LINE
  5
8B
100
AcDbEntity
  8
0
370
              25
  6
Continuous
 62
               7
100
AcDbLine
 10
220.80105953910001
 20
158.63238284479999
 30
0.0
 11
220.67629051430001
 21
155.39942873749999
 31
0.0
  0
LINE
  5
8C
100
AcDbEntity
  8
0
370
              25
  6
Continuous
 62
               7
100
AcDbLine
 10
220.95751427920001
 20
158.68655115620001
 30
0.0
 11
220.8440878463
 21
155.74750058710001
 31
0.0
  0
LINE
  5
8D
100
AcDbEntity
  8
0
370
              25
  6
Continuous
 62
               7
100
AcDbLine
 10
220.80105953910001
 20
158.63238284479999
 30
0.0
 11
220.95751427920001
 21
158.68655115620001
 31
0.0
  0
LINE
  5
8E
100
AcDbEntity
  8
0
370
              25
  6
Continuous
 62
               7
100
AcDbLine
 10
220.95051702320001
 20
155.74339180909999
 30
0.0
 11
221.06394336389999
 21
158.68243871889999
 31
0.0
  0
LINE
  5
8F
100
AcDbEntity
  8
0
370
              25
  6
Continuous
 62
               7
100
AcDbLine
 10
221.21567192879999
 20
158.6163720511
 30
0.0
 11
221.09090274990001
 21
155.38341791510001
 31
0.0
  0
LINE
  5
90
100
AcDbEntity
  8
0
370
              25
  6
Continuous
 62
               7
100
AcDbLine
 10
221.06394336389999
 20
158.68243871889999
 30
0.0
 11
221.21567192879999
 21
158.6163720511
 31
0.0
  0
ARC
  5
91
100
AcDbEntity
  8
0
370
              25
  6
Continuous
 62
               7
100
AcDbCircle
 10
220.21950628990001
 20
138.20780849050001
 30
0.0
 40
20.492036427803352
100
AcDbArc
 50
87.638283330700006
 51
87.936081690699979
  0
LINE
  5
92
100
AcDbEntity
  8
0
370
              25
  6
Continuous
 62
               7
100
AcDbLine
 10
220.50254901560001
 20
155.75690750449999
 30
0.0
 11
220.6159754485
 21
158.6959580736
 31
0.0
  0
LINE
  5
93
100
AcDbEntity
  8
0
370
              25
  6
Continuous
 62
               7
100
AcDbLine
 10
220.6159754485
 20
158.6959580736
 30
0.0
 11
220.80105953910001
 21
158.63238284479999
 31
0.0
  0
LINE
  5
94
100
AcDbEntity
  8
0
370
              25
  6
Continuous
 62
               7
100
AcDbLine
 10
221.4051852131
 20
158.66547992880001
 30
0.0
 11
221.29175878020001
 21
155.72642935970001
 31
0.0
  0
LINE
  5
95
100
AcDbEntity
  8
0
370
              25
  6
Continuous
 62
               7
100
AcDbLine
 10
221.21567192879999
 20
158.6163720511
 30
0.0
 11
221.4051852131
 21
158.66547992880001
 31
0.0
  0
LINE
  5
96
100
AcDbEntity
  8
0
370
              25
  6
Continuous
 62
               7
100
AcDbLine
 10
220.3886951838
 20
158.6391540699
 30
0.0
 11
220.26392600489999
 21
155.40619993390001
 31
0.0
  0
LINE
  5
97
100
AcDbEntity
  8
0
370
              25
  6
Continuous
 62
               7
100
AcDbLine
 10
220.51012361279999
 20
158.69769787760001
 30
0.0
 11
220.3966971799
 21
155.7586473085
 31
0.0
  0
LINE
  5
98
100
AcDbEntity
  8
0
370
              25
  6
Continuous
 62
               7
100
AcDbLine
 10
220.3886951838
 20
158.6391540699
 30
0.0
 11
220.51012361279999
 21
158.69769787760001
 31
0.0
  0
LINE
  5
99
100
AcDbEntity
  8
0
370
              25
  6
Continuous
 62
               7
100
AcDbLine
 10
221.3974264574
 20
155.7199969429
 30
0.0
 11
221.51085289029999
 21
158.659047512
 31
0.0
  0
LINE
  5
9A
100
AcDbEntity
  8
0
370
              25
  6
Continuous
 62
               7
100
AcDbLine
 10
221.627317476
 20
158.591317852
 30
0.0
 11
221.50254829709999
 21
155.35836371600001
 31
0.0
  0
LINE
  5
9B
100
AcDbEntity
  8
0
370
              25
  6
Continuous
 62
               7
100
AcDbLine
 10
221.51085289029999
 20
158.659047512
 30
0.0
 11
221.627317476
 21
158.591317852
 31
0.0
  0
ARC
  5
9C
100
AcDbEntity
  8
0
370
              25
  6
Continuous
 62
               7
100
AcDbCircle
 10
220.22477587220001
 20
138.40332430839999
 30
0.0
 40
20.296509961019172
100
AcDbArc
 50
86.367051079200039
 51
86.665896842400002
  0
ARC
  5
9D
100
AcDbEntity
  8
0
370
              25
  6
Continuous
 62
               7
100
AcDbCircle
 10
220.2272178039
 20
138.26440941199999
 30
0.0
 40
20.435246835254592
100
AcDbArc
 50
88.909946318699994
 51
89.206771183300035
  0
LINE
  5
9E
100
AcDbEntity
  8
0
370
              25
  6
Continuous
 62
               7
100
AcDbLine
 10
220.05915662320001
 20
155.7603856339
 30
0.0
 11
220.1725830561
 21
158.699436203
 31
0.0
  0
LINE
  5
9F
100
AcDbEntity
  8
0
370
              25
  6
Continuous
 62
               7
100
AcDbLine
 10
220.1725830561
 20
158.699436203
 30
0.0
 11
220.3886951838
 21
158.6391540699
 31
0.0
  0
LINE
  5
A0
100
AcDbEntity
  8
0
370
              25
  6
Continuous
 62
               7
100
AcDbLine
 10
221.84750612720001
 20
158.6347467432
 30
0.0
 11
221.73407978649999
 21
155.69569983349999
 31
0.0
  0
LINE
  5
A1
100
AcDbEntity
  8
0
370
              25
  6
Continuous
 62
               7
100
AcDbLine
 10
221.627317476
 20
158.591317852
 30
0.0
 11
221.84750612720001
 21
158.6347467432
 31
0.0
  0
LINE
  5
A2
100
AcDbEntity
  8
0
370
              25
  6
Continuous
 62
               7
100
AcDbLine
 10
221.83765719350001
 20
155.68702778700001
 30
0.0
 11
221.95108362639999
 21
158.62607835610001
 31
0.0
  0
ARC
  5
A3
100
AcDbEntity
  8
0
370
              25
  6
Continuous
 62
               7
100
AcDbCircle
 10
220.3108156644
 20
139.6498684952
 30
0.0
 40
19.046968779113755
100
AcDbArc
 50
85.0597397433
 51
85.372404059599987
  0
LINE
  5
A4
100
AcDbEntity
  8
0
370
              25
  6
Continuous
 62
               7
100
AcDbLine
 10
219.98376375239999
 20
158.63659533309999
 30
0.0
 11
219.85899457350001
 21
155.4036411971
 31
0.0
  0
LINE
  5
A5
100
AcDbEntity
  8
0
370
              25
  6
Continuous
 62
               7
100
AcDbLine
 10
220.06863913780001
 20
158.69877876570001
 30
0.0
 11
219.95521270489999
 21
155.75972819660001
 31
0.0
  0
LINE
  5
A6
100
AcDbEntity
  8
0
370
              25
  6
Continuous
 62
               7
100
AcDbLine
 10
219.98376375239999
 20
158.63659533309999
 30
0.0
 11
220.06863913780001
 21
158.69877876570001
 31
0.0
  0
LINE
  5
A7
100
AcDbEntity
  8
0
370
              25
  6
Continuous
 62
               7
100
AcDbLine
 10
222.03082058410001
 20
158.55753474310001
 30
0.0
 11
221.9060514052
 21
155.32458060709999
 31
0.0
  0
LINE
  5
A8
100
AcDbEntity
  8
0
370
              25
  6
Continuous
 62
               7
100
AcDbLine
 10
221.95108362639999
 20
158.62607835610001
 30
0.0
 11
222.03082058410001
 21
158.55753474310001
 31
0.0
  0
ARC
  5
A9
100
AcDbEntity
  8
0
370
              25
  6
Continuous
 62
               7
100
AcDbCircle
 10
220.24375831180001
 20
139.22895720389999
 30
0.0
 40
19.470609090992468
100
AcDbArc
 50
90.209446495499975
 51
90.51532670669998
  0
LINE
  5
AA
100
AcDbEntity
  8
0
370
              25
  6
Continuous
 62
               7
100
AcDbLine
 10
219.62591503229999
 20
155.7537752627
 30
0.0
 11
219.7393414652
 21
158.69282583180001
 31
0.0
  0
LINE
  5
AB
100
AcDbEntity
  8
0
370
              25
  6
Continuous
 62
               7
100
AcDbLine
 10
219.7393414652
 20
158.69282583180001
 30
0.0
 11
219.98376375239999
 21
158.63659533309999
 31
0.0
  0
LINE
  5
AC
100
AcDbEntity
  8
0
370
              25
  6
Continuous
 62
               7
100
AcDbLine
 10
222.27891556949999
 20
158.59474397419999
 30
0.0
 11
222.1654891366
 21
155.65569340510001
 31
0.0
  0
LINE
  5
AD
100
AcDbEntity
  8
0
370
              25
  6
Continuous
 62
               7
100
AcDbLine
 10
222.03082058410001
 20
158.55753474310001
 30
0.0
 11
222.27891556949999
 21
158.59474397419999
 31
0.0
  0
LINE
  5
AE
100
AcDbEntity
  8
0
370
              25
  6
Continuous
 62
               7
100
AcDbLine
 10
222.26567346549999
 20
155.64489252269999
 30
0.0
 11
222.3790998984
 21
158.58394309179999
 31
0.0
  0
ARC
  5
AF
100
AcDbEntity
  8
0
370
              25
  6
Continuous
 62
               7
100
AcDbCircle
 10
220.48608972919999
 20
141.49523061080001
 30
0.0
 40
17.193242328305235
100
AcDbArc
 50
83.678805208999975
 51
84.014600509799962
  0
LINE
  5
B0
100
AcDbEntity
  8
0
370
              25
  6
Continuous
 62
               7
100
AcDbLine
 10
219.5913580715
 20
158.6247365275
 30
0.0
 11
219.46658889259999
 21
155.39178239149999
 31
0.0
  0
LINE
  5
B1
100
AcDbEntity
  8
0
370
              25
  6
Continuous
 62
               7
100
AcDbLine
 10
219.6386129487
 20
158.68978192189999
 30
0.0
 11
219.5251865159
 21
155.75073135279999
 31
0.0
  0
LINE
  5
B2
100
AcDbEntity
  8
0
370
              25
  6
Continuous
 62
               7
100
AcDbLine
 10
219.5913580715
 20
158.6247365275
 30
0.0
 11
219.6386129487
 21
158.68978192189999
 31
0.0
  0
LINE
  5
B3
100
AcDbEntity
  8
0
370
              25
  6
Continuous
 62
               7
100
AcDbLine
 10
222.4211058043
 20
158.5154530282
 30
0.0
 11
222.29633653330001
 21
155.2824952329
 31
0.0
  0
LINE
  5
B4
100
AcDbEntity
  8
0
370
              25
  6
Continuous
 62
               7
100
AcDbLine
 10
222.3790998984
 20
158.58394309179999
 30
0.0
 11
222.4211058043
 21
158.5154530282
 31
0.0
  0
ARC
  5
B5
100
AcDbEntity
  8
0
370
              25
  6
Continuous
 62
               7
100
AcDbCircle
 10
220.2107407657
 20
141.42519850159999
 30
0.0
 40
17.274060637681313
100
AcDbArc
 50
91.563763403800024
 51
91.898019588199986
  0
LINE
  5
B6
100
AcDbEntity
  8
0
370
              25
  6
Continuous
 62
               7
100
AcDbLine
 10
219.3196935295
 20
156.70279481189999
 30
0.0
 11
219.2460817532
 21
156.71684296020001
 31
0.0
  0
LINE
  5
B7
100
AcDbEntity
  8
0
370
              25
  6
Continuous
 62
               7
100
AcDbLine
 10
219.2460817532
 20
156.71684296020001
 30
0.0
 11
219.32169957709999
 21
158.6762087427
 31
0.0
  0
LINE
  5
B8
100
AcDbEntity
  8
0
370
              25
  6
Continuous
 62
               7
100
AcDbLine
 10
219.3196935295
 20
156.70279481189999
 30
0.0
 11
219.27876231869999
 21
155.642207942
 31
0.0
  0
LINE
  5
B9
100
AcDbEntity
  8
0
370
              25
  6
Continuous
 62
               7
100
AcDbLine
 10
219.32169957709999
 20
158.6762087427
 30
0.0
 11
219.5913580715
 21
158.6247365275
 31
0.0
  0
LINE
  5
BA
100
AcDbEntity
  8
0
370
              25
  6
Continuous
 62
               7
100
AcDbLine
 10
222.69398675959999
 20
158.54597192200001
 30
0.0
 11
222.58056032670001
 21
155.6069213529
 31
0.0
  0
LINE
  5
BB
100
AcDbEntity
  8
0
370
              25
  6
Continuous
 62
               7
100
AcDbLine
 10
222.4211058043
 20
158.5154530282
 30
0.0
 11
222.69398675959999
 21
158.54597192200001
 31
0.0
  0
LINE
  5
BC
100
AcDbEntity
  8
0
370
              25
  6
Continuous
 62
               7
100
AcDbLine
 10
222.6760925941
 20
155.5941241907
 30
0.0
 11
222.78951893479999
 21
158.5331711005
 31
0.0
  0
ARC
  5
BD
100
AcDbEntity
  8
0
370
              25
  6
Continuous
 62
               7
100
AcDbCircle
 10
220.744994752
 20
143.6378213879
 30
0.0
 40
15.035009883393936
100
AcDbArc
 50
82.184463246600032
 51
82.551773908499996
  0
LINE
  5
BE
100
AcDbEntity
  8
0
370
              25
  6
Continuous
 62
               7
100
AcDbLine
 10
222.7932655489
 20
158.4655956995
 30
0.0
 11
222.66849637000001
 21
155.23264156350001
 31
0.0
  0
LINE
  5
BF
100
AcDbEntity
  8
0
370
              25
  6
Continuous
 62
               7
100
AcDbLine
 10
222.78951893479999
 20
158.5331711005
 30
0.0
 11
222.7932655489
 21
158.4655956995
 31
0.0
  0
LINE
  5
C0
100
AcDbEntity
  8
0
370
              25
  6
Continuous
 62
               7
100
AcDbLine
 10
223.0875016837
 20
158.48904028460001
 30
0.0
 11
222.9740752509
 21
155.5499897155
 31
0.0
  0
LINE
  5
C1
100
AcDbEntity
  8
0
370
              25
  6
Continuous
 62
               7
100
AcDbLine
 10
222.7932655489
 20
158.4655956995
 30
0.0
 11
223.0875016837
 21
158.48904028460001
 31
0.0
  0
LINE
  5
C2
100
AcDbEntity
  8
0
370
              25
  6
Continuous
 62
               7
100
AcDbLine
 10
218.0905483958
 20
156.5791769173
 30
0.0
 11
219.3000011222
 21
156.19253574699999
 31
0.0
  0
LINE
  5
C3
100
AcDbEntity
  8
0
370
              25
  6
Continuous
 62
               7
100
AcDbLine
 10
218.06205919620001
 20
156.5977657192
 30
0.0
 11
218.0905483958
 21
156.5791769173
 31
0.0
  0
ARC
  5
C4
100
AcDbEntity
  8
0
370
              25
  6
Continuous
 62
               7
100
AcDbCircle
 10
219.26685374339999
 20
149.17815302540001
 30
0.0
 40
7.5167933607022031
100
AcDbArc
 50
98.638001523899902
 51
99.223171241699944
  0
LINE
  5
C5
100
AcDbEntity
  8
0
370
              25
  6
Continuous
 62
               7
100
AcDbLine
 10
218.46186664690001
 20
156.57608888159999
 30
0.0
 11
218.13789824349999
 21
156.60968327879999
 31
0.0
  0
LINE
  5
C6
100
AcDbEntity
  8
0
370
              25
  6
Continuous
 62
               7
100
AcDbLine
 10
218.39461885750001
 20
156.64470891120001
 30
0.0
 11
218.46186664690001
 21
156.57608888159999
 31
0.0
  0
ARC
  5
C7
100
AcDbEntity
  8
0
370
              25
  6
Continuous
 62
               7
100
AcDbCircle
 10
219.59507515109999
 20
146.80772842869999
 30
0.0
 40
9.909958644011498
100
AcDbArc
 50
96.470289153600021
 51
96.957689527899944
  0
LINE
  5
C8
100
AcDbEntity
  8
0
370
              25
  6
Continuous
 62
               7
100
AcDbLine
 10
218.78802514099999
 20
156.61448271610001
 30
0.0
 11
218.47834193150001
 21
156.65456483649999
 31
0.0
  0
LINE
  5
C9
100
AcDbEntity
  8
0
370
              25
  6
Continuous
 62
               7
100
AcDbLine
 10
218.75873708730001
 20
156.6827622781
 30
0.0
 11
218.78802514099999
 21
156.61448271610001
 31
0.0
  0
ARC
  5
CA
100
AcDbEntity
  8
0
370
              25
  6
Continuous
 62
               7
100
AcDbCircle
 10
219.85046709380001
 20
144.33762253399999
 30
0.0
 40
12.393318752851471
100
AcDbArc
 50
94.633604172100007
 51
95.053747552299967
  0
LINE
  5
CB
100
AcDbEntity
  8
0
370
              25
  6
Continuous
 62
               7
100
AcDbLine
 10
219.14079480980001
 20
156.6443687615
 30
0.0
 11
218.8492911216
 21
156.69043583230001
 31
0.0
  0
LINE
  5
CC
100
AcDbEntity
  8
0
370
              25
  6
Continuous
 62
               7
100
AcDbLine
 10
219.1498352902
 20
156.711451291
 30
0.0
 11
219.14079480980001
 21
156.6443687615
 31
0.0
  0
ARC
  5
CD
100
AcDbEntity
  8
0
370
              25
  6
Continuous
 62
               7
100
AcDbCircle
 10
220.0291067661
 20
141.8773544112
 30
0.0
 40
14.860132858270665
100
AcDbArc
 50
93.020485491199977
 51
93.392162638299993
  0
LINE
  5
CE
100
AcDbEntity
  8
0
370
              25
  6
Continuous
 62
               7
100
AcDbLine
 10
219.22545320610001
 20
158.6708207328
 30
0.0
 11
219.1498352902
 21
156.711451291
 31
0.0
  0
ARC
  5
CF
100
AcDbEntity
  8
0
370
              25
  6
Continuous
 62
               7
100
AcDbCircle
 10
220.1150023948
 20
143.6430673552
 30
0.0
 40
15.05405823472903
100
AcDbArc
 50
93.020711480699987
 51
93.387599562100036
  0
LINE
  5
D0
100
AcDbEntity
  8
0
370
              25
  6
Continuous
 62
               7
100
AcDbLine
 10
223.06375278089999
 20
155.53535732450001
 30
0.0
 11
223.1771792138
 21
158.47440789359999
 31
0.0
  0
ARC
  5
D1
100
AcDbEntity
  8
0
370
              25
  6
Continuous
 62
               7
100
AcDbCircle
 10
221.0923791436
 20
145.9794139009
 30
0.0
 40
12.66772537626991
100
AcDbArc
 50
80.527411716100048
 51
80.938385518500041
  0
LINE
  5
D2
100
AcDbEntity
  8
0
370
              25
  6
Continuous
 62
               7
100
AcDbLine
 10
219.21641263359999
 20
158.60373454399999
 30
0.0
 11
219.14079480980001
 21
156.6443687615
 31
0.0
  0
LINE
  5
D3
100
AcDbEntity
  8
0
370
              25
  6
Continuous
 62
               7
100
AcDbLine
 10
219.21641263359999
 20
158.60373454399999
 30
0.0
 11
219.22545320610001
 21
158.6708207328
 31
0.0
  0
LINE
  5
D4
100
AcDbEntity
  8
0
370
              25
  6
Continuous
 62
               7
100
AcDbLine
 10
218.8492911216
 20
156.69043583230001
 30
0.0
 11
218.92490894549999
 21
158.64980161470001
 31
0.0
  0
LINE
  5
D5
100
AcDbEntity
  8
0
370
              25
  6
Continuous
 62
               7
100
AcDbLine
 10
218.92490894549999
 20
158.64980161470001
 30
0.0
 11
219.21641263359999
 21
158.60373454399999
 31
0.0
  0
LINE
  5
D6
100
AcDbEntity
  8
0
370
              25
  6
Continuous
 62
               7
100
AcDbLine
 10
223.4545112051
 20
158.4246693794
 30
0.0
 11
223.34108477219999
 21
155.4856188103
 31
0.0
  0
LINE
  5
D7
100
AcDbEntity
  8
0
370
              25
  6
Continuous
 62
               7
100
AcDbLine
 10
223.17470276610001
 20
158.41024470569999
 30
0.0
 11
223.4545112051
 21
158.4246693794
 31
0.0
  0
LINE
  5
D8
100
AcDbEntity
  8
0
370
              25
  6
Continuous
 62
               7
100
AcDbLine
 10
218.83435430540001
 20
158.64213185139999
 30
0.0
 11
218.75873708730001
 21
156.6827622781
 31
0.0
  0
ARC
  5
D9
100
AcDbEntity
  8
0
370
              25
  6
Continuous
 62
               7
100
AcDbCircle
 10
219.95453240820001
 20
145.9549292989
 30
0.0
 40
12.736557917646333
100
AcDbArc
 50
94.63685112810002
 51
95.045673236300075
  0
LINE
  5
DA
100
AcDbEntity
  8
0
370
              25
  6
Continuous
 62
               7
100
AcDbLine
 10
223.42378031870001
 20
155.4693343804
 30
0.0
 11
223.5372067516
 21
158.4083849495
 31
0.0
  0
ARC
  5
DB
100
AcDbEntity
  8
0
370
              25
  6
Continuous
 62
               7
100
AcDbCircle
 10
221.5335146589
 20
148.45135568410001
 30
0.0
 40
10.156633979611842
100
AcDbArc
 50
78.622104102999941
 51
79.097567934199958
  0
LINE
  5
DC
100
AcDbEntity
  8
0
370
              25
  6
Continuous
 62
               7
100
AcDbLine
 10
218.47834193150001
 20
156.65456483649999
 30
0.0
 11
218.5539597554
 21
158.613930619
 31
0.0
  0
LINE
  5
DD
100
AcDbEntity
  8
0
370
              25
  6
Continuous
 62
               7
100
AcDbLine
 10
218.5539597554
 20
158.613930619
 30
0.0
 11
218.8318783844
 21
158.5779606598
 31
0.0
  0
LINE
  5
DE
100
AcDbEntity
  8
0
370
              25
  6
Continuous
 62
               7
100
AcDbLine
 10
223.79039887959999
 20
158.35366446859999
 30
0.0
 11
223.67697244670001
 21
155.41461389950001
 31
0.0
  0
LINE
  5
DF
100
AcDbEntity
  8
0
370
              25
  6
Continuous
 62
               7
100
AcDbLine
 10
223.5348372089
 20
158.34699081759999
 30
0.0
 11
223.79039887959999
 21
158.35366446859999
 31
0.0
  0
LINE
  5
E0
100
AcDbEntity
  8
0
370
              25
  6
Continuous
 62
               7
100
AcDbLine
 10
218.4702359835
 20
158.6040748252
 30
0.0
 11
218.39461885750001
 21
156.64470891120001
 31
0.0
  0
ARC
  5
E1
100
AcDbEntity
  8
0
370
              25
  6
Continuous
 62
               7
100
AcDbCircle
 10
219.67115360829999
 20
148.76296495970001
 30
0.0
 40
9.9141135017341107
100
AcDbArc
 50
96.470245129399942
 51
96.957445157000024
  0
LINE
  5
E2
100
AcDbEntity
  8
0
370
              25
  6
Continuous
 62
               7
100
AcDbLine
 10
223.75164669450001
 20
155.3968884503
 30
0.0
 11
223.8650730352
 21
158.3359353601
 31
0.0
  0
ARC
  5
E3
100
AcDbEntity
  8
0
370
              25
  6
Continuous
 62
               7
100
AcDbCircle
 10
222.107930178
 20
151.10106038519999
 30
0.0
 40
7.4451975744943786
100
AcDbArc
 50
76.348819635499936
 51
76.939464295200082
  0
LINE
  5
E4
100
AcDbEntity
  8
0
370
              25
  6
Continuous
 62
               7
100
AcDbLine
 10
217.2052169573
 20
154.68319582769999
 30
0.0
 11
216.9515737303
 21
154.94430351450001
 31
0.0
  0
LINE
  5
E5
100
AcDbEntity
  8
0
370
              25
  6
Continuous
 62
               7
100
AcDbLine
 10
216.89690839650001
 20
155.0129070493
 30
0.0
 11
217.2052169573
 21
154.68319582769999
 31
0.0
  0
ARC
  5
E6
100
AcDbEntity
  8
0
370
              25
  6
Continuous
 62
               7
100
AcDbCircle
 10
217.09786232019999
 20
155.1311864109
 30
0.0
 40
0.2331790874187212
100
AcDbArc
 50
204.57847783349806
 51
210.48061832720148
  0
LINE
  5
E7
100
AcDbEntity
  8
0
370
              25
  6
Continuous
 62
               7
100
AcDbLine
 10
217.16198545540001
 20
154.76613278630001
 30
0.0
 11
216.8858110271
 21
155.03419808219999
 31
0.0
  0
LINE
  5
E8
100
AcDbEntity
  8
0
370
              25
  6
Continuous
 62
               7
100
AcDbLine
 10
216.8692820272
 20
155.1021739466
 30
0.0
 11
217.16198545540001
 21
154.76613278630001
 31
0.0
  0
ARC
  5
E9
100
AcDbEntity
  8
0
370
              25
  6
Continuous
 62
               7
100
AcDbCircle
 10
217.02454691139999
 20
155.10656606399999
 30
0.0
 40
0.1553269937003597
100
AcDbArc
 50
173.87583571469926
 51
181.62034510129925
  0
LINE
  5
EA
100
AcDbEntity
  8
0
370
              25
  6
Continuous
 62
               7
100
AcDbLine
 10
217.16519480159999
 20
154.8477911953
 30
0.0
 11
216.87010636279999
 21
155.1231368789
 31
0.0
  0
LINE
  5
EB
100
AcDbEntity
  8
0
370
              25
  6
Continuous
 62
               7
100
AcDbLine
 10
216.89192102320001
 20
155.1896342467
 30
0.0
 11
217.16519480159999
 21
154.8477911953
 31
0.0
  0
ARC
  5
EC
100
AcDbEntity
  8
0
370
              25
  6
Continuous
 62
               7
100
AcDbCircle
 10
217.09622594679999
 20
155.076053229
 30
0.0
 40
0.2337544639307913
100
AcDbArc
 50
145.03801556029845
 51
150.92862269390235
  0
LINE
  5
ED
100
AcDbEntity
  8
0
370
              25
  6
Continuous
 62
               7
100
AcDbLine
 10
217.21480685469999
 20
154.92714392409999
 30
0.0
 11
216.90465658299999
 21
155.21000220529999
 31
0.0
  0
LINE
  5
EE
100
AcDbEntity
  8
0
370
              25
  6
Continuous
 62
               7
100
AcDbLine
 10
216.96454114459999
 20
155.27418238589999
 30
0.0
 11
217.21480685469999
 21
154.92714392409999
 31
0.0
  0
ARC
  5
EF
100
AcDbEntity
  8
0
370
              25
  6
Continuous
 62
               7
100
AcDbCircle
 10
217.29891947479999
 20
154.87983953299999
 30
0.0
 40
0.5170252927605565
100
AcDbArc
 50
126.8252334905999
 51
130.29588151959919
  0
LINE
  5
F0
100
AcDbEntity
  8
0
370
              25
  6
Continuous
 62
               7
100
AcDbLine
 10
217.3101957332
 20
155.00318930450001
 30
0.0
 11
216.9890268254
 21
155.29370146560001
 31
0.0
  0
LINE
  5
F1
100
AcDbEntity
  8
0
370
              25
  6
Continuous
 62
               7
100
AcDbLine
 10
217.0862285492
 20
155.35475915410001
 30
0.0
 11
217.3101957332
 21
155.00318930450001
 31
0.0
  0
ARC
  5
F2
100
AcDbEntity
  8
0
370
              25
  6
Continuous
 62
               7
100
AcDbCircle
 10
217.6120494729
 20
154.37359332099999
 30
0.0
 40
1.1131819419984079
100
AcDbArc
 50
116.1091186416008
 51
118.18749942990077
  0
LINE
  5
F3
100
AcDbEntity
  8
0
370
              25
  6
Continuous
 62
               7
100
AcDbLine
 10
217.45016329969999
 20
155.07497642120001
 30
0.0
 11
217.12215804210001
 21
155.37318344799999
 31
0.0
  0
LINE
  5
F4
100
AcDbEntity
  8
0
370
              25
  6
Continuous
 62
               7
100
AcDbLine
 10
217.25545378090001
 20
155.43034913739999
 30
0.0
 11
217.45016329969999
 21
155.07497642120001
 31
0.0
  0
ARC
  5
F5
100
AcDbEntity
  8
0
370
              25
  6
Continuous
 62
               7
100
AcDbCircle
 10
217.99138435040001
 20
153.48386885670001
 30
0.0
 40
2.0809563393753856
100
AcDbArc
 50
109.33571742620002
 51
110.71073926719971
  0
LINE
  5
F6
100
AcDbEntity
  8
0
370
              25
  6
Continuous
 62
               7
100
AcDbLine
 10
217.63294950560001
 20
155.14160266100001
 30
0.0
 11
217.3023741266
 21
155.44744829179999
 31
0.0
  0
LINE
  5
F7
100
AcDbEntity
  8
0
370
              25
  6
Continuous
 62
               7
100
AcDbLine
 10
217.47008777959999
 20
155.5000009133
 30
0.0
 11
217.63294950560001
 21
155.14160266100001
 31
0.0
  0
ARC
  5
F8
100
AcDbEntity
  8
0
370
              25
  6
Continuous
 62
               7
100
AcDbCircle
 10
218.41708944499999
 20
152.12499156269999
 30
0.0
 40
3.5053530879401276
100
AcDbArc
 50
104.70285537610002
 51
105.6737111861999
  0
LINE
  5
F9
100
AcDbEntity
  8
0
370
              25
  6
Continuous
 62
               7
100
AcDbLine
 10
217.8562541547
 20
155.20222481889999
 30
0.0
 11
217.52740927779999
 21
155.51556223310001
 31
0.0
  0
LINE
  5
FA
100
AcDbEntity
  8
0
370
              25
  6
Continuous
 62
               7
100
AcDbLine
 10
217.7274325043
 20
155.5628452606
 30
0.0
 11
217.8562541547
 21
155.20222481889999
 31
0.0
  0
ARC
  5
FB
100
AcDbEntity
  8
0
370
              25
  6
Continuous
 62
               7
100
AcDbCircle
 10
218.85884513389999
 20
150.2485457185
 30
0.0
 40
5.4334035523159345
100
AcDbArc
 50
101.29738861789995
 51
102.01880766789998
  0
LINE
  5
FC
100
AcDbEntity
  8
0
370
              25
  6
Continuous
 62
               7
100
AcDbLine
 10
218.1172699334
 20
155.2560832115
 30
0.0
 11
217.7944334977
 21
155.5766694061
 31
0.0
  0
LINE
  5
FD
100
AcDbEntity
  8
0
370
              25
  6
Continuous
 62
               7
100
AcDbLine
 10
218.27762432200001
 20
155.03171907079999
 30
0.0
 11
218.04961723869999
 21
155.5185936995
 31
0.0
  0
POLYLINE
  5
FE
100
AcDbEntity
  8
0
370
              25
  6
Continuous
 62
               7
100
AcDb2dPolyline
 66
               1
 10
0.0
 20
0.0
 30
0.0
 75
               5
  0
VERTEX
  5
FF
100
AcDbEntity
  8
0
370
              25
  6
Continuous
 62
               7
100
AcDbVertex
100
AcDb2dVertex
 10
218.27762432200001
 20
155.03171907079999
 30
0.0
  0
VERTEX
  5
100
100
AcDbEntity
  8
0
370
              25
  6
Continuous
 62
               7
100
AcDbVertex
100
AcDb2dVertex
 10
217.86928956009999
 20
154.940635227
 30
0.0
  0
VERTEX
  5
101
100
AcDbEntity
  8
0
370
              25
  6
Continuous
 62
               7
100
AcDbVertex
100
AcDb2dVertex
 10
217.57217087289999
 20
154.83191973519999
 30
0.0
  0
VERTEX
  5
102
100
AcDbEntity
  8
0
370
              25
  6
Continuous
 62
               7
100
AcDbVertex
100
AcDb2dVertex
 10
217.39736513720001
 20
154.70963072079999
 30
0.0
  0
VERTEX
  5
103
100
AcDbEntity
  8
0
370
              25
  6
Continuous
 62
               7
100
AcDbVertex
100
AcDb2dVertex
 10
217.35139987829999
 20
154.57833591560001
 30
0.0
  0
VERTEX
  5
104
100
AcDbEntity
  8
0
370
              25
  6
Continuous
 62
               7
100
AcDbVertex
100
AcDb2dVertex
 10
217.43599093540001
 20
154.44293798230001
 30
0.0
  0
VERTEX
  5
105
100
AcDbEntity
  8
0
370
              25
  6
Continuous
 62
               7
100
AcDbVertex
100
AcDb2dVertex
 10
217.64798014510001
 20
154.30849359780001
 30
0.0
  0
VERTEX
  5
106
100
AcDbEntity
  8
0
370
              25
  6
Continuous
 62
               7
100
AcDbVertex
100
AcDb2dVertex
 10
217.9794499647
 20
154.18002289859999
 30
0.0
  0
VERTEX
  5
107
100
AcDbEntity
  8
0
370
              25
  6
Continuous
 62
               7
100
AcDbVertex
100
AcDb2dVertex
 10
218.41802411340001
 20
154.06232399390001
 30
0.0
  0
VERTEX
  5
108
100
AcDbEntity
  8
0
370
              25
  6
Continuous
 62
               7
100
AcDbVertex
100
AcDb2dVertex
 10
218.94732123029999
 20
153.95979220570001
 30
0.0
  0
VERTEX
  5
109
100
AcDbEntity
  8
0
370
              25
  6
Continuous
 62
               7
100
AcDbVertex
100
AcDb2dVertex
 10
219.54757750580001
 20
153.87625557929999
 30
0.0
  0
VERTEX
  5
10A
100
AcDbEntity
  8
0
370
              25
  6
Continuous
 62
               7
100
AcDbVertex
100
AcDb2dVertex
 10
220.19637723170001
 20
153.81483075509999
 30
0.0
  0
VERTEX
  5
10B
100
AcDbEntity
  8
0
370
              25
  6
Continuous
 62
               7
100
AcDbVertex
100
AcDb2dVertex
 10
220.86948992769999
 20
153.7778189922
 30
0.0
  0
VERTEX
  5
10C
100
AcDbEntity
  8
0
370
              25
  6
Continuous
 62
               7
100
AcDbVertex
100
AcDb2dVertex
 10
221.54178026849999
 20
153.76659707269999
 30
0.0
  0
VERTEX
  5
10D
100
AcDbEntity
  8
0
370
              25
  6
Continuous
 62
               7
100
AcDbVertex
100
AcDb2dVertex
 10
222.18814211220001
 20
153.7815872372
 30
0.0
  0
SEQEND
  5
10E
100
AcDbEntity
  8
0
370
              25
  6
Continuous
 62
               7
  0
LINE
  5
10F
100
AcDbEntity
  8
0
370
              25
  6
Continuous
 62
               7
100
AcDbLine
 10
222.44771386619999
 20
154.11258929900001
 30
0.0
 11
222.18814211220001
 21
153.7815872372
 31
0.0
  0
LINE
  5
110
100
AcDbEntity
  8
0
370
              25
  6
Continuous
 62
               7
100
AcDbLine
 10
218.04961723869999
 20
155.5185936995
 30
0.0
 11
218.1172699334
 21
155.2560832115
 31
0.0
  0
LINE
  5
111
100
AcDbEntity
  8
0
370
              25
  6
Continuous
 62
               7
100
AcDbLine
 10
222.18814211220001
 20
153.7815872372
 30
0.0
 11
218.27762432200001
 21
155.03171907079999
 31
0.0
  0
LINE
  5
112
100
AcDbEntity
  8
0
370
              25
  6
Continuous
 62
               7
100
AcDbLine
 10
222.4516240957
 20
154.21391045370001
 30
0.0
 11
222.44771386619999
 21
154.11258929900001
 31
0.0
  0
LINE
  5
113
100
AcDbEntity
  8
0
370
              25
  6
Continuous
 62
               7
100
AcDbLine
 10
218.04961723869999
 20
155.5185936995
 30
0.0
 11
218.0905483958
 21
156.5791769173
 31
0.0
  0
LINE
  5
114
100
AcDbEntity
  8
0
370
              25
  6
Continuous
 62
               7
100
AcDbLine
 10
218.13789824349999
 20
156.60968327879999
 30
0.0
 11
218.21351606729999
 21
158.56904906119999
 31
0.0
  0
LINE
  5
115
100
AcDbEntity
  8
0
370
              25
  6
Continuous
 62
               7
100
AcDbLine
 10
218.46786661370001
 20
158.54267523710001
 30
0.0
 11
218.21351606729999
 21
158.56904906119999
 31
0.0
  0
LINE
  5
116
100
AcDbEntity
  8
0
370
              25
  6
Continuous
 62
               7
100
AcDbLine
 10
217.7944334977
 20
155.5766694061
 30
0.0
 11
217.90786062839999
 21
158.51571984380001
 31
0.0
  0
LINE
  5
117
100
AcDbEntity
  8
0
370
              25
  6
Continuous
 62
               7
100
AcDbLine
 10
217.90786062839999
 20
158.51571984380001
 30
0.0
 11
218.13537717240001
 21
158.4975518617
 31
0.0
  0
LINE
  5
118
100
AcDbEntity
  8
0
370
              25
  6
Continuous
 62
               7
100
AcDbLine
 10
224.09094094450001
 20
158.27692422609999
 30
0.0
 11
223.97751451170001
 21
155.33787365699999
 31
0.0
  0
LINE
  5
119
100
AcDbEntity
  8
0
370
              25
  6
Continuous
 62
               7
100
AcDbLine
 10
223.86277308979999
 20
158.27635909930001
 30
0.0
 11
224.09094094450001
 21
158.27692422609999
 31
0.0
  0
LINE
  5
11A
100
AcDbEntity
  8
0
370
              25
  6
Continuous
 62
               7
100
AcDbLine
 10
218.13767702000001
 20
158.55713150170001
 30
0.0
 11
218.06205919620001
 21
156.5977657192
 31
0.0
  0
ARC
  5
11B
100
AcDbEntity
  8
0
370
              25
  6
Continuous
 62
               7
100
AcDbCircle
 10
219.3402689676
 20
151.15153535709999
 30
0.0
 40
7.5026049908773143
100
AcDbArc
 50
98.637448204400016
 51
99.223724561399891
  0
LINE
  5
11C
100
AcDbEntity
  8
0
370
              25
  6
Continuous
 62
               7
100
AcDbLine
 10
224.04322839349999
 20
155.31892177220001
 30
0.0
 11
224.1566548264
 21
158.25797234129999
 31
0.0
  0
ARC
  5
11D
100
AcDbEntity
  8
0
370
              25
  6
Continuous
 62
               7
100
AcDbCircle
 10
222.6401765933
 20
153.12313069679999
 30
0.0
 40
5.3540923549920585
100
AcDbArc
 50
73.546492495199928
 51
74.278382940000071
  0
LINE
  5
11E
100
AcDbEntity
  8
0
370
              25
  6
Continuous
 62
               7
100
AcDbLine
 10
217.84085884500001
 20
158.5018921704
 30
0.0
 11
217.7274325043
 21
155.5628452606
 31
0.0
  0
ARC
  5
11F
100
AcDbEntity
  8
0
370
              25
  6
Continuous
 62
               7
100
AcDbCircle
 10
218.9490554411
 20
153.30138412509999
 30
0.0
 40
5.3172721977483048
100
AcDbArc
 50
101.29226236100001
 51
102.02945372700007
  0
LINE
  5
120
100
AcDbEntity
  8
0
370
              25
  6
Continuous
 62
               7
100
AcDbLine
 10
217.52740927779999
 20
155.51556223310001
 30
0.0
 11
217.64083571059999
 21
158.45461280219999
 31
0.0
  0
LINE
  5
121
100
AcDbEntity
  8
0
370
              25
  6
Continuous
 62
               7
100
AcDbLine
 10
217.64083571059999
 20
158.45461280219999
 30
0.0
 11
217.83859771659999
 21
158.44331494049999
 31
0.0
  0
LINE
  5
122
100
AcDbEntity
  8
0
370
              25
  6
Continuous
 62
               7
100
AcDbLine
 10
224.3523602002
 20
158.19540852610001
 30
0.0
 11
224.23893376730001
 21
155.25635795689999
 31
0.0
  0
LINE
  5
123
100
AcDbEntity
  8
0
370
              25
  6
Continuous
 62
               7
100
AcDbLine
 10
224.1543934876
 20
158.19939664029999
 30
0.0
 11
224.3523602002
 21
158.19540852610001
 31
0.0
  0
LINE
  5
124
100
AcDbEntity
  8
0
370
              25
  6
Continuous
 62
               7
100
AcDbLine
 10
217.58351421250001
 20
158.4390514824
 30
0.0
 11
217.47008777959999
 21
155.5000009133
 31
0.0
  0
ARC
  5
125
100
AcDbEntity
  8
0
370
              25
  6
Continuous
 62
               7
100
AcDbCircle
 10
218.53051587799999
 20
155.0640421313
 30
0.0
 40
3.5053530884453568
100
AcDbArc
 50
104.70285537610015
 51
105.67371118609974
  0
LINE
  5
126
100
AcDbEntity
  8
0
370
              25
  6
Continuous
 62
               7
100
AcDbLine
 10
224.29485866319999
 20
155.23642516140001
 30
0.0
 11
224.4082850961
 21
158.17547573050001
 31
0.0
  0
ARC
  5
127
100
AcDbEntity
  8
0
370
              25
  6
Continuous
 62
               7
100
AcDbCircle
 10
223.1940803935
 20
154.85723488709999
 30
0.0
 40
3.5334141215556896
100
AcDbArc
 50
69.901507672699822
 51
70.864243728100178
  0
LINE
  5
128
100
AcDbEntity
  8
0
370
              25
  6
Continuous
 62
               7
100
AcDbLine
 10
224.57136542489999
 20
158.11014778559999
 30
0.0
 11
224.45793899200001
 21
155.17109721649999
 31
0.0
  0
LINE
  5
129
100
AcDbEntity
  8
0
370
              25
  6
Continuous
 62
               7
100
AcDbLine
 10
224.40603468149999
 20
158.11714140640001
 30
0.0
 11
224.57136542489999
 21
158.11014778559999
 31
0.0
  0
LINE
  5
12A
100
AcDbEntity
  8
0
370
              25
  6
Continuous
 62
               7
100
AcDbLine
 10
217.3023741266
 20
155.44744829179999
 30
0.0
 11
217.4158005594
 21
158.38649886089999
 31
0.0
  0
LINE
  5
12B
100
AcDbEntity
  8
0
370
              25
  6
Continuous
 62
               7
100
AcDbLine
 10
217.4158005594
 20
158.38649886089999
 30
0.0
 11
217.5812632544
 21
158.38071757989999
 31
0.0
  0
LINE
  5
12C
100
AcDbEntity
  8
0
370
              25
  6
Continuous
 62
               7
100
AcDbLine
 10
217.3688801216
 20
158.36939604720001
 30
0.0
 11
217.25545378090001
 21
155.43034913739999
 31
0.0
  0
ARC
  5
12D
100
AcDbEntity
  8
0
370
              25
  6
Continuous
 62
               7
100
AcDbCircle
 10
218.10945978629999
 20
156.41057769970001
 30
0.0
 40
2.09414124601129
100
AcDbArc
 50
109.34393627509981
 51
110.71033709549963
  0
LINE
  5
12E
100
AcDbEntity
  8
0
370
              25
  6
Continuous
 62
               7
100
AcDbLine
 10
224.5033744632
 20
155.1504262983
 30
0.0
 11
224.61680089609999
 21
158.08947686740001
 31
0.0
  0
ARC
  5
12F
100
AcDbEntity
  8
0
370
              25
  6
Continuous
 62
               7
100
AcDbCircle
 10
223.7211878864
 20
156.1811550299
 30
0.0
 40
2.1080357916088075
100
AcDbArc
 50
64.858410280499783
 51
66.215160700699883
  0
LINE
  5
130
100
AcDbEntity
  8
0
370
              25
  6
Continuous
 62
               7
100
AcDbLine
 10
224.74520502140001
 20
158.02220652849999
 30
0.0
 11
224.63177868060001
 21
155.08315961880001
 31
0.0
  0
LINE
  5
131
100
AcDbEntity
  8
0
370
              25
  6
Continuous
 62
               7
100
AcDbLine
 10
224.61453078930001
 20
158.0306513216
 30
0.0
 11
224.74520502140001
 21
158.02220652849999
 31
0.0
  0
LINE
  5
132
100
AcDbEntity
  8
0
370
              25
  6
Continuous
 62
               7
100
AcDbLine
 10
217.12215804210001
 20
155.37318344799999
 30
0.0
 11
217.235584475
 21
158.3122340171
 31
0.0
  0
LINE
  5
133
100
AcDbEntity
  8
0
370
              25
  6
Continuous
 62
               7
100
AcDbLine
 10
217.235584475
 20
158.3122340171
 30
0.0
 11
217.3666100168
 21
158.31057259249999
 31
0.0
  0
LINE
  5
134
100
AcDbEntity
  8
0
370
              25
  6
Continuous
 62
               7
100
AcDbLine
 10
217.19965558780001
 20
158.29380593240001
 30
0.0
 11
217.0862285492
 21
155.35475915410001
 31
0.0
  0
ARC
  5
135
100
AcDbEntity
  8
0
370
              25
  6
Continuous
 62
               7
100
AcDbCircle
 10
217.719468428
 20
157.324575673
 30
0.0
 40
1.0998239334548727
100
AcDbArc
 50
116.10164315699993
 51
118.20533197220047
  0
LINE
  5
136
100
AcDbEntity
  8
0
370
              25
  6
Continuous
 62
               7
100
AcDbLine
 10
224.6661528249
 20
155.06201514540001
 30
0.0
 11
224.77957925769999
 21
158.00106571449999
 31
0.0
  0
ARC
  5
137
100
AcDbEntity
  8
0
370
              25
  6
Continuous
 62
               7
100
AcDbCircle
 10
224.18612732369999
 20
157.07464935519999
 30
0.0
 40
1.1001965591705607
100
AcDbArc
 50
57.35683090280007
 51
59.458544497699123
  0
LINE
  5
138
100
AcDbEntity
  8
0
370
              25
  6
Continuous
 62
               7
100
AcDbLine
 10
224.87169365610001
 20
157.9326986797
 30
0.0
 11
224.75826722319999
 21
154.99364811059999
 31
0.0
  0
LINE
  5
139
100
AcDbEntity
  8
0
370
              25
  6
Continuous
 62
               7
100
AcDbLine
 10
224.77725987470001
 20
157.9409747748
 30
0.0
 11
224.87169365610001
 21
157.9326986797
 31
0.0
  0
LINE
  5
13A
100
AcDbEntity
  8
0
370
              25
  6
Continuous
 62
               7
100
AcDbLine
 10
216.9890268254
 20
155.29370146560001
 30
0.0
 11
217.10245395620001
 21
158.23275190320001
 31
0.0
  0
LINE
  5
13B
100
AcDbEntity
  8
0
370
              25
  6
Continuous
 62
               7
100
AcDbLine
 10
217.10245395620001
 20
158.23275190320001
 30
0.0
 11
217.19733652150001
 21
158.2337189719
 31
0.0
  0
LINE
  5
13C
100
AcDbEntity
  8
0
370
              25
  6
Continuous
 62
               7
100
AcDbLine
 10
217.07796748530001
 20
158.21322929569999
 30
0.0
 11
216.96454114459999
 21
155.27418238589999
 31
0.0
  0
ARC
  5
13D
100
AcDbEntity
  8
0
370
              25
  6
Continuous
 62
               7
100
AcDbCircle
 10
217.41163214240001
 20
157.81984382350001
 30
0.0
 40
0.51583353237285
100
AcDbArc
 50
126.82521263459994
 51
130.30419459549967
  0
LINE
  5
13E
100
AcDbEntity
  8
0
370
              25
  6
Continuous
 62
               7
100
AcDbLine
 10
224.7811454875
 20
154.97229827320001
 30
0.0
 11
224.89457331610001
 21
157.91134857930001
 31
0.0
  0
ARC
  5
13F
100
AcDbEntity
  8
0
370
              25
  6
Continuous
 62
               7
100
AcDbCircle
 10
224.52992136149999
 20
157.54350675180001
 30
0.0
 40
0.5179562318246284
100
AcDbArc
 50
45.249510779000701
 51
48.71173166959862
  0
LINE
  5
140
100
AcDbEntity
  8
0
370
              25
  6
Continuous
 62
               7
100
AcDbLine
 10
224.94923864980001
 20
157.84274504449999
 30
0.0
 11
224.8358108212
 21
154.90369473839999
 31
0.0
  0
LINE
  5
141
100
AcDbEntity
  8
0
370
              25
  6
Continuous
 62
               7
100
AcDbLine
 10
224.89217182920001
 20
157.84913854320001
 30
0.0
 11
224.94923864980001
 21
157.84274504449999
 31
0.0
  0
LINE
  5
142
100
AcDbEntity
  8
0
370
              25
  6
Continuous
 62
               7
100
AcDbLine
 10
216.90465658299999
 20
155.21000220529999
 30
0.0
 11
217.0180830159
 21
158.14905277439999
 31
0.0
  0
LINE
  5
143
100
AcDbEntity
  8
0
370
              25
  6
Continuous
 62
               7
100
AcDbLine
 10
217.0180830159
 20
158.14905277439999
 30
0.0
 11
217.07556720759999
 21
158.15102523429999
 31
0.0
  0
LINE
  5
144
100
AcDbEntity
  8
0
370
              25
  6
Continuous
 62
               7
100
AcDbLine
 10
217.0053473639
 20
158.12868115649999
 30
0.0
 11
216.89192102320001
 21
155.1896342467
 31
0.0
  0
ARC
  5
145
100
AcDbEntity
  8
0
370
              25
  6
Continuous
 62
               7
100
AcDbCircle
 10
217.20938845789999
 20
158.01528827120001
 30
0.0
 40
0.233432462339886
100
AcDbArc
 50
145.03800226629824
 51
150.9375168027014
  0
LINE
  5
146
100
AcDbEntity
  8
0
370
              25
  6
Continuous
 62
               7
100
AcDbLine
 10
224.8469082828
 20
154.8824073648
 30
0.0
 11
224.9603360193
 21
157.82145401170001
 31
0.0
  0
ARC
  5
147
100
AcDbEntity
  8
0
370
              25
  6
Continuous
 62
               7
100
AcDbCircle
 10
224.74803739890001
 20
157.72433677039999
 30
0.0
 40
0.2334576251986197
100
AcDbArc
 50
24.582001860199952
 51
30.477094300600978
  0
LINE
  5
148
100
AcDbEntity
  8
0
370
              25
  6
Continuous
 62
               7
100
AcDbLine
 10
224.97686432130001
 20
157.75347827869999
 30
0.0
 11
224.86343788849999
 21
154.81442770960001
 31
0.0
  0
LINE
  5
149
100
AcDbEntity
  8
0
370
              25
  6
Continuous
 62
               7
100
AcDbLine
 10
224.9578141035
 20
157.7561170541
 30
0.0
 11
224.97686432130001
 21
157.75347827869999
 31
0.0
  0
LINE
  5
14A
100
AcDbEntity
  8
0
370
              25
  6
Continuous
 62
               7
100
AcDbLine
 10
216.87010636279999
 20
155.1231368789
 30
0.0
 11
216.98353279560001
 21
158.062187448
 31
0.0
  0
LINE
  5
14B
100
AcDbEntity
  8
0
370
              25
  6
Continuous
 62
               7
100
AcDbLine
 10
216.98353279560001
 20
158.062187448
 30
0.0
 11
217.0028266887
 21
158.06335279289999
 31
0.0
  0
ARC
  5
14C
100
AcDbEntity
  8
0
370
              25
  6
Continuous
 62
               7
100
AcDbCircle
 10
217.13797334430001
 20
158.0456166331
 30
0.0
 40
0.1553269937123064
100
AcDbArc
 50
173.8758357150983
 51
181.62034510110107
  0
LINE
  5
14D
100
AcDbEntity
  8
0
370
              25
  6
Continuous
 62
               7
100
AcDbLine
 10
224.8426055205
 20
154.7737917499
 30
0.0
 11
224.84079828669999
 21
154.7269712003
 31
0.0
  0
LINE
  5
14E
100
AcDbEntity
  8
0
370
              25
  6
Continuous
 62
               7
100
AcDbLine
 10
216.8858110271
 20
155.03419808219999
 30
0.0
 11
216.8876222367
 21
155.08112083029999
 31
0.0
  0
LINE
  5
14F
100
AcDbEntity
  8
0
370
              25
  6
Continuous
 62
               7
100
AcDbLine
 10
224.76855167720001
 20
154.6520739154
 30
0.0
 11
224.76817963810001
 21
154.6424228125
 31
0.0
  0
LINE
  5
150
100
AcDbEntity
  8
0
370
              25
  6
Continuous
 62
               7
100
AcDbLine
 10
216.9515737303
 20
154.94430351450001
 30
0.0
 11
216.95194946870001
 21
154.95404583800001
 31
0.0
  0
LINE
  5
151
100
AcDbEntity
  8
0
370
              25
  6
Continuous
 62
               7
100
AcDbLine
 10
195.00268697609999
 20
149.61792484680001
 30
0.0
 11
194.07613237230001
 21
149.44549660780001
 31
0.0
  0
LINE
  5
152
100
AcDbEntity
  8
0
370
              25
  6
Continuous
 62
               7
100
AcDbLine
 10
157.93274770279999
 20
157.31111507809999
 30
0.0
 11
194.07613237230001
 21
149.44549660780001
 31
0.0
  0
SPLINE
  5
153
100
AcDbEntity
  8
0
370
              25
  6
Continuous
 62
               7
100
AcDbSpline
210
0.0
220
0.0
230
1.0
 70
               8
 71
               2
 72
              15
 73
              12
 74
               0
 42
0.000001
 43
0.000001
 40
0.0
 40
0.0
 40
0.0
 40
1.0
 40
1.0
 40
2.0
 40
3.0
 40
4.0
 40
5.0
 40
6.0
 40
7.0
 40
7.0
 40
8.0
 40
8.0
 40
8.0
 10
157.85853181130997
 20
157.58979480454622
 30
0.0
 10
157.85349041693186
 20
157.58885662049192
 30
0.0
 10
157.84844902255375
 20
157.5879184364376
 30
0.0
 10
157.7585887911286
 20
157.57013904751403
 30
0.0
 10
157.64361846000875
 20
157.52618832670095
 30
0.0
 10
157.5981795377491
 20
157.47254578760564
 30
0.0
 10
157.63412122496393
 20
157.4150619750915
 30
0.0
 10
157.71627076559253
 20
157.37436282193082
 30
0.0
 10
157.82119827528996
 20
157.3364102334717
 30
0.0
 10
157.92151301963307
 20
157.31356079988095
 30
0.0
 10
157.92712978019648
 20
157.31233846558058
 30
0.0
 10
157.93274654075992
 20
157.31111613128024
 30
0.0
  0
LINE
  5
154
100
AcDbEntity
  8
0
370
              25
  6
Continuous
 62
               7
100
AcDbLine
 10
157.8585305002
 20
157.5897944832
 30
0.0
 11
221.57531278050001
 21
169.4472419704
 31
0.0
  0
SPLINE
  5
155
100
AcDbEntity
  8
0
370
              25
  6
Continuous
 62
               7
100
AcDbSpline
210
0.0
220
0.0
230
1.0
 70
               8
 71
               2
 72
              15
 73
              12
 74
               0
 42
0.000001
 43
0.000001
 40
0.0
 40
0.0
 40
0.0
 40
1.0
 40
1.0
 40
2.0
 40
3.0
 40
4.0
 40
5.0
 40
6.0
 40
7.0
 40
7.0
 40
8.0
 40
8.0
 40
8.0
 10
222.97277269163803
 20
169.41481420116432
 30
0.0
 10
222.96576044017456
 20
169.41625422772933
 30
0.0
 10
222.95874818871107
 20
169.4176942542943
 30
0.0
 10
222.82560876792252
 20
169.44369869608141
 30
0.0
 10
222.5929016179625
 20
169.4695253487574
 30
0.0
 10
222.425990810987
 20
169.48196132470133
 30
0.0
 10
222.25356444171297
 20
169.48889982721701
 30
0.0
 10
221.99595249230964
 20
169.49028542378394
 30
0.0
 10
221.70406687271648
 20
169.46955918707209
 30
0.0
 10
221.5875175827878
 20
169.44951331442894
 30
0.0
 10
221.58141484223199
 20
169.44837761794375
 30
0.0
 10
221.57531210167619
 20
169.44724192145856
 30
0.0
  0
LINE
  5
156
100
AcDbEntity
  8
0
370
              25
  6
Continuous
 62
               7
100
AcDbLine
 10
260.24850239189999
 20
161.7599195045
 30
0.0
 11
222.9727730255
 21
169.414812993
 31
0.0
  0
LINE
  5
157
100
AcDbEntity
  8
0
370
              25
  6
Continuous
 62
               7
100
AcDbLine
 10
260.24850239189999
 20
161.7599195045
 30
0.0
 11
259.32194778809998
 21
161.58749126550001
 31
0.0
  0
LINE
  5
158
100
AcDbEntity
  8
0
370
              25
  6
Continuous
 62
               7
100
AcDbLine
 10
223.48447102239999
 20
168.9470265285
 30
0.0
 11
259.32194778809998
 21
161.58749126550001
 31
0.0
  0
ARC
  5
159
100
AcDbEntity
  8
0
370
              25
  6
Continuous
 62
               7
100
AcDbCircle
 10
222.29180304210001
 20
162.73368459400001
 30
0.0
 40
6.3267744472479368
100
AcDbArc
 50
79.134086463700001
 51
98.208946206299885
  0
LINE
  5
15A
100
AcDbEntity
  8
0
370
              25
  6
Continuous
 62
               7
100
AcDbLine
 10
221.38844419220001
 20
168.99563458540001
 30
0.0
 11
160.14270590940001
 21
157.59803885759999
 31
0.0
  0
POLYLINE
  5
15B
100
AcDbEntity
  8
0
370
              25
  6
Continuous
 62
               7
100
AcDb2dPolyline
 66
               1
 10
0.0
 20
0.0
 30
0.0
 75
               5
  0
VERTEX
  5
15C
100
AcDbEntity
  8
0
370
              25
  6
Continuous
 62
               7
100
AcDbVertex
100
AcDb2dVertex
 10
160.2538632456
 20
157.18005424169999
 30
0.0
  0
VERTEX
  5
15D
100
AcDbEntity
  8
0
370
              25
  6
Continuous
 62
               7
100
AcDbVertex
100
AcDb2dVertex
 10
160.05953554210001
 20
157.22987790639999
 30
0.0
  0
VERTEX
  5
15E
100
AcDbEntity
  8
0
370
              25
  6
Continuous
 62
               7
100
AcDbVertex
100
AcDb2dVertex
 10
159.91054543600001
 20
157.28461251549999
 30
0.0
  0
VERTEX
  5
15F
100
AcDbEntity
  8
0
370
              25
  6
Continuous
 62
               7
100
AcDbVertex
100
AcDb2dVertex
 10
159.81249681790001
 20
157.34220424509999
 30
0.0
  0
VERTEX
  5
160
100
AcDbEntity
  8
0
370
              25
  6
Continuous
 62
               7
100
AcDbVertex
100
AcDb2dVertex
 10
159.76906762850001
 20
157.40048387869999
 30
0.0
  0
VERTEX
  5
161
100
AcDbEntity
  8
0
370
              25
  6
Continuous
 62
               7
100
AcDbVertex
100
AcDb2dVertex
 10
159.7818945203
 20
157.45726598639999
 30
0.0
  0
VERTEX
  5
162
100
AcDbEntity
  8
0
370
              25
  6
Continuous
 62
               7
100
AcDbVertex
100
AcDb2dVertex
 10
159.85049530160001
 20
157.51041710979999
 30
0.0
  0
VERTEX
  5
163
100
AcDbEntity
  8
0
370
              25
  6
Continuous
 62
               7
100
AcDbVertex
100
AcDb2dVertex
 10
159.97229334389999
 20
157.5579360795
 30
0.0
  0
VERTEX
  5
164
100
AcDbEntity
  8
0
370
              25
  6
Continuous
 62
               7
100
AcDbVertex
100
AcDb2dVertex
 10
160.14270590940001
 20
157.59803885759999
 30
0.0
  0
SEQEND
  5
165
100
AcDbEntity
  8
0
370
              25
  6
Continuous
 62
               7
  0
LINE
  5
166
100
AcDbEntity
  8
0
370
              25
  6
Continuous
 62
               7
100
AcDbLine
 10
195.00268697609999
 20
149.61792484680001
 30
0.0
 11
160.2538632456
 21
157.18005424169999
 31
0.0
  0
LINE
  5
167
100
AcDbEntity
  8
0
370
              25
  6
Continuous
 62
               7
100
AcDbLine
 10
260.24850239189999
 20
161.7599195045
 30
0.0
 11
261.23086585909999
 21
200.77262283229999
 31
0.0
  0
LINE
  5
168
100
AcDbEntity
  8
0
370
              25
  6
Continuous
 62
               7
100
AcDbLine
 10
222.9727730255
 20
169.414812993
 30
0.0
 11
223.91281014059999
 21
206.74660546210001
 31
0.0
  0
LINE
  5
169
100
AcDbEntity
  8
0
370
              25
  6
Continuous
 62
               7
100
AcDbLine
 10
223.91281014059999
 20
206.74660546210001
 30
0.0
 11
261.23086585909999
 21
200.77262283229999
 31
0.0
  0
LINE
  5
16A
100
AcDbEntity
  8
0
370
              25
  6
Continuous
 62
               7
100
AcDbLine
 10
221.57531278050001
 20
169.4472419704
 30
0.0
 11
222.51492566280001
 21
206.76218683920001
 31
0.0
  0
ARC
  5
16B
100
AcDbEntity
  8
0
370
              25
  6
Continuous
 62
               7
100
AcDbCircle
 10
223.16463444499999
 20
202.3374126873
 30
0.0
 40
4.4722195604331088
100
AcDbArc
 50
80.369473841700113
 51
98.353295899999878
  0
LINE
  5
16C
100
AcDbEntity
  8
0
370
              25
  6
Continuous
 62
               7
100
AcDbLine
 10
158.79814338259999
 20
194.90473935200001
 30
0.0
 11
157.8585305002
 21
157.5897944832
 31
0.0
  0
LINE
  5
16D
100
AcDbEntity
  8
0
370
              25
  6
Continuous
 62
               7
100
AcDbLine
 10
158.79814338259999
 20
194.90473935200001
 30
0.0
 11
222.51492566280001
 21
206.76218683920001
 31
0.0
  0
ARC
  5
16E
100
AcDbEntity
  8
0
370
              25
  6
Continuous
 62
               7
100
AcDbCircle
 10
222.81564191160001
 20
206.7988170962
 30
0.0
 40
1.0984098404792497
100
AcDbArc
 50
357.2754851161996
 51
33.553580916199735
  0
SPLINE
  5
16F
100
AcDbEntity
  8
0
370
              25
  6
Continuous
 62
               7
100
AcDbSpline
210
0.0
220
0.0
230
1.0
 70
               8
 71
               2
 72
              14
 73
              11
 74
               0
 42
0.000001
 43
0.000001
 40
0.0
 40
0.0
 40
0.0
 40
1.0
 40
1.0
 40
2.0
 40
3.0
 40
4.0
 40
5.0
 40
6.0
 40
6.0
 40
7.0
 40
7.0
 40
7.0
 10
261.23086634670545
 20
200.77262282056728
 30
0.0
 10
261.23104949524668
 20
200.7798962177969
 30
0.0
 10
261.23123264378785
 20
200.78716961502653
 30
0.0
 10
261.23274708743094
 20
200.95041620195792
 30
0.0
 10
261.17505406998021
 20
201.21052857888597
 30
0.0
 10
261.07979123707975
 20
201.4081900818544
 30
0.0
 10
260.94951687942
 20
201.55078010946579
 30
0.0
 10
260.81902973775431
 20
201.61884813752329
 30
0.0
 10
260.75251384534482
 20
201.63252086537113
 30
0.0
 10
260.7477829249633
 20
201.63327820481612
 30
0.0
 10
260.74305200458184
 20
201.63403554426111
 30
0.0
  0
LINE
  5
170
100
AcDbEntity
  8
0
370
              25
  6
Continuous
 62
               7
100
AcDbLine
 10
195.00268697609999
 20
149.61792484680001
 30
0.0
 11
195.03741564859999
 21
150.9860977017
 31
0.0
  0
LINE
  5
171
100
AcDbEntity
  8
0
370
              25
  6
Continuous
 62
               7
100
AcDbLine
 10
194.27534483260001
 20
150.84428093759999
 30
0.0
 11
216.8865038749
 21
155.0521304456
 31
0.0
  0
LINE
  5
172
100
AcDbEntity
  8
0
370
              25
  6
Continuous
 62
               7
100
AcDbLine
 10
224.93073305050001
 20
156.54913047630001
 30
0.0
 11
255.84336212010001
 21
162.3018515455
 31
0.0
  0
LINE
  5
173
100
AcDbEntity
  8
0
370
              25
  6
Continuous
 62
               7
100
AcDbLine
 10
161.81286807679999
 20
157.90884878470001
 30
0.0
 11
194.27534483260001
 21
150.84428093759999
 31
0.0
  0
ARC
  5
174
100
AcDbEntity
  8
0
370
              25
  6
Continuous
 62
               8
100
AcDbCircle
 10
223.3312885759
 20
207.13314760660001
 30
0.0
 40
0.4839378588275793
100
AcDbArc
 50
34.309633302899911
 51
79.156100334498547
  0
ARC
  5
175
100
AcDbEntity
  8
0
370
              25
  6
Continuous
 62
               8
100
AcDbCircle
 10
223.30126584390001
 20
206.84469183670001
 30
0.0
 40
0.7906566606695239
100
AcDbArc
 50
106.15236143220049
 51
185.98971675519917
  0
ARC
  5
176
100
AcDbEntity
  8
0
370
              25
  6
Continuous
 62
               8
100
AcDbCircle
 10
159.62204210300001
 20
194.96197849219999
 30
0.0
 40
0.8258846292005336
100
AcDbArc
 50
108.16792461440077
 51
183.97415357300096
  0
LINE
  5
177
100
AcDbEntity
  8
0
370
              25
  6
Continuous
 62
               8
100
AcDbLine
 10
160.2538632456
 20
157.18005424169999
 30
0.0
 11
160.2709155954
 21
157.62189877500001
 31
0.0
  0
POLYLINE
  5
178
100
AcDbEntity
  8
0
370
              25
  6
Continuous
 62
               8
100
AcDb2dPolyline
 66
               1
 10
0.0
 20
0.0
 30
0.0
 75
               5
  0
VERTEX
  5
179
100
AcDbEntity
  8
0
370
              25
  6
Continuous
 62
               8
100
AcDbVertex
100
AcDb2dVertex
 10
158.79814338259999
 20
194.90473935200001
 30
0.0
  0
VERTEX
  5
17A
100
AcDbEntity
  8
0
370
              25
  6
Continuous
 62
               8
100
AcDbVertex
100
AcDb2dVertex
 10
158.684547084
 20
194.87832605610001
 30
0.0
  0
VERTEX
  5
17B
100
AcDbEntity
  8
0
370
              25
  6
Continuous
 62
               8
100
AcDbVertex
100
AcDb2dVertex
 10
158.6033796344
 20
194.84759986489999
 30
0.0
  0
VERTEX
  5
17C
100
AcDbEntity
  8
0
370
              25
  6
Continuous
 62
               8
100
AcDbVertex
100
AcDb2dVertex
 10
158.5576960155
 20
194.813715239
 30
0.0
  0
VERTEX
  5
17D
100
AcDbEntity
  8
0
370
              25
  6
Continuous
 62
               8
100
AcDbVertex
100
AcDb2dVertex
 10
158.5478018048
 20
194.78874212829999
 30
0.0
  0
SEQEND
  5
17E
100
AcDbEntity
  8
0
370
              25
  6
Continuous
 62
               8
  0
MTEXT
  5
17F
100
AcDbEntity
  8
0
 62
               7
100
AcDbMText
 10
259.41944444444442
 20
142.57168402777779
 30
0.0
 40
3.0316840277777768
 41
0.0
 71
               1
 72
               1
  1
HFA-D04S^I\PHFA-D04G^I\PHFA-D04K^I
  7
Arial
 73
               1
 44
0.9673603504928806
  0
ENDSEC
  0
SECTION
  2
OBJECTS
  0
DICTIONARY
  5
19
100
AcDbDictionary
280
               0
281
               1
  3
ACAD_GROUP
350
1A
  3
ACAD_MLINESTYLE
350
1B
  3
ACAD_LAYOUT
350
1E
  3
ACAD_PLOTSETTINGS
350
22
  3
ACAD_PLOTSTYLENAME
350
1F
  3
ACAD_WIPEOUT_VARS
350
23
  0
DICTIONARY
  5
1A
102
{ACAD_REACTORS
330
19
102
}
100
AcDbDictionary
280
               0
281
               1
  0
DICTIONARY
  5
1B
102
{ACAD_REACTORS
330
19
102
}
100
AcDbDictionary
280
               0
281
               1
  3
Standard
350
1C
  0
MLINESTYLE
  5
1C
102
{ACAD_REACTORS
330
1B
102
}
100
AcDbMlineStyle
  2
Standard
 70
               0
  3

 62
               0
 51
90.0
 52
90.0
 71
               2
 49
0.5
 62
             256
  6
ByLayer
 49
-0.5
 62
             256
  6
ByLayer
  0
ACDBDICTIONARYWDFLT
  5
1F
102
{ACAD_REACTORS
330
19
102
}
100
AcDbDictionary
281
               1
  3
Normal
350
1D
100
AcDbDictionaryWithDefault
340
1D
  0
ACDBPLACEHOLDER
  5
1D
102
{ACAD_REACTORS
330
1F
102
}
  0
LAYOUT
  5
20
102
{ACAD_REACTORS
330
1E
102
}
100
AcDbPlotSettings
  1

  2

  4

  6

 40
0.0
 41
0.0
 42
0.0
 43
0.0
 44
0.0
 45
0.0
 46
0.0
 47
0.0
 48
0.0
 49
0.0
140
0.0
141
0.0
142
1.0
143
1.0
 70
            1024
 72
               0
 73
               0
 74
               0
  7

 75
               0
147
1.0
148
0.0
149
0.0
100
AcDbLayout
  1
Model
 70
               0
 71
               0
 10
0.0
 20
0.0
 11
0.0
 21
0.0
 12
0.0
 22
0.0
 32
0.0
 14
0.0
 24
0.0
 34
0.0
 15
0.0
 25
0.0
 35
0.0
146
0.0
 13
0.0
 23
0.0
 33
0.0
 16
0.0
 26
0.0
 36
0.0
 17
0.0
 27
0.0
 37
0.0
 76
               0
330
A
331
0
345
0
346
0
  0
LAYOUT
  5
21
102
{ACAD_REACTORS
330
1E
102
}
100
AcDbPlotSettings
  1

  2

  4

  6

 40
0.0
 41
0.0
 42
0.0
 43
0.0
 44
0.0
 45
0.0
 46
0.0
 47
0.0
 48
0.0
 49
0.0
140
0.0
141
0.0
142
1.0
143
1.0
 70
               0
 72
               0
 73
               0
 74
               0
  7

 75
               0
147
1.0
148
0.0
149
0.0
100
AcDbLayout
  1
Layout1
 70
               0
 71
               0
 10
0.0
 20
0.0
 11
0.0
 21
0.0
 12
0.0
 22
0.0
 32
0.0
 14
0.0
 24
0.0
 34
0.0
 15
0.0
 25
0.0
 35
0.0
146
0.0
 13
0.0
 23
0.0
 33
0.0
 16
0.0
 26
0.0
 36
0.0
 17
0.0
 27
0.0
 37
0.0
 76
               0
330
B
331
0
345
0
346
0
  0
DICTIONARY
  5
1E
102
{ACAD_REACTORS
330
19
102
}
100
AcDbDictionary
280
               0
281
               1
  3
Layout1
350
21
  3
Model
350
20
  0
DICTIONARY
  5
22
102
{ACAD_REACTORS
330
19
102
}
100
AcDbDictionary
280
               0
281
               1
  0
WIPEOUTVARIABLES
  5
23
100
AcDbWipeoutVariables
 70
               1
  0
ENDSEC
  0
EOF
