  0
SECTION
  2
HEADER
  9
$ACADVER
  1
AC1032
  9
$ACADMAINTVER
 90
        4
  9
$DWGCODEPAGE
  3
ANSI_932
  9
$LASTSAVEDBY
  1
9128
  9
$REQUIREDVERSIONS
160
                 0
  9
$INSBASE
 10
0.0
 20
0.0
 30
0.0
  9
$EXTMIN
 10
98.6186143416648
 20
28.06964294905717
 30
0.0
  9
$EXTMAX
 10
248.7980207102561
 20
178.1922361882096
 30
0.0
  9
$LIMMIN
 10
0.0
 20
0.0
  9
$LIMMAX
 10
12.0
 20
9.0
  9
$ORTHOMODE
 70
     0
  9
$REGENMODE
 70
     1
  9
$FILLMODE
 70
     1
  9
$QTEXTMODE
 70
     0
  9
$MIRRTEXT
 70
     1
  9
$LTSCALE
 40
1.0
  9
$ATTMODE
 70
     1
  9
$TEXTSIZE
 40
0.2
  9
$TRACEWID
 40
0.05
  9
$TEXTSTYLE
  7
Standard
  9
$CLAYER
  8
0
  9
$CELTYPE
  6
ByLayer
  9
$CECOLOR
 62
   256
  9
$CELTSCALE
 40
1.0
  9
$DISPSILH
 70
     0
  9
$DIMSCALE
 40
1.0
  9
$DIMASZ
 40
0.18
  9
$DIMEXO
 40
0.0625
  9
$DIMDLI
 40
0.38
  9
$DIMRND
 40
0.0
  9
$DIMDLE
 40
0.0
  9
$DIMEXE
 40
0.18
  9
$DIMTP
 40
0.0
  9
$DIMTM
 40
0.0
  9
$DIMTXT
 40
0.18
  9
$DIMCEN
 40
0.09
  9
$DIMTSZ
 40
0.0
  9
$DIMTOL
 70
     0
  9
$DIMLIM
 70
     0
  9
$DIMTIH
 70
     1
  9
$DIMTOH
 70
     1
  9
$DIMSE1
 70
     0
  9
$DIMSE2
 70
     0
  9
$DIMTAD
 70
     0
  9
$DIMZIN
 70
     0
  9
$DIMBLK
  1

  9
$DIMASO
 70
     1
  9
$DIMSHO
 70
     1
  9
$DIMPOST
  1

  9
$DIMAPOST
  1

  9
$DIMALT
 70
     0
  9
$DIMALTD
 70
     2
  9
$DIMALTF
 40
25.4
  9
$DIMLFAC
 40
1.0
  9
$DIMTOFL
 70
     0
  9
$DIMTVP
 40
0.0
  9
$DIMTIX
 70
     0
  9
$DIMSOXD
 70
     0
  9
$DIMSAH
 70
     0
  9
$DIMBLK1
  1

  9
$DIMBLK2
  1

  9
$DIMSTYLE
  2
Standard
  9
$DIMCLRD
 70
     0
  9
$DIMCLRE
 70
     0
  9
$DIMCLRT
 70
     0
  9
$DIMTFAC
 40
1.0
  9
$DIMGAP
 40
0.09
  9
$DIMJUST
 70
     0
  9
$DIMSD1
 70
     0
  9
$DIMSD2
 70
     0
  9
$DIMTOLJ
 70
     1
  9
$DIMTZIN
 70
     0
  9
$DIMALTZ
 70
     0
  9
$DIMALTTZ
 70
     0
  9
$DIMUPT
 70
     0
  9
$DIMDEC
 70
     4
  9
$DIMTDEC
 70
     4
  9
$DIMALTU
 70
     2
  9
$DIMALTTD
 70
     2
  9
$DIMTXSTY
  7
Standard
  9
$DIMAUNIT
 70
     0
  9
$DIMADEC
 70
     0
  9
$DIMALTRND
 40
0.0
  9
$DIMAZIN
 70
     0
  9
$DIMDSEP
 70
    46
  9
$DIMATFIT
 70
     3
  9
$DIMFRAC
 70
     0
  9
$DIMLDRBLK
  1

  9
$DIMLUNIT
 70
     2
  9
$DIMLWD
 70
    -2
  9
$DIMLWE
 70
    -2
  9
$DIMTMOVE
 70
     0
  9
$DIMFXL
 40
1.0
  9
$DIMFXLON
 70
     0
  9
$DIMJOGANG
 40
0.7853981633974483
  9
$DIMTFILL
 70
     0
  9
$DIMTFILLCLR
 70
     0
  9
$DIMARCSYM
 70
     0
  9
$DIMLTYPE
  6

  9
$DIMLTEX1
  6

  9
$DIMLTEX2
  6

  9
$DIMTXTDIRECTION
 70
     0
  9
$LUNITS
 70
     2
  9
$LUPREC
 70
     4
  9
$SKETCHINC
 40
0.1
  9
$FILLETRAD
 40
0.5
  9
$AUNITS
 70
     0
  9
$AUPREC
 70
     0
  9
$MENU
  1
.
  9
$ELEVATION
 40
0.0
  9
$PELEVATION
 40
0.0
  9
$THICKNESS
 40
0.0
  9
$LIMCHECK
 70
     0
  9
$CHAMFERA
 40
0.5
  9
$CHAMFERB
 40
0.5
  9
$CHAMFERC
 40
1.0
  9
$CHAMFERD
 40
0.0
  9
$SKPOLY
 70
     0
  9
$TDCREATE
 40
2457543.378297963
  9
$TDUCREATE
 40
2457543.003297963
  9
$TDUPDATE
 40
2459608.57344294
  9
$TDUUPDATE
 40
2459608.19844294
  9
$TDINDWG
 40
0.0008735532
  9
$TDUSRTIMER
 40
0.0000766551
  9
$USRTIMER
 70
     1
  9
$ANGBASE
 50
0.0
  9
$ANGDIR
 70
     0
  9
$PDMODE
 70
     0
  9
$PDSIZE
 40
0.0
  9
$PLINEWID
 40
0.0
  9
$SPLFRAME
 70
     0
  9
$SPLINETYPE
 70
     6
  9
$SPLINESEGS
 70
     8
  9
$HANDSEED
  5
547
  9
$SURFTAB1
 70
     6
  9
$SURFTAB2
 70
     6
  9
$SURFTYPE
 70
     6
  9
$SURFU
 70
     6
  9
$SURFV
 70
     6
  9
$UCSBASE
  2

  9
$UCSNAME
  2

  9
$UCSORG
 10
0.0
 20
0.0
 30
0.0
  9
$UCSXDIR
 10
1.0
 20
0.0
 30
0.0
  9
$UCSYDIR
 10
0.0
 20
1.0
 30
0.0
  9
$UCSORTHOREF
  2

  9
$UCSORTHOVIEW
 70
     0
  9
$UCSORGTOP
 10
0.0
 20
0.0
 30
0.0
  9
$UCSORGBOTTOM
 10
0.0
 20
0.0
 30
0.0
  9
$UCSORGLEFT
 10
0.0
 20
0.0
 30
0.0
  9
$UCSORGRIGHT
 10
0.0
 20
0.0
 30
0.0
  9
$UCSORGFRONT
 10
0.0
 20
0.0
 30
0.0
  9
$UCSORGBACK
 10
0.0
 20
0.0
 30
0.0
  9
$PUCSBASE
  2

  9
$PUCSNAME
  2

  9
$PUCSORG
 10
0.0
 20
0.0
 30
0.0
  9
$PUCSXDIR
 10
1.0
 20
0.0
 30
0.0
  9
$PUCSYDIR
 10
0.0
 20
1.0
 30
0.0
  9
$PUCSORTHOREF
  2

  9
$PUCSORTHOVIEW
 70
     0
  9
$PUCSORGTOP
 10
0.0
 20
0.0
 30
0.0
  9
$PUCSORGBOTTOM
 10
0.0
 20
0.0
 30
0.0
  9
$PUCSORGLEFT
 10
0.0
 20
0.0
 30
0.0
  9
$PUCSORGRIGHT
 10
0.0
 20
0.0
 30
0.0
  9
$PUCSORGFRONT
 10
0.0
 20
0.0
 30
0.0
  9
$PUCSORGBACK
 10
0.0
 20
0.0
 30
0.0
  9
$USERI1
 70
     0
  9
$USERI2
 70
     0
  9
$USERI3
 70
     0
  9
$USERI4
 70
     0
  9
$USERI5
 70
     0
  9
$USERR1
 40
0.0
  9
$USERR2
 40
0.0
  9
$USERR3
 40
0.0
  9
$USERR4
 40
0.0
  9
$USERR5
 40
0.0
  9
$WORLDVIEW
 70
     1
  9
$SHADEDGE
 70
     3
  9
$SHADEDIF
 70
    70
  9
$TILEMODE
 70
     1
  9
$MAXACTVP
 70
    64
  9
$PINSBASE
 10
0.0
 20
0.0
 30
0.0
  9
$PLIMCHECK
 70
     0
  9
$PEXTMIN
 10
1.000000000000000E+20
 20
1.000000000000000E+20
 30
1.000000000000000E+20
  9
$PEXTMAX
 10
-1.000000000000000E+20
 20
-1.000000000000000E+20
 30
-1.000000000000000E+20
  9
$PLIMMIN
 10
0.0
 20
0.0
  9
$PLIMMAX
 10
0.0
 20
0.0
  9
$UNITMODE
 70
     0
  9
$VISRETAIN
 70
     1
  9
$PLINEGEN
 70
     0
  9
$PSLTSCALE
 70
     1
  9
$TREEDEPTH
 70
  3020
  9
$CMLSTYLE
  2
Standard
  9
$CMLJUST
 70
     0
  9
$CMLSCALE
 40
1.0
  9
$PROXYGRAPHICS
 70
     1
  9
$MEASUREMENT
 70
     0
  9
$CELWEIGHT
370
    -1
  9
$ENDCAPS
280
     0
  9
$JOINSTYLE
280
     0
  9
$LWDISPLAY
290
     1
  9
$INSUNITS
 70
     1
  9
$HYPERLINKBASE
  1

  9
$STYLESHEET
  1

  9
$XEDIT
290
     1
  9
$CEPSNTYPE
380
     0
  9
$PSTYLEMODE
290
     1
  9
$FINGERPRINTGUID
  2
{6E121CE9-227E-44D3-86D0-EB003CCA501C}
  9
$VERSIONGUID
  2
{FAEB1C32-E019-11D5-929B-00C0DF256EC4}
  9
$EXTNAMES
290
     1
  9
$PSVPSCALE
 40
0.0
  9
$OLESTARTUP
290
     0
  9
$SORTENTS
280
   127
  9
$INDEXCTL
280
     0
  9
$HIDETEXT
280
     1
  9
$XCLIPFRAME
280
     2
  9
$HALOGAP
280
     0
  9
$OBSCOLOR
 70
   257
  9
$OBSLTYPE
280
     0
  9
$INTERSECTIONDISPLAY
280
     0
  9
$INTERSECTIONCOLOR
 70
   257
  9
$DIMASSOC
280
     2
  9
$PROJECTNAME
  1

  9
$CAMERADISPLAY
290
     0
  9
$LENSLENGTH
 40
50.0
  9
$CAMERAHEIGHT
 40
0.0
  9
$STEPSPERSEC
 40
2.0
  9
$STEPSIZE
 40
6.0
  9
$3DDWFPREC
 40
2.0
  9
$PSOLWIDTH
 40
0.25
  9
$PSOLHEIGHT
 40
4.0
  9
$LOFTANG1
 40
1.570796326794897
  9
$LOFTANG2
 40
1.570796326794897
  9
$LOFTMAG1
 40
0.0
  9
$LOFTMAG2
 40
0.0
  9
$LOFTPARAM
 70
     7
  9
$LOFTNORMALS
280
     1
  9
$LATITUDE
 40
37.795
  9
$LONGITUDE
 40
-122.394
  9
$NORTHDIRECTION
 40
0.0
  9
$TIMEZONE
 70
 -8000
  9
$LIGHTGLYPHDISPLAY
280
     1
  9
$TILEMODELIGHTSYNCH
280
     1
  9
$SOLIDHIST
280
     0
  9
$SHOWHIST
280
     1
  9
$DWFFRAME
280
     2
  9
$DGNFRAME
280
     2
  9
$REALWORLDSCALE
290
     1
  9
$INTERFERECOLOR
 62
   256
  9
$CSHADOW
280
     0
  9
$SHADOWPLANELOCATION
 40
0.0
  0
ENDSEC
  0
SECTION
  2
CLASSES
  0
CLASS
  1
ACDBDICTIONARYWDFLT
  2
AcDbDictionaryWithDefault
  3
ObjectDBX Classes
 90
        0
 91
        3
280
     0
281
     0
  0
CLASS
  1
VISUALSTYLE
  2
AcDbVisualStyle
  3
ObjectDBX Classes
 90
     4095
 91
        3
280
     0
281
     0
  0
CLASS
  1
ACDBPLACEHOLDER
  2
AcDbPlaceHolder
  3
ObjectDBX Classes
 90
        0
 91
        1
280
     0
281
     0
  0
CLASS
  1
LAYOUT
  2
AcDbLayout
  3
ObjectDBX Classes
 90
        0
 91
        1
280
     0
281
     0
  0
CLASS
  1
SCALE
  2
AcDbScale
  3
ObjectDBX Classes
 90
     1153
 91
        3
280
     0
281
     0
  0
CLASS
  1
MATERIAL
  2
AcDbMaterial
  3
ObjectDBX Classes
 90
     1153
 91
        3
280
     0
281
     0
  0
CLASS
  1
TABLESTYLE
  2
AcDbTableStyle
  3
ObjectDBX Classes
 90
     4095
 91
        3
280
     0
281
     0
  0
CLASS
  1
MLEADERSTYLE
  2
AcDbMLeaderStyle
  3
ACDB_MLEADERSTYLE_CLASS
 90
     4095
 91
        3
280
     0
281
     0
  0
CLASS
  1
SORTENTSTABLE
  2
AcDbSortentsTable
  3
ObjectDBX Classes
 90
        0
 91
        3
280
     0
281
     0
  0
CLASS
  1
DICTIONARYVAR
  2
AcDbDictionaryVar
  3
ObjectDBX Classes
 90
        0
 91
        3
280
     0
281
     0
  0
CLASS
  1
SUN
  2
AcDbSun
  3
SCENEOE
 90
     1153
 91
        3
280
     0
281
     0
  0
CLASS
  1
CELLSTYLEMAP
  2
AcDbCellStyleMap
  3
ObjectDBX Classes
 90
     1152
 91
        3
280
     0
281
     0
  0
ENDSEC
  0
SECTION
  2
TABLES
  0
TABLE
  2
VPORT
  5
8
330
0
100
AcDbSymbolTable
 70
     1
  0
VPORT
  5
29
330
8
100
AcDbSymbolTableRecord
100
AcDbViewportTableRecord
  2
*Active
 70
     0
 10
0.0
 20
0.0
 11
1.0
 21
1.0
 12
66.80752692209234
 22
55.53763197383147
 13
0.0
 23
0.0
 14
0.5
 24
0.5
 15
0.5
 25
0.5
 16
0.0
 26
0.0
 36
1.0
 17
148.3916313648118
 27
104.891616455982
 37
0.0
 40
602.693045553208
 41
0.9309815950920245
 42
50.0
 43
0.0
 44
0.0
 50
0.0
 51
0.0
 71
    16
 72
   100
 73
     1
 74
     3
 75
     0
 76
     0
 77
     0
 78
     0
281
     0
 65
     1
110
0.0
120
0.0
130
0.0
111
1.0
121
0.0
131
0.0
112
0.0
122
1.0
132
0.0
 79
     0
146
0.0
348
2F
 60
     3
 61
     5
292
     1
282
     1
141
0.0
142
0.0
 63
   256
361
542
  0
ENDTAB
  0
TABLE
  2
LTYPE
  5
5
330
0
100
AcDbSymbolTable
 70
     1
  0
LTYPE
  5
14
330
5
100
AcDbSymbolTableRecord
100
AcDbLinetypeTableRecord
  2
ByBlock
 70
     0
  3

 72
    65
 73
     0
 40
0.0
  0
LTYPE
  5
15
330
5
100
AcDbSymbolTableRecord
100
AcDbLinetypeTableRecord
  2
ByLayer
 70
     0
  3

 72
    65
 73
     0
 40
0.0
  0
LTYPE
  5
16
330
5
100
AcDbSymbolTableRecord
100
AcDbLinetypeTableRecord
  2
Continuous
 70
     0
  3
Solid line
 72
    65
 73
     0
 40
0.0
  0
ENDTAB
  0
TABLE
  2
LAYER
  5
2
102
{ACAD_XDICTIONARY
360
528
102
}
330
0
100
AcDbSymbolTable
 70
     3
  0
LAYER
  5
10
330
2
100
AcDbSymbolTableRecord
100
AcDbLayerTableRecord
  2
0
 70
     0
 62
     7
  6
Continuous
370
    -3
390
F
347
519
348
0
  0
LAYER
  5
3B
330
2
100
AcDbSymbolTableRecord
100
AcDbLayerTableRecord
  2
フォーマット
 70
     0
 62
     7
  6
Continuous
370
    -3
390
F
347
519
348
0
  0
LAYER
  5
198
330
2
100
AcDbSymbolTableRecord
100
AcDbLayerTableRecord
  2
レイヤー 1
 70
     0
 62
     7
  6
Continuous
370
    -3
390
F
347
519
348
0
  0
ENDTAB
  0
TABLE
  2
STYLE
  5
3
330
0
100
AcDbSymbolTable
 70
     1
  0
STYLE
  5
11
330
3
100
AcDbSymbolTableRecord
100
AcDbTextStyleTableRecord
  2
Standard
 70
     0
 40
0.0
 41
1.0
 50
0.0
 71
     0
 42
0.2
  3
txt
  4

  0
ENDTAB
  0
TABLE
  2
VIEW
  5
6
330
0
100
AcDbSymbolTable
 70
     0
  0
ENDTAB
  0
TABLE
  2
UCS
  5
7
330
0
100
AcDbSymbolTable
 70
     0
  0
ENDTAB
  0
TABLE
  2
APPID
  5
9
330
0
100
AcDbSymbolTable
 70
     2
  0
APPID
  5
12
330
9
100
AcDbSymbolTableRecord
100
AcDbRegAppTableRecord
  2
ACAD
 70
     0
  0
APPID
  5
543
330
9
100
AcDbSymbolTableRecord
100
AcDbRegAppTableRecord
  2
PLOTTRANSPARENCY
 70
     0
  0
ENDTAB
  0
TABLE
  2
DIMSTYLE
  5
A
330
0
100
AcDbSymbolTable
 70
     1
100
AcDbDimStyleTable
  0
DIMSTYLE
105
27
330
A
100
AcDbSymbolTableRecord
100
AcDbDimStyleTableRecord
  2
Standard
 70
     0
178
     0
340
11
  0
ENDTAB
  0
TABLE
  2
BLOCK_RECORD
  5
1
330
0
100
AcDbSymbolTable
 70
   122
  0
BLOCK_RECORD
  5
1F
330
1
100
AcDbSymbolTableRecord
100
AcDbBlockTableRecord
  2
*Model_Space
340
22
 70
     0
280
     1
281
     0
  0
BLOCK_RECORD
  5
1B
330
1
100
AcDbSymbolTableRecord
100
AcDbBlockTableRecord
  2
*Paper_Space
340
1E
 70
     0
280
     1
281
     0
  0
BLOCK_RECORD
  5
23
330
1
100
AcDbSymbolTableRecord
100
AcDbBlockTableRecord
  2
*Paper_Space0
340
26
 70
     0
280
     1
281
     0
  0
BLOCK_RECORD
  5
3C
330
1
100
AcDbSymbolTableRecord
100
AcDbBlockTableRecord
  2
block 2
340
0
 70
     0
280
     1
281
     0
  0
BLOCK_RECORD
  5
50
330
1
100
AcDbSymbolTableRecord
100
AcDbBlockTableRecord
  2
block 3
340
0
102
{BLKREFS
331
51
102
}
 70
     0
280
     1
281
     0
  0
BLOCK_RECORD
  5
54
330
1
100
AcDbSymbolTableRecord
100
AcDbBlockTableRecord
  2
block 4
340
0
102
{BLKREFS
331
55
102
}
 70
     0
280
     1
281
     0
  0
BLOCK_RECORD
  5
58
330
1
100
AcDbSymbolTableRecord
100
AcDbBlockTableRecord
  2
block 5
340
0
102
{BLKREFS
331
59
102
}
 70
     0
280
     1
281
     0
  0
BLOCK_RECORD
  5
5C
330
1
100
AcDbSymbolTableRecord
100
AcDbBlockTableRecord
  2
block 6
340
0
102
{BLKREFS
331
5D
102
}
 70
     0
280
     1
281
     0
  0
BLOCK_RECORD
  5
97
330
1
100
AcDbSymbolTableRecord
100
AcDbBlockTableRecord
  2
block 7
340
0
102
{BLKREFS
331
98
102
}
 70
     0
280
     1
281
     0
  0
BLOCK_RECORD
  5
9B
330
1
100
AcDbSymbolTableRecord
100
AcDbBlockTableRecord
  2
block 8
340
0
102
{BLKREFS
331
9C
102
}
 70
     0
280
     1
281
     0
  0
BLOCK_RECORD
  5
9F
330
1
100
AcDbSymbolTableRecord
100
AcDbBlockTableRecord
  2
block 9
340
0
102
{BLKREFS
331
A0
102
}
 70
     0
280
     1
281
     0
  0
BLOCK_RECORD
  5
A3
330
1
100
AcDbSymbolTableRecord
100
AcDbBlockTableRecord
  2
block 10
340
0
102
{BLKREFS
331
A4
102
}
 70
     0
280
     1
281
     0
  0
BLOCK_RECORD
  5
B1
330
1
100
AcDbSymbolTableRecord
100
AcDbBlockTableRecord
  2
block 11
340
0
102
{BLKREFS
331
B2
102
}
 70
     0
280
     1
281
     0
  0
BLOCK_RECORD
  5
B5
330
1
100
AcDbSymbolTableRecord
100
AcDbBlockTableRecord
  2
block 12
340
0
102
{BLKREFS
331
B6
102
}
 70
     0
280
     1
281
     0
  0
BLOCK_RECORD
  5
B9
330
1
100
AcDbSymbolTableRecord
100
AcDbBlockTableRecord
  2
block 13
340
0
102
{BLKREFS
331
BA
102
}
 70
     0
280
     1
281
     0
  0
BLOCK_RECORD
  5
BD
330
1
100
AcDbSymbolTableRecord
100
AcDbBlockTableRecord
  2
block 14
340
0
102
{BLKREFS
331
BE
102
}
 70
     0
280
     1
281
     0
  0
BLOCK_RECORD
  5
F8
330
1
100
AcDbSymbolTableRecord
100
AcDbBlockTableRecord
  2
block 15
340
0
102
{BLKREFS
331
F9
102
}
 70
     0
280
     1
281
     0
  0
BLOCK_RECORD
  5
FC
330
1
100
AcDbSymbolTableRecord
100
AcDbBlockTableRecord
  2
block 16
340
0
102
{BLKREFS
331
FD
102
}
 70
     0
280
     1
281
     0
  0
BLOCK_RECORD
  5
100
330
1
100
AcDbSymbolTableRecord
100
AcDbBlockTableRecord
  2
block 17
340
0
102
{BLKREFS
331
101
102
}
 70
     0
280
     1
281
     0
  0
BLOCK_RECORD
  5
104
330
1
100
AcDbSymbolTableRecord
100
AcDbBlockTableRecord
  2
block 18
340
0
102
{BLKREFS
331
105
102
}
 70
     0
280
     1
281
     0
  0
BLOCK_RECORD
  5
19D
330
1
100
AcDbSymbolTableRecord
100
AcDbBlockTableRecord
  2
block 19
340
0
102
{BLKREFS
331
19E
102
}
 70
     0
280
     1
281
     0
  0
BLOCK_RECORD
  5
1A2
330
1
100
AcDbSymbolTableRecord
100
AcDbBlockTableRecord
  2
block 20
340
0
102
{BLKREFS
331
1A3
102
}
 70
     0
280
     1
281
     0
  0
BLOCK_RECORD
  5
1AA
330
1
100
AcDbSymbolTableRecord
100
AcDbBlockTableRecord
  2
block 21
340
0
102
{BLKREFS
331
1AB
102
}
 70
     0
280
     1
281
     0
  0
BLOCK_RECORD
  5
1B2
330
1
100
AcDbSymbolTableRecord
100
AcDbBlockTableRecord
  2
block 22
340
0
102
{BLKREFS
331
1B3
102
}
 70
     0
280
     1
281
     0
  0
BLOCK_RECORD
  5
1BA
330
1
100
AcDbSymbolTableRecord
100
AcDbBlockTableRecord
  2
block 23
340
0
102
{BLKREFS
331
1BB
102
}
 70
     0
280
     1
281
     0
  0
BLOCK_RECORD
  5
1C2
330
1
100
AcDbSymbolTableRecord
100
AcDbBlockTableRecord
  2
block 24
340
0
102
{BLKREFS
331
1C3
102
}
 70
     0
280
     1
281
     0
  0
BLOCK_RECORD
  5
1C7
330
1
100
AcDbSymbolTableRecord
100
AcDbBlockTableRecord
  2
block 25
340
0
102
{BLKREFS
331
1C8
102
}
 70
     0
280
     1
281
     0
  0
BLOCK_RECORD
  5
1CF
330
1
100
AcDbSymbolTableRecord
100
AcDbBlockTableRecord
  2
block 26
340
0
102
{BLKREFS
331
1D0
102
}
 70
     0
280
     1
281
     0
  0
BLOCK_RECORD
  5
1D7
330
1
100
AcDbSymbolTableRecord
100
AcDbBlockTableRecord
  2
block 27
340
0
102
{BLKREFS
331
1D8
102
}
 70
     0
280
     1
281
     0
  0
BLOCK_RECORD
  5
1DC
330
1
100
AcDbSymbolTableRecord
100
AcDbBlockTableRecord
  2
block 28
340
0
102
{BLKREFS
331
1DD
102
}
 70
     0
280
     1
281
     0
  0
BLOCK_RECORD
  5
1E4
330
1
100
AcDbSymbolTableRecord
100
AcDbBlockTableRecord
  2
block 29
340
0
102
{BLKREFS
331
1E5
102
}
 70
     0
280
     1
281
     0
  0
BLOCK_RECORD
  5
1EC
330
1
100
AcDbSymbolTableRecord
100
AcDbBlockTableRecord
  2
block 30
340
0
102
{BLKREFS
331
1ED
102
}
 70
     0
280
     1
281
     0
  0
BLOCK_RECORD
  5
1F1
330
1
100
AcDbSymbolTableRecord
100
AcDbBlockTableRecord
  2
block 31
340
0
102
{BLKREFS
331
1F2
102
}
 70
     0
280
     1
281
     0
  0
BLOCK_RECORD
  5
1F9
330
1
100
AcDbSymbolTableRecord
100
AcDbBlockTableRecord
  2
block 32
340
0
102
{BLKREFS
331
1FA
102
}
 70
     0
280
     1
281
     0
  0
BLOCK_RECORD
  5
201
330
1
100
AcDbSymbolTableRecord
100
AcDbBlockTableRecord
  2
block 33
340
0
102
{BLKREFS
331
202
102
}
 70
     0
280
     1
281
     0
  0
BLOCK_RECORD
  5
206
330
1
100
AcDbSymbolTableRecord
100
AcDbBlockTableRecord
  2
block 34
340
0
102
{BLKREFS
331
207
102
}
 70
     0
280
     1
281
     0
  0
BLOCK_RECORD
  5
20B
330
1
100
AcDbSymbolTableRecord
100
AcDbBlockTableRecord
  2
block 35
340
0
102
{BLKREFS
331
20C
102
}
 70
     0
280
     1
281
     0
  0
BLOCK_RECORD
  5
210
330
1
100
AcDbSymbolTableRecord
100
AcDbBlockTableRecord
  2
block 36
340
0
102
{BLKREFS
331
211
102
}
 70
     0
280
     1
281
     0
  0
BLOCK_RECORD
  5
218
330
1
100
AcDbSymbolTableRecord
100
AcDbBlockTableRecord
  2
block 37
340
0
102
{BLKREFS
331
219
102
}
 70
     0
280
     1
281
     0
  0
BLOCK_RECORD
  5
239
330
1
100
AcDbSymbolTableRecord
100
AcDbBlockTableRecord
  2
block 38
340
0
102
{BLKREFS
331
23A
102
}
 70
     0
280
     1
281
     0
  0
BLOCK_RECORD
  5
241
330
1
100
AcDbSymbolTableRecord
100
AcDbBlockTableRecord
  2
block 39
340
0
102
{BLKREFS
331
242
102
}
 70
     0
280
     1
281
     0
  0
BLOCK_RECORD
  5
249
330
1
100
AcDbSymbolTableRecord
100
AcDbBlockTableRecord
  2
block 40
340
0
102
{BLKREFS
331
24A
102
}
 70
     0
280
     1
281
     0
  0
BLOCK_RECORD
  5
251
330
1
100
AcDbSymbolTableRecord
100
AcDbBlockTableRecord
  2
block 41
340
0
102
{BLKREFS
331
252
102
}
 70
     0
280
     1
281
     0
  0
BLOCK_RECORD
  5
259
330
1
100
AcDbSymbolTableRecord
100
AcDbBlockTableRecord
  2
block 42
340
0
102
{BLKREFS
331
25A
102
}
 70
     0
280
     1
281
     0
  0
BLOCK_RECORD
  5
261
330
1
100
AcDbSymbolTableRecord
100
AcDbBlockTableRecord
  2
block 43
340
0
102
{BLKREFS
331
262
102
}
 70
     0
280
     1
281
     0
  0
BLOCK_RECORD
  5
269
330
1
100
AcDbSymbolTableRecord
100
AcDbBlockTableRecord
  2
block 44
340
0
102
{BLKREFS
331
26A
102
}
 70
     0
280
     1
281
     0
  0
BLOCK_RECORD
  5
271
330
1
100
AcDbSymbolTableRecord
100
AcDbBlockTableRecord
  2
block 45
340
0
102
{BLKREFS
331
272
102
}
 70
     0
280
     1
281
     0
  0
BLOCK_RECORD
  5
279
330
1
100
AcDbSymbolTableRecord
100
AcDbBlockTableRecord
  2
block 46
340
0
102
{BLKREFS
331
27A
102
}
 70
     0
280
     1
281
     0
  0
BLOCK_RECORD
  5
281
330
1
100
AcDbSymbolTableRecord
100
AcDbBlockTableRecord
  2
block 47
340
0
102
{BLKREFS
331
282
102
}
 70
     0
280
     1
281
     0
  0
BLOCK_RECORD
  5
289
330
1
100
AcDbSymbolTableRecord
100
AcDbBlockTableRecord
  2
block 48
340
0
102
{BLKREFS
331
28A
102
}
 70
     0
280
     1
281
     0
  0
BLOCK_RECORD
  5
291
330
1
100
AcDbSymbolTableRecord
100
AcDbBlockTableRecord
  2
block 49
340
0
102
{BLKREFS
331
292
102
}
 70
     0
280
     1
281
     0
  0
BLOCK_RECORD
  5
296
330
1
100
AcDbSymbolTableRecord
100
AcDbBlockTableRecord
  2
block 50
340
0
102
{BLKREFS
331
297
102
}
 70
     0
280
     1
281
     0
  0
BLOCK_RECORD
  5
29E
330
1
100
AcDbSymbolTableRecord
100
AcDbBlockTableRecord
  2
block 51
340
0
102
{BLKREFS
331
29F
102
}
 70
     0
280
     1
281
     0
  0
BLOCK_RECORD
  5
2BA
330
1
100
AcDbSymbolTableRecord
100
AcDbBlockTableRecord
  2
block 52
340
0
102
{BLKREFS
331
2BB
102
}
 70
     0
280
     1
281
     0
  0
BLOCK_RECORD
  5
2C2
330
1
100
AcDbSymbolTableRecord
100
AcDbBlockTableRecord
  2
block 53
340
0
102
{BLKREFS
331
2C3
102
}
 70
     0
280
     1
281
     0
  0
BLOCK_RECORD
  5
2E3
330
1
100
AcDbSymbolTableRecord
100
AcDbBlockTableRecord
  2
block 54
340
0
102
{BLKREFS
331
2E4
102
}
 70
     0
280
     1
281
     0
  0
BLOCK_RECORD
  5
2EC
330
1
100
AcDbSymbolTableRecord
100
AcDbBlockTableRecord
  2
block 55
340
0
102
{BLKREFS
331
2ED
102
}
 70
     0
280
     1
281
     0
  0
BLOCK_RECORD
  5
2F1
330
1
100
AcDbSymbolTableRecord
100
AcDbBlockTableRecord
  2
block 56
340
0
102
{BLKREFS
331
2F2
102
}
 70
     0
280
     1
281
     0
  0
BLOCK_RECORD
  5
2F6
330
1
100
AcDbSymbolTableRecord
100
AcDbBlockTableRecord
  2
block 57
340
0
102
{BLKREFS
331
2F7
102
}
 70
     0
280
     1
281
     0
  0
BLOCK_RECORD
  5
2FB
330
1
100
AcDbSymbolTableRecord
100
AcDbBlockTableRecord
  2
block 58
340
0
102
{BLKREFS
331
2FC
102
}
 70
     0
280
     1
281
     0
  0
BLOCK_RECORD
  5
300
330
1
100
AcDbSymbolTableRecord
100
AcDbBlockTableRecord
  2
block 59
340
0
102
{BLKREFS
331
301
102
}
 70
     0
280
     1
281
     0
  0
BLOCK_RECORD
  5
305
330
1
100
AcDbSymbolTableRecord
100
AcDbBlockTableRecord
  2
block 60
340
0
102
{BLKREFS
331
306
102
}
 70
     0
280
     1
281
     0
  0
BLOCK_RECORD
  5
314
330
1
100
AcDbSymbolTableRecord
100
AcDbBlockTableRecord
  2
block 61
340
0
102
{BLKREFS
331
315
102
}
 70
     0
280
     1
281
     0
  0
BLOCK_RECORD
  5
31C
330
1
100
AcDbSymbolTableRecord
100
AcDbBlockTableRecord
  2
block 62
340
0
102
{BLKREFS
331
31D
102
}
 70
     0
280
     1
281
     0
  0
BLOCK_RECORD
  5
321
330
1
100
AcDbSymbolTableRecord
100
AcDbBlockTableRecord
  2
block 63
340
0
102
{BLKREFS
331
322
102
}
 70
     0
280
     1
281
     0
  0
BLOCK_RECORD
  5
329
330
1
100
AcDbSymbolTableRecord
100
AcDbBlockTableRecord
  2
block 64
340
0
102
{BLKREFS
331
32A
102
}
 70
     0
280
     1
281
     0
  0
BLOCK_RECORD
  5
338
330
1
100
AcDbSymbolTableRecord
100
AcDbBlockTableRecord
  2
block 65
340
0
102
{BLKREFS
331
339
102
}
 70
     0
280
     1
281
     0
  0
BLOCK_RECORD
  5
340
330
1
100
AcDbSymbolTableRecord
100
AcDbBlockTableRecord
  2
block 66
340
0
102
{BLKREFS
331
341
102
}
 70
     0
280
     1
281
     0
  0
BLOCK_RECORD
  5
348
330
1
100
AcDbSymbolTableRecord
100
AcDbBlockTableRecord
  2
block 67
340
0
102
{BLKREFS
331
349
102
}
 70
     0
280
     1
281
     0
  0
BLOCK_RECORD
  5
350
330
1
100
AcDbSymbolTableRecord
100
AcDbBlockTableRecord
  2
block 68
340
0
102
{BLKREFS
331
351
102
}
 70
     0
280
     1
281
     0
  0
BLOCK_RECORD
  5
358
330
1
100
AcDbSymbolTableRecord
100
AcDbBlockTableRecord
  2
block 69
340
0
102
{BLKREFS
331
359
102
}
 70
     0
280
     1
281
     0
  0
BLOCK_RECORD
  5
360
330
1
100
AcDbSymbolTableRecord
100
AcDbBlockTableRecord
  2
block 70
340
0
102
{BLKREFS
331
361
102
}
 70
     0
280
     1
281
     0
  0
BLOCK_RECORD
  5
368
330
1
100
AcDbSymbolTableRecord
100
AcDbBlockTableRecord
  2
block 71
340
0
102
{BLKREFS
331
369
102
}
 70
     0
280
     1
281
     0
  0
BLOCK_RECORD
  5
370
330
1
100
AcDbSymbolTableRecord
100
AcDbBlockTableRecord
  2
block 72
340
0
102
{BLKREFS
331
371
102
}
 70
     0
280
     1
281
     0
  0
BLOCK_RECORD
  5
378
330
1
100
AcDbSymbolTableRecord
100
AcDbBlockTableRecord
  2
block 73
340
0
102
{BLKREFS
331
379
102
}
 70
     0
280
     1
281
     0
  0
BLOCK_RECORD
  5
380
330
1
100
AcDbSymbolTableRecord
100
AcDbBlockTableRecord
  2
block 74
340
0
102
{BLKREFS
331
381
102
}
 70
     0
280
     1
281
     0
  0
BLOCK_RECORD
  5
388
330
1
100
AcDbSymbolTableRecord
100
AcDbBlockTableRecord
  2
block 75
340
0
102
{BLKREFS
331
389
102
}
 70
     0
280
     1
281
     0
  0
BLOCK_RECORD
  5
390
330
1
100
AcDbSymbolTableRecord
100
AcDbBlockTableRecord
  2
block 76
340
0
102
{BLKREFS
331
391
102
}
 70
     0
280
     1
281
     0
  0
BLOCK_RECORD
  5
398
330
1
100
AcDbSymbolTableRecord
100
AcDbBlockTableRecord
  2
block 77
340
0
102
{BLKREFS
331
399
102
}
 70
     0
280
     1
281
     0
  0
BLOCK_RECORD
  5
39D
330
1
100
AcDbSymbolTableRecord
100
AcDbBlockTableRecord
  2
block 78
340
0
102
{BLKREFS
331
39E
102
}
 70
     0
280
     1
281
     0
  0
BLOCK_RECORD
  5
3A2
330
1
100
AcDbSymbolTableRecord
100
AcDbBlockTableRecord
  2
block 79
340
0
102
{BLKREFS
331
3A3
102
}
 70
     0
280
     1
281
     0
  0
BLOCK_RECORD
  5
3A7
330
1
100
AcDbSymbolTableRecord
100
AcDbBlockTableRecord
  2
block 80
340
0
102
{BLKREFS
331
3A8
102
}
 70
     0
280
     1
281
     0
  0
BLOCK_RECORD
  5
3AC
330
1
100
AcDbSymbolTableRecord
100
AcDbBlockTableRecord
  2
block 81
340
0
102
{BLKREFS
331
3AD
102
}
 70
     0
280
     1
281
     0
  0
BLOCK_RECORD
  5
3B4
330
1
100
AcDbSymbolTableRecord
100
AcDbBlockTableRecord
  2
block 82
340
0
102
{BLKREFS
331
3B5
102
}
 70
     0
280
     1
281
     0
  0
BLOCK_RECORD
  5
3B9
330
1
100
AcDbSymbolTableRecord
100
AcDbBlockTableRecord
  2
block 83
340
0
102
{BLKREFS
331
3BA
102
}
 70
     0
280
     1
281
     0
  0
BLOCK_RECORD
  5
3C1
330
1
100
AcDbSymbolTableRecord
100
AcDbBlockTableRecord
  2
block 84
340
0
102
{BLKREFS
331
3C2
102
}
 70
     0
280
     1
281
     0
  0
BLOCK_RECORD
  5
3C9
330
1
100
AcDbSymbolTableRecord
100
AcDbBlockTableRecord
  2
block 85
340
0
102
{BLKREFS
331
3CA
102
}
 70
     0
280
     1
281
     0
  0
BLOCK_RECORD
  5
3CE
330
1
100
AcDbSymbolTableRecord
100
AcDbBlockTableRecord
  2
block 86
340
0
102
{BLKREFS
331
3CF
102
}
 70
     0
280
     1
281
     0
  0
BLOCK_RECORD
  5
3D6
330
1
100
AcDbSymbolTableRecord
100
AcDbBlockTableRecord
  2
block 87
340
0
102
{BLKREFS
331
3D7
102
}
 70
     0
280
     1
281
     0
  0
BLOCK_RECORD
  5
3E5
330
1
100
AcDbSymbolTableRecord
100
AcDbBlockTableRecord
  2
block 88
340
0
102
{BLKREFS
331
3E6
102
}
 70
     0
280
     1
281
     0
  0
BLOCK_RECORD
  5
3ED
330
1
100
AcDbSymbolTableRecord
100
AcDbBlockTableRecord
  2
block 89
340
0
102
{BLKREFS
331
3EE
102
}
 70
     0
280
     1
281
     0
  0
BLOCK_RECORD
  5
3F2
330
1
100
AcDbSymbolTableRecord
100
AcDbBlockTableRecord
  2
block 90
340
0
102
{BLKREFS
331
3F3
102
}
 70
     0
280
     1
281
     0
  0
BLOCK_RECORD
  5
3FA
330
1
100
AcDbSymbolTableRecord
100
AcDbBlockTableRecord
  2
block 91
340
0
102
{BLKREFS
331
3FB
102
}
 70
     0
280
     1
281
     0
  0
BLOCK_RECORD
  5
409
330
1
100
AcDbSymbolTableRecord
100
AcDbBlockTableRecord
  2
block 92
340
0
102
{BLKREFS
331
40A
102
}
 70
     0
280
     1
281
     0
  0
BLOCK_RECORD
  5
411
330
1
100
AcDbSymbolTableRecord
100
AcDbBlockTableRecord
  2
block 93
340
0
102
{BLKREFS
331
412
102
}
 70
     0
280
     1
281
     0
  0
BLOCK_RECORD
  5
416
330
1
100
AcDbSymbolTableRecord
100
AcDbBlockTableRecord
  2
block 94
340
0
102
{BLKREFS
331
417
102
}
 70
     0
280
     1
281
     0
  0
BLOCK_RECORD
  5
41E
330
1
100
AcDbSymbolTableRecord
100
AcDbBlockTableRecord
  2
block 95
340
0
102
{BLKREFS
331
41F
102
}
 70
     0
280
     1
281
     0
  0
BLOCK_RECORD
  5
426
330
1
100
AcDbSymbolTableRecord
100
AcDbBlockTableRecord
  2
block 96
340
0
102
{BLKREFS
331
427
102
}
 70
     0
280
     1
281
     0
  0
BLOCK_RECORD
  5
42E
330
1
100
AcDbSymbolTableRecord
100
AcDbBlockTableRecord
  2
block 97
340
0
102
{BLKREFS
331
42F
102
}
 70
     0
280
     1
281
     0
  0
BLOCK_RECORD
  5
436
330
1
100
AcDbSymbolTableRecord
100
AcDbBlockTableRecord
  2
block 98
340
0
102
{BLKREFS
331
437
102
}
 70
     0
280
     1
281
     0
  0
BLOCK_RECORD
  5
43E
330
1
100
AcDbSymbolTableRecord
100
AcDbBlockTableRecord
  2
block 99
340
0
102
{BLKREFS
331
43F
102
}
 70
     0
280
     1
281
     0
  0
BLOCK_RECORD
  5
446
330
1
100
AcDbSymbolTableRecord
100
AcDbBlockTableRecord
  2
block 100
340
0
102
{BLKREFS
331
447
102
}
 70
     0
280
     1
281
     0
  0
BLOCK_RECORD
  5
44E
330
1
100
AcDbSymbolTableRecord
100
AcDbBlockTableRecord
  2
block 101
340
0
102
{BLKREFS
331
44F
102
}
 70
     0
280
     1
281
     0
  0
BLOCK_RECORD
  5
453
330
1
100
AcDbSymbolTableRecord
100
AcDbBlockTableRecord
  2
block 102
340
0
102
{BLKREFS
331
454
102
}
 70
     0
280
     1
281
     0
  0
BLOCK_RECORD
  5
458
330
1
100
AcDbSymbolTableRecord
100
AcDbBlockTableRecord
  2
block 103
340
0
102
{BLKREFS
331
459
102
}
 70
     0
280
     1
281
     0
  0
BLOCK_RECORD
  5
45D
330
1
100
AcDbSymbolTableRecord
100
AcDbBlockTableRecord
  2
block 104
340
0
102
{BLKREFS
331
45E
102
}
 70
     0
280
     1
281
     0
  0
BLOCK_RECORD
  5
462
330
1
100
AcDbSymbolTableRecord
100
AcDbBlockTableRecord
  2
block 105
340
0
102
{BLKREFS
331
463
102
}
 70
     0
280
     1
281
     0
  0
BLOCK_RECORD
  5
46A
330
1
100
AcDbSymbolTableRecord
100
AcDbBlockTableRecord
  2
block 106
340
0
102
{BLKREFS
331
46B
102
}
 70
     0
280
     1
281
     0
  0
BLOCK_RECORD
  5
46F
330
1
100
AcDbSymbolTableRecord
100
AcDbBlockTableRecord
  2
block 107
340
0
102
{BLKREFS
331
470
102
}
 70
     0
280
     1
281
     0
  0
BLOCK_RECORD
  5
477
330
1
100
AcDbSymbolTableRecord
100
AcDbBlockTableRecord
  2
block 108
340
0
102
{BLKREFS
331
478
102
}
 70
     0
280
     1
281
     0
  0
BLOCK_RECORD
  5
47F
330
1
100
AcDbSymbolTableRecord
100
AcDbBlockTableRecord
  2
block 109
340
0
102
{BLKREFS
331
480
102
}
 70
     0
280
     1
281
     0
  0
BLOCK_RECORD
  5
487
330
1
100
AcDbSymbolTableRecord
100
AcDbBlockTableRecord
  2
block 110
340
0
102
{BLKREFS
331
488
102
}
 70
     0
280
     1
281
     0
  0
BLOCK_RECORD
  5
48F
330
1
100
AcDbSymbolTableRecord
100
AcDbBlockTableRecord
  2
block 111
340
0
102
{BLKREFS
331
490
102
}
 70
     0
280
     1
281
     0
  0
BLOCK_RECORD
  5
494
330
1
100
AcDbSymbolTableRecord
100
AcDbBlockTableRecord
  2
block 112
340
0
102
{BLKREFS
331
495
102
}
 70
     0
280
     1
281
     0
  0
BLOCK_RECORD
  5
49C
330
1
100
AcDbSymbolTableRecord
100
AcDbBlockTableRecord
  2
block 113
340
0
102
{BLKREFS
331
49D
102
}
 70
     0
280
     1
281
     0
  0
BLOCK_RECORD
  5
4A1
330
1
100
AcDbSymbolTableRecord
100
AcDbBlockTableRecord
  2
block 114
340
0
102
{BLKREFS
331
4A2
102
}
 70
     0
280
     1
281
     0
  0
BLOCK_RECORD
  5
4A6
330
1
100
AcDbSymbolTableRecord
100
AcDbBlockTableRecord
  2
block 115
340
0
102
{BLKREFS
331
4A7
102
}
 70
     0
280
     1
281
     0
  0
BLOCK_RECORD
  5
4AB
330
1
100
AcDbSymbolTableRecord
100
AcDbBlockTableRecord
  2
block 116
340
0
102
{BLKREFS
331
4AC
102
}
 70
     0
280
     1
281
     0
  0
BLOCK_RECORD
  5
4B0
330
1
100
AcDbSymbolTableRecord
100
AcDbBlockTableRecord
  2
block 117
340
0
102
{BLKREFS
331
4B1
102
}
 70
     0
280
     1
281
     0
  0
BLOCK_RECORD
  5
4B5
330
1
100
AcDbSymbolTableRecord
100
AcDbBlockTableRecord
  2
block 118
340
0
102
{BLKREFS
331
4B6
102
}
 70
     0
280
     1
281
     0
  0
BLOCK_RECORD
  5
4C7
330
1
100
AcDbSymbolTableRecord
100
AcDbBlockTableRecord
  2
block 119
340
0
102
{BLKREFS
331
4C8
102
}
 70
     0
280
     1
281
     0
  0
BLOCK_RECORD
  5
4CC
330
1
100
AcDbSymbolTableRecord
100
AcDbBlockTableRecord
  2
block 120
340
0
102
{BLKREFS
331
4CD
102
}
 70
     0
280
     1
281
     0
  0
BLOCK_RECORD
  5
4D1
330
1
100
AcDbSymbolTableRecord
100
AcDbBlockTableRecord
  2
block 121
340
0
102
{BLKREFS
331
4D2
102
}
 70
     0
280
     1
281
     0
  0
BLOCK_RECORD
  5
4DA
330
1
100
AcDbSymbolTableRecord
100
AcDbBlockTableRecord
  2
block 122
340
0
102
{BLKREFS
331
4DB
102
}
 70
     0
280
     1
281
     0
  0
ENDTAB
  0
ENDSEC
  0
SECTION
  2
BLOCKS
  0
BLOCK
  5
20
330
1F
100
AcDbEntity
  8
0
100
AcDbBlockBegin
  2
*Model_Space
 70
     0
 10
0.0
 20
0.0
 30
0.0
  3
*Model_Space
  1

  0
ENDBLK
  5
21
330
1F
100
AcDbEntity
  8
0
100
AcDbBlockEnd
  0
BLOCK
  5
1C
330
1B
100
AcDbEntity
 67
     1
  8
0
100
AcDbBlockBegin
  2
*Paper_Space
 70
     0
 10
0.0
 20
0.0
 30
0.0
  3
*Paper_Space
  1

  0
ENDBLK
  5
1D
330
1B
100
AcDbEntity
 67
     1
  8
0
100
AcDbBlockEnd
  0
BLOCK
  5
24
330
23
100
AcDbEntity
  8
0
100
AcDbBlockBegin
  2
*Paper_Space0
 70
     0
 10
0.0
 20
0.0
 30
0.0
  3
*Paper_Space0
  1

  0
ENDBLK
  5
25
330
23
100
AcDbEntity
  8
0
100
AcDbBlockEnd
  0
BLOCK
  5
3E
330
3C
100
AcDbEntity
  8
0
100
AcDbBlockBegin
  2
block 2
 70
     0
 10
0.0
 20
0.0
 30
0.0
  3
block 2
  1

  0
POLYLINE
  5
40
330
3C
100
AcDbEntity
  8
フォーマット
 62
     7
370
    35
100
AcDb2dPolyline
 66
     1
 10
0.0
 20
0.0
 30
0.0
  0
VERTEX
  5
41
330
40
100
AcDbEntity
  8
フォーマット
 62
     7
370
    35
100
AcDbVertex
100
AcDb2dVertex
 10
243.3915174087702
 20
-33.60828449680626
 30
0.0
  0
VERTEX
  5
42
330
40
100
AcDbEntity
  8
フォーマット
 62
     7
370
    35
100
AcDbVertex
100
AcDb2dVertex
 10
53.39174532085345
 20
-33.60828449680626
 30
0.0
  0
VERTEX
  5
43
330
40
100
AcDbEntity
  8
フォーマット
 62
     7
370
    35
100
AcDbVertex
100
AcDb2dVertex
 10
53.39174532085345
 20
243.3915174087702
 30
0.0
  0
VERTEX
  5
44
330
40
100
AcDbEntity
  8
フォーマット
 62
     7
370
    35
100
AcDbVertex
100
AcDb2dVertex
 10
243.3915174087702
 20
243.3915174087702
 30
0.0
  0
VERTEX
  5
45
330
40
100
AcDbEntity
  8
フォーマット
 62
     7
370
    35
100
AcDbVertex
100
AcDb2dVertex
 10
243.3915174087702
 20
-33.60828449680626
 30
0.0
  0
SEQEND
  5
46
330
40
100
AcDbEntity
  8
フォーマット
370
    35
  0
POLYLINE
  5
47
330
3C
100
AcDbEntity
  8
フォーマット
 62
     7
370
    35
100
AcDb2dPolyline
 66
     1
 10
0.0
 20
0.0
 30
0.0
  0
VERTEX
  5
48
330
47
100
AcDbEntity
  8
フォーマット
 62
     7
370
    35
100
AcDbVertex
100
AcDb2dVertex
 10
53.39174532085345
 20
-33.60828449680626
 30
0.0
  0
VERTEX
  5
49
330
47
100
AcDbEntity
  8
フォーマット
 62
     7
370
    35
100
AcDbVertex
100
AcDb2dVertex
 10
53.39174532085345
 20
-8.631686738293467
 30
0.0
  0
VERTEX
  5
4A
330
47
100
AcDbEntity
  8
フォーマット
 62
     7
370
    35
100
AcDbVertex
100
AcDb2dVertex
 10
243.3084906075757
 20
-8.631686738293467
 30
0.0
  0
SEQEND
  5
4B
330
47
100
AcDbEntity
  8
フォーマット
370
    35
  0
POLYLINE
  5
4C
330
3C
100
AcDbEntity
  8
フォーマット
 62
     7
370
    35
100
AcDb2dPolyline
 66
     1
 10
0.0
 20
0.0
 30
0.0
  0
VERTEX
  5
4D
330
4C
100
AcDbEntity
  8
フォーマット
 62
     7
370
    35
100
AcDbVertex
100
AcDb2dVertex
 10
243.3915174087702
 20
-33.60828449680626
 30
0.0
  0
VERTEX
  5
4E
330
4C
100
AcDbEntity
  8
フォーマット
 62
     7
370
    35
100
AcDbVertex
100
AcDb2dVertex
 10
54.09247774255327
 20
-33.60828449680626
 30
0.0
  0
SEQEND
  5
4F
330
4C
100
AcDbEntity
  8
フォーマット
370
    35
  0
INSERT
  5
51
330
3C
100
AcDbEntity
  8
フォーマット
100
AcDbBlockReference
  2
block 3
 10
0.0
 20
0.0
 30
0.0
  0
INSERT
  5
98
330
3C
100
AcDbEntity
  8
フォーマット
100
AcDbBlockReference
  2
block 7
 10
0.0
 20
0.0
 30
0.0
  0
INSERT
  5
B2
330
3C
100
AcDbEntity
  8
フォーマット
100
AcDbBlockReference
  2
block 11
 10
0.0
 20
0.0
 30
0.0
  0
INSERT
  5
F9
330
3C
100
AcDbEntity
  8
フォーマット
100
AcDbBlockReference
  2
block 15
 10
0.0
 20
0.0
 30
0.0
  0
POLYLINE
  5
127
330
3C
100
AcDbEntity
  8
フォーマット
 62
     7
370
    35
100
AcDb2dPolyline
 66
     1
 10
0.0
 20
0.0
 30
0.0
  0
VERTEX
  5
128
330
127
100
AcDbEntity
  8
フォーマット
 62
     7
370
    35
100
AcDbVertex
100
AcDb2dVertex
 10
53.39174532085345
 20
-19.04104274697585
 30
0.0
  0
VERTEX
  5
129
330
127
100
AcDbEntity
  8
フォーマット
 62
     7
370
    35
100
AcDbVertex
100
AcDb2dVertex
 10
119.1162434598043
 20
-19.04104274697585
 30
0.0
  0
SEQEND
  5
12A
330
127
100
AcDbEntity
  8
フォーマット
370
    35
  0
POLYLINE
  5
12B
330
3C
100
AcDbEntity
  8
フォーマット
 62
     7
370
    35
100
AcDb2dPolyline
 66
     1
 10
0.0
 20
0.0
 30
0.0
  0
VERTEX
  5
12C
330
12B
100
AcDbEntity
  8
フォーマット
 62
     7
370
    35
100
AcDbVertex
100
AcDb2dVertex
 10
59.08786619616554
 20
-8.631686738293467
 30
0.0
  0
VERTEX
  5
12D
330
12B
100
AcDbEntity
  8
フォーマット
 62
     7
370
    35
100
AcDbVertex
100
AcDb2dVertex
 10
59.08786619616554
 20
-33.60828449680626
 30
0.0
  0
SEQEND
  5
12E
330
12B
100
AcDbEntity
  8
フォーマット
370
    35
  0
POLYLINE
  5
12F
330
3C
100
AcDbEntity
  8
フォーマット
 62
     7
370
    35
100
AcDb2dPolyline
 66
     1
 10
0.0
 20
0.0
 30
0.0
  0
VERTEX
  5
130
330
12F
100
AcDbEntity
  8
フォーマット
 62
     7
370
    35
100
AcDbVertex
100
AcDb2dVertex
 10
59.08786619616554
 20
-8.631686738293467
 30
0.0
  0
VERTEX
  5
131
330
12F
100
AcDbEntity
  8
フォーマット
 62
     7
370
    35
100
AcDbVertex
100
AcDb2dVertex
 10
59.08786619616554
 20
-33.60828449680626
 30
0.0
  0
SEQEND
  5
132
330
12F
100
AcDbEntity
  8
フォーマット
370
    35
  0
POLYLINE
  5
133
330
3C
100
AcDbEntity
  8
フォーマット
 62
     7
370
    35
100
AcDb2dPolyline
 66
     1
 10
0.0
 20
0.0
 30
0.0
  0
VERTEX
  5
134
330
133
100
AcDbEntity
  8
フォーマット
 62
     7
370
    35
100
AcDbVertex
100
AcDb2dVertex
 10
119.1162434598043
 20
-8.631686738293467
 30
0.0
  0
VERTEX
  5
135
330
133
100
AcDbEntity
  8
フォーマット
 62
     7
370
    35
100
AcDbVertex
100
AcDb2dVertex
 10
119.1162434598043
 20
-33.60828449680626
 30
0.0
  0
SEQEND
  5
136
330
133
100
AcDbEntity
  8
フォーマット
370
    35
  0
ENDBLK
  5
3F
330
3C
100
AcDbEntity
  8
0
100
AcDbBlockEnd
  0
BLOCK
  5
52
330
50
100
AcDbEntity
  8
0
100
AcDbBlockBegin
  2
block 3
 70
     0
 10
0.0
 20
0.0
 30
0.0
  3
block 3
  1

  0
INSERT
  5
55
330
50
100
AcDbEntity
  8
フォーマット
100
AcDbBlockReference
  2
block 4
 10
0.0
 20
0.0
 30
0.0
  0
ENDBLK
  5
53
330
50
100
AcDbEntity
  8
0
100
AcDbBlockEnd
  0
BLOCK
  5
56
330
54
100
AcDbEntity
  8
0
100
AcDbBlockBegin
  2
block 4
 70
     0
 10
0.0
 20
0.0
 30
0.0
  3
block 4
  1

  0
INSERT
  5
59
330
54
100
AcDbEntity
  8
フォーマット
100
AcDbBlockReference
  2
block 5
 10
0.0
 20
0.0
 30
0.0
  0
ENDBLK
  5
57
330
54
100
AcDbEntity
  8
0
100
AcDbBlockEnd
  0
BLOCK
  5
5A
330
58
100
AcDbEntity
  8
0
100
AcDbBlockBegin
  2
block 5
 70
     0
 10
0.0
 20
0.0
 30
0.0
  3
block 5
  1

  0
INSERT
  5
5D
330
58
100
AcDbEntity
  8
フォーマット
100
AcDbBlockReference
  2
block 6
 10
0.0
 20
0.0
 30
0.0
  0
ENDBLK
  5
5B
330
58
100
AcDbEntity
  8
0
100
AcDbBlockEnd
  0
BLOCK
  5
5E
330
5C
100
AcDbEntity
  8
0
100
AcDbBlockBegin
  2
block 6
 70
     0
 10
0.0
 20
0.0
 30
0.0
  3
block 6
  1

  0
POLYLINE
  5
60
330
5C
100
AcDbEntity
  8
フォーマット
370
     0
100
AcDb2dPolyline
 66
     1
 10
0.0
 20
0.0
 30
0.0
  0
VERTEX
  5
61
330
60
100
AcDbEntity
  8
フォーマット
370
     0
100
AcDbVertex
100
AcDb2dVertex
 10
55.79194334542701
 20
-24.07673881776554
 30
0.0
  0
VERTEX
  5
62
330
60
100
AcDbEntity
  8
フォーマット
370
     0
100
AcDbVertex
100
AcDb2dVertex
 10
55.18870712595977
 20
-24.07673881776554
 30
0.0
  0
VERTEX
  5
63
330
60
100
AcDbEntity
  8
フォーマット
370
     0
100
AcDbVertex
100
AcDb2dVertex
 10
55.18870712595977
 20
-24.30273708159793
 30
0.0
  0
VERTEX
  5
64
330
60
100
AcDbEntity
  8
フォーマット
370
     0
100
AcDbVertex
100
AcDb2dVertex
 10
54.9373874103108
 20
-24.30273708159793
 30
0.0
  0
VERTEX
  5
65
330
60
100
AcDbEntity
  8
フォーマット
370
     0
100
AcDbVertex
100
AcDb2dVertex
 10
54.9373874103108
 20
-22.97051865745182
 30
0.0
  0
VERTEX
  5
66
330
60
100
AcDbEntity
  8
フォーマット
370
     0
100
AcDbVertex
100
AcDb2dVertex
 10
56.04343531585025
 20
-22.97051865745182
 30
0.0
  0
VERTEX
  5
67
330
60
100
AcDbEntity
  8
フォーマット
370
     0
100
AcDbVertex
100
AcDb2dVertex
 10
56.04343531585025
 20
-24.26518554080871
 30
0.0
  0
VERTEX
  5
68
330
60
100
AcDbEntity
  8
フォーマット
370
     0
100
AcDbVertex
100
AcDb2dVertex
 10
55.79194334542701
 20
-24.26518554080871
 30
0.0
  0
VERTEX
  5
69
330
60
100
AcDbEntity
  8
フォーマット
370
     0
100
AcDbVertex
100
AcDb2dVertex
 10
55.79194334542701
 20
-24.07673881776554
 30
0.0
  0
SEQEND
  5
6A
330
60
100
AcDbEntity
  8
フォーマット
370
     0
  0
POLYLINE
  5
6B
330
5C
100
AcDbEntity
  8
フォーマット
370
     0
100
AcDb2dPolyline
 66
     1
 10
0.0
 20
0.0
 30
0.0
  0
VERTEX
  5
6C
330
6B
100
AcDbEntity
  8
フォーマット
370
     0
100
AcDbVertex
100
AcDb2dVertex
 10
55.18870712595977
 20
-23.20926377457963
 30
0.0
  0
VERTEX
  5
6D
330
6B
100
AcDbEntity
  8
フォーマット
370
     0
100
AcDbVertex
100
AcDb2dVertex
 10
55.18870712595977
 20
-23.8376491910892
 30
0.0
  0
VERTEX
  5
6E
330
6B
100
AcDbEntity
  8
フォーマット
370
     0
100
AcDbVertex
100
AcDb2dVertex
 10
55.79194334542701
 20
-23.8376491910892
 30
0.0
  0
VERTEX
  5
6F
330
6B
100
AcDbEntity
  8
フォーマット
370
     0
100
AcDbVertex
100
AcDb2dVertex
 10
55.79194334542701
 20
-23.20926377457963
 30
0.0
  0
VERTEX
  5
70
330
6B
100
AcDbEntity
  8
フォーマット
370
     0
100
AcDbVertex
100
AcDb2dVertex
 10
55.18870712595977
 20
-23.20926377457963
 30
0.0
  0
SEQEND
  5
71
330
6B
100
AcDbEntity
  8
フォーマット
370
     0
  0
POLYLINE
  5
72
330
5C
100
AcDbEntity
  8
フォーマット
370
     0
100
AcDb2dPolyline
 66
     1
 10
0.0
 20
0.0
 30
0.0
  0
VERTEX
  5
73
330
72
100
AcDbEntity
  8
フォーマット
370
     0
100
AcDbVertex
100
AcDb2dVertex
 10
56.73452147019137
 20
-22.65632594919703
 30
0.0
  0
VERTEX
  5
74
330
72
100
AcDbEntity
  8
フォーマット
370
     0
100
AcDbVertex
100
AcDb2dVertex
 10
55.62864581942618
 20
-22.65632594919703
 30
0.0
  0
VERTEX
  5
75
330
72
100
AcDbEntity
  8
フォーマット
370
     0
100
AcDbVertex
100
AcDb2dVertex
 10
55.62864581942618
 20
-22.74452039361943
 30
0.0
  0
VERTEX
  5
76
330
72
100
AcDbEntity
  8
フォーマット
370
     0
100
AcDbVertex
100
AcDb2dVertex
 10
55.3773261037772
 20
-22.74452039361943
 30
0.0
  0
VERTEX
  5
77
330
72
100
AcDbEntity
  8
フォーマット
370
     0
100
AcDbVertex
100
AcDb2dVertex
 10
55.3773261037772
 20
-21.57559949547416
 30
0.0
  0
VERTEX
  5
78
330
72
100
AcDbEntity
  8
フォーマット
370
     0
100
AcDbVertex
100
AcDb2dVertex
 10
56.98601344061461
 20
-21.57559949547416
 30
0.0
  0
VERTEX
  5
79
330
72
100
AcDbEntity
  8
フォーマット
370
     0
100
AcDbVertex
100
AcDb2dVertex
 10
56.98601344061461
 20
-22.7193711965771
 30
0.0
  0
VERTEX
  5
7A
330
72
100
AcDbEntity
  8
フォーマット
370
     0
100
AcDbVertex
100
AcDb2dVertex
 10
56.73452147019137
 20
-22.7193711965771
 30
0.0
  0
VERTEX
  5
7B
330
72
100
AcDbEntity
  8
フォーマット
370
     0
100
AcDbVertex
100
AcDb2dVertex
 10
56.73452147019137
 20
-22.65632594919703
 30
0.0
  0
SEQEND
  5
7C
330
72
100
AcDbEntity
  8
フォーマット
370
     0
  0
POLYLINE
  5
7D
330
5C
100
AcDbEntity
  8
フォーマット
370
     0
100
AcDb2dPolyline
 66
     1
 10
0.0
 20
0.0
 30
0.0
  0
VERTEX
  5
7E
330
7D
100
AcDbEntity
  8
フォーマット
370
     0
100
AcDbVertex
100
AcDb2dVertex
 10
55.62864581942618
 20
-22.41758083206922
 30
0.0
  0
VERTEX
  5
7F
330
7D
100
AcDbEntity
  8
フォーマット
370
     0
100
AcDbVertex
100
AcDb2dVertex
 10
56.73452147019137
 20
-22.41758083206922
 30
0.0
  0
VERTEX
  5
80
330
7D
100
AcDbEntity
  8
フォーマット
370
     0
100
AcDbVertex
100
AcDb2dVertex
 10
56.73452147019137
 20
-21.81434461260197
 30
0.0
  0
VERTEX
  5
81
330
7D
100
AcDbEntity
  8
フォーマット
370
     0
100
AcDbVertex
100
AcDb2dVertex
 10
55.62864581942618
 20
-21.81434461260197
 30
0.0
  0
VERTEX
  5
82
330
7D
100
AcDbEntity
  8
フォーマット
370
     0
100
AcDbVertex
100
AcDb2dVertex
 10
55.62864581942618
 20
-22.41758083206922
 30
0.0
  0
SEQEND
  5
83
330
7D
100
AcDbEntity
  8
フォーマット
370
     0
  0
POLYLINE
  5
84
330
5C
100
AcDbEntity
  8
フォーマット
370
     0
100
AcDb2dPolyline
 66
     1
 10
0.0
 20
0.0
 30
0.0
  0
VERTEX
  5
85
330
84
100
AcDbEntity
  8
フォーマット
370
     0
100
AcDbVertex
100
AcDb2dVertex
 10
57.22475855774243
 20
-24.07673881776554
 30
0.0
  0
VERTEX
  5
86
330
84
100
AcDbEntity
  8
フォーマット
370
     0
100
AcDbVertex
100
AcDb2dVertex
 10
56.62152233827518
 20
-24.07673881776554
 30
0.0
  0
VERTEX
  5
87
330
84
100
AcDbEntity
  8
フォーマット
370
     0
100
AcDbVertex
100
AcDb2dVertex
 10
56.62152233827518
 20
-24.30273708159793
 30
0.0
  0
VERTEX
  5
88
330
84
100
AcDbEntity
  8
フォーマット
370
     0
100
AcDbVertex
100
AcDb2dVertex
 10
56.3702026226262
 20
-24.30273708159793
 30
0.0
  0
VERTEX
  5
89
330
84
100
AcDbEntity
  8
フォーマット
370
     0
100
AcDbVertex
100
AcDb2dVertex
 10
56.3702026226262
 20
-22.97051865745182
 30
0.0
  0
VERTEX
  5
8A
330
84
100
AcDbEntity
  8
フォーマット
370
     0
100
AcDbVertex
100
AcDb2dVertex
 10
57.4760782733914
 20
-22.97051865745182
 30
0.0
  0
VERTEX
  5
8B
330
84
100
AcDbEntity
  8
フォーマット
370
     0
100
AcDbVertex
100
AcDb2dVertex
 10
57.4760782733914
 20
-24.26518554080871
 30
0.0
  0
VERTEX
  5
8C
330
84
100
AcDbEntity
  8
フォーマット
370
     0
100
AcDbVertex
100
AcDb2dVertex
 10
57.22475855774243
 20
-24.26518554080871
 30
0.0
  0
VERTEX
  5
8D
330
84
100
AcDbEntity
  8
フォーマット
370
     0
100
AcDbVertex
100
AcDb2dVertex
 10
57.22475855774243
 20
-24.07673881776554
 30
0.0
  0
SEQEND
  5
8E
330
84
100
AcDbEntity
  8
フォーマット
370
     0
  0
POLYLINE
  5
8F
330
5C
100
AcDbEntity
  8
フォーマット
370
     0
100
AcDb2dPolyline
 66
     1
 10
0.0
 20
0.0
 30
0.0
  0
VERTEX
  5
90
330
8F
100
AcDbEntity
  8
フォーマット
370
     0
100
AcDbVertex
100
AcDb2dVertex
 10
56.62152233827518
 20
-23.20926377457963
 30
0.0
  0
VERTEX
  5
91
330
8F
100
AcDbEntity
  8
フォーマット
370
     0
100
AcDbVertex
100
AcDb2dVertex
 10
56.62152233827518
 20
-23.8376491910892
 30
0.0
  0
VERTEX
  5
92
330
8F
100
AcDbEntity
  8
フォーマット
370
     0
100
AcDbVertex
100
AcDb2dVertex
 10
57.22475855774243
 20
-23.8376491910892
 30
0.0
  0
VERTEX
  5
93
330
8F
100
AcDbEntity
  8
フォーマット
370
     0
100
AcDbVertex
100
AcDb2dVertex
 10
57.22475855774243
 20
-23.20926377457963
 30
0.0
  0
VERTEX
  5
94
330
8F
100
AcDbEntity
  8
フォーマット
370
     0
100
AcDbVertex
100
AcDb2dVertex
 10
56.62152233827518
 20
-23.20926377457963
 30
0.0
  0
SEQEND
  5
95
330
8F
100
AcDbEntity
  8
フォーマット
370
     0
  0
HATCH
  5
96
330
5C
100
AcDbEntity
  8
フォーマット
 62
     7
100
AcDbHatch
 10
0.0
 20
0.0
 30
0.0
210
0.0
220
0.0
230
1.0
  2
SOLID
 70
     1
 71
     0
 91
        6
 92
        1
 93
        8
 72
     1
 10
55.79194334542701
 20
-24.07673881776554
 11
55.18870712595977
 21
-24.07673881776554
 72
     1
 10
55.18870712595977
 20
-24.07673881776554
 11
55.18870712595977
 21
-24.30273708159793
 72
     1
 10
55.18870712595977
 20
-24.30273708159793
 11
54.9373874103108
 21
-24.30273708159793
 72
     1
 10
54.9373874103108
 20
-24.30273708159793
 11
54.9373874103108
 21
-22.97051865745182
 72
     1
 10
54.9373874103108
 20
-22.97051865745182
 11
56.04343531585025
 21
-22.97051865745182
 72
     1
 10
56.04343531585025
 20
-22.97051865745182
 11
56.04343531585025
 21
-24.26518554080871
 72
     1
 10
56.04343531585025
 20
-24.26518554080871
 11
55.79194334542701
 21
-24.26518554080871
 72
     1
 10
55.79194334542701
 20
-24.26518554080871
 11
55.79194334542701
 21
-24.07673881776554
 97
        0
 92
        1
 93
        4
 72
     1
 10
55.18870712595977
 20
-23.20926377457963
 11
55.18870712595977
 21
-23.8376491910892
 72
     1
 10
55.18870712595977
 20
-23.8376491910892
 11
55.79194334542701
 21
-23.8376491910892
 72
     1
 10
55.79194334542701
 20
-23.8376491910892
 11
55.79194334542701
 21
-23.20926377457963
 72
     1
 10
55.79194334542701
 20
-23.20926377457963
 11
55.18870712595977
 21
-23.20926377457963
 97
        0
 92
        1
 93
        8
 72
     1
 10
56.73452147019137
 20
-22.65632594919703
 11
55.62864581942618
 21
-22.65632594919703
 72
     1
 10
55.62864581942618
 20
-22.65632594919703
 11
55.62864581942618
 21
-22.74452039361943
 72
     1
 10
55.62864581942618
 20
-22.74452039361943
 11
55.3773261037772
 21
-22.74452039361943
 72
     1
 10
55.3773261037772
 20
-22.74452039361943
 11
55.3773261037772
 21
-21.57559949547416
 72
     1
 10
55.3773261037772
 20
-21.57559949547416
 11
56.98601344061461
 21
-21.57559949547416
 72
     1
 10
56.98601344061461
 20
-21.57559949547416
 11
56.98601344061461
 21
-22.7193711965771
 72
     1
 10
56.98601344061461
 20
-22.7193711965771
 11
56.73452147019137
 21
-22.7193711965771
 72
     1
 10
56.73452147019137
 20
-22.7193711965771
 11
56.73452147019137
 21
-22.65632594919703
 97
        0
 92
        1
 93
        4
 72
     1
 10
55.62864581942618
 20
-22.41758083206922
 11
56.73452147019137
 21
-22.41758083206922
 72
     1
 10
56.73452147019137
 20
-22.41758083206922
 11
56.73452147019137
 21
-21.81434461260197
 72
     1
 10
56.73452147019137
 20
-21.81434461260197
 11
55.62864581942618
 21
-21.81434461260197
 72
     1
 10
55.62864581942618
 20
-21.81434461260197
 11
55.62864581942618
 21
-22.41758083206922
 97
        0
 92
        1
 93
        8
 72
     1
 10
57.22475855774243
 20
-24.07673881776554
 11
56.62152233827518
 21
-24.07673881776554
 72
     1
 10
56.62152233827518
 20
-24.07673881776554
 11
56.62152233827518
 21
-24.30273708159793
 72
     1
 10
56.62152233827518
 20
-24.30273708159793
 11
56.3702026226262
 21
-24.30273708159793
 72
     1
 10
56.3702026226262
 20
-24.30273708159793
 11
56.3702026226262
 21
-22.97051865745182
 72
     1
 10
56.3702026226262
 20
-22.97051865745182
 11
57.4760782733914
 21
-22.97051865745182
 72
     1
 10
57.4760782733914
 20
-22.97051865745182
 11
57.4760782733914
 21
-24.26518554080871
 72
     1
 10
57.4760782733914
 20
-24.26518554080871
 11
57.22475855774243
 21
-24.26518554080871
 72
     1
 10
57.22475855774243
 20
-24.26518554080871
 11
57.22475855774243
 21
-24.07673881776554
 97
        0
 92
        1
 93
        4
 72
     1
 10
56.62152233827518
 20
-23.20926377457963
 11
56.62152233827518
 21
-23.8376491910892
 72
     1
 10
56.62152233827518
 20
-23.8376491910892
 11
57.22475855774243
 21
-23.8376491910892
 72
     1
 10
57.22475855774243
 20
-23.8376491910892
 11
57.22475855774243
 21
-23.20926377457963
 72
     1
 10
57.22475855774243
 20
-23.20926377457963
 11
56.62152233827518
 21
-23.20926377457963
 97
        0
 75
     2
 76
     1
 98
        0
  0
ENDBLK
  5
5F
330
5C
100
AcDbEntity
  8
0
100
AcDbBlockEnd
  0
BLOCK
  5
99
330
97
100
AcDbEntity
  8
0
100
AcDbBlockBegin
  2
block 7
 70
     0
 10
0.0
 20
0.0
 30
0.0
  3
block 7
  1

  0
INSERT
  5
9C
330
97
100
AcDbEntity
  8
フォーマット
100
AcDbBlockReference
  2
block 8
 10
0.0
 20
0.0
 30
0.0
  0
ENDBLK
  5
9A
330
97
100
AcDbEntity
  8
0
100
AcDbBlockEnd
  0
BLOCK
  5
9D
330
9B
100
AcDbEntity
  8
0
100
AcDbBlockBegin
  2
block 8
 70
     0
 10
0.0
 20
0.0
 30
0.0
  3
block 8
  1

  0
INSERT
  5
A0
330
9B
100
AcDbEntity
  8
フォーマット
100
AcDbBlockReference
  2
block 9
 10
0.0
 20
0.0
 30
0.0
  0
ENDBLK
  5
9E
330
9B
100
AcDbEntity
  8
0
100
AcDbBlockEnd
  0
BLOCK
  5
A1
330
9F
100
AcDbEntity
  8
0
100
AcDbBlockBegin
  2
block 9
 70
     0
 10
0.0
 20
0.0
 30
0.0
  3
block 9
  1

  0
INSERT
  5
A4
330
9F
100
AcDbEntity
  8
フォーマット
100
AcDbBlockReference
  2
block 10
 10
0.0
 20
0.0
 30
0.0
  0
ENDBLK
  5
A2
330
9F
100
AcDbEntity
  8
0
100
AcDbBlockEnd
  0
BLOCK
  5
A5
330
A3
100
AcDbEntity
  8
0
100
AcDbBlockBegin
  2
block 10
 70
     0
 10
0.0
 20
0.0
 30
0.0
  3
block 10
  1

  0
SPLINE
  5
A7
330
A3
100
AcDbEntity
  8
フォーマット
370
     0
100
AcDbSpline
210
0.0
220
0.0
230
1.0
 70
    11
 71
     3
 72
    77
 73
    73
 74
     0
 42
0.000000001
 43
0.0000000001
 40
0.0
 40
0.0
 40
0.0
 40
0.0
 40
1.0
 40
1.0
 40
1.0
 40
2.0
 40
2.0
 40
2.0
 40
3.0
 40
3.0
 40
3.0
 40
4.0
 40
4.0
 40
4.0
 40
5.0
 40
5.0
 40
5.0
 40
6.0
 40
6.0
 40
6.0
 40
7.0
 40
7.0
 40
7.0
 40
8.0
 40
8.0
 40
8.0
 40
9.0
 40
9.0
 40
9.0
 40
10.0
 40
10.0
 40
10.0
 40
11.0
 40
11.0
 40
11.0
 40
12.0
 40
12.0
 40
12.0
 40
13.0
 40
13.0
 40
13.0
 40
14.0
 40
14.0
 40
14.0
 40
15.0
 40
15.0
 40
15.0
 40
16.0
 40
16.0
 40
16.0
 40
17.0
 40
17.0
 40
17.0
 40
18.0
 40
18.0
 40
18.0
 40
19.0
 40
19.0
 40
19.0
 40
20.0
 40
20.0
 40
20.0
 40
21.0
 40
21.0
 40
21.0
 40
22.0
 40
22.0
 40
22.0
 40
23.0
 40
23.0
 40
23.0
 40
24.0
 40
24.0
 40
24.0
 40
24.0
 10
57.10073512027343
 20
-30.28445637263722
 30
0.0
 10
56.81582572364327
 20
-30.69476724493047
 30
0.0
 10
56.48492430228502
 20
-31.04272188894071
 30
0.0
 10
56.10785860142443
 20
-31.32728677602235
 30
0.0
 10
56.10785860142443
 20
-31.32728677602235
 30
0.0
 10
57.27660724479544
 20
-31.32728677602235
 30
0.0
 10
57.27660724479544
 20
-31.32728677602235
 30
0.0
 10
57.27660724479544
 20
-31.32728677602235
 30
0.0
 10
57.27660724479544
 20
-32.63435600312614
 30
0.0
 10
57.27660724479544
 20
-32.63435600312614
 30
0.0
 10
57.27660724479544
 20
-32.63435600312614
 30
0.0
 10
57.02528752914646
 20
-32.63435600312614
 30
0.0
 10
57.02528752914646
 20
-32.63435600312614
 30
0.0
 10
57.02528752914646
 20
-32.63435600312614
 30
0.0
 10
57.02528752914646
 20
-32.52135687120994
 30
0.0
 10
57.02528752914646
 20
-32.52135687120994
 30
0.0
 10
57.02528752914646
 20
-32.52135687120994
 30
0.0
 10
55.88168808281777
 20
-32.52135687120994
 30
0.0
 10
55.88168808281777
 20
-32.52135687120994
 30
0.0
 10
55.88168808281777
 20
-32.52135687120994
 30
0.0
 10
55.88168808281777
 20
-32.67225205346389
 30
0.0
 10
55.88168808281777
 20
-32.67225205346389
 30
0.0
 10
55.88168808281777
 20
-32.67225205346389
 30
0.0
 10
55.6303683671688
 20
-32.67225205346389
 30
0.0
 10
55.6303683671688
 20
-32.67225205346389
 30
0.0
 10
55.6303683671688
 20
-32.67225205346389
 30
0.0
 10
55.6303683671688
 20
-31.65422633757256
 30
0.0
 10
55.6303683671688
 20
-31.65422633757256
 30
0.0
 10
55.37887639674556
 20
-31.7968532906619
 30
0.0
 10
55.14839950878235
 20
-31.90537379844727
 30
0.0
 10
54.93910995805342
 20
-31.98082138957424
 30
0.0
 10
54.93910995805342
 20
-31.98082138957424
 30
0.0
 10
54.83851316988412
 20
-31.69177787836178
 30
0.0
 10
54.83851316988412
 20
-31.69177787836178
 30
0.0
 10
55.23228758384818
 20
-31.58291286102789
 30
0.0
 10
55.61348739929107
 20
-31.38206379423782
 30
0.0
 10
55.98228487098707
 20
-31.08854165889453
 30
0.0
 10
55.9068372798601
 20
-31.00482583860296
 30
0.0
 10
55.76851669612732
 20
-30.89596082126907
 30
0.0
 10
55.56749537456299
 20
-30.76194660689285
 30
0.0
 10
55.39971922443132
 20
-30.92111001831139
 30
0.0
 10
55.21557887074472
 20
-31.05512423268761
 30
0.0
 10
55.01455754918039
 20
-31.1639892500215
 30
0.0
 10
55.01455754918039
 20
-31.1639892500215
 30
0.0
 10
54.85108776840529
 20
-30.96279567368291
 30
0.0
 10
54.85108776840529
 20
-30.96279567368291
 30
0.0
 10
55.31186928955745
 20
-30.72852918068592
 30
0.0
 10
55.6345024817511
 20
-30.35542533963337
 30
0.0
 10
55.81881509021196
 20
-29.84451767917082
 30
0.0
 10
55.81881509021196
 20
-29.84451767917082
 30
0.0
 10
56.09528400290326
 20
-29.90721841700236
 30
0.0
 10
56.09528400290326
 20
-29.90721841700236
 30
0.0
 10
56.12870142911019
 20
-29.94098035275781
 30
0.0
 10
56.11612683058902
 20
-29.96199543521784
 30
0.0
 10
56.05756020733978
 20
-29.97026366438244
 30
0.0
 10
56.05756020733978
 20
-29.97026366438244
 30
0.0
 10
56.00726181325513
 20
-30.08326279629863
 30
0.0
 10
56.00726181325513
 20
-30.08326279629863
 30
0.0
 10
56.00726181325513
 20
-30.08326279629863
 30
0.0
 10
56.84941540462445
 20
-30.08326279629863
 30
0.0
 10
56.84941540462445
 20
-30.08326279629863
 30
0.0
 10
56.84941540462445
 20
-30.08326279629863
 30
0.0
 10
56.87456460166678
 20
-30.03296440221398
 30
0.0
 10
56.87456460166678
 20
-30.03296440221398
 30
0.0
 10
56.87456460166678
 20
-30.03296440221398
 30
0.0
 10
57.13845891583691
 20
-30.22141112525715
 30
0.0
 10
57.13845891583691
 20
-30.22141112525715
 30
0.0
 10
57.17187634204384
 20
-30.2551730610126
 30
0.0
 10
57.15930174352268
 20
-30.27618814347262
 30
0.0
 10
57.10073512027343
 20
-30.28445637263722
 30
0.0
 10
57.10073512027343
 20
-30.28445637263722
 30
0.0
 10
57.10073512027343
 20
-30.28445637263722
 30
0.0
 10
57.10073512027343
 20
-30.28445637263722
 30
0.0
  0
SPLINE
  5
A8
330
A3
100
AcDbEntity
  8
フォーマット
370
     0
100
AcDbSpline
210
0.0
220
0.0
230
1.0
 70
    11
 71
     3
 72
    20
 73
    16
 74
     0
 42
0.000000001
 43
0.0000000001
 40
0.0
 40
0.0
 40
0.0
 40
0.0
 40
1.0
 40
1.0
 40
1.0
 40
2.0
 40
2.0
 40
2.0
 40
3.0
 40
3.0
 40
3.0
 40
4.0
 40
4.0
 40
4.0
 40
5.0
 40
5.0
 40
5.0
 40
5.0
 10
56.19588079107256
 20
-30.91284178914679
 30
0.0
 10
56.38002114475916
 20
-30.73679740985052
 30
0.0
 10
56.55606552405543
 20
-30.54008245764276
 30
0.0
 10
56.72366941941284
 20
-30.32200791342644
 30
0.0
 10
56.72366941941284
 20
-30.32200791342644
 30
0.0
 10
55.89426268133894
 20
-30.32200791342644
 30
0.0
 10
55.89426268133894
 20
-30.32200791342644
 30
0.0
 10
55.89426268133894
 20
-30.32200791342644
 30
0.0
 10
55.70564370352151
 20
-30.58590222759658
 30
0.0
 10
55.70564370352151
 20
-30.58590222759658
 30
0.0
 10
55.88995631198237
 20
-30.68649901576588
 30
0.0
 10
56.05325383798322
 20
-30.79536403309977
 30
0.0
 10
56.19588079107256
 20
-30.91284178914679
 30
0.0
 10
56.19588079107256
 20
-30.91284178914679
 30
0.0
 10
56.19588079107256
 20
-30.91284178914679
 30
0.0
 10
56.19588079107256
 20
-30.91284178914679
 30
0.0
  0
POLYLINE
  5
A9
330
A3
100
AcDbEntity
  8
フォーマット
370
     0
100
AcDb2dPolyline
 66
     1
 10
0.0
 20
0.0
 30
0.0
  0
VERTEX
  5
AA
330
A9
100
AcDbEntity
  8
フォーマット
370
     0
100
AcDbVertex
100
AcDb2dVertex
 10
57.02528752914646
 20
-31.56603189315016
 30
0.0
  0
VERTEX
  5
AB
330
A9
100
AcDbEntity
  8
フォーマット
370
     0
100
AcDbVertex
100
AcDb2dVertex
 10
55.88168808281777
 20
-31.56603189315016
 30
0.0
  0
VERTEX
  5
AC
330
A9
100
AcDbEntity
  8
フォーマット
370
     0
100
AcDbVertex
100
AcDb2dVertex
 10
55.88168808281777
 20
-32.28261175408213
 30
0.0
  0
VERTEX
  5
AD
330
A9
100
AcDbEntity
  8
フォーマット
370
     0
100
AcDbVertex
100
AcDb2dVertex
 10
57.02528752914646
 20
-32.28261175408213
 30
0.0
  0
VERTEX
  5
AE
330
A9
100
AcDbEntity
  8
フォーマット
370
     0
100
AcDbVertex
100
AcDb2dVertex
 10
57.02528752914646
 20
-31.56603189315016
 30
0.0
  0
SEQEND
  5
AF
330
A9
100
AcDbEntity
  8
フォーマット
370
     0
  0
HATCH
  5
B0
330
A3
100
AcDbEntity
  8
フォーマット
 62
     7
100
AcDbHatch
 10
0.0
 20
0.0
 30
0.0
210
0.0
220
0.0
230
1.0
  2
SOLID
 70
     1
 71
     0
 91
        3
 92
        1
 93
        1
 72
     4
 94
        3
 73
     0
 74
     1
 95
       77
 96
       73
 40
0.0
 40
0.0
 40
0.0
 40
0.0
 40
1.0
 40
1.0
 40
1.0
 40
2.0
 40
2.0
 40
2.0
 40
3.0
 40
3.0
 40
3.0
 40
4.0
 40
4.0
 40
4.0
 40
5.0
 40
5.0
 40
5.0
 40
6.0
 40
6.0
 40
6.0
 40
7.0
 40
7.0
 40
7.0
 40
8.0
 40
8.0
 40
8.0
 40
9.0
 40
9.0
 40
9.0
 40
10.0
 40
10.0
 40
10.0
 40
11.0
 40
11.0
 40
11.0
 40
12.0
 40
12.0
 40
12.0
 40
13.0
 40
13.0
 40
13.0
 40
14.0
 40
14.0
 40
14.0
 40
15.0
 40
15.0
 40
15.0
 40
16.0
 40
16.0
 40
16.0
 40
17.0
 40
17.0
 40
17.0
 40
18.0
 40
18.0
 40
18.0
 40
19.0
 40
19.0
 40
19.0
 40
20.0
 40
20.0
 40
20.0
 40
21.0
 40
21.0
 40
21.0
 40
22.0
 40
22.0
 40
22.0
 40
23.0
 40
23.0
 40
23.0
 40
24.0
 40
24.0
 40
24.0
 40
24.0
 10
57.10073512027343
 20
-30.28445637263722
 10
56.81582572364327
 20
-30.69476724493047
 10
56.48492430228502
 20
-31.04272188894071
 10
56.10785860142443
 20
-31.32728677602235
 10
56.10785860142443
 20
-31.32728677602235
 10
57.27660724479544
 20
-31.32728677602235
 10
57.27660724479544
 20
-31.32728677602235
 10
57.27660724479544
 20
-31.32728677602235
 10
57.27660724479544
 20
-32.63435600312614
 10
57.27660724479544
 20
-32.63435600312614
 10
57.27660724479544
 20
-32.63435600312614
 10
57.02528752914646
 20
-32.63435600312614
 10
57.02528752914646
 20
-32.63435600312614
 10
57.02528752914646
 20
-32.63435600312614
 10
57.02528752914646
 20
-32.52135687120994
 10
57.02528752914646
 20
-32.52135687120994
 10
57.02528752914646
 20
-32.52135687120994
 10
55.88168808281777
 20
-32.52135687120994
 10
55.88168808281777
 20
-32.52135687120994
 10
55.88168808281777
 20
-32.52135687120994
 10
55.88168808281777
 20
-32.67225205346389
 10
55.88168808281777
 20
-32.67225205346389
 10
55.88168808281777
 20
-32.67225205346389
 10
55.6303683671688
 20
-32.67225205346389
 10
55.6303683671688
 20
-32.67225205346389
 10
55.6303683671688
 20
-32.67225205346389
 10
55.6303683671688
 20
-31.65422633757256
 10
55.6303683671688
 20
-31.65422633757256
 10
55.37887639674556
 20
-31.7968532906619
 10
55.14839950878235
 20
-31.90537379844727
 10
54.93910995805342
 20
-31.98082138957424
 10
54.93910995805342
 20
-31.98082138957424
 10
54.83851316988412
 20
-31.69177787836178
 10
54.83851316988412
 20
-31.69177787836178
 10
55.23228758384818
 20
-31.58291286102789
 10
55.61348739929107
 20
-31.38206379423782
 10
55.98228487098707
 20
-31.08854165889453
 10
55.9068372798601
 20
-31.00482583860296
 10
55.76851669612732
 20
-30.89596082126907
 10
55.56749537456299
 20
-30.76194660689285
 10
55.39971922443132
 20
-30.92111001831139
 10
55.21557887074472
 20
-31.05512423268761
 10
55.01455754918039
 20
-31.1639892500215
 10
55.01455754918039
 20
-31.1639892500215
 10
54.85108776840529
 20
-30.96279567368291
 10
54.85108776840529
 20
-30.96279567368291
 10
55.31186928955745
 20
-30.72852918068592
 10
55.6345024817511
 20
-30.35542533963337
 10
55.81881509021196
 20
-29.84451767917082
 10
55.81881509021196
 20
-29.84451767917082
 10
56.09528400290326
 20
-29.90721841700236
 10
56.09528400290326
 20
-29.90721841700236
 10
56.12870142911019
 20
-29.94098035275781
 10
56.11612683058902
 20
-29.96199543521784
 10
56.05756020733978
 20
-29.97026366438244
 10
56.05756020733978
 20
-29.97026366438244
 10
56.00726181325513
 20
-30.08326279629863
 10
56.00726181325513
 20
-30.08326279629863
 10
56.00726181325513
 20
-30.08326279629863
 10
56.84941540462445
 20
-30.08326279629863
 10
56.84941540462445
 20
-30.08326279629863
 10
56.84941540462445
 20
-30.08326279629863
 10
56.87456460166678
 20
-30.03296440221398
 10
56.87456460166678
 20
-30.03296440221398
 10
56.87456460166678
 20
-30.03296440221398
 10
57.13845891583691
 20
-30.22141112525715
 10
57.13845891583691
 20
-30.22141112525715
 10
57.17187634204384
 20
-30.2551730610126
 10
57.15930174352268
 20
-30.27618814347262
 10
57.10073512027343
 20
-30.28445637263722
 10
57.10073512027343
 20
-30.28445637263722
 10
57.10073512027343
 20
-30.28445637263722
 10
57.10073512027343
 20
-30.28445637263722
 97
        0
 97
        0
 92
        1
 93
        1
 72
     4
 94
        3
 73
     0
 74
     1
 95
       20
 96
       16
 40
0.0
 40
0.0
 40
0.0
 40
0.0
 40
1.0
 40
1.0
 40
1.0
 40
2.0
 40
2.0
 40
2.0
 40
3.0
 40
3.0
 40
3.0
 40
4.0
 40
4.0
 40
4.0
 40
5.0
 40
5.0
 40
5.0
 40
5.0
 10
56.19588079107256
 20
-30.91284178914679
 10
56.38002114475916
 20
-30.73679740985052
 10
56.55606552405543
 20
-30.54008245764276
 10
56.72366941941284
 20
-30.32200791342644
 10
56.72366941941284
 20
-30.32200791342644
 10
55.89426268133894
 20
-30.32200791342644
 10
55.89426268133894
 20
-30.32200791342644
 10
55.89426268133894
 20
-30.32200791342644
 10
55.70564370352151
 20
-30.58590222759658
 10
55.70564370352151
 20
-30.58590222759658
 10
55.88995631198237
 20
-30.68649901576588
 10
56.05325383798322
 20
-30.79536403309977
 10
56.19588079107256
 20
-30.91284178914679
 10
56.19588079107256
 20
-30.91284178914679
 10
56.19588079107256
 20
-30.91284178914679
 10
56.19588079107256
 20
-30.91284178914679
 97
        0
 97
        0
 92
        1
 93
        4
 72
     1
 10
57.02528752914646
 20
-31.56603189315016
 11
55.88168808281777
 21
-31.56603189315016
 72
     1
 10
55.88168808281777
 20
-31.56603189315016
 11
55.88168808281777
 21
-32.28261175408213
 72
     1
 10
55.88168808281777
 20
-32.28261175408213
 11
57.02528752914646
 21
-32.28261175408213
 72
     1
 10
57.02528752914646
 20
-32.28261175408213
 11
57.02528752914646
 21
-31.56603189315016
 97
        0
 75
     2
 76
     1
 98
        0
  0
ENDBLK
  5
A6
330
A3
100
AcDbEntity
  8
0
100
AcDbBlockEnd
  0
BLOCK
  5
B3
330
B1
100
AcDbEntity
  8
0
100
AcDbBlockBegin
  2
block 11
 70
     0
 10
0.0
 20
0.0
 30
0.0
  3
block 11
  1

  0
INSERT
  5
B6
330
B1
100
AcDbEntity
  8
フォーマット
100
AcDbBlockReference
  2
block 12
 10
0.0
 20
0.0
 30
0.0
  0
ENDBLK
  5
B4
330
B1
100
AcDbEntity
  8
0
100
AcDbBlockEnd
  0
BLOCK
  5
B7
330
B5
100
AcDbEntity
  8
0
100
AcDbBlockBegin
  2
block 12
 70
     0
 10
0.0
 20
0.0
 30
0.0
  3
block 12
  1

  0
INSERT
  5
BA
330
B5
100
AcDbEntity
  8
フォーマット
100
AcDbBlockReference
  2
block 13
 10
0.0
 20
0.0
 30
0.0
  0
ENDBLK
  5
B8
330
B5
100
AcDbEntity
  8
0
100
AcDbBlockEnd
  0
BLOCK
  5
BB
330
B9
100
AcDbEntity
  8
0
100
AcDbBlockBegin
  2
block 13
 70
     0
 10
0.0
 20
0.0
 30
0.0
  3
block 13
  1

  0
INSERT
  5
BE
330
B9
100
AcDbEntity
  8
フォーマット
100
AcDbBlockReference
  2
block 14
 10
0.0
 20
0.0
 30
0.0
  0
ENDBLK
  5
BC
330
B9
100
AcDbEntity
  8
0
100
AcDbBlockEnd
  0
BLOCK
  5
BF
330
BD
100
AcDbEntity
  8
0
100
AcDbBlockBegin
  2
block 14
 70
     0
 10
0.0
 20
0.0
 30
0.0
  3
block 14
  1

  0
POLYLINE
  5
C1
330
BD
100
AcDbEntity
  8
フォーマット
370
     0
100
AcDb2dPolyline
 66
     1
 10
0.0
 20
0.0
 30
0.0
  0
VERTEX
  5
C2
330
C1
100
AcDbEntity
  8
フォーマット
370
     0
100
AcDbVertex
100
AcDb2dVertex
 10
55.79366589316964
 20
-12.41440158109779
 30
0.0
  0
VERTEX
  5
C3
330
C1
100
AcDbEntity
  8
フォーマット
370
     0
100
AcDbVertex
100
AcDb2dVertex
 10
55.1904296737024
 20
-12.41440158109779
 30
0.0
  0
VERTEX
  5
C4
330
C1
100
AcDbEntity
  8
フォーマット
370
     0
100
AcDbVertex
100
AcDb2dVertex
 10
55.1904296737024
 20
-12.64039984493018
 30
0.0
  0
VERTEX
  5
C5
330
C1
100
AcDbEntity
  8
フォーマット
370
     0
100
AcDbVertex
100
AcDb2dVertex
 10
54.93910995805342
 20
-12.64039984493018
 30
0.0
  0
VERTEX
  5
C6
330
C1
100
AcDbEntity
  8
フォーマット
370
     0
100
AcDbVertex
100
AcDb2dVertex
 10
54.93910995805342
 20
-11.30818142078407
 30
0.0
  0
VERTEX
  5
C7
330
C1
100
AcDbEntity
  8
フォーマット
370
     0
100
AcDbVertex
100
AcDb2dVertex
 10
56.04498560881861
 20
-11.30818142078407
 30
0.0
  0
VERTEX
  5
C8
330
C1
100
AcDbEntity
  8
フォーマット
370
     0
100
AcDbVertex
100
AcDb2dVertex
 10
56.04498560881861
 20
-12.60284830414096
 30
0.0
  0
VERTEX
  5
C9
330
C1
100
AcDbEntity
  8
フォーマット
370
     0
100
AcDbVertex
100
AcDb2dVertex
 10
55.79366589316964
 20
-12.60284830414096
 30
0.0
  0
VERTEX
  5
CA
330
C1
100
AcDbEntity
  8
フォーマット
370
     0
100
AcDbVertex
100
AcDb2dVertex
 10
55.79366589316964
 20
-12.41440158109779
 30
0.0
  0
SEQEND
  5
CB
330
C1
100
AcDbEntity
  8
フォーマット
370
     0
  0
POLYLINE
  5
CC
330
BD
100
AcDbEntity
  8
フォーマット
370
     0
100
AcDb2dPolyline
 66
     1
 10
0.0
 20
0.0
 30
0.0
  0
VERTEX
  5
CD
330
CC
100
AcDbEntity
  8
フォーマット
370
     0
100
AcDbVertex
100
AcDb2dVertex
 10
55.1904296737024
 20
-11.54692653791188
 30
0.0
  0
VERTEX
  5
CE
330
CC
100
AcDbEntity
  8
フォーマット
370
     0
100
AcDbVertex
100
AcDb2dVertex
 10
55.1904296737024
 20
-12.17531195442145
 30
0.0
  0
VERTEX
  5
CF
330
CC
100
AcDbEntity
  8
フォーマット
370
     0
100
AcDbVertex
100
AcDb2dVertex
 10
55.79366589316964
 20
-12.17531195442145
 30
0.0
  0
VERTEX
  5
D0
330
CC
100
AcDbEntity
  8
フォーマット
370
     0
100
AcDbVertex
100
AcDb2dVertex
 10
55.79366589316964
 20
-11.54692653791188
 30
0.0
  0
VERTEX
  5
D1
330
CC
100
AcDbEntity
  8
フォーマット
370
     0
100
AcDbVertex
100
AcDb2dVertex
 10
55.1904296737024
 20
-11.54692653791188
 30
0.0
  0
SEQEND
  5
D2
330
CC
100
AcDbEntity
  8
フォーマット
370
     0
  0
POLYLINE
  5
D3
330
BD
100
AcDbEntity
  8
フォーマット
370
     0
100
AcDb2dPolyline
 66
     1
 10
0.0
 20
0.0
 30
0.0
  0
VERTEX
  5
D4
330
D3
100
AcDbEntity
  8
フォーマット
370
     0
100
AcDbVertex
100
AcDb2dVertex
 10
56.736244017934
 20
-10.99398871252928
 30
0.0
  0
VERTEX
  5
D5
330
D3
100
AcDbEntity
  8
フォーマット
370
     0
100
AcDbVertex
100
AcDb2dVertex
 10
55.6303683671688
 20
-10.99398871252928
 30
0.0
  0
VERTEX
  5
D6
330
D3
100
AcDbEntity
  8
フォーマット
370
     0
100
AcDbVertex
100
AcDb2dVertex
 10
55.6303683671688
 20
-11.08218315695168
 30
0.0
  0
VERTEX
  5
D7
330
D3
100
AcDbEntity
  8
フォーマット
370
     0
100
AcDbVertex
100
AcDb2dVertex
 10
55.37887639674556
 20
-11.08218315695168
 30
0.0
  0
VERTEX
  5
D8
330
D3
100
AcDbEntity
  8
フォーマット
370
     0
100
AcDbVertex
100
AcDb2dVertex
 10
55.37887639674556
 20
-9.913262258806407
 30
0.0
  0
VERTEX
  5
D9
330
D3
100
AcDbEntity
  8
フォーマット
370
     0
100
AcDbVertex
100
AcDb2dVertex
 10
56.98756373358297
 20
-9.913262258806407
 30
0.0
  0
VERTEX
  5
DA
330
D3
100
AcDbEntity
  8
フォーマット
370
     0
100
AcDbVertex
100
AcDb2dVertex
 10
56.98756373358297
 20
-11.05703395990935
 30
0.0
  0
VERTEX
  5
DB
330
D3
100
AcDbEntity
  8
フォーマット
370
     0
100
AcDbVertex
100
AcDb2dVertex
 10
56.736244017934
 20
-11.05703395990935
 30
0.0
  0
VERTEX
  5
DC
330
D3
100
AcDbEntity
  8
フォーマット
370
     0
100
AcDbVertex
100
AcDb2dVertex
 10
56.736244017934
 20
-10.99398871252928
 30
0.0
  0
SEQEND
  5
DD
330
D3
100
AcDbEntity
  8
フォーマット
370
     0
  0
POLYLINE
  5
DE
330
BD
100
AcDbEntity
  8
フォーマット
370
     0
100
AcDb2dPolyline
 66
     1
 10
0.0
 20
0.0
 30
0.0
  0
VERTEX
  5
DF
330
DE
100
AcDbEntity
  8
フォーマット
370
     0
100
AcDbVertex
100
AcDb2dVertex
 10
55.6303683671688
 20
-10.75524359540147
 30
0.0
  0
VERTEX
  5
E0
330
DE
100
AcDbEntity
  8
フォーマット
370
     0
100
AcDbVertex
100
AcDb2dVertex
 10
56.736244017934
 20
-10.75524359540147
 30
0.0
  0
VERTEX
  5
E1
330
DE
100
AcDbEntity
  8
フォーマット
370
     0
100
AcDbVertex
100
AcDb2dVertex
 10
56.736244017934
 20
-10.15200737593422
 30
0.0
  0
VERTEX
  5
E2
330
DE
100
AcDbEntity
  8
フォーマット
370
     0
100
AcDbVertex
100
AcDb2dVertex
 10
55.6303683671688
 20
-10.15200737593422
 30
0.0
  0
VERTEX
  5
E3
330
DE
100
AcDbEntity
  8
フォーマット
370
     0
100
AcDbVertex
100
AcDb2dVertex
 10
55.6303683671688
 20
-10.75524359540147
 30
0.0
  0
SEQEND
  5
E4
330
DE
100
AcDbEntity
  8
フォーマット
370
     0
  0
POLYLINE
  5
E5
330
BD
100
AcDbEntity
  8
フォーマット
370
     0
100
AcDb2dPolyline
 66
     1
 10
0.0
 20
0.0
 30
0.0
  0
VERTEX
  5
E6
330
E5
100
AcDbEntity
  8
フォーマット
370
     0
100
AcDbVertex
100
AcDb2dVertex
 10
57.22648110548505
 20
-12.41440158109779
 30
0.0
  0
VERTEX
  5
E7
330
E5
100
AcDbEntity
  8
フォーマット
370
     0
100
AcDbVertex
100
AcDb2dVertex
 10
56.6232448860178
 20
-12.41440158109779
 30
0.0
  0
VERTEX
  5
E8
330
E5
100
AcDbEntity
  8
フォーマット
370
     0
100
AcDbVertex
100
AcDb2dVertex
 10
56.6232448860178
 20
-12.64039984493018
 30
0.0
  0
VERTEX
  5
E9
330
E5
100
AcDbEntity
  8
フォーマット
370
     0
100
AcDbVertex
100
AcDb2dVertex
 10
56.37175291559456
 20
-12.64039984493018
 30
0.0
  0
VERTEX
  5
EA
330
E5
100
AcDbEntity
  8
フォーマット
370
     0
100
AcDbVertex
100
AcDb2dVertex
 10
56.37175291559456
 20
-11.30818142078407
 30
0.0
  0
VERTEX
  5
EB
330
E5
100
AcDbEntity
  8
フォーマット
370
     0
100
AcDbVertex
100
AcDb2dVertex
 10
57.47780082113402
 20
-11.30818142078407
 30
0.0
  0
VERTEX
  5
EC
330
E5
100
AcDbEntity
  8
フォーマット
370
     0
100
AcDbVertex
100
AcDb2dVertex
 10
57.47780082113402
 20
-12.60284830414096
 30
0.0
  0
VERTEX
  5
ED
330
E5
100
AcDbEntity
  8
フォーマット
370
     0
100
AcDbVertex
100
AcDb2dVertex
 10
57.22648110548505
 20
-12.60284830414096
 30
0.0
  0
VERTEX
  5
EE
330
E5
100
AcDbEntity
  8
フォーマット
370
     0
100
AcDbVertex
100
AcDb2dVertex
 10
57.22648110548505
 20
-12.41440158109779
 30
0.0
  0
SEQEND
  5
EF
330
E5
100
AcDbEntity
  8
フォーマット
370
     0
  0
POLYLINE
  5
F0
330
BD
100
AcDbEntity
  8
フォーマット
370
     0
100
AcDb2dPolyline
 66
     1
 10
0.0
 20
0.0
 30
0.0
  0
VERTEX
  5
F1
330
F0
100
AcDbEntity
  8
フォーマット
370
     0
100
AcDbVertex
100
AcDb2dVertex
 10
56.6232448860178
 20
-11.54692653791188
 30
0.0
  0
VERTEX
  5
F2
330
F0
100
AcDbEntity
  8
フォーマット
370
     0
100
AcDbVertex
100
AcDb2dVertex
 10
56.6232448860178
 20
-12.17531195442145
 30
0.0
  0
VERTEX
  5
F3
330
F0
100
AcDbEntity
  8
フォーマット
370
     0
100
AcDbVertex
100
AcDb2dVertex
 10
57.22648110548505
 20
-12.17531195442145
 30
0.0
  0
VERTEX
  5
F4
330
F0
100
AcDbEntity
  8
フォーマット
370
     0
100
AcDbVertex
100
AcDb2dVertex
 10
57.22648110548505
 20
-11.54692653791188
 30
0.0
  0
VERTEX
  5
F5
330
F0
100
AcDbEntity
  8
フォーマット
370
     0
100
AcDbVertex
100
AcDb2dVertex
 10
56.6232448860178
 20
-11.54692653791188
 30
0.0
  0
SEQEND
  5
F6
330
F0
100
AcDbEntity
  8
フォーマット
370
     0
  0
HATCH
  5
F7
330
BD
100
AcDbEntity
  8
フォーマット
 62
     7
100
AcDbHatch
 10
0.0
 20
0.0
 30
0.0
210
0.0
220
0.0
230
1.0
  2
SOLID
 70
     1
 71
     0
 91
        6
 92
        1
 93
        8
 72
     1
 10
55.79366589316964
 20
-12.41440158109779
 11
55.1904296737024
 21
-12.41440158109779
 72
     1
 10
55.1904296737024
 20
-12.41440158109779
 11
55.1904296737024
 21
-12.64039984493018
 72
     1
 10
55.1904296737024
 20
-12.64039984493018
 11
54.93910995805342
 21
-12.64039984493018
 72
     1
 10
54.93910995805342
 20
-12.64039984493018
 11
54.93910995805342
 21
-11.30818142078407
 72
     1
 10
54.93910995805342
 20
-11.30818142078407
 11
56.04498560881861
 21
-11.30818142078407
 72
     1
 10
56.04498560881861
 20
-11.30818142078407
 11
56.04498560881861
 21
-12.60284830414096
 72
     1
 10
56.04498560881861
 20
-12.60284830414096
 11
55.79366589316964
 21
-12.60284830414096
 72
     1
 10
55.79366589316964
 20
-12.60284830414096
 11
55.79366589316964
 21
-12.41440158109779
 97
        0
 92
        1
 93
        4
 72
     1
 10
55.1904296737024
 20
-11.54692653791188
 11
55.1904296737024
 21
-12.17531195442145
 72
     1
 10
55.1904296737024
 20
-12.17531195442145
 11
55.79366589316964
 21
-12.17531195442145
 72
     1
 10
55.79366589316964
 20
-12.17531195442145
 11
55.79366589316964
 21
-11.54692653791188
 72
     1
 10
55.79366589316964
 20
-11.54692653791188
 11
55.1904296737024
 21
-11.54692653791188
 97
        0
 92
        1
 93
        8
 72
     1
 10
56.736244017934
 20
-10.99398871252928
 11
55.6303683671688
 21
-10.99398871252928
 72
     1
 10
55.6303683671688
 20
-10.99398871252928
 11
55.6303683671688
 21
-11.08218315695168
 72
     1
 10
55.6303683671688
 20
-11.08218315695168
 11
55.37887639674556
 21
-11.08218315695168
 72
     1
 10
55.37887639674556
 20
-11.08218315695168
 11
55.37887639674556
 21
-9.913262258806407
 72
     1
 10
55.37887639674556
 20
-9.913262258806407
 11
56.98756373358297
 21
-9.913262258806407
 72
     1
 10
56.98756373358297
 20
-9.913262258806407
 11
56.98756373358297
 21
-11.05703395990935
 72
     1
 10
56.98756373358297
 20
-11.05703395990935
 11
56.736244017934
 21
-11.05703395990935
 72
     1
 10
56.736244017934
 20
-11.05703395990935
 11
56.736244017934
 21
-10.99398871252928
 97
        0
 92
        1
 93
        4
 72
     1
 10
55.6303683671688
 20
-10.75524359540147
 11
56.736244017934
 21
-10.75524359540147
 72
     1
 10
56.736244017934
 20
-10.75524359540147
 11
56.736244017934
 21
-10.15200737593422
 72
     1
 10
56.736244017934
 20
-10.15200737593422
 11
55.6303683671688
 21
-10.15200737593422
 72
     1
 10
55.6303683671688
 20
-10.15200737593422
 11
55.6303683671688
 21
-10.75524359540147
 97
        0
 92
        1
 93
        8
 72
     1
 10
57.22648110548505
 20
-12.41440158109779
 11
56.6232448860178
 21
-12.41440158109779
 72
     1
 10
56.6232448860178
 20
-12.41440158109779
 11
56.6232448860178
 21
-12.64039984493018
 72
     1
 10
56.6232448860178
 20
-12.64039984493018
 11
56.37175291559456
 21
-12.64039984493018
 72
     1
 10
56.37175291559456
 20
-12.64039984493018
 11
56.37175291559456
 21
-11.30818142078407
 72
     1
 10
56.37175291559456
 20
-11.30818142078407
 11
57.47780082113402
 21
-11.30818142078407
 72
     1
 10
57.47780082113402
 20
-11.30818142078407
 11
57.47780082113402
 21
-12.60284830414096
 72
     1
 10
57.47780082113402
 20
-12.60284830414096
 11
57.22648110548505
 21
-12.60284830414096
 72
     1
 10
57.22648110548505
 20
-12.60284830414096
 11
57.22648110548505
 21
-12.41440158109779
 97
        0
 92
        1
 93
        4
 72
     1
 10
56.6232448860178
 20
-11.54692653791188
 11
56.6232448860178
 21
-12.17531195442145
 72
     1
 10
56.6232448860178
 20
-12.17531195442145
 11
57.22648110548505
 21
-12.17531195442145
 72
     1
 10
57.22648110548505
 20
-12.17531195442145
 11
57.22648110548505
 21
-11.54692653791188
 72
     1
 10
57.22648110548505
 20
-11.54692653791188
 11
56.6232448860178
 21
-11.54692653791188
 97
        0
 75
     2
 76
     1
 98
        0
  0
ENDBLK
  5
C0
330
BD
100
AcDbEntity
  8
0
100
AcDbBlockEnd
  0
BLOCK
  5
FA
330
F8
100
AcDbEntity
  8
0
100
AcDbBlockBegin
  2
block 15
 70
     0
 10
0.0
 20
0.0
 30
0.0
  3
block 15
  1

  0
INSERT
  5
FD
330
F8
100
AcDbEntity
  8
フォーマット
100
AcDbBlockReference
  2
block 16
 10
0.0
 20
0.0
 30
0.0
  0
ENDBLK
  5
FB
330
F8
100
AcDbEntity
  8
0
100
AcDbBlockEnd
  0
BLOCK
  5
FE
330
FC
100
AcDbEntity
  8
0
100
AcDbBlockBegin
  2
block 16
 70
     0
 10
0.0
 20
0.0
 30
0.0
  3
block 16
  1

  0
INSERT
  5
101
330
FC
100
AcDbEntity
  8
フォーマット
100
AcDbBlockReference
  2
block 17
 10
0.0
 20
0.0
 30
0.0
  0
ENDBLK
  5
FF
330
FC
100
AcDbEntity
  8
0
100
AcDbBlockEnd
  0
BLOCK
  5
102
330
100
100
AcDbEntity
  8
0
100
AcDbBlockBegin
  2
block 17
 70
     0
 10
0.0
 20
0.0
 30
0.0
  3
block 17
  1

  0
INSERT
  5
105
330
100
100
AcDbEntity
  8
フォーマット
100
AcDbBlockReference
  2
block 18
 10
0.0
 20
0.0
 30
0.0
  0
ENDBLK
  5
103
330
100
100
AcDbEntity
  8
0
100
AcDbBlockEnd
  0
BLOCK
  5
106
330
104
100
AcDbEntity
  8
0
100
AcDbBlockBegin
  2
block 18
 70
     0
 10
0.0
 20
0.0
 30
0.0
  3
block 18
  1

  0
SPLINE
  5
108
330
104
100
AcDbEntity
  8
フォーマット
370
     0
100
AcDbSpline
210
0.0
220
0.0
230
1.0
 70
    11
 71
     3
 72
   119
 73
   115
 74
     0
 42
0.000000001
 43
0.0000000001
 40
0.0
 40
0.0
 40
0.0
 40
0.0
 40
1.0
 40
1.0
 40
1.0
 40
2.0
 40
2.0
 40
2.0
 40
3.0
 40
3.0
 40
3.0
 40
4.0
 40
4.0
 40
4.0
 40
5.0
 40
5.0
 40
5.0
 40
6.0
 40
6.0
 40
6.0
 40
7.0
 40
7.0
 40
7.0
 40
8.0
 40
8.0
 40
8.0
 40
9.0
 40
9.0
 40
9.0
 40
10.0
 40
10.0
 40
10.0
 40
11.0
 40
11.0
 40
11.0
 40
12.0
 40
12.0
 40
12.0
 40
13.0
 40
13.0
 40
13.0
 40
14.0
 40
14.0
 40
14.0
 40
15.0
 40
15.0
 40
15.0
 40
16.0
 40
16.0
 40
16.0
 40
17.0
 40
17.0
 40
17.0
 40
18.0
 40
18.0
 40
18.0
 40
19.0
 40
19.0
 40
19.0
 40
20.0
 40
20.0
 40
20.0
 40
21.0
 40
21.0
 40
21.0
 40
22.0
 40
22.0
 40
22.0
 40
23.0
 40
23.0
 40
23.0
 40
24.0
 40
24.0
 40
24.0
 40
25.0
 40
25.0
 40
25.0
 40
26.0
 40
26.0
 40
26.0
 40
27.0
 40
27.0
 40
27.0
 40
28.0
 40
28.0
 40
28.0
 40
29.0
 40
29.0
 40
29.0
 40
30.0
 40
30.0
 40
30.0
 40
31.0
 40
31.0
 40
31.0
 40
32.0
 40
32.0
 40
32.0
 40
33.0
 40
33.0
 40
33.0
 40
34.0
 40
34.0
 40
34.0
 40
35.0
 40
35.0
 40
35.0
 40
36.0
 40
36.0
 40
36.0
 40
37.0
 40
37.0
 40
37.0
 40
38.0
 40
38.0
 40
38.0
 40
38.0
 10
56.57311874670742
 20
-15.88085665835618
 30
0.0
 10
56.82443846235639
 20
-16.09893120257249
 30
0.0
 10
57.17635496617466
 20
-16.27497558186876
 30
0.0
 10
57.62869600338797
 20
-16.40864528669645
 30
0.0
 10
57.62869600338797
 20
-16.40864528669645
 30
0.0
 10
57.5408460685141
 20
-16.69768879790891
 30
0.0
 10
57.5408460685141
 20
-16.69768879790891
 30
0.0
 10
57.37306991838243
 20
-16.64739040382426
 30
0.0
 10
57.25576441710967
 20
-16.59709200973962
 30
0.0
 10
57.18892956469583
 20
-16.54713812520349
 30
0.0
 10
57.18892956469583
 20
-16.54713812520349
 30
0.0
 10
57.18892956469583
 20
-17.71571451380024
 30
0.0
 10
57.18892956469583
 20
-17.71571451380024
 30
0.0
 10
57.18892956469583
 20
-17.71571451380024
 30
0.0
 10
56.93760984904685
 20
-17.71571451380024
 30
0.0
 10
56.93760984904685
 20
-17.71571451380024
 30
0.0
 10
56.93760984904685
 20
-17.71571451380024
 30
0.0
 10
56.93760984904685
 20
-17.58996852858862
 30
0.0
 10
56.93760984904685
 20
-17.58996852858862
 30
0.0
 10
56.93760984904685
 20
-17.58996852858862
 30
0.0
 10
55.50479463673144
 20
-17.58996852858862
 30
0.0
 10
55.50479463673144
 20
-17.58996852858862
 30
0.0
 10
55.50479463673144
 20
-17.58996852858862
 30
0.0
 10
55.50479463673144
 20
-17.75361056413799
 30
0.0
 10
55.50479463673144
 20
-17.75361056413799
 30
0.0
 10
55.50479463673144
 20
-17.75361056413799
 30
0.0
 10
55.25347492108246
 20
-17.75361056413799
 30
0.0
 10
55.25347492108246
 20
-17.75361056413799
 30
0.0
 10
55.25347492108246
 20
-17.75361056413799
 30
0.0
 10
55.25347492108246
 20
-16.58468966599272
 30
0.0
 10
55.25347492108246
 20
-16.58468966599272
 30
0.0
 10
55.16958684601664
 20
-16.63498806007737
 30
0.0
 10
55.04401311557928
 20
-16.68528645416201
 30
0.0
 10
54.87640922022187
 20
-16.73558484824666
 30
0.0
 10
54.87640922022187
 20
-16.73558484824666
 30
0.0
 10
54.73826089126335
 20
-16.49683973111885
 30
0.0
 10
54.73826089126335
 20
-16.49683973111885
 30
0.0
 10
55.16545273143434
 20
-16.37109374590723
 30
0.0
 10
55.53821206293836
 20
-16.16576605498634
 30
0.0
 10
55.85671114054971
 20
-15.88085665835618
 30
0.0
 10
55.85671114054971
 20
-15.88085665835618
 30
0.0
 10
54.82611082613722
 20
-15.88085665835618
 30
0.0
 10
54.82611082613722
 20
-15.88085665835618
 30
0.0
 10
54.82611082613722
 20
-15.88085665835618
 30
0.0
 10
54.82611082613722
 20
-15.64211154122836
 30
0.0
 10
54.82611082613722
 20
-15.64211154122836
 30
0.0
 10
54.82611082613722
 20
-15.64211154122836
 30
0.0
 10
55.50479463673144
 20
-15.64211154122836
 30
0.0
 10
55.50479463673144
 20
-15.64211154122836
 30
0.0
 10
55.42934704560447
 20
-15.53324652389447
 30
0.0
 10
55.36664630777292
 20
-15.4495307036029
 30
0.0
 10
55.31634791368828
 20
-15.39061957080512
 30
0.0
 10
55.31634791368828
 20
-15.39061957080512
 30
0.0
 10
55.52994383377376
 20
-15.30276963593125
 30
0.0
 10
55.52994383377376
 20
-15.30276963593125
 30
0.0
 10
55.60539142490074
 20
-15.36994899789362
 30
0.0
 10
55.67636039189689
 20
-15.4577989327675
 30
0.0
 10
55.74353975385926
 20
-15.56666395010139
 30
0.0
 10
55.74353975385926
 20
-15.56666395010139
 30
0.0
 10
55.56766762933725
 20
-15.64211154122836
 30
0.0
 10
55.56766762933725
 20
-15.64211154122836
 30
0.0
 10
55.56766762933725
 20
-15.64211154122836
 30
0.0
 10
56.0703070606352
 20
-15.64211154122836
 30
0.0
 10
56.0703070606352
 20
-15.64211154122836
 30
0.0
 10
56.0703070606352
 20
-15.64211154122836
 30
0.0
 10
56.0703070606352
 20
-15.22732204480428
 30
0.0
 10
56.0703070606352
 20
-15.22732204480428
 30
0.0
 10
56.0703070606352
 20
-15.22732204480428
 30
0.0
 10
55.05245359951814
 20
-15.2524712418466
 30
0.0
 10
55.05245359951814
 20
-15.2524712418466
 30
0.0
 10
55.05245359951814
 20
-15.2524712418466
 30
0.0
 10
54.97700600839116
 20
-15.05127766550801
 30
0.0
 10
54.97700600839116
 20
-15.05127766550801
 30
0.0
 10
55.93215873167669
 20
-15.03474120717881
 30
0.0
 10
56.64839408306013
 20
-14.98444281309417
 30
0.0
 10
57.12605657209001
 20
-14.9007269928026
 30
0.0
 10
57.12605657209001
 20
-14.9007269928026
 30
0.0
 10
57.25180255730164
 20
-15.11432291288809
 30
0.0
 10
57.25180255730164
 20
-15.11432291288809
 30
0.0
 10
57.26833901563084
 20
-15.15635307780813
 30
0.0
 10
57.23922795878048
 20
-15.16462130697273
 30
0.0
 10
57.1637803676535
 20
-15.13947210993041
 30
0.0
 10
57.1637803676535
 20
-15.13947210993041
 30
0.0
 10
56.32179903105844
 20
-15.20217284776196
 30
0.0
 10
56.32179903105844
 20
-15.20217284776196
 30
0.0
 10
56.32179903105844
 20
-15.20217284776196
 30
0.0
 10
56.32179903105844
 20
-15.64211154122836
 30
0.0
 10
56.32179903105844
 20
-15.64211154122836
 30
0.0
 10
56.32179903105844
 20
-15.64211154122836
 30
0.0
 10
56.56054414818625
 20
-15.64211154122836
 30
0.0
 10
56.56054414818625
 20
-15.64211154122836
 30
0.0
 10
56.56054414818625
 20
-15.64211154122836
 30
0.0
 10
56.82443846235639
 20
-15.20217284776196
 30
0.0
 10
56.82443846235639
 20
-15.20217284776196
 30
0.0
 10
56.82443846235639
 20
-15.20217284776196
 30
0.0
 10
57.05060898096305
 20
-15.32791883297358
 30
0.0
 10
57.05060898096305
 20
-15.32791883297358
 30
0.0
 10
57.09246689110883
 20
-15.36994899789362
 30
0.0
 10
57.07989229258767
 20
-15.38648545622282
 30
0.0
 10
57.01288518539956
 20
-15.37821722705822
 30
0.0
 10
57.01288518539956
 20
-15.37821722705822
 30
0.0
 10
56.81186386383523
 20
-15.64211154122836
 30
0.0
 10
56.81186386383523
 20
-15.64211154122836
 30
0.0
 10
56.81186386383523
 20
-15.64211154122836
 30
0.0
 10
57.56599526555642
 20
-15.64211154122836
 30
0.0
 10
57.56599526555642
 20
-15.64211154122836
 30
0.0
 10
57.56599526555642
 20
-15.64211154122836
 30
0.0
 10
57.56599526555642
 20
-15.88085665835618
 30
0.0
 10
57.56599526555642
 20
-15.88085665835618
 30
0.0
 10
57.56599526555642
 20
-15.88085665835618
 30
0.0
 10
56.57311874670742
 20
-15.88085665835618
 30
0.0
 10
56.57311874670742
 20
-15.88085665835618
 30
0.0
 10
56.57311874670742
 20
-15.88085665835618
 30
0.0
 10
56.57311874670742
 20
-15.88085665835618
 30
0.0
 10
56.57311874670742
 20
-15.88085665835618
 30
0.0
  0
SPLINE
  5
109
330
104
100
AcDbEntity
  8
フォーマット
370
     0
100
AcDbSpline
210
0.0
220
0.0
230
1.0
 70
    11
 71
     3
 72
    23
 73
    19
 74
     0
 42
0.000000001
 43
0.0000000001
 40
0.0
 40
0.0
 40
0.0
 40
0.0
 40
1.0
 40
1.0
 40
1.0
 40
2.0
 40
2.0
 40
2.0
 40
3.0
 40
3.0
 40
3.0
 40
4.0
 40
4.0
 40
4.0
 40
5.0
 40
5.0
 40
5.0
 40
6.0
 40
6.0
 40
6.0
 40
6.0
 10
57.03803438244189
 20
-16.48409287782342
 30
0.0
 10
56.81186386383523
 20
-16.39210882836725
 30
0.0
 10
56.57311874670742
 20
-16.22881130236641
 30
0.0
 10
56.32179903105844
 20
-15.99385579027237
 30
0.0
 10
56.32179903105844
 20
-15.99385579027237
 30
0.0
 10
56.32179903105844
 20
-16.42139213999187
 30
0.0
 10
56.32179903105844
 20
-16.42139213999187
 30
0.0
 10
56.32179903105844
 20
-16.42139213999187
 30
0.0
 10
56.0703070606352
 20
-16.42139213999187
 30
0.0
 10
56.0703070606352
 20
-16.42139213999187
 30
0.0
 10
56.0703070606352
 20
-16.42139213999187
 30
0.0
 10
56.0703070606352
 20
-15.99385579027237
 30
0.0
 10
56.0703070606352
 20
-15.99385579027237
 30
0.0
 10
55.86928573907088
 20
-16.21193033448868
 30
0.0
 10
55.65138344962882
 20
-16.37522786048953
 30
0.0
 10
55.41677244708331
 20
-16.48409287782342
 30
0.0
 10
55.41677244708331
 20
-16.48409287782342
 30
0.0
 10
57.03803438244189
 20
-16.48409287782342
 30
0.0
 10
57.03803438244189
 20
-16.48409287782342
 30
0.0
  0
POLYLINE
  5
10A
330
104
100
AcDbEntity
  8
フォーマット
370
     0
100
AcDb2dPolyline
 66
     1
 10
0.0
 20
0.0
 30
0.0
  0
VERTEX
  5
10B
330
10A
100
AcDbEntity
  8
フォーマット
370
     0
100
AcDbVertex
100
AcDb2dVertex
 10
56.0703070606352
 20
-16.93643391503673
 30
0.0
  0
VERTEX
  5
10C
330
10A
100
AcDbEntity
  8
フォーマット
370
     0
100
AcDbVertex
100
AcDb2dVertex
 10
56.0703070606352
 20
-16.68528645416201
 30
0.0
  0
VERTEX
  5
10D
330
10A
100
AcDbEntity
  8
フォーマット
370
     0
100
AcDbVertex
100
AcDb2dVertex
 10
55.50479463673144
 20
-16.68528645416201
 30
0.0
  0
VERTEX
  5
10E
330
10A
100
AcDbEntity
  8
フォーマット
370
     0
100
AcDbVertex
100
AcDb2dVertex
 10
55.50479463673144
 20
-16.93643391503673
 30
0.0
  0
VERTEX
  5
10F
330
10A
100
AcDbEntity
  8
フォーマット
370
     0
100
AcDbVertex
100
AcDb2dVertex
 10
56.0703070606352
 20
-16.93643391503673
 30
0.0
  0
SEQEND
  5
110
330
10A
100
AcDbEntity
  8
フォーマット
370
     0
  0
POLYLINE
  5
111
330
104
100
AcDbEntity
  8
フォーマット
370
     0
100
AcDb2dPolyline
 66
     1
 10
0.0
 20
0.0
 30
0.0
  0
VERTEX
  5
112
330
111
100
AcDbEntity
  8
フォーマット
370
     0
100
AcDbVertex
100
AcDb2dVertex
 10
56.0703070606352
 20
-17.13762749137532
 30
0.0
  0
VERTEX
  5
113
330
111
100
AcDbEntity
  8
フォーマット
370
     0
100
AcDbVertex
100
AcDb2dVertex
 10
55.50479463673144
 20
-17.13762749137532
 30
0.0
  0
VERTEX
  5
114
330
111
100
AcDbEntity
  8
フォーマット
370
     0
100
AcDbVertex
100
AcDb2dVertex
 10
55.50479463673144
 20
-17.38911946179855
 30
0.0
  0
VERTEX
  5
115
330
111
100
AcDbEntity
  8
フォーマット
370
     0
100
AcDbVertex
100
AcDb2dVertex
 10
56.0703070606352
 20
-17.38911946179855
 30
0.0
  0
VERTEX
  5
116
330
111
100
AcDbEntity
  8
フォーマット
370
     0
100
AcDbVertex
100
AcDb2dVertex
 10
56.0703070606352
 20
-17.13762749137532
 30
0.0
  0
SEQEND
  5
117
330
111
100
AcDbEntity
  8
フォーマット
370
     0
  0
POLYLINE
  5
118
330
104
100
AcDbEntity
  8
フォーマット
370
     0
100
AcDb2dPolyline
 66
     1
 10
0.0
 20
0.0
 30
0.0
  0
VERTEX
  5
119
330
118
100
AcDbEntity
  8
フォーマット
370
     0
100
AcDbVertex
100
AcDb2dVertex
 10
56.93760984904685
 20
-16.93643391503673
 30
0.0
  0
VERTEX
  5
11A
330
118
100
AcDbEntity
  8
フォーマット
370
     0
100
AcDbVertex
100
AcDb2dVertex
 10
56.93760984904685
 20
-16.68528645416201
 30
0.0
  0
VERTEX
  5
11B
330
118
100
AcDbEntity
  8
フォーマット
370
     0
100
AcDbVertex
100
AcDb2dVertex
 10
56.32179903105844
 20
-16.68528645416201
 30
0.0
  0
VERTEX
  5
11C
330
118
100
AcDbEntity
  8
フォーマット
370
     0
100
AcDbVertex
100
AcDb2dVertex
 10
56.32179903105844
 20
-16.93643391503673
 30
0.0
  0
VERTEX
  5
11D
330
118
100
AcDbEntity
  8
フォーマット
370
     0
100
AcDbVertex
100
AcDb2dVertex
 10
56.93760984904685
 20
-16.93643391503673
 30
0.0
  0
SEQEND
  5
11E
330
118
100
AcDbEntity
  8
フォーマット
370
     0
  0
POLYLINE
  5
11F
330
104
100
AcDbEntity
  8
フォーマット
370
     0
100
AcDb2dPolyline
 66
     1
 10
0.0
 20
0.0
 30
0.0
  0
VERTEX
  5
120
330
11F
100
AcDbEntity
  8
フォーマット
370
     0
100
AcDbVertex
100
AcDb2dVertex
 10
56.93760984904685
 20
-17.38911946179855
 30
0.0
  0
VERTEX
  5
121
330
11F
100
AcDbEntity
  8
フォーマット
370
     0
100
AcDbVertex
100
AcDb2dVertex
 10
56.93760984904685
 20
-17.13762749137532
 30
0.0
  0
VERTEX
  5
122
330
11F
100
AcDbEntity
  8
フォーマット
370
     0
100
AcDbVertex
100
AcDb2dVertex
 10
56.32179903105844
 20
-17.13762749137532
 30
0.0
  0
VERTEX
  5
123
330
11F
100
AcDbEntity
  8
フォーマット
370
     0
100
AcDbVertex
100
AcDb2dVertex
 10
56.32179903105844
 20
-17.38911946179855
 30
0.0
  0
VERTEX
  5
124
330
11F
100
AcDbEntity
  8
フォーマット
370
     0
100
AcDbVertex
100
AcDb2dVertex
 10
56.93760984904685
 20
-17.38911946179855
 30
0.0
  0
SEQEND
  5
125
330
11F
100
AcDbEntity
  8
フォーマット
370
     0
  0
HATCH
  5
126
330
104
100
AcDbEntity
  8
フォーマット
 62
     7
100
AcDbHatch
 10
0.0
 20
0.0
 30
0.0
210
0.0
220
0.0
230
1.0
  2
SOLID
 70
     1
 71
     0
 91
        6
 92
        1
 93
        1
 72
     4
 94
        3
 73
     0
 74
     1
 95
      119
 96
      115
 40
0.0
 40
0.0
 40
0.0
 40
0.0
 40
1.0
 40
1.0
 40
1.0
 40
2.0
 40
2.0
 40
2.0
 40
3.0
 40
3.0
 40
3.0
 40
4.0
 40
4.0
 40
4.0
 40
5.0
 40
5.0
 40
5.0
 40
6.0
 40
6.0
 40
6.0
 40
7.0
 40
7.0
 40
7.0
 40
8.0
 40
8.0
 40
8.0
 40
9.0
 40
9.0
 40
9.0
 40
10.0
 40
10.0
 40
10.0
 40
11.0
 40
11.0
 40
11.0
 40
12.0
 40
12.0
 40
12.0
 40
13.0
 40
13.0
 40
13.0
 40
14.0
 40
14.0
 40
14.0
 40
15.0
 40
15.0
 40
15.0
 40
16.0
 40
16.0
 40
16.0
 40
17.0
 40
17.0
 40
17.0
 40
18.0
 40
18.0
 40
18.0
 40
19.0
 40
19.0
 40
19.0
 40
20.0
 40
20.0
 40
20.0
 40
21.0
 40
21.0
 40
21.0
 40
22.0
 40
22.0
 40
22.0
 40
23.0
 40
23.0
 40
23.0
 40
24.0
 40
24.0
 40
24.0
 40
25.0
 40
25.0
 40
25.0
 40
26.0
 40
26.0
 40
26.0
 40
27.0
 40
27.0
 40
27.0
 40
28.0
 40
28.0
 40
28.0
 40
29.0
 40
29.0
 40
29.0
 40
30.0
 40
30.0
 40
30.0
 40
31.0
 40
31.0
 40
31.0
 40
32.0
 40
32.0
 40
32.0
 40
33.0
 40
33.0
 40
33.0
 40
34.0
 40
34.0
 40
34.0
 40
35.0
 40
35.0
 40
35.0
 40
36.0
 40
36.0
 40
36.0
 40
37.0
 40
37.0
 40
37.0
 40
38.0
 40
38.0
 40
38.0
 40
38.0
 10
56.57311874670742
 20
-15.88085665835618
 10
56.82443846235639
 20
-16.09893120257249
 10
57.17635496617466
 20
-16.27497558186876
 10
57.62869600338797
 20
-16.40864528669645
 10
57.62869600338797
 20
-16.40864528669645
 10
57.5408460685141
 20
-16.69768879790891
 10
57.5408460685141
 20
-16.69768879790891
 10
57.37306991838243
 20
-16.64739040382426
 10
57.25576441710967
 20
-16.59709200973962
 10
57.18892956469583
 20
-16.54713812520349
 10
57.18892956469583
 20
-16.54713812520349
 10
57.18892956469583
 20
-17.71571451380024
 10
57.18892956469583
 20
-17.71571451380024
 10
57.18892956469583
 20
-17.71571451380024
 10
56.93760984904685
 20
-17.71571451380024
 10
56.93760984904685
 20
-17.71571451380024
 10
56.93760984904685
 20
-17.71571451380024
 10
56.93760984904685
 20
-17.58996852858862
 10
56.93760984904685
 20
-17.58996852858862
 10
56.93760984904685
 20
-17.58996852858862
 10
55.50479463673144
 20
-17.58996852858862
 10
55.50479463673144
 20
-17.58996852858862
 10
55.50479463673144
 20
-17.58996852858862
 10
55.50479463673144
 20
-17.75361056413799
 10
55.50479463673144
 20
-17.75361056413799
 10
55.50479463673144
 20
-17.75361056413799
 10
55.25347492108246
 20
-17.75361056413799
 10
55.25347492108246
 20
-17.75361056413799
 10
55.25347492108246
 20
-17.75361056413799
 10
55.25347492108246
 20
-16.58468966599272
 10
55.25347492108246
 20
-16.58468966599272
 10
55.16958684601664
 20
-16.63498806007737
 10
55.04401311557928
 20
-16.68528645416201
 10
54.87640922022187
 20
-16.73558484824666
 10
54.87640922022187
 20
-16.73558484824666
 10
54.73826089126335
 20
-16.49683973111885
 10
54.73826089126335
 20
-16.49683973111885
 10
55.16545273143434
 20
-16.37109374590723
 10
55.53821206293836
 20
-16.16576605498634
 10
55.85671114054971
 20
-15.88085665835618
 10
55.85671114054971
 20
-15.88085665835618
 10
54.82611082613722
 20
-15.88085665835618
 10
54.82611082613722
 20
-15.88085665835618
 10
54.82611082613722
 20
-15.88085665835618
 10
54.82611082613722
 20
-15.64211154122836
 10
54.82611082613722
 20
-15.64211154122836
 10
54.82611082613722
 20
-15.64211154122836
 10
55.50479463673144
 20
-15.64211154122836
 10
55.50479463673144
 20
-15.64211154122836
 10
55.42934704560447
 20
-15.53324652389447
 10
55.36664630777292
 20
-15.4495307036029
 10
55.31634791368828
 20
-15.39061957080512
 10
55.31634791368828
 20
-15.39061957080512
 10
55.52994383377376
 20
-15.30276963593125
 10
55.52994383377376
 20
-15.30276963593125
 10
55.60539142490074
 20
-15.36994899789362
 10
55.67636039189689
 20
-15.4577989327675
 10
55.74353975385926
 20
-15.56666395010139
 10
55.74353975385926
 20
-15.56666395010139
 10
55.56766762933725
 20
-15.64211154122836
 10
55.56766762933725
 20
-15.64211154122836
 10
55.56766762933725
 20
-15.64211154122836
 10
56.0703070606352
 20
-15.64211154122836
 10
56.0703070606352
 20
-15.64211154122836
 10
56.0703070606352
 20
-15.64211154122836
 10
56.0703070606352
 20
-15.22732204480428
 10
56.0703070606352
 20
-15.22732204480428
 10
56.0703070606352
 20
-15.22732204480428
 10
55.05245359951814
 20
-15.2524712418466
 10
55.05245359951814
 20
-15.2524712418466
 10
55.05245359951814
 20
-15.2524712418466
 10
54.97700600839116
 20
-15.05127766550801
 10
54.97700600839116
 20
-15.05127766550801
 10
55.93215873167669
 20
-15.03474120717881
 10
56.64839408306013
 20
-14.98444281309417
 10
57.12605657209001
 20
-14.9007269928026
 10
57.12605657209001
 20
-14.9007269928026
 10
57.25180255730164
 20
-15.11432291288809
 10
57.25180255730164
 20
-15.11432291288809
 10
57.26833901563084
 20
-15.15635307780813
 10
57.23922795878048
 20
-15.16462130697273
 10
57.1637803676535
 20
-15.13947210993041
 10
57.1637803676535
 20
-15.13947210993041
 10
56.32179903105844
 20
-15.20217284776196
 10
56.32179903105844
 20
-15.20217284776196
 10
56.32179903105844
 20
-15.20217284776196
 10
56.32179903105844
 20
-15.64211154122836
 10
56.32179903105844
 20
-15.64211154122836
 10
56.32179903105844
 20
-15.64211154122836
 10
56.56054414818625
 20
-15.64211154122836
 10
56.56054414818625
 20
-15.64211154122836
 10
56.56054414818625
 20
-15.64211154122836
 10
56.82443846235639
 20
-15.20217284776196
 10
56.82443846235639
 20
-15.20217284776196
 10
56.82443846235639
 20
-15.20217284776196
 10
57.05060898096305
 20
-15.32791883297358
 10
57.05060898096305
 20
-15.32791883297358
 10
57.09246689110883
 20
-15.36994899789362
 10
57.07989229258767
 20
-15.38648545622282
 10
57.01288518539956
 20
-15.37821722705822
 10
57.01288518539956
 20
-15.37821722705822
 10
56.81186386383523
 20
-15.64211154122836
 10
56.81186386383523
 20
-15.64211154122836
 10
56.81186386383523
 20
-15.64211154122836
 10
57.56599526555642
 20
-15.64211154122836
 10
57.56599526555642
 20
-15.64211154122836
 10
57.56599526555642
 20
-15.64211154122836
 10
57.56599526555642
 20
-15.88085665835618
 10
57.56599526555642
 20
-15.88085665835618
 10
57.56599526555642
 20
-15.88085665835618
 10
56.57311874670742
 20
-15.88085665835618
 10
56.57311874670742
 20
-15.88085665835618
 10
56.57311874670742
 20
-15.88085665835618
 10
56.57311874670742
 20
-15.88085665835618
 10
56.57311874670742
 20
-15.88085665835618
 97
        0
 97
        0
 92
        1
 93
        1
 72
     4
 94
        3
 73
     0
 74
     1
 95
       23
 96
       19
 40
0.0
 40
0.0
 40
0.0
 40
0.0
 40
1.0
 40
1.0
 40
1.0
 40
2.0
 40
2.0
 40
2.0
 40
3.0
 40
3.0
 40
3.0
 40
4.0
 40
4.0
 40
4.0
 40
5.0
 40
5.0
 40
5.0
 40
6.0
 40
6.0
 40
6.0
 40
6.0
 10
57.03803438244189
 20
-16.48409287782342
 10
56.81186386383523
 20
-16.39210882836725
 10
56.57311874670742
 20
-16.22881130236641
 10
56.32179903105844
 20
-15.99385579027237
 10
56.32179903105844
 20
-15.99385579027237
 10
56.32179903105844
 20
-16.42139213999187
 10
56.32179903105844
 20
-16.42139213999187
 10
56.32179903105844
 20
-16.42139213999187
 10
56.0703070606352
 20
-16.42139213999187
 10
56.0703070606352
 20
-16.42139213999187
 10
56.0703070606352
 20
-16.42139213999187
 10
56.0703070606352
 20
-15.99385579027237
 10
56.0703070606352
 20
-15.99385579027237
 10
55.86928573907088
 20
-16.21193033448868
 10
55.65138344962882
 20
-16.37522786048953
 10
55.41677244708331
 20
-16.48409287782342
 10
55.41677244708331
 20
-16.48409287782342
 10
57.03803438244189
 20
-16.48409287782342
 10
57.03803438244189
 20
-16.48409287782342
 97
        0
 97
        0
 92
        1
 93
        4
 72
     1
 10
56.0703070606352
 20
-16.93643391503673
 11
56.0703070606352
 21
-16.68528645416201
 72
     1
 10
56.0703070606352
 20
-16.68528645416201
 11
55.50479463673144
 21
-16.68528645416201
 72
     1
 10
55.50479463673144
 20
-16.68528645416201
 11
55.50479463673144
 21
-16.93643391503673
 72
     1
 10
55.50479463673144
 20
-16.93643391503673
 11
56.0703070606352
 21
-16.93643391503673
 97
        0
 92
        1
 93
        4
 72
     1
 10
56.0703070606352
 20
-17.13762749137532
 11
55.50479463673144
 21
-17.13762749137532
 72
     1
 10
55.50479463673144
 20
-17.13762749137532
 11
55.50479463673144
 21
-17.38911946179855
 72
     1
 10
55.50479463673144
 20
-17.38911946179855
 11
56.0703070606352
 21
-17.38911946179855
 72
     1
 10
56.0703070606352
 20
-17.38911946179855
 11
56.0703070606352
 21
-17.13762749137532
 97
        0
 92
        1
 93
        4
 72
     1
 10
56.93760984904685
 20
-16.93643391503673
 11
56.93760984904685
 21
-16.68528645416201
 72
     1
 10
56.93760984904685
 20
-16.68528645416201
 11
56.32179903105844
 21
-16.68528645416201
 72
     1
 10
56.32179903105844
 20
-16.68528645416201
 11
56.32179903105844
 21
-16.93643391503673
 72
     1
 10
56.32179903105844
 20
-16.93643391503673
 11
56.93760984904685
 21
-16.93643391503673
 97
        0
 92
        1
 93
        4
 72
     1
 10
56.93760984904685
 20
-17.38911946179855
 11
56.93760984904685
 21
-17.13762749137532
 72
     1
 10
56.93760984904685
 20
-17.13762749137532
 11
56.32179903105844
 21
-17.13762749137532
 72
     1
 10
56.32179903105844
 20
-17.13762749137532
 11
56.32179903105844
 21
-17.38911946179855
 72
     1
 10
56.32179903105844
 20
-17.38911946179855
 11
56.93760984904685
 21
-17.38911946179855
 97
        0
 75
     2
 76
     1
 98
        0
  0
ENDBLK
  5
107
330
104
100
AcDbEntity
  8
0
100
AcDbBlockEnd
  0
BLOCK
  5
19F
330
19D
100
AcDbEntity
  8
0
100
AcDbBlockBegin
  2
block 19
 70
     0
 10
0.0
 20
0.0
 30
0.0
  3
block 19
  1

  0
SPLINE
  5
1A1
330
19D
100
AcDbEntity
  8
レイヤー 1
 62
     7
370
     9
100
AcDbSpline
210
0.0
220
0.0
230
1.0
 70
     8
 71
     3
 72
    53
 73
    49
 74
     0
 42
0.000000001
 43
0.0000000001
 40
0.0
 40
0.0
 40
0.0
 40
0.0
 40
1.0
 40
1.0
 40
1.0
 40
2.0
 40
2.0
 40
2.0
 40
3.0
 40
3.0
 40
3.0
 40
4.0
 40
4.0
 40
4.0
 40
5.0
 40
5.0
 40
5.0
 40
6.0
 40
6.0
 40
6.0
 40
7.0
 40
7.0
 40
7.0
 40
8.0
 40
8.0
 40
8.0
 40
9.0
 40
9.0
 40
9.0
 40
10.0
 40
10.0
 40
10.0
 40
11.0
 40
11.0
 40
11.0
 40
12.0
 40
12.0
 40
12.0
 40
13.0
 40
13.0
 40
13.0
 40
14.0
 40
14.0
 40
14.0
 40
15.0
 40
15.0
 40
15.0
 40
16.0
 40
16.0
 40
16.0
 40
16.0
 10
188.0095404260879
 20
116.9499674186792
 30
0.0
 10
188.0188421838981
 20
116.9528957498416
 30
0.0
 10
188.0284884512568
 20
116.9559963357784
 30
0.0
 10
188.0377902090669
 20
116.9596136860379
 30
0.0
 10
188.1707708947976
 20
117.0087062967027
 30
0.0
 10
188.2786023834859
 20
117.1110256326146
 30
0.0
 10
188.3760985857185
 20
117.2210964333683
 30
0.0
 10
188.472905768854
 20
117.3313394888963
 30
0.0
 10
188.5593776655338
 20
117.4493340092661
 30
0.0
 10
188.6303466325299
 20
117.5824869497711
 30
0.0
 10
188.7023491281716
 20
117.7192572405355
 30
0.0
 10
188.7574706559356
 20
117.8715304609835
 30
0.0
 10
188.7974337635645
 20
118.033966713113
 30
0.0
 10
188.838430399839
 20
118.2008815893734
 30
0.0
 10
188.8628905777843
 20
118.3781317520895
 30
0.0
 10
188.8704697878518
 20
118.5633056344217
 30
0.0
 10
188.8783935074679
 20
118.7510633383678
 30
0.0
 10
188.8687472401092
 20
118.9469170167042
 30
0.0
 10
188.8435980430669
 20
119.1467325548487
 30
0.0
 10
188.817415317379
 20
119.3467203477675
 30
0.0
 10
188.7750406429104
 20
119.5506700004943
 30
0.0
 10
188.7175075483067
 20
119.7544473984468
 30
0.0
 10
188.659285434606
 20
119.9578802868508
 30
0.0
 10
188.5862494103187
 20
120.160796410932
 30
0.0
 10
188.4994330040904
 20
120.3588894013339
 30
0.0
 10
188.4122720883136
 20
120.5568101369615
 30
0.0
 10
188.3113307905958
 20
120.7499077389098
 30
0.0
 10
188.1993651873252
 20
120.9338758378221
 30
0.0
 10
188.0867105649575
 20
121.1178439367344
 30
0.0
 10
187.9626871274885
 20
121.2928547873851
 30
0.0
 10
187.8297064417578
 20
121.4546020204176
 30
0.0
 10
187.6963812464787
 20
121.6170382725471
 30
0.0
 10
187.5540988029379
 20
121.7660386522842
 30
0.0
 10
187.4056151875236
 20
121.8986748284663
 30
0.0
 10
187.2567870625608
 20
122.0318277689712
 30
0.0
 10
187.1017577657246
 20
122.1482719963727
 30
0.0
 10
186.9432833734031
 20
122.245595943831
 30
0.0
 10
186.7841199619845
 20
122.3434366556121
 30
0.0
 10
186.6215114550807
 20
122.4219848326758
 30
0.0
 10
186.458902948177
 20
122.4777953795368
 30
0.0
 10
186.2959499317246
 20
122.5336059263979
 30
0.0
 10
186.1336859343694
 20
122.5670233526048
 30
0.0
 10
185.9727999752082
 20
122.5787366772546
 30
0.0
 10
185.8146700924352
 20
122.5902777471302
 30
0.0
 10
185.6586072669534
 20
122.5808037345458
 30
0.0
 10
185.515291294767
 20
122.5387735696257
 30
0.0
 10
185.3995360864626
 20
122.504839379096
 30
0.0
 10
185.2917045977743
 20
122.449717851332
 30
0.0
 10
185.184562128183
 20
122.394596323568
 30
0.0
  0
ENDBLK
  5
1A0
330
19D
100
AcDbEntity
  8
0
100
AcDbBlockEnd
  0
BLOCK
  5
1A4
330
1A2
100
AcDbEntity
  8
0
100
AcDbBlockBegin
  2
block 20
 70
     0
 10
0.0
 20
0.0
 30
0.0
  3
block 20
  1

  0
POLYLINE
  5
1A6
330
1A2
100
AcDbEntity
  8
レイヤー 1
 62
     7
370
     9
100
AcDb2dPolyline
 66
     1
 10
0.0
 20
0.0
 30
0.0
  0
VERTEX
  5
1A7
330
1A6
100
AcDbEntity
  8
レイヤー 1
 62
     7
370
     9
100
AcDbVertex
100
AcDb2dVertex
 10
185.246229337369
 20
122.4388658005535
 30
0.0
  0
VERTEX
  5
1A8
330
1A6
100
AcDbEntity
  8
レイヤー 1
 62
     7
370
     9
100
AcDbVertex
100
AcDb2dVertex
 10
183.6931802926184
 20
121.6623412781782
 30
0.0
  0
SEQEND
  5
1A9
330
1A6
100
AcDbEntity
  8
レイヤー 1
370
     9
  0
ENDBLK
  5
1A5
330
1A2
100
AcDbEntity
  8
0
100
AcDbBlockEnd
  0
BLOCK
  5
1AC
330
1AA
100
AcDbEntity
  8
0
100
AcDbBlockBegin
  2
block 21
 70
     0
 10
0.0
 20
0.0
 30
0.0
  3
block 21
  1

  0
POLYLINE
  5
1AE
330
1AA
100
AcDbEntity
  8
レイヤー 1
 62
     7
370
     9
100
AcDb2dPolyline
 66
     1
 10
0.0
 20
0.0
 30
0.0
  0
VERTEX
  5
1AF
330
1AE
100
AcDbEntity
  8
レイヤー 1
 62
     7
370
     9
100
AcDbVertex
100
AcDb2dVertex
 10
186.4437445280419
 20
116.161729571654
 30
0.0
  0
VERTEX
  5
1B0
330
1AE
100
AcDbEntity
  8
レイヤー 1
 62
     7
370
     9
100
AcDbVertex
100
AcDb2dVertex
 10
187.9964490632439
 20
116.9384263488036
 30
0.0
  0
SEQEND
  5
1B1
330
1AE
100
AcDbEntity
  8
レイヤー 1
370
     9
  0
ENDBLK
  5
1AD
330
1AA
100
AcDbEntity
  8
0
100
AcDbBlockEnd
  0
BLOCK
  5
1B4
330
1B2
100
AcDbEntity
  8
0
100
AcDbBlockBegin
  2
block 22
 70
     0
 10
0.0
 20
0.0
 30
0.0
  3
block 22
  1

  0
POLYLINE
  5
1B6
330
1B2
100
AcDbEntity
  8
レイヤー 1
 62
     7
370
     9
100
AcDb2dPolyline
 66
     1
 10
0.0
 20
0.0
 30
0.0
  0
VERTEX
  5
1B7
330
1B6
100
AcDbEntity
  8
レイヤー 1
 62
     7
370
     9
100
AcDbVertex
100
AcDb2dVertex
 10
193.6519178118301
 20
143.8852742153308
 30
0.0
  0
VERTEX
  5
1B8
330
1B6
100
AcDbEntity
  8
レイヤー 1
 62
     7
370
     9
100
AcDbVertex
100
AcDb2dVertex
 10
178.8559217217791
 20
151.2832722603563
 30
0.0
  0
SEQEND
  5
1B9
330
1B6
100
AcDbEntity
  8
レイヤー 1
370
     9
  0
ENDBLK
  5
1B5
330
1B2
100
AcDbEntity
  8
0
100
AcDbBlockEnd
  0
BLOCK
  5
1BC
330
1BA
100
AcDbEntity
  8
0
100
AcDbBlockBegin
  2
block 23
 70
     0
 10
0.0
 20
0.0
 30
0.0
  3
block 23
  1

  0
POLYLINE
  5
1BE
330
1BA
100
AcDbEntity
  8
レイヤー 1
 62
     7
370
     9
100
AcDb2dPolyline
 66
     1
 10
0.0
 20
0.0
 30
0.0
  0
VERTEX
  5
1BF
330
1BE
100
AcDbEntity
  8
レイヤー 1
 62
     7
370
     9
100
AcDbVertex
100
AcDb2dVertex
 10
132.6012084629434
 20
71.15879175738392
 30
0.0
  0
VERTEX
  5
1C0
330
1BE
100
AcDbEntity
  8
レイヤー 1
 62
     7
370
     9
100
AcDbVertex
100
AcDb2dVertex
 10
147.2857557140466
 20
63.81591524012241
 30
0.0
  0
SEQEND
  5
1C1
330
1BE
100
AcDbEntity
  8
レイヤー 1
370
     9
  0
ENDBLK
  5
1BD
330
1BA
100
AcDbEntity
  8
0
100
AcDbBlockEnd
  0
BLOCK
  5
1C4
330
1C2
100
AcDbEntity
  8
0
100
AcDbBlockBegin
  2
block 24
 70
     0
 10
0.0
 20
0.0
 30
0.0
  3
block 24
  1

  0
SPLINE
  5
1C6
330
1C2
100
AcDbEntity
  8
レイヤー 1
 62
     7
370
     9
100
AcDbSpline
210
0.0
220
0.0
230
1.0
 70
     8
 71
     3
 72
    20
 73
    16
 74
     0
 42
0.000000001
 43
0.0000000001
 40
0.0
 40
0.0
 40
0.0
 40
0.0
 40
1.0
 40
1.0
 40
1.0
 40
2.0
 40
2.0
 40
2.0
 40
3.0
 40
3.0
 40
3.0
 40
4.0
 40
4.0
 40
4.0
 40
5.0
 40
5.0
 40
5.0
 40
5.0
 10
162.928556274372
 20
177.9257459407616
 30
0.0
 10
162.7721489393417
 20
177.9925807931755
 30
0.0
 10
162.6153970947628
 20
178.0592433908151
 30
0.0
 10
162.452788587859
 20
178.1050631607689
 30
0.0
 10
162.2612412788791
 20
178.1593234146616
 30
0.0
 10
162.0610812311861
 20
178.1841281021554
 30
0.0
 10
161.8605766739446
 20
178.1906737835774
 30
0.0
 10
161.6614501548972
 20
178.1968749554508
 30
0.0
 10
161.4623236358497
 20
178.1848171212524
 30
0.0
 10
161.2656086836419
 20
178.1545002809822
 30
0.0
 10
161.0644151073033
 20
178.1233221668407
 30
0.0
 10
160.865977607353
 20
178.0731960275303
 30
0.0
 10
160.6733967697275
 20
178.0025715700827
 30
0.0
 10
160.5318033452837
 20
177.9505506282554
 30
0.0
 10
160.3936550163252
 20
177.8875053808754
 30
0.0
 10
160.2558511969152
 20
177.824287878721
 30
0.0
  0
ENDBLK
  5
1C5
330
1C2
100
AcDbEntity
  8
0
100
AcDbBlockEnd
  0
BLOCK
  5
1C9
330
1C7
100
AcDbEntity
  8
0
100
AcDbBlockBegin
  2
block 25
 70
     0
 10
0.0
 20
0.0
 30
0.0
  3
block 25
  1

  0
POLYLINE
  5
1CB
330
1C7
100
AcDbEntity
  8
レイヤー 1
 62
     7
370
     9
100
AcDb2dPolyline
 66
     1
 10
0.0
 20
0.0
 30
0.0
  0
VERTEX
  5
1CC
330
1CB
100
AcDbEntity
  8
レイヤー 1
 62
     7
370
     9
100
AcDbVertex
100
AcDb2dVertex
 10
169.2813123491727
 20
175.0025824215271
 30
0.0
  0
VERTEX
  5
1CD
330
1CB
100
AcDbEntity
  8
レイヤー 1
 62
     7
370
     9
100
AcDbVertex
100
AcDb2dVertex
 10
162.9295898030176
 20
177.9360812272174
 30
0.0
  0
SEQEND
  5
1CE
330
1CB
100
AcDbEntity
  8
レイヤー 1
370
     9
  0
ENDBLK
  5
1CA
330
1C7
100
AcDbEntity
  8
0
100
AcDbBlockEnd
  0
BLOCK
  5
1D1
330
1CF
100
AcDbEntity
  8
0
100
AcDbBlockBegin
  2
block 26
 70
     0
 10
0.0
 20
0.0
 30
0.0
  3
block 26
  1

  0
POLYLINE
  5
1D3
330
1CF
100
AcDbEntity
  8
レイヤー 1
 62
     7
370
     9
100
AcDb2dPolyline
 66
     1
 10
0.0
 20
0.0
 30
0.0
  0
VERTEX
  5
1D4
330
1D3
100
AcDbEntity
  8
レイヤー 1
 62
     7
370
     9
100
AcDbVertex
100
AcDb2dVertex
 10
160.2558511969152
 20
177.824287878721
 30
0.0
  0
VERTEX
  5
1D5
330
1D3
100
AcDbEntity
  8
レイヤー 1
 62
     7
370
     9
100
AcDbVertex
100
AcDb2dVertex
 10
101.4532389069284
 20
148.4231539885019
 30
0.0
  0
SEQEND
  5
1D6
330
1D3
100
AcDbEntity
  8
レイヤー 1
370
     9
  0
ENDBLK
  5
1D2
330
1CF
100
AcDbEntity
  8
0
100
AcDbBlockEnd
  0
BLOCK
  5
1D9
330
1D7
100
AcDbEntity
  8
0
100
AcDbBlockBegin
  2
block 27
 70
     0
 10
0.0
 20
0.0
 30
0.0
  3
block 27
  1

  0
SPLINE
  5
1DB
330
1D7
100
AcDbEntity
  8
レイヤー 1
 62
     7
370
     9
100
AcDbSpline
210
0.0
220
0.0
230
1.0
 70
     8
 71
     3
 72
    23
 73
    19
 74
     0
 42
0.000000001
 43
0.0000000001
 40
0.0
 40
0.0
 40
0.0
 40
0.0
 40
1.0
 40
1.0
 40
1.0
 40
2.0
 40
2.0
 40
2.0
 40
3.0
 40
3.0
 40
3.0
 40
4.0
 40
4.0
 40
4.0
 40
5.0
 40
5.0
 40
5.0
 40
6.0
 40
6.0
 40
6.0
 40
6.0
 10
98.6186143416648
 20
71.6273247433779
 30
0.0
 10
98.62309296579562
 20
71.47918563751215
 30
0.0
 10
98.62739933515218
 20
71.33035751254936
 30
0.0
 10
98.64100746231892
 20
71.18359644487772
 30
0.0
 10
98.66185029000468
 20
70.95897621923943
 30
0.0
 10
98.70456947402178
 20
70.73849010818344
 30
0.0
 10
98.76537540933644
 20
70.52489418809795
 30
0.0
 10
98.82411428735995
 20
70.32094453537115
 30
0.0
 10
98.89887285938987
 20
70.12319605451782
 30
0.0
 10
98.99309622091145
 20
69.93440482192612
 30
0.0
 10
99.08318546785074
 20
69.75457083759608
 30
0.0
 10
99.19101695653906
 20
69.58300508243065
 30
0.0
 10
99.31417912013674
 20
69.422463632818
 30
0.0
 10
99.43406844302343
 20
69.26605629778766
 30
0.0
 10
99.56842716694817
 20
69.12067326831011
 30
0.0
 10
99.7203558778477
 20
68.99733884993817
 30
0.0
 10
99.86504988822819
 20
68.87951658434262
 30
0.0
 10
100.0257635926151
 20
68.78236489165857
 30
0.0
 10
100.1868218065505
 20
68.68590221807159
 30
0.0
  0
ENDBLK
  5
1DA
330
1D7
100
AcDbEntity
  8
0
100
AcDbBlockEnd
  0
BLOCK
  5
1DE
330
1DC
100
AcDbEntity
  8
0
100
AcDbBlockBegin
  2
block 28
 70
     0
 10
0.0
 20
0.0
 30
0.0
  3
block 28
  1

  0
POLYLINE
  5
1E0
330
1DC
100
AcDbEntity
  8
レイヤー 1
 62
     7
370
     9
100
AcDb2dPolyline
 66
     1
 10
0.0
 20
0.0
 30
0.0
  0
VERTEX
  5
1E1
330
1E0
100
AcDbEntity
  8
レイヤー 1
 62
     7
370
     9
100
AcDbVertex
100
AcDb2dVertex
 10
100.1988796407489
 20
68.67005477883943
 30
0.0
  0
VERTEX
  5
1E2
330
1E0
100
AcDbEntity
  8
レイヤー 1
 62
     7
370
     9
100
AcDbVertex
100
AcDb2dVertex
 10
106.3330444070105
 20
65.36069605570844
 30
0.0
  0
SEQEND
  5
1E3
330
1E0
100
AcDbEntity
  8
レイヤー 1
370
     9
  0
ENDBLK
  5
1DF
330
1DC
100
AcDbEntity
  8
0
100
AcDbBlockEnd
  0
BLOCK
  5
1E6
330
1E4
100
AcDbEntity
  8
0
100
AcDbBlockBegin
  2
block 29
 70
     0
 10
0.0
 20
0.0
 30
0.0
  3
block 29
  1

  0
POLYLINE
  5
1E8
330
1E4
100
AcDbEntity
  8
レイヤー 1
 62
     7
370
     9
100
AcDb2dPolyline
 66
     1
 10
0.0
 20
0.0
 30
0.0
  0
VERTEX
  5
1E9
330
1E8
100
AcDbEntity
  8
レイヤー 1
 62
     7
370
     9
100
AcDbVertex
100
AcDb2dVertex
 10
98.6186143416648
 20
143.6375718499413
 30
0.0
  0
VERTEX
  5
1EA
330
1E8
100
AcDbEntity
  8
レイヤー 1
 62
     7
370
     9
100
AcDbVertex
100
AcDb2dVertex
 10
98.6186143416648
 20
71.6273247433779
 30
0.0
  0
SEQEND
  5
1EB
330
1E8
100
AcDbEntity
  8
レイヤー 1
370
     9
  0
ENDBLK
  5
1E7
330
1E4
100
AcDbEntity
  8
0
100
AcDbBlockEnd
  0
BLOCK
  5
1EE
330
1EC
100
AcDbEntity
  8
0
100
AcDbBlockBegin
  2
block 30
 70
     0
 10
0.0
 20
0.0
 30
0.0
  3
block 30
  1

  0
SPLINE
  5
1F0
330
1EC
100
AcDbEntity
  8
レイヤー 1
 62
     7
370
     9
100
AcDbSpline
210
0.0
220
0.0
230
1.0
 70
     8
 71
     3
 72
    32
 73
    28
 74
     0
 42
0.000000001
 43
0.0000000001
 40
0.0
 40
0.0
 40
0.0
 40
0.0
 40
1.0
 40
1.0
 40
1.0
 40
2.0
 40
2.0
 40
2.0
 40
3.0
 40
3.0
 40
3.0
 40
4.0
 40
4.0
 40
4.0
 40
5.0
 40
5.0
 40
5.0
 40
6.0
 40
6.0
 40
6.0
 40
7.0
 40
7.0
 40
7.0
 40
8.0
 40
8.0
 40
8.0
 40
9.0
 40
9.0
 40
9.0
 40
9.0
 10
101.4532389069284
 20
148.4231539885019
 30
0.0
 10
101.3221530237146
 20
148.3520127667314
 30
0.0
 10
101.1910671405008
 20
148.2806992901868
 30
0.0
 10
101.0639431170951
 20
148.2002563106062
 30
0.0
 10
100.8648165980477
 20
148.0746825801688
 30
0.0
 10
100.676025365456
 20
147.9268879838516
 30
0.0
 10
100.4958468715774
 20
147.7649684960449
 30
0.0
 10
100.3127400465364
 20
147.6002929318499
 30
0.0
 10
100.1389349793055
 20
147.4208034570684
 30
0.0
 10
99.97667098195028
 20
147.2278781098944
 30
0.0
 10
99.81337345594945
 20
147.0334024697521
 30
0.0
 10
99.66161699982419
 20
146.8251464476687
 30
0.0
 10
99.5232964160914
 20
146.6068996486781
 30
0.0
 10
99.38480357758436
 20
146.3879638305905
 30
0.0
 10
99.2597466114698
 20
146.1590372355957
 30
0.0
 10
99.15019257503884
 20
145.9233927044046
 30
0.0
 10
99.03960500996233
 20
145.6861978802451
 30
0.0
 10
98.94486488411796
 20
145.4424573746637
 30
0.0
 10
98.86735023569983
 20
145.195271773597
 30
0.0
 10
98.7889743134104
 20
144.9453300961422
 30
0.0
 10
98.72816837809575
 20
144.6921155779763
 30
0.0
 10
98.6861382131757
 20
144.4387288050362
 30
0.0
 10
98.64617510554679
 20
144.1986056497142
 30
0.0
 10
98.62309296579562
 20
143.9583102396181
 30
0.0
 10
98.6194756155361
 20
143.7214599250071
 30
0.0
 10
98.61895885121332
 20
143.6933823968023
 30
0.0
 10
98.61895885121332
 20
143.6653048685976
 30
0.0
 10
98.6186143416648
 20
143.6375718499413
 30
0.0
  0
ENDBLK
  5
1EF
330
1EC
100
AcDbEntity
  8
0
100
AcDbBlockEnd
  0
BLOCK
  5
1F3
330
1F1
100
AcDbEntity
  8
0
100
AcDbBlockBegin
  2
block 31
 70
     0
 10
0.0
 20
0.0
 30
0.0
  3
block 31
  1

  0
POLYLINE
  5
1F5
330
1F1
100
AcDbEntity
  8
レイヤー 1
 62
     7
370
     9
100
AcDb2dPolyline
 66
     1
 10
0.0
 20
0.0
 30
0.0
  0
VERTEX
  5
1F6
330
1F5
100
AcDbEntity
  8
レイヤー 1
 62
     7
370
     9
100
AcDbVertex
100
AcDb2dVertex
 10
128.8598347659621
 20
75.7200981798547
 30
0.0
  0
VERTEX
  5
1F7
330
1F5
100
AcDbEntity
  8
レイヤー 1
 62
     7
370
     9
100
AcDbVertex
100
AcDb2dVertex
 10
129.1237290801323
 20
72.25777721717861
 30
0.0
  0
SEQEND
  5
1F8
330
1F5
100
AcDbEntity
  8
レイヤー 1
370
     9
  0
ENDBLK
  5
1F4
330
1F1
100
AcDbEntity
  8
0
100
AcDbBlockEnd
  0
BLOCK
  5
1FB
330
1F9
100
AcDbEntity
  8
0
100
AcDbBlockBegin
  2
block 32
 70
     0
 10
0.0
 20
0.0
 30
0.0
  3
block 32
  1

  0
POLYLINE
  5
1FD
330
1F9
100
AcDbEntity
  8
レイヤー 1
 62
     7
370
     9
100
AcDb2dPolyline
 66
     1
 10
0.0
 20
0.0
 30
0.0
  0
VERTEX
  5
1FE
330
1FD
100
AcDbEntity
  8
レイヤー 1
 62
     7
370
     9
100
AcDbVertex
100
AcDb2dVertex
 10
178.6182101332969
 20
152.5839680608123
 30
0.0
  0
VERTEX
  5
1FF
330
1FD
100
AcDbEntity
  8
レイヤー 1
 62
     7
370
     9
100
AcDbVertex
100
AcDb2dVertex
 10
176.9039306198365
 20
153.375823258097
 30
0.0
  0
SEQEND
  5
200
330
1FD
100
AcDbEntity
  8
レイヤー 1
370
     9
  0
ENDBLK
  5
1FC
330
1F9
100
AcDbEntity
  8
0
100
AcDbBlockEnd
  0
BLOCK
  5
203
330
201
100
AcDbEntity
  8
0
100
AcDbBlockBegin
  2
block 33
 70
     0
 10
0.0
 20
0.0
 30
0.0
  3
block 33
  1

  0
SPLINE
  5
205
330
201
100
AcDbEntity
  8
レイヤー 1
 62
     7
370
     9
100
AcDbSpline
210
0.0
220
0.0
230
1.0
 70
     8
 71
     3
 72
     8
 73
     4
 74
     0
 42
0.000000001
 43
0.0000000001
 40
0.0
 40
0.0
 40
0.0
 40
0.0
 40
1.0
 40
1.0
 40
1.0
 40
1.0
 10
176.9039306198365
 20
153.375823258097
 30
0.0
 10
176.6617404072234
 20
153.4877888613676
 30
0.0
 10
176.3813096347241
 20
153.4834824920111
 30
0.0
 10
176.1425645175963
 20
153.3641099334472
 30
0.0
  0
ENDBLK
  5
204
330
201
100
AcDbEntity
  8
0
100
AcDbBlockEnd
  0
BLOCK
  5
208
330
206
100
AcDbEntity
  8
0
100
AcDbBlockBegin
  2
block 34
 70
     0
 10
0.0
 20
0.0
 30
0.0
  3
block 34
  1

  0
SPLINE
  5
20A
330
206
100
AcDbEntity
  8
レイヤー 1
 62
     7
370
     9
100
AcDbSpline
210
0.0
220
0.0
230
1.0
 70
     8
 71
     3
 72
     8
 73
     4
 74
     0
 42
0.000000001
 43
0.0000000001
 40
0.0
 40
0.0
 40
0.0
 40
0.0
 40
1.0
 40
1.0
 40
1.0
 40
1.0
 10
129.5345567167483
 20
71.57909340658439
 30
0.0
 10
129.5502319012062
 20
71.5694471392257
 30
0.0
 10
129.5662515952126
 20
71.559800871867
 30
0.0
 10
129.5826157987675
 20
71.55084362360535
 30
0.0
  0
ENDBLK
  5
209
330
206
100
AcDbEntity
  8
0
100
AcDbBlockEnd
  0
BLOCK
  5
20D
330
20B
100
AcDbEntity
  8
0
100
AcDbBlockBegin
  2
block 35
 70
     0
 10
0.0
 20
0.0
 30
0.0
  3
block 35
  1

  0
SPLINE
  5
20F
330
20B
100
AcDbEntity
  8
レイヤー 1
 62
     7
370
     9
100
AcDbSpline
210
0.0
220
0.0
230
1.0
 70
     8
 71
     3
 72
     8
 73
     4
 74
     0
 42
0.000000001
 43
0.0000000001
 40
0.0
 40
0.0
 40
0.0
 40
0.0
 40
1.0
 40
1.0
 40
1.0
 40
1.0
 10
129.1237290801323
 20
72.25777721717861
 30
0.0
 10
129.1449164173665
 20
71.97872448287337
 30
0.0
 10
129.2975341473631
 20
71.72723251245014
 30
0.0
 10
129.5345567167483
 20
71.57909340658439
 30
0.0
  0
ENDBLK
  5
20E
330
20B
100
AcDbEntity
  8
0
100
AcDbBlockEnd
  0
BLOCK
  5
212
330
210
100
AcDbEntity
  8
0
100
AcDbBlockBegin
  2
block 36
 70
     0
 10
0.0
 20
0.0
 30
0.0
  3
block 36
  1

  0
POLYLINE
  5
214
330
210
100
AcDbEntity
  8
レイヤー 1
 62
     7
370
     9
100
AcDb2dPolyline
 66
     1
 10
0.0
 20
0.0
 30
0.0
  0
VERTEX
  5
215
330
214
100
AcDbEntity
  8
レイヤー 1
 62
     7
370
     9
100
AcDbVertex
100
AcDb2dVertex
 10
129.5826157987675
 20
71.55084362360535
 30
0.0
  0
VERTEX
  5
216
330
214
100
AcDbEntity
  8
レイヤー 1
 62
     7
370
     9
100
AcDbVertex
100
AcDb2dVertex
 10
131.2383286889786
 20
70.65718585473154
 30
0.0
  0
SEQEND
  5
217
330
214
100
AcDbEntity
  8
レイヤー 1
370
     9
  0
ENDBLK
  5
213
330
210
100
AcDbEntity
  8
0
100
AcDbBlockEnd
  0
BLOCK
  5
21A
330
218
100
AcDbEntity
  8
0
100
AcDbBlockBegin
  2
block 37
 70
     0
 10
0.0
 20
0.0
 30
0.0
  3
block 37
  1

  0
POLYLINE
  5
21C
330
218
100
AcDbEntity
  8
レイヤー 1
 62
     7
370
     9
100
AcDb2dPolyline
 66
     1
 10
0.0
 20
0.0
 30
0.0
  0
VERTEX
  5
21D
330
21C
100
AcDbEntity
  8
レイヤー 1
 62
     7
370
     9
100
AcDbVertex
100
AcDb2dVertex
 10
184.8197265162951
 20
120.7759182098234
 30
0.0
  0
VERTEX
  5
21E
330
21C
100
AcDbEntity
  8
レイヤー 1
 62
     7
370
     9
100
AcDbVertex
100
AcDb2dVertex
 10
184.8776041204473
 20
120.1642415064173
 30
0.0
  0
VERTEX
  5
21F
330
21C
100
AcDbEntity
  8
レイヤー 1
 62
     7
370
     9
100
AcDbVertex
100
AcDb2dVertex
 10
185.0477918374186
 20
119.5305161919056
 30
0.0
  0
VERTEX
  5
220
330
21C
100
AcDbEntity
  8
レイヤー 1
 62
     7
370
     9
100
AcDbVertex
100
AcDb2dVertex
 10
185.3196098712048
 20
118.9112602784319
 30
0.0
  0
VERTEX
  5
221
330
21C
100
AcDbEntity
  8
レイヤー 1
 62
     7
370
     9
100
AcDbVertex
100
AcDb2dVertex
 10
185.6785888207679
 20
118.3426472685914
 30
0.0
  0
VERTEX
  5
222
330
21C
100
AcDbEntity
  8
レイヤー 1
 62
     7
370
     9
100
AcDbVertex
100
AcDb2dVertex
 10
186.1030245845506
 20
117.8577500790425
 30
0.0
  0
VERTEX
  5
223
330
21C
100
AcDbEntity
  8
レイヤー 1
 62
     7
370
     9
100
AcDbVertex
100
AcDb2dVertex
 10
186.5684569846079
 20
117.4844739832157
 30
0.0
  0
VERTEX
  5
224
330
21C
100
AcDbEntity
  8
レイヤー 1
 62
     7
370
     9
100
AcDbVertex
100
AcDb2dVertex
 10
187.0473252570576
 20
117.2446953374423
 30
0.0
  0
VERTEX
  5
225
330
21C
100
AcDbEntity
  8
レイヤー 1
 62
     7
370
     9
100
AcDbVertex
100
AcDb2dVertex
 10
187.5127576571149
 20
117.1527112879861
 30
0.0
  0
VERTEX
  5
226
330
21C
100
AcDbEntity
  8
レイヤー 1
 62
     7
370
     9
100
AcDbVertex
100
AcDb2dVertex
 10
187.9371934208976
 20
117.2133449685265
 30
0.0
  0
VERTEX
  5
227
330
21C
100
AcDbEntity
  8
レイヤー 1
 62
     7
370
     9
100
AcDbVertex
100
AcDb2dVertex
 10
188.2958278609122
 20
117.4233235383525
 30
0.0
  0
VERTEX
  5
228
330
21C
100
AcDbEntity
  8
レイヤー 1
 62
     7
370
     9
100
AcDbVertex
100
AcDb2dVertex
 10
188.5679904042469
 20
117.7700723989429
 30
0.0
  0
VERTEX
  5
229
330
21C
100
AcDbEntity
  8
レイヤー 1
 62
     7
370
     9
100
AcDbVertex
100
AcDb2dVertex
 10
188.7381781212183
 20
118.2339545060318
 30
0.0
  0
VERTEX
  5
22A
330
21C
100
AcDbEntity
  8
レイヤー 1
 62
     7
370
     9
100
AcDbVertex
100
AcDb2dVertex
 10
188.7960557253705
 20
118.7877536052857
 30
0.0
  0
VERTEX
  5
22B
330
21C
100
AcDbEntity
  8
レイヤー 1
 62
     7
370
     9
100
AcDbVertex
100
AcDb2dVertex
 10
188.7381781212183
 20
119.3994303086918
 30
0.0
  0
VERTEX
  5
22C
330
21C
100
AcDbEntity
  8
レイヤー 1
 62
     7
370
     9
100
AcDbVertex
100
AcDb2dVertex
 10
188.5679904042469
 20
120.0331556232035
 30
0.0
  0
VERTEX
  5
22D
330
21C
100
AcDbEntity
  8
レイヤー 1
 62
     7
370
     9
100
AcDbVertex
100
AcDb2dVertex
 10
188.2958278609122
 20
120.6524115366772
 30
0.0
  0
VERTEX
  5
22E
330
21C
100
AcDbEntity
  8
レイヤー 1
 62
     7
370
     9
100
AcDbVertex
100
AcDb2dVertex
 10
187.9371934208976
 20
121.2208522917434
 30
0.0
  0
VERTEX
  5
22F
330
21C
100
AcDbEntity
  8
レイヤー 1
 62
     7
370
     9
100
AcDbVertex
100
AcDb2dVertex
 10
187.5127576571149
 20
121.7059217360666
 30
0.0
  0
VERTEX
  5
230
330
21C
100
AcDbEntity
  8
レイヤー 1
 62
     7
370
     9
100
AcDbVertex
100
AcDb2dVertex
 10
187.0473252570576
 20
122.0790255771191
 30
0.0
  0
VERTEX
  5
231
330
21C
100
AcDbEntity
  8
レイヤー 1
 62
     7
370
     9
100
AcDbVertex
100
AcDb2dVertex
 10
186.5684569846079
 20
122.3186319681183
 30
0.0
  0
VERTEX
  5
232
330
21C
100
AcDbEntity
  8
レイヤー 1
 62
     7
370
     9
100
AcDbVertex
100
AcDb2dVertex
 10
186.1030245845506
 20
122.4107882723487
 30
0.0
  0
VERTEX
  5
233
330
21C
100
AcDbEntity
  8
レイヤー 1
 62
     7
370
     9
100
AcDbVertex
100
AcDb2dVertex
 10
185.6785888207679
 20
122.3501545918083
 30
0.0
  0
VERTEX
  5
234
330
21C
100
AcDbEntity
  8
レイヤー 1
 62
     7
370
     9
100
AcDbVertex
100
AcDb2dVertex
 10
185.3196098712048
 20
122.1403482767566
 30
0.0
  0
VERTEX
  5
235
330
21C
100
AcDbEntity
  8
レイヤー 1
 62
     7
370
     9
100
AcDbVertex
100
AcDb2dVertex
 10
185.0477918374186
 20
121.7934271613919
 30
0.0
  0
VERTEX
  5
236
330
21C
100
AcDbEntity
  8
レイヤー 1
 62
     7
370
     9
100
AcDbVertex
100
AcDb2dVertex
 10
184.8776041204473
 20
121.329545054303
 30
0.0
  0
VERTEX
  5
237
330
21C
100
AcDbEntity
  8
レイヤー 1
 62
     7
370
     9
100
AcDbVertex
100
AcDb2dVertex
 10
184.8197265162951
 20
120.7759182098234
 30
0.0
  0
SEQEND
  5
238
330
21C
100
AcDbEntity
  8
レイヤー 1
370
     9
  0
ENDBLK
  5
21B
330
218
100
AcDbEntity
  8
0
100
AcDbBlockEnd
  0
BLOCK
  5
23B
330
239
100
AcDbEntity
  8
0
100
AcDbBlockBegin
  2
block 38
 70
     0
 10
0.0
 20
0.0
 30
0.0
  3
block 38
  1

  0
POLYLINE
  5
23D
330
239
100
AcDbEntity
  8
レイヤー 1
 62
     7
370
     9
100
AcDb2dPolyline
 66
     1
 10
0.0
 20
0.0
 30
0.0
  0
VERTEX
  5
23E
330
23D
100
AcDbEntity
  8
レイヤー 1
 62
     7
370
     9
100
AcDbVertex
100
AcDb2dVertex
 10
185.1883517332168
 20
122.4078599411862
 30
0.0
  0
VERTEX
  5
23F
330
23D
100
AcDbEntity
  8
レイヤー 1
 62
     7
370
     9
100
AcDbVertex
100
AcDb2dVertex
 10
185.246229337369
 20
122.4388658005535
 30
0.0
  0
SEQEND
  5
240
330
23D
100
AcDbEntity
  8
レイヤー 1
370
     9
  0
ENDBLK
  5
23C
330
239
100
AcDbEntity
  8
0
100
AcDbBlockEnd
  0
BLOCK
  5
243
330
241
100
AcDbEntity
  8
0
100
AcDbBlockBegin
  2
block 39
 70
     0
 10
0.0
 20
0.0
 30
0.0
  3
block 39
  1

  0
POLYLINE
  5
245
330
241
100
AcDbEntity
  8
レイヤー 1
 62
     7
370
     9
100
AcDb2dPolyline
 66
     1
 10
0.0
 20
0.0
 30
0.0
  0
VERTEX
  5
246
330
245
100
AcDbEntity
  8
レイヤー 1
 62
     7
370
     9
100
AcDbVertex
100
AcDb2dVertex
 10
187.3456705260803
 20
120.6539618296455
 30
0.0
  0
VERTEX
  5
247
330
245
100
AcDbEntity
  8
レイヤー 1
 62
     7
370
     9
100
AcDbVertex
100
AcDb2dVertex
 10
186.2701117155852
 20
121.1922579992158
 30
0.0
  0
SEQEND
  5
248
330
245
100
AcDbEntity
  8
レイヤー 1
370
     9
  0
ENDBLK
  5
244
330
241
100
AcDbEntity
  8
0
100
AcDbBlockEnd
  0
BLOCK
  5
24B
330
249
100
AcDbEntity
  8
0
100
AcDbBlockBegin
  2
block 40
 70
     0
 10
0.0
 20
0.0
 30
0.0
  3
block 40
  1

  0
POLYLINE
  5
24D
330
249
100
AcDbEntity
  8
レイヤー 1
 62
     7
370
     9
100
AcDb2dPolyline
 66
     1
 10
0.0
 20
0.0
 30
0.0
  0
VERTEX
  5
24E
330
24D
100
AcDbEntity
  8
レイヤー 1
 62
     7
370
     9
100
AcDbVertex
100
AcDb2dVertex
 10
186.2701117155852
 20
121.1922579992158
 30
0.0
  0
VERTEX
  5
24F
330
24D
100
AcDbEntity
  8
レイヤー 1
 62
     7
370
     9
100
AcDbVertex
100
AcDb2dVertex
 10
185.7319878007892
 20
120.3197875675763
 30
0.0
  0
SEQEND
  5
250
330
24D
100
AcDbEntity
  8
レイヤー 1
370
     9
  0
ENDBLK
  5
24C
330
249
100
AcDbEntity
  8
0
100
AcDbBlockEnd
  0
BLOCK
  5
253
330
251
100
AcDbEntity
  8
0
100
AcDbBlockBegin
  2
block 41
 70
     0
 10
0.0
 20
0.0
 30
0.0
  3
block 41
  1

  0
POLYLINE
  5
255
330
251
100
AcDbEntity
  8
レイヤー 1
 62
     7
370
     9
100
AcDb2dPolyline
 66
     1
 10
0.0
 20
0.0
 30
0.0
  0
VERTEX
  5
256
330
255
100
AcDbEntity
  8
レイヤー 1
 62
     7
370
     9
100
AcDbVertex
100
AcDb2dVertex
 10
185.7319878007892
 20
120.3197875675763
 30
0.0
  0
VERTEX
  5
257
330
255
100
AcDbEntity
  8
レイヤー 1
 62
     7
370
     9
100
AcDbVertex
100
AcDb2dVertex
 10
186.2701117155852
 20
118.9095377306893
 30
0.0
  0
SEQEND
  5
258
330
255
100
AcDbEntity
  8
レイヤー 1
370
     9
  0
ENDBLK
  5
254
330
251
100
AcDbEntity
  8
0
100
AcDbBlockEnd
  0
BLOCK
  5
25B
330
259
100
AcDbEntity
  8
0
100
AcDbBlockBegin
  2
block 42
 70
     0
 10
0.0
 20
0.0
 30
0.0
  3
block 42
  1

  0
POLYLINE
  5
25D
330
259
100
AcDbEntity
  8
レイヤー 1
 62
     7
370
     9
100
AcDb2dPolyline
 66
     1
 10
0.0
 20
0.0
 30
0.0
  0
VERTEX
  5
25E
330
25D
100
AcDbEntity
  8
レイヤー 1
 62
     7
370
     9
100
AcDbVertex
100
AcDb2dVertex
 10
186.2701117155852
 20
118.9095377306893
 30
0.0
  0
VERTEX
  5
25F
330
25D
100
AcDbEntity
  8
レイヤー 1
 62
     7
370
     9
100
AcDbVertex
100
AcDb2dVertex
 10
187.3456705260803
 20
118.3714138158933
 30
0.0
  0
SEQEND
  5
260
330
25D
100
AcDbEntity
  8
レイヤー 1
370
     9
  0
ENDBLK
  5
25C
330
259
100
AcDbEntity
  8
0
100
AcDbBlockEnd
  0
BLOCK
  5
263
330
261
100
AcDbEntity
  8
0
100
AcDbBlockBegin
  2
block 43
 70
     0
 10
0.0
 20
0.0
 30
0.0
  3
block 43
  1

  0
POLYLINE
  5
265
330
261
100
AcDbEntity
  8
レイヤー 1
 62
     7
370
     9
100
AcDb2dPolyline
 66
     1
 10
0.0
 20
0.0
 30
0.0
  0
VERTEX
  5
266
330
265
100
AcDbEntity
  8
レイヤー 1
 62
     7
370
     9
100
AcDbVertex
100
AcDb2dVertex
 10
187.3456705260803
 20
118.3714138158933
 30
0.0
  0
VERTEX
  5
267
330
265
100
AcDbEntity
  8
レイヤー 1
 62
     7
370
     9
100
AcDbVertex
100
AcDb2dVertex
 10
187.8837944408763
 20
119.2438842475328
 30
0.0
  0
SEQEND
  5
268
330
265
100
AcDbEntity
  8
レイヤー 1
370
     9
  0
ENDBLK
  5
264
330
261
100
AcDbEntity
  8
0
100
AcDbBlockEnd
  0
BLOCK
  5
26B
330
269
100
AcDbEntity
  8
0
100
AcDbBlockBegin
  2
block 44
 70
     0
 10
0.0
 20
0.0
 30
0.0
  3
block 44
  1

  0
POLYLINE
  5
26D
330
269
100
AcDbEntity
  8
レイヤー 1
 62
     7
370
     9
100
AcDb2dPolyline
 66
     1
 10
0.0
 20
0.0
 30
0.0
  0
VERTEX
  5
26E
330
26D
100
AcDbEntity
  8
レイヤー 1
 62
     7
370
     9
100
AcDbVertex
100
AcDb2dVertex
 10
187.8837944408763
 20
119.2438842475328
 30
0.0
  0
VERTEX
  5
26F
330
26D
100
AcDbEntity
  8
レイヤー 1
 62
     7
370
     9
100
AcDbVertex
100
AcDb2dVertex
 10
187.3456705260803
 20
120.6539618296455
 30
0.0
  0
SEQEND
  5
270
330
26D
100
AcDbEntity
  8
レイヤー 1
370
     9
  0
ENDBLK
  5
26C
330
269
100
AcDbEntity
  8
0
100
AcDbBlockEnd
  0
BLOCK
  5
273
330
271
100
AcDbEntity
  8
0
100
AcDbBlockBegin
  2
block 45
 70
     0
 10
0.0
 20
0.0
 30
0.0
  3
block 45
  1

  0
POLYLINE
  5
275
330
271
100
AcDbEntity
  8
レイヤー 1
 62
     7
370
     9
100
AcDb2dPolyline
 66
     1
 10
0.0
 20
0.0
 30
0.0
  0
VERTEX
  5
276
330
275
100
AcDbEntity
  8
レイヤー 1
 62
     7
370
     9
100
AcDbVertex
100
AcDb2dVertex
 10
186.1037136036477
 20
120.032811113655
 30
0.0
  0
VERTEX
  5
277
330
275
100
AcDbEntity
  8
レイヤー 1
 62
     7
370
     9
100
AcDbVertex
100
AcDb2dVertex
 10
185.7795301184857
 20
120.1947306014617
 30
0.0
  0
SEQEND
  5
278
330
275
100
AcDbEntity
  8
レイヤー 1
370
     9
  0
ENDBLK
  5
274
330
271
100
AcDbEntity
  8
0
100
AcDbBlockEnd
  0
BLOCK
  5
27B
330
279
100
AcDbEntity
  8
0
100
AcDbBlockBegin
  2
block 46
 70
     0
 10
0.0
 20
0.0
 30
0.0
  3
block 46
  1

  0
POLYLINE
  5
27D
330
279
100
AcDbEntity
  8
レイヤー 1
 62
     7
370
     9
100
AcDb2dPolyline
 66
     1
 10
0.0
 20
0.0
 30
0.0
  0
VERTEX
  5
27E
330
27D
100
AcDbEntity
  8
レイヤー 1
 62
     7
370
     9
100
AcDbVertex
100
AcDb2dVertex
 10
186.5939506911988
 20
118.7476182428826
 30
0.0
  0
VERTEX
  5
27F
330
27D
100
AcDbEntity
  8
レイヤー 1
 62
     7
370
     9
100
AcDbVertex
100
AcDb2dVertex
 10
186.1037136036477
 20
120.032811113655
 30
0.0
  0
SEQEND
  5
280
330
27D
100
AcDbEntity
  8
レイヤー 1
370
     9
  0
ENDBLK
  5
27C
330
279
100
AcDbEntity
  8
0
100
AcDbBlockEnd
  0
BLOCK
  5
283
330
281
100
AcDbEntity
  8
0
100
AcDbBlockBegin
  2
block 47
 70
     0
 10
0.0
 20
0.0
 30
0.0
  3
block 47
  1

  0
POLYLINE
  5
285
330
281
100
AcDbEntity
  8
レイヤー 1
 62
     7
370
     9
100
AcDb2dPolyline
 66
     1
 10
0.0
 20
0.0
 30
0.0
  0
VERTEX
  5
286
330
285
100
AcDbEntity
  8
レイヤー 1
 62
     7
370
     9
100
AcDbVertex
100
AcDb2dVertex
 10
186.7427788161615
 20
118.6732041804011
 30
0.0
  0
VERTEX
  5
287
330
285
100
AcDbEntity
  8
レイヤー 1
 62
     7
370
     9
100
AcDbVertex
100
AcDb2dVertex
 10
187.8837944408763
 20
119.2438842475328
 30
0.0
  0
SEQEND
  5
288
330
285
100
AcDbEntity
  8
レイヤー 1
370
     9
  0
ENDBLK
  5
284
330
281
100
AcDbEntity
  8
0
100
AcDbBlockEnd
  0
BLOCK
  5
28B
330
289
100
AcDbEntity
  8
0
100
AcDbBlockBegin
  2
block 48
 70
     0
 10
0.0
 20
0.0
 30
0.0
  3
block 48
  1

  0
POLYLINE
  5
28D
330
289
100
AcDbEntity
  8
レイヤー 1
 62
     7
370
     9
100
AcDb2dPolyline
 66
     1
 10
0.0
 20
0.0
 30
0.0
  0
VERTEX
  5
28E
330
28D
100
AcDbEntity
  8
レイヤー 1
 62
     7
370
     9
100
AcDbVertex
100
AcDb2dVertex
 10
186.1037136036477
 20
120.032811113655
 30
0.0
  0
VERTEX
  5
28F
330
28D
100
AcDbEntity
  8
レイヤー 1
 62
     7
370
     9
100
AcDbVertex
100
AcDb2dVertex
 10
187.3456705260803
 20
120.6539618296455
 30
0.0
  0
SEQEND
  5
290
330
28D
100
AcDbEntity
  8
レイヤー 1
370
     9
  0
ENDBLK
  5
28C
330
289
100
AcDbEntity
  8
0
100
AcDbBlockEnd
  0
BLOCK
  5
293
330
291
100
AcDbEntity
  8
0
100
AcDbBlockBegin
  2
block 49
 70
     0
 10
0.0
 20
0.0
 30
0.0
  3
block 49
  1

  0
SPLINE
  5
295
330
291
100
AcDbEntity
  8
レイヤー 1
 62
     7
370
     9
100
AcDbSpline
210
0.0
220
0.0
230
1.0
 70
     8
 71
     3
 72
     8
 73
     4
 74
     0
 42
0.000000001
 43
0.0000000001
 40
0.0
 40
0.0
 40
0.0
 40
0.0
 40
1.0
 40
1.0
 40
1.0
 40
1.0
 10
193.4555473691708
 20
86.81537269965033
 30
0.0
 10
193.6446831113111
 20
86.92768281246947
 30
0.0
 10
193.7621608673581
 20
87.13025442700216
 30
0.0
 10
193.7659504723919
 20
87.35074053805815
 30
0.0
  0
ENDBLK
  5
294
330
291
100
AcDbEntity
  8
0
100
AcDbBlockEnd
  0
BLOCK
  5
298
330
296
100
AcDbEntity
  8
0
100
AcDbBlockBegin
  2
block 50
 70
     0
 10
0.0
 20
0.0
 30
0.0
  3
block 50
  1

  0
POLYLINE
  5
29A
330
296
100
AcDbEntity
  8
レイヤー 1
 62
     7
370
     9
100
AcDb2dPolyline
 66
     1
 10
0.0
 20
0.0
 30
0.0
  0
VERTEX
  5
29B
330
29A
100
AcDbEntity
  8
レイヤー 1
 62
     7
370
     9
100
AcDbVertex
100
AcDb2dVertex
 10
193.7659504723919
 20
87.35074053805815
 30
0.0
  0
VERTEX
  5
29C
330
29A
100
AcDbEntity
  8
レイヤー 1
 62
     7
370
     9
100
AcDbVertex
100
AcDb2dVertex
 10
193.7659504723919
 20
143.6477348816228
 30
0.0
  0
SEQEND
  5
29D
330
29A
100
AcDbEntity
  8
レイヤー 1
370
     9
  0
ENDBLK
  5
299
330
296
100
AcDbEntity
  8
0
100
AcDbBlockEnd
  0
BLOCK
  5
2A0
330
29E
100
AcDbEntity
  8
0
100
AcDbBlockBegin
  2
block 51
 70
     0
 10
0.0
 20
0.0
 30
0.0
  3
block 51
  1

  0
POLYLINE
  5
2A2
330
29E
100
AcDbEntity
  8
レイヤー 1
 62
     7
370
     9
100
AcDb2dPolyline
 66
     1
 10
0.0
 20
0.0
 30
0.0
  0
VERTEX
  5
2A3
330
2A2
100
AcDbEntity
  8
レイヤー 1
 62
     7
370
     9
100
AcDbVertex
100
AcDb2dVertex
 10
185.5252820716742
 20
122.6028523456514
 30
0.0
  0
VERTEX
  5
2A4
330
2A2
100
AcDbEntity
  8
レイヤー 1
 62
     7
370
     9
100
AcDbVertex
100
AcDb2dVertex
 10
185.232448955428
 20
122.656423580447
 30
0.0
  0
VERTEX
  5
2A5
330
2A2
100
AcDbEntity
  8
レイヤー 1
 62
     7
370
     9
100
AcDbVertex
100
AcDb2dVertex
 10
184.7577147975606
 20
122.6348917336642
 30
0.0
  0
VERTEX
  5
2A6
330
2A2
100
AcDbEntity
  8
レイヤー 1
 62
     7
370
     9
100
AcDbVertex
100
AcDb2dVertex
 10
184.3374131483601
 20
122.4710774433406
 30
0.0
  0
VERTEX
  5
2A7
330
2A2
100
AcDbEntity
  8
レイヤー 1
 62
     7
370
     9
100
AcDbVertex
100
AcDb2dVertex
 10
183.9894585043499
 20
122.1720431552209
 30
0.0
  0
VERTEX
  5
2A8
330
2A2
100
AcDbEntity
  8
レイヤー 1
 62
     7
370
     9
100
AcDbVertex
100
AcDb2dVertex
 10
183.7300428143106
 20
121.7508802321491
 30
0.0
  0
VERTEX
  5
2A9
330
2A2
100
AcDbEntity
  8
レイヤー 1
 62
     7
370
     9
100
AcDbVertex
100
AcDb2dVertex
 10
183.5695013646979
 20
121.2260199349713
 30
0.0
  0
VERTEX
  5
2AA
330
2A2
100
AcDbEntity
  8
レイヤー 1
 62
     7
370
     9
100
AcDbVertex
100
AcDb2dVertex
 10
183.515068856031
 20
120.6203721486644
 30
0.0
  0
VERTEX
  5
2AB
330
2A2
100
AcDbEntity
  8
レイヤー 1
 62
     7
370
     9
100
AcDbVertex
100
AcDb2dVertex
 10
183.5695013646979
 20
119.960636363239
 30
0.0
  0
VERTEX
  5
2AC
330
2A2
100
AcDbEntity
  8
レイヤー 1
 62
     7
370
     9
100
AcDbVertex
100
AcDb2dVertex
 10
183.7300428143106
 20
119.2750623616743
 30
0.0
  0
VERTEX
  5
2AD
330
2A2
100
AcDbEntity
  8
レイヤー 1
 62
     7
370
     9
100
AcDbVertex
100
AcDb2dVertex
 10
183.9894585043499
 20
118.5943114937889
 30
0.0
  0
VERTEX
  5
2AE
330
2A2
100
AcDbEntity
  8
レイヤー 1
 62
     7
370
     9
100
AcDbVertex
100
AcDb2dVertex
 10
184.3374131483601
 20
117.9476670712075
 30
0.0
  0
VERTEX
  5
2AF
330
2A2
100
AcDbEntity
  8
レイヤー 1
 62
     7
370
     9
100
AcDbVertex
100
AcDb2dVertex
 10
184.7577147975606
 20
117.3633788769092
 30
0.0
  0
VERTEX
  5
2B0
330
2A2
100
AcDbEntity
  8
レイヤー 1
 62
     7
370
     9
100
AcDbVertex
100
AcDb2dVertex
 10
185.232448955428
 20
116.8676296365817
 30
0.0
  0
VERTEX
  5
2B1
330
2A2
100
AcDbEntity
  8
レイヤー 1
 62
     7
370
     9
100
AcDbVertex
100
AcDb2dVertex
 10
185.7402560299538
 20
116.4807454135882
 30
0.0
  0
VERTEX
  5
2B2
330
2A2
100
AcDbEntity
  8
レイヤー 1
 62
     7
370
     9
100
AcDbVertex
100
AcDb2dVertex
 10
186.260120938678
 20
116.2211574687746
 30
0.0
  0
VERTEX
  5
2B3
330
2A2
100
AcDbEntity
  8
レイヤー 1
 62
     7
370
     9
100
AcDbVertex
100
AcDb2dVertex
 10
186.7682725227524
 20
116.099373343371
 30
0.0
  0
VERTEX
  5
2B4
330
2A2
100
AcDbEntity
  8
レイヤー 1
 62
     7
370
     9
100
AcDbVertex
100
AcDb2dVertex
 10
187.2430066806198
 20
116.1212496997023
 30
0.0
  0
VERTEX
  5
2B5
330
2A2
100
AcDbEntity
  8
レイヤー 1
 62
     7
370
     9
100
AcDbVertex
100
AcDb2dVertex
 10
187.6629638202718
 20
116.2847194804774
 30
0.0
  0
VERTEX
  5
2B6
330
2A2
100
AcDbEntity
  8
レイヤー 1
 62
     7
370
     9
100
AcDbVertex
100
AcDb2dVertex
 10
188.0105739547335
 20
116.5837537685971
 30
0.0
  0
VERTEX
  5
2B7
330
2A2
100
AcDbEntity
  8
レイヤー 1
 62
     7
370
     9
100
AcDbVertex
100
AcDb2dVertex
 10
188.2703341543213
 20
117.0050889464432
 30
0.0
  0
VERTEX
  5
2B8
330
2A2
100
AcDbEntity
  8
レイヤー 1
 62
     7
370
     9
100
AcDbVertex
100
AcDb2dVertex
 10
188.3144313765325
 20
117.1110256326146
 30
0.0
  0
SEQEND
  5
2B9
330
2A2
100
AcDbEntity
  8
レイヤー 1
370
     9
  0
ENDBLK
  5
2A1
330
29E
100
AcDbEntity
  8
0
100
AcDbBlockEnd
  0
BLOCK
  5
2BC
330
2BA
100
AcDbEntity
  8
0
100
AcDbBlockBegin
  2
block 52
 70
     0
 10
0.0
 20
0.0
 30
0.0
  3
block 52
  1

  0
POLYLINE
  5
2BE
330
2BA
100
AcDbEntity
  8
レイヤー 1
 62
     7
370
     9
100
AcDb2dPolyline
 66
     1
 10
0.0
 20
0.0
 30
0.0
  0
VERTEX
  5
2BF
330
2BE
100
AcDbEntity
  8
レイヤー 1
 62
     7
370
     9
100
AcDbVertex
100
AcDb2dVertex
 10
147.4824706662544
 20
63.82831758386931
 30
0.0
  0
VERTEX
  5
2C0
330
2BE
100
AcDbEntity
  8
レイヤー 1
 62
     7
370
     9
100
AcDbVertex
100
AcDb2dVertex
 10
193.4555473691708
 20
86.81537269965033
 30
0.0
  0
SEQEND
  5
2C1
330
2BE
100
AcDbEntity
  8
レイヤー 1
370
     9
  0
ENDBLK
  5
2BD
330
2BA
100
AcDbEntity
  8
0
100
AcDbBlockEnd
  0
BLOCK
  5
2C4
330
2C2
100
AcDbEntity
  8
0
100
AcDbBlockBegin
  2
block 53
 70
     0
 10
0.0
 20
0.0
 30
0.0
  3
block 53
  1

  0
POLYLINE
  5
2C6
330
2C2
100
AcDbEntity
  8
レイヤー 1
 62
     7
370
     9
100
AcDb2dPolyline
 66
     1
 10
0.0
 20
0.0
 30
0.0
  0
VERTEX
  5
2C7
330
2C6
100
AcDbEntity
  8
レイヤー 1
 62
     7
370
     9
100
AcDbVertex
100
AcDb2dVertex
 10
160.8394503721165
 20
80.13602157284794
 30
0.0
  0
VERTEX
  5
2C8
330
2C6
100
AcDbEntity
  8
レイヤー 1
 62
     7
370
     9
100
AcDbVertex
100
AcDb2dVertex
 10
161.3396782365748
 20
80.33239201550718
 30
0.0
  0
VERTEX
  5
2C9
330
2C6
100
AcDbEntity
  8
レイヤー 1
 62
     7
370
     9
100
AcDbVertex
100
AcDb2dVertex
 10
161.9191432971938
 20
80.46261662484963
 30
0.0
  0
VERTEX
  5
2CA
330
2C6
100
AcDbEntity
  8
レイヤー 1
 62
     7
370
     9
100
AcDbVertex
100
AcDb2dVertex
 10
162.5440836182182
 20
80.51980520990477
 30
0.0
  0
VERTEX
  5
2CB
330
2C6
100
AcDbEntity
  8
レイヤー 1
 62
     7
370
     9
100
AcDbVertex
100
AcDb2dVertex
 10
163.1783256970527
 20
80.50051267518738
 30
0.0
  0
VERTEX
  5
2CC
330
2C6
100
AcDbEntity
  8
レイヤー 1
 62
     7
370
     9
100
AcDbVertex
100
AcDb2dVertex
 10
163.7850070120051
 20
80.40611705889152
 30
0.0
  0
VERTEX
  5
2CD
330
2C6
100
AcDbEntity
  8
レイヤー 1
 62
     7
370
     9
100
AcDbVertex
100
AcDb2dVertex
 10
164.3286430795776
 20
80.24213051379364
 30
0.0
  0
VERTEX
  5
2CE
330
2C6
100
AcDbEntity
  8
レイヤー 1
 62
     7
370
     9
100
AcDbVertex
100
AcDb2dVertex
 10
164.7778835308542
 20
80.01751028815535
 30
0.0
  0
VERTEX
  5
2CF
330
2C6
100
AcDbEntity
  8
レイヤー 1
 62
     7
370
     9
100
AcDbVertex
100
AcDb2dVertex
 10
165.106545640147
 20
79.7453477448206
 30
0.0
  0
VERTEX
  5
2D0
330
2C6
100
AcDbEntity
  8
レイヤー 1
 62
     7
370
     9
100
AcDbVertex
100
AcDb2dVertex
 10
165.2960258918357
 20
79.44217934211862
 30
0.0
  0
VERTEX
  5
2D1
330
2C6
100
AcDbEntity
  8
レイヤー 1
 62
     7
370
     9
100
AcDbVertex
100
AcDb2dVertex
 10
165.334266451722
 20
79.12523055747565
 30
0.0
  0
VERTEX
  5
2D2
330
2C6
100
AcDbEntity
  8
レイヤー 1
 62
     7
370
     9
100
AcDbVertex
100
AcDb2dVertex
 10
165.2198892816117
 20
78.81241588741496
 30
0.0
  0
VERTEX
  5
2D3
330
2C6
100
AcDbEntity
  8
レイヤー 1
 62
     7
370
     9
100
AcDbVertex
100
AcDb2dVertex
 10
164.9587510438298
 20
78.52302786665396
 30
0.0
  0
VERTEX
  5
2D4
330
2C6
100
AcDbEntity
  8
レイヤー 1
 62
     7
370
     9
100
AcDbVertex
100
AcDb2dVertex
 10
164.5670436871569
 20
78.27291393442484
 30
0.0
  0
VERTEX
  5
2D5
330
2C6
100
AcDbEntity
  8
レイヤー 1
 62
     7
370
     9
100
AcDbVertex
100
AcDb2dVertex
 10
164.0668158226986
 20
78.07654349176559
 30
0.0
  0
VERTEX
  5
2D6
330
2C6
100
AcDbEntity
  8
レイヤー 1
 62
     7
370
     9
100
AcDbVertex
100
AcDb2dVertex
 10
163.4873507620796
 20
77.94631888242314
 30
0.0
  0
VERTEX
  5
2D7
330
2C6
100
AcDbEntity
  8
レイヤー 1
 62
     7
370
     9
100
AcDbVertex
100
AcDb2dVertex
 10
162.8624104410552
 20
77.889130297368
 30
0.0
  0
VERTEX
  5
2D8
330
2C6
100
AcDbEntity
  8
レイヤー 1
 62
     7
370
     9
100
AcDbVertex
100
AcDb2dVertex
 10
162.2281683622207
 20
77.90842283208539
 30
0.0
  0
VERTEX
  5
2D9
330
2C6
100
AcDbEntity
  8
レイヤー 1
 62
     7
370
     9
100
AcDbVertex
100
AcDb2dVertex
 10
161.6214870472683
 20
78.00281844838125
 30
0.0
  0
VERTEX
  5
2DA
330
2C6
100
AcDbEntity
  8
レイヤー 1
 62
     7
370
     9
100
AcDbVertex
100
AcDb2dVertex
 10
161.0778509796958
 20
78.16680499347913
 30
0.0
  0
VERTEX
  5
2DB
330
2C6
100
AcDbEntity
  8
レイヤー 1
 62
     7
370
     9
100
AcDbVertex
100
AcDb2dVertex
 10
160.6282660188707
 20
78.39142521911742
 30
0.0
  0
VERTEX
  5
2DC
330
2C6
100
AcDbEntity
  8
レイヤー 1
 62
     7
370
     9
100
AcDbVertex
100
AcDb2dVertex
 10
160.2996039095779
 20
78.66427678154922
 30
0.0
  0
VERTEX
  5
2DD
330
2C6
100
AcDbEntity
  8
レイヤー 1
 62
     7
370
     9
100
AcDbVertex
100
AcDb2dVertex
 10
160.1104681674377
 20
78.9674451842512
 30
0.0
  0
VERTEX
  5
2DE
330
2C6
100
AcDbEntity
  8
レイヤー 1
 62
     7
370
     9
100
AcDbVertex
100
AcDb2dVertex
 10
160.0722276075514
 20
79.28370494979713
 30
0.0
  0
VERTEX
  5
2DF
330
2C6
100
AcDbEntity
  8
レイヤー 1
 62
     7
370
     9
100
AcDbVertex
100
AcDb2dVertex
 10
160.1866047776617
 20
79.59651961985782
 30
0.0
  0
VERTEX
  5
2E0
330
2C6
100
AcDbEntity
  8
レイヤー 1
 62
     7
370
     9
100
AcDbVertex
100
AcDb2dVertex
 10
160.4477430154436
 20
79.88590764061881
 30
0.0
  0
VERTEX
  5
2E1
330
2C6
100
AcDbEntity
  8
レイヤー 1
 62
     7
370
     9
100
AcDbVertex
100
AcDb2dVertex
 10
160.8394503721165
 20
80.13602157284794
 30
0.0
  0
SEQEND
  5
2E2
330
2C6
100
AcDbEntity
  8
レイヤー 1
370
     9
  0
ENDBLK
  5
2C5
330
2C2
100
AcDbEntity
  8
0
100
AcDbBlockEnd
  0
BLOCK
  5
2E5
330
2E3
100
AcDbEntity
  8
0
100
AcDbBlockBegin
  2
block 54
 70
     0
 10
0.0
 20
0.0
 30
0.0
  3
block 54
  1

  0
POLYLINE
  5
2E7
330
2E3
100
AcDbEntity
  8
レイヤー 1
 62
     7
370
     9
100
AcDb2dPolyline
 66
     1
 10
0.0
 20
0.0
 30
0.0
  0
VERTEX
  5
2E8
330
2E7
100
AcDbEntity
  8
レイヤー 1
 62
     7
370
     9
100
AcDbVertex
100
AcDb2dVertex
 10
184.0855766683883
 20
122.2753960197784
 30
0.0
  0
VERTEX
  5
2E9
330
2E7
100
AcDbEntity
  8
レイヤー 1
 62
     7
370
     9
100
AcDbVertex
100
AcDb2dVertex
 10
184.4865857828714
 20
122.283664248943
 30
0.0
  0
VERTEX
  5
2EA
330
2E7
100
AcDbEntity
  8
レイヤー 1
 62
     7
370
     9
100
AcDbVertex
100
AcDb2dVertex
 10
184.8114582871305
 20
122.2216525302085
 30
0.0
  0
SEQEND
  5
2EB
330
2E7
100
AcDbEntity
  8
レイヤー 1
370
     9
  0
ENDBLK
  5
2E6
330
2E3
100
AcDbEntity
  8
0
100
AcDbBlockEnd
  0
BLOCK
  5
2EE
330
2EC
100
AcDbEntity
  8
0
100
AcDbBlockBegin
  2
block 55
 70
     0
 10
0.0
 20
0.0
 30
0.0
  3
block 55
  1

  0
SPLINE
  5
2F0
330
2EC
100
AcDbEntity
  8
レイヤー 1
 62
     7
370
     9
100
AcDbSpline
210
0.0
220
0.0
230
1.0
 70
     8
 71
     3
 72
     8
 73
     4
 74
     0
 42
0.000000001
 43
0.0000000001
 40
0.0
 40
0.0
 40
0.0
 40
0.0
 40
1.0
 40
1.0
 40
1.0
 40
1.0
 10
187.169626146784
 20
116.1078138273099
 30
0.0
 10
187.3367132778186
 20
116.2767957608614
 30
0.0
 10
187.4672823967096
 20
116.4778170824257
 30
0.0
 10
187.5534097838408
 20
116.6993367221273
 30
0.0
  0
ENDBLK
  5
2EF
330
2EC
100
AcDbEntity
  8
0
100
AcDbBlockEnd
  0
BLOCK
  5
2F3
330
2F1
100
AcDbEntity
  8
0
100
AcDbBlockBegin
  2
block 56
 70
     0
 10
0.0
 20
0.0
 30
0.0
  3
block 56
  1

  0
SPLINE
  5
2F5
330
2F1
100
AcDbEntity
  8
レイヤー 1
 62
     7
370
     9
100
AcDbSpline
210
0.0
220
0.0
230
1.0
 70
     8
 71
     3
 72
     8
 73
     4
 74
     0
 42
0.000000001
 43
0.0000000001
 40
0.0
 40
0.0
 40
0.0
 40
0.0
 40
1.0
 40
1.0
 40
1.0
 40
1.0
 10
160.2307019998729
 20
79.66128741498052
 30
0.0
 10
161.6376789960489
 20
78.40038246737907
 30
0.0
 10
163.7688150632245
 20
78.40038246737907
 30
0.0
 10
165.175447549852
 20
79.66128741498052
 30
0.0
  0
ENDBLK
  5
2F4
330
2F1
100
AcDbEntity
  8
0
100
AcDbBlockEnd
  0
BLOCK
  5
2F8
330
2F6
100
AcDbEntity
  8
0
100
AcDbBlockBegin
  2
block 57
 70
     0
 10
0.0
 20
0.0
 30
0.0
  3
block 57
  1

  0
SPLINE
  5
2FA
330
2F6
100
AcDbEntity
  8
レイヤー 1
 62
     7
370
     9
100
AcDbSpline
210
0.0
220
0.0
230
1.0
 70
     8
 71
     3
 72
     8
 73
     4
 74
     0
 42
0.000000001
 43
0.0000000001
 40
0.0
 40
0.0
 40
0.0
 40
0.0
 40
1.0
 40
1.0
 40
1.0
 40
1.0
 10
193.7659504723919
 20
143.6477348816228
 30
0.0
 10
193.7759412492991
 20
143.7419582431444
 30
0.0
 10
193.7318440270879
 20
143.8339422926005
 30
0.0
 10
193.6519178118301
 20
143.8852742153308
 30
0.0
  0
ENDBLK
  5
2F9
330
2F6
100
AcDbEntity
  8
0
100
AcDbBlockEnd
  0
BLOCK
  5
2FD
330
2FB
100
AcDbEntity
  8
0
100
AcDbBlockBegin
  2
block 58
 70
     0
 10
0.0
 20
0.0
 30
0.0
  3
block 58
  1

  0
SPLINE
  5
2FF
330
2FB
100
AcDbEntity
  8
レイヤー 1
 62
     7
370
     9
100
AcDbSpline
210
0.0
220
0.0
230
1.0
 70
     8
 71
     3
 72
     8
 73
     4
 74
     0
 42
0.000000001
 43
0.0000000001
 40
0.0
 40
0.0
 40
0.0
 40
0.0
 40
1.0
 40
1.0
 40
1.0
 40
1.0
 10
147.2857557140466
 20
63.81591524012241
 30
0.0
 10
147.3498344900723
 20
63.78835447624041
 30
0.0
 10
147.422526004811
 20
63.79248859082271
 30
0.0
 10
147.4824706662544
 20
63.82831758386931
 30
0.0
  0
ENDBLK
  5
2FE
330
2FB
100
AcDbEntity
  8
0
100
AcDbBlockEnd
  0
BLOCK
  5
302
330
300
100
AcDbEntity
  8
0
100
AcDbBlockBegin
  2
block 59
 70
     0
 10
0.0
 20
0.0
 30
0.0
  3
block 59
  1

  0
SPLINE
  5
304
330
300
100
AcDbEntity
  8
レイヤー 1
 62
     7
370
     9
100
AcDbSpline
210
0.0
220
0.0
230
1.0
 70
     8
 71
     3
 72
     8
 73
     4
 74
     0
 42
0.000000001
 43
0.0000000001
 40
0.0
 40
0.0
 40
0.0
 40
0.0
 40
1.0
 40
1.0
 40
1.0
 40
1.0
 10
159.9075520433564
 20
101.3619438765692
 30
0.0
 10
160.4756482888741
 20
101.6999077436723
 30
0.0
 10
160.8284260665637
 20
102.3083116063674
 30
0.0
 10
160.8394503721165
 20
102.9683919013412
 30
0.0
  0
ENDBLK
  5
303
330
300
100
AcDbEntity
  8
0
100
AcDbBlockEnd
  0
BLOCK
  5
307
330
305
100
AcDbEntity
  8
0
100
AcDbBlockBegin
  2
block 60
 70
     0
 10
0.0
 20
0.0
 30
0.0
  3
block 60
  1

  0
POLYLINE
  5
309
330
305
100
AcDbEntity
  8
レイヤー 1
 62
     7
370
     9
100
AcDb2dPolyline
 66
     1
 10
0.0
 20
0.0
 30
0.0
  0
VERTEX
  5
30A
330
309
100
AcDbEntity
  8
レイヤー 1
 62
     7
370
     9
100
AcDbVertex
100
AcDb2dVertex
 10
99.95651717336158
 20
72.52718368412515
 30
0.0
  0
VERTEX
  5
30B
330
309
100
AcDbEntity
  8
レイヤー 1
 62
     7
370
     9
100
AcDbVertex
100
AcDb2dVertex
 10
99.97425941511061
 20
72.31358776403967
 30
0.0
  0
VERTEX
  5
30C
330
309
100
AcDbEntity
  8
レイヤー 1
 62
     7
370
     9
100
AcDbVertex
100
AcDb2dVertex
 10
100.027658395132
 20
72.12686358873913
 30
0.0
  0
VERTEX
  5
30D
330
309
100
AcDbEntity
  8
レイヤー 1
 62
     7
370
     9
100
AcDbVertex
100
AcDb2dVertex
 10
100.113613527489
 20
71.97252331099993
 30
0.0
  0
VERTEX
  5
30E
330
309
100
AcDbEntity
  8
レイヤー 1
 62
     7
370
     9
100
AcDbVertex
100
AcDb2dVertex
 10
100.2295409905676
 20
71.85745712179258
 30
0.0
  0
VERTEX
  5
30F
330
309
100
AcDbEntity
  8
レイヤー 1
 62
     7
370
     9
100
AcDbVertex
100
AcDb2dVertex
 10
100.3707899054629
 20
71.78579913569939
 30
0.0
  0
VERTEX
  5
310
330
309
100
AcDbEntity
  8
レイヤー 1
 62
     7
370
     9
100
AcDbVertex
100
AcDb2dVertex
 10
100.5318481193983
 20
71.7609944482056
 30
0.0
  0
VERTEX
  5
311
330
309
100
AcDbEntity
  8
レイヤー 1
 62
     7
370
     9
100
AcDbVertex
100
AcDb2dVertex
 10
100.7065144605005
 20
71.78373207840824
 30
0.0
  0
VERTEX
  5
312
330
309
100
AcDbEntity
  8
レイヤー 1
 62
     7
370
     9
100
AcDbVertex
100
AcDb2dVertex
 10
100.8884155021216
 20
71.85263398811324
 30
0.0
  0
SEQEND
  5
313
330
309
100
AcDbEntity
  8
レイヤー 1
370
     9
  0
ENDBLK
  5
308
330
305
100
AcDbEntity
  8
0
100
AcDbBlockEnd
  0
BLOCK
  5
316
330
314
100
AcDbEntity
  8
0
100
AcDbBlockBegin
  2
block 61
 70
     0
 10
0.0
 20
0.0
 30
0.0
  3
block 61
  1

  0
POLYLINE
  5
318
330
314
100
AcDbEntity
  8
レイヤー 1
 62
     7
370
     9
100
AcDb2dPolyline
 66
     1
 10
0.0
 20
0.0
 30
0.0
  0
VERTEX
  5
319
330
318
100
AcDbEntity
  8
レイヤー 1
 62
     7
370
     9
100
AcDbVertex
100
AcDb2dVertex
 10
99.95651717336158
 20
72.52718368412515
 30
0.0
  0
VERTEX
  5
31A
330
318
100
AcDbEntity
  8
レイヤー 1
 62
     7
370
     9
100
AcDbVertex
100
AcDb2dVertex
 10
99.95651717336158
 20
144.8030476526013
 30
0.0
  0
SEQEND
  5
31B
330
318
100
AcDbEntity
  8
レイヤー 1
370
     9
  0
ENDBLK
  5
317
330
314
100
AcDbEntity
  8
0
100
AcDbBlockEnd
  0
BLOCK
  5
31E
330
31C
100
AcDbEntity
  8
0
100
AcDbBlockBegin
  2
block 62
 70
     0
 10
0.0
 20
0.0
 30
0.0
  3
block 62
  1

  0
SPLINE
  5
320
330
31C
100
AcDbEntity
  8
レイヤー 1
 62
     7
370
     9
100
AcDbSpline
210
0.0
220
0.0
230
1.0
 70
     8
 71
     3
 72
     8
 73
     4
 74
     0
 42
0.000000001
 43
0.0000000001
 40
0.0
 40
0.0
 40
0.0
 40
0.0
 40
1.0
 40
1.0
 40
1.0
 40
1.0
 10
100.8884155021216
 20
146.4101846964704
 30
0.0
 10
100.320319256604
 20
146.0722208293674
 30
0.0
 10
99.96771373368863
 20
145.4639892214465
 30
0.0
 10
99.95651717336158
 20
144.8030476526013
 30
0.0
  0
ENDBLK
  5
31F
330
31C
100
AcDbEntity
  8
0
100
AcDbBlockEnd
  0
BLOCK
  5
323
330
321
100
AcDbEntity
  8
0
100
AcDbBlockBegin
  2
block 63
 70
     0
 10
0.0
 20
0.0
 30
0.0
  3
block 63
  1

  0
POLYLINE
  5
325
330
321
100
AcDbEntity
  8
レイヤー 1
 62
     7
370
     9
100
AcDb2dPolyline
 66
     1
 10
0.0
 20
0.0
 30
0.0
  0
VERTEX
  5
326
330
325
100
AcDbEntity
  8
レイヤー 1
 62
     7
370
     9
100
AcDbVertex
100
AcDb2dVertex
 10
100.8884155021216
 20
146.4101846964704
 30
0.0
  0
VERTEX
  5
327
330
325
100
AcDbEntity
  8
レイヤー 1
 62
     7
370
     9
100
AcDbVertex
100
AcDb2dVertex
 10
159.9075520433564
 20
175.9198390944749
 30
0.0
  0
SEQEND
  5
328
330
325
100
AcDbEntity
  8
レイヤー 1
370
     9
  0
ENDBLK
  5
324
330
321
100
AcDbEntity
  8
0
100
AcDbBlockEnd
  0
BLOCK
  5
32B
330
329
100
AcDbEntity
  8
0
100
AcDbBlockBegin
  2
block 64
 70
     0
 10
0.0
 20
0.0
 30
0.0
  3
block 64
  1

  0
POLYLINE
  5
32D
330
329
100
AcDbEntity
  8
レイヤー 1
 62
     7
370
     9
100
AcDb2dPolyline
 66
     1
 10
0.0
 20
0.0
 30
0.0
  0
VERTEX
  5
32E
330
32D
100
AcDbEntity
  8
レイヤー 1
 62
     7
370
     9
100
AcDbVertex
100
AcDb2dVertex
 10
160.8394503721165
 20
175.2444281245917
 30
0.0
  0
VERTEX
  5
32F
330
32D
100
AcDbEntity
  8
レイヤー 1
 62
     7
370
     9
100
AcDbVertex
100
AcDb2dVertex
 10
160.8215358755932
 20
175.4583685542257
 30
0.0
  0
VERTEX
  5
330
330
32D
100
AcDbEntity
  8
レイヤー 1
 62
     7
370
     9
100
AcDbVertex
100
AcDb2dVertex
 10
160.7684814051204
 20
175.6457817486233
 30
0.0
  0
VERTEX
  5
331
330
32D
100
AcDbEntity
  8
レイヤー 1
 62
     7
370
     9
100
AcDbVertex
100
AcDb2dVertex
 10
160.6826985275377
 20
175.7999497715882
 30
0.0
  0
VERTEX
  5
332
330
32D
100
AcDbEntity
  8
レイヤー 1
 62
     7
370
     9
100
AcDbVertex
100
AcDb2dVertex
 10
160.5662543001362
 20
175.9150159607956
 30
0.0
  0
VERTEX
  5
333
330
32D
100
AcDbEntity
  8
レイヤー 1
 62
     7
370
     9
100
AcDbVertex
100
AcDb2dVertex
 10
160.4253498947895
 20
175.9865016921145
 30
0.0
  0
VERTEX
  5
334
330
32D
100
AcDbEntity
  8
レイヤー 1
 62
     7
370
     9
100
AcDbVertex
100
AcDb2dVertex
 10
160.2641194260798
 20
176.0113063796083
 30
0.0
  0
VERTEX
  5
335
330
32D
100
AcDbEntity
  8
レイヤー 1
 62
     7
370
     9
100
AcDbVertex
100
AcDb2dVertex
 10
160.0894530849776
 20
175.9889132589542
 30
0.0
  0
VERTEX
  5
336
330
32D
100
AcDbEntity
  8
レイヤー 1
 62
     7
370
     9
100
AcDbVertex
100
AcDb2dVertex
 10
159.9075520433564
 20
175.9198390944749
 30
0.0
  0
SEQEND
  5
337
330
32D
100
AcDbEntity
  8
レイヤー 1
370
     9
  0
ENDBLK
  5
32C
330
329
100
AcDbEntity
  8
0
100
AcDbBlockEnd
  0
BLOCK
  5
33A
330
338
100
AcDbEntity
  8
0
100
AcDbBlockBegin
  2
block 65
 70
     0
 10
0.0
 20
0.0
 30
0.0
  3
block 65
  1

  0
POLYLINE
  5
33C
330
338
100
AcDbEntity
  8
レイヤー 1
 62
     7
370
     9
100
AcDb2dPolyline
 66
     1
 10
0.0
 20
0.0
 30
0.0
  0
VERTEX
  5
33D
330
33C
100
AcDbEntity
  8
レイヤー 1
 62
     7
370
     9
100
AcDbVertex
100
AcDb2dVertex
 10
160.8394503721165
 20
175.2444281245917
 30
0.0
  0
VERTEX
  5
33E
330
33C
100
AcDbEntity
  8
レイヤー 1
 62
     7
370
     9
100
AcDbVertex
100
AcDb2dVertex
 10
160.8394503721165
 20
102.9683919013412
 30
0.0
  0
SEQEND
  5
33F
330
33C
100
AcDbEntity
  8
レイヤー 1
370
     9
  0
ENDBLK
  5
33B
330
338
100
AcDbEntity
  8
0
100
AcDbBlockEnd
  0
BLOCK
  5
342
330
340
100
AcDbEntity
  8
0
100
AcDbBlockBegin
  2
block 66
 70
     0
 10
0.0
 20
0.0
 30
0.0
  3
block 66
  1

  0
POLYLINE
  5
344
330
340
100
AcDbEntity
  8
レイヤー 1
 62
     7
370
     9
100
AcDb2dPolyline
 66
     1
 10
0.0
 20
0.0
 30
0.0
  0
VERTEX
  5
345
330
344
100
AcDbEntity
  8
レイヤー 1
 62
     7
370
     9
100
AcDbVertex
100
AcDb2dVertex
 10
159.9075520433564
 20
101.3619438765692
 30
0.0
  0
VERTEX
  5
346
330
344
100
AcDbEntity
  8
レイヤー 1
 62
     7
370
     9
100
AcDbVertex
100
AcDb2dVertex
 10
100.8884155021216
 20
71.85263398811324
 30
0.0
  0
SEQEND
  5
347
330
344
100
AcDbEntity
  8
レイヤー 1
370
     9
  0
ENDBLK
  5
343
330
340
100
AcDbEntity
  8
0
100
AcDbBlockEnd
  0
BLOCK
  5
34A
330
348
100
AcDbEntity
  8
0
100
AcDbBlockBegin
  2
block 67
 70
     0
 10
0.0
 20
0.0
 30
0.0
  3
block 67
  1

  0
POLYLINE
  5
34C
330
348
100
AcDbEntity
  8
レイヤー 1
 62
     7
370
     9
100
AcDb2dPolyline
 66
     1
 10
0.0
 20
0.0
 30
0.0
  0
VERTEX
  5
34D
330
34C
100
AcDbEntity
  8
レイヤー 1
 62
     7
370
     9
100
AcDbVertex
100
AcDb2dVertex
 10
159.9898898254539
 20
101.2165608470917
 30
0.0
  0
VERTEX
  5
34E
330
34C
100
AcDbEntity
  8
レイヤー 1
 62
     7
370
     9
100
AcDbVertex
100
AcDb2dVertex
 10
101.0749674226479
 20
71.75892739091444
 30
0.0
  0
SEQEND
  5
34F
330
34C
100
AcDbEntity
  8
レイヤー 1
370
     9
  0
ENDBLK
  5
34B
330
348
100
AcDbEntity
  8
0
100
AcDbBlockEnd
  0
BLOCK
  5
352
330
350
100
AcDbEntity
  8
0
100
AcDbBlockBegin
  2
block 68
 70
     0
 10
0.0
 20
0.0
 30
0.0
  3
block 68
  1

  0
POLYLINE
  5
354
330
350
100
AcDbEntity
  8
レイヤー 1
 62
     7
370
     9
100
AcDb2dPolyline
 66
     1
 10
0.0
 20
0.0
 30
0.0
  0
VERTEX
  5
355
330
354
100
AcDbEntity
  8
レイヤー 1
 62
     7
370
     9
100
AcDbVertex
100
AcDb2dVertex
 10
144.0656249639836
 20
58.31616480746957
 30
0.0
  0
VERTEX
  5
356
330
354
100
AcDbEntity
  8
レイヤー 1
 62
     7
370
     9
100
AcDbVertex
100
AcDb2dVertex
 10
147.1720675630334
 20
56.76242674362189
 30
0.0
  0
SEQEND
  5
357
330
354
100
AcDbEntity
  8
レイヤー 1
370
     9
  0
ENDBLK
  5
353
330
350
100
AcDbEntity
  8
0
100
AcDbBlockEnd
  0
BLOCK
  5
35A
330
358
100
AcDbEntity
  8
0
100
AcDbBlockBegin
  2
block 69
 70
     0
 10
0.0
 20
0.0
 30
0.0
  3
block 69
  1

  0
POLYLINE
  5
35C
330
358
100
AcDbEntity
  8
レイヤー 1
 62
     7
370
     9
100
AcDb2dPolyline
 66
     1
 10
0.0
 20
0.0
 30
0.0
  0
VERTEX
  5
35D
330
35C
100
AcDbEntity
  8
レイヤー 1
 62
     7
370
     9
100
AcDbVertex
100
AcDb2dVertex
 10
144.0656249639836
 20
58.31616480746957
 30
0.0
  0
VERTEX
  5
35E
330
35C
100
AcDbEntity
  8
レイヤー 1
 62
     7
370
     9
100
AcDbVertex
100
AcDb2dVertex
 10
196.8723930714416
 20
84.71868758732728
 30
0.0
  0
SEQEND
  5
35F
330
35C
100
AcDbEntity
  8
レイヤー 1
370
     9
  0
ENDBLK
  5
35B
330
358
100
AcDbEntity
  8
0
100
AcDbBlockEnd
  0
BLOCK
  5
362
330
360
100
AcDbEntity
  8
0
100
AcDbBlockBegin
  2
block 70
 70
     0
 10
0.0
 20
0.0
 30
0.0
  3
block 70
  1

  0
POLYLINE
  5
364
330
360
100
AcDbEntity
  8
レイヤー 1
 62
     7
370
     9
100
AcDb2dPolyline
 66
     1
 10
0.0
 20
0.0
 30
0.0
  0
VERTEX
  5
365
330
364
100
AcDbEntity
  8
レイヤー 1
 62
     7
370
     9
100
AcDbVertex
100
AcDb2dVertex
 10
196.8723930714416
 20
84.71868758732728
 30
0.0
  0
VERTEX
  5
366
330
364
100
AcDbEntity
  8
レイヤー 1
 62
     7
370
     9
100
AcDbVertex
100
AcDb2dVertex
 10
199.9784911609429
 20
83.1663275616737
 30
0.0
  0
SEQEND
  5
367
330
364
100
AcDbEntity
  8
レイヤー 1
370
     9
  0
ENDBLK
  5
363
330
360
100
AcDbEntity
  8
0
100
AcDbBlockEnd
  0
BLOCK
  5
36A
330
368
100
AcDbEntity
  8
0
100
AcDbBlockBegin
  2
block 71
 70
     0
 10
0.0
 20
0.0
 30
0.0
  3
block 71
  1

  0
POLYLINE
  5
36C
330
368
100
AcDbEntity
  8
レイヤー 1
 62
     7
370
     9
100
AcDb2dPolyline
 66
     1
 10
0.0
 20
0.0
 30
0.0
  0
VERTEX
  5
36D
330
36C
100
AcDbEntity
  8
レイヤー 1
 62
     7
370
     9
100
AcDbVertex
100
AcDb2dVertex
 10
147.1720675630334
 20
56.76242674362189
 30
0.0
  0
VERTEX
  5
36E
330
36C
100
AcDbEntity
  8
レイヤー 1
 62
     7
370
     9
100
AcDbVertex
100
AcDb2dVertex
 10
199.9784911609429
 20
83.1663275616737
 30
0.0
  0
SEQEND
  5
36F
330
36C
100
AcDbEntity
  8
レイヤー 1
370
     9
  0
ENDBLK
  5
36B
330
368
100
AcDbEntity
  8
0
100
AcDbBlockEnd
  0
BLOCK
  5
372
330
370
100
AcDbEntity
  8
0
100
AcDbBlockBegin
  2
block 72
 70
     0
 10
0.0
 20
0.0
 30
0.0
  3
block 72
  1

  0
POLYLINE
  5
374
330
370
100
AcDbEntity
  8
レイヤー 1
 62
     7
370
     9
100
AcDb2dPolyline
 66
     1
 10
0.0
 20
0.0
 30
0.0
  0
VERTEX
  5
375
330
374
100
AcDbEntity
  8
レイヤー 1
 62
     7
370
     9
100
AcDbVertex
100
AcDb2dVertex
 10
196.8723930714416
 20
149.3855414123064
 30
0.0
  0
VERTEX
  5
376
330
374
100
AcDbEntity
  8
レイヤー 1
 62
     7
370
     9
100
AcDbVertex
100
AcDb2dVertex
 10
189.761715989886
 20
145.8303751263028
 30
0.0
  0
SEQEND
  5
377
330
374
100
AcDbEntity
  8
レイヤー 1
370
     9
  0
ENDBLK
  5
373
330
370
100
AcDbEntity
  8
0
100
AcDbBlockEnd
  0
BLOCK
  5
37A
330
378
100
AcDbEntity
  8
0
100
AcDbBlockBegin
  2
block 73
 70
     0
 10
0.0
 20
0.0
 30
0.0
  3
block 73
  1

  0
POLYLINE
  5
37C
330
378
100
AcDbEntity
  8
レイヤー 1
 62
     7
370
     9
100
AcDb2dPolyline
 66
     1
 10
0.0
 20
0.0
 30
0.0
  0
VERTEX
  5
37D
330
37C
100
AcDbEntity
  8
レイヤー 1
 62
     7
370
     9
100
AcDbVertex
100
AcDb2dVertex
 10
196.8723930714416
 20
84.71868758732728
 30
0.0
  0
VERTEX
  5
37E
330
37C
100
AcDbEntity
  8
レイヤー 1
 62
     7
370
     9
100
AcDbVertex
100
AcDb2dVertex
 10
196.8723930714416
 20
149.3855414123064
 30
0.0
  0
SEQEND
  5
37F
330
37C
100
AcDbEntity
  8
レイヤー 1
370
     9
  0
ENDBLK
  5
37B
330
378
100
AcDbEntity
  8
0
100
AcDbBlockEnd
  0
BLOCK
  5
382
330
380
100
AcDbEntity
  8
0
100
AcDbBlockBegin
  2
block 74
 70
     0
 10
0.0
 20
0.0
 30
0.0
  3
block 74
  1

  0
POLYLINE
  5
384
330
380
100
AcDbEntity
  8
レイヤー 1
 62
     7
370
     9
100
AcDb2dPolyline
 66
     1
 10
0.0
 20
0.0
 30
0.0
  0
VERTEX
  5
385
330
384
100
AcDbEntity
  8
レイヤー 1
 62
     7
370
     9
100
AcDbVertex
100
AcDb2dVertex
 10
144.0656249639836
 20
65.42684188902524
 30
0.0
  0
VERTEX
  5
386
330
384
100
AcDbEntity
  8
レイヤー 1
 62
     7
370
     9
100
AcDbVertex
100
AcDb2dVertex
 10
144.0656249639836
 20
58.31616480746957
 30
0.0
  0
SEQEND
  5
387
330
384
100
AcDbEntity
  8
レイヤー 1
370
     9
  0
ENDBLK
  5
383
330
380
100
AcDbEntity
  8
0
100
AcDbBlockEnd
  0
BLOCK
  5
38A
330
388
100
AcDbEntity
  8
0
100
AcDbBlockBegin
  2
block 75
 70
     0
 10
0.0
 20
0.0
 30
0.0
  3
block 75
  1

  0
POLYLINE
  5
38C
330
388
100
AcDbEntity
  8
レイヤー 1
 62
     7
370
     9
100
AcDb2dPolyline
 66
     1
 10
0.0
 20
0.0
 30
0.0
  0
VERTEX
  5
38D
330
38C
100
AcDbEntity
  8
レイヤー 1
 62
     7
370
     9
100
AcDbVertex
100
AcDb2dVertex
 10
196.8723930714416
 20
149.3855414123064
 30
0.0
  0
VERTEX
  5
38E
330
38C
100
AcDbEntity
  8
レイヤー 1
 62
     7
370
     9
100
AcDbVertex
100
AcDb2dVertex
 10
199.9784911609429
 20
147.8323201127815
 30
0.0
  0
SEQEND
  5
38F
330
38C
100
AcDbEntity
  8
レイヤー 1
370
     9
  0
ENDBLK
  5
38B
330
388
100
AcDbEntity
  8
0
100
AcDbBlockEnd
  0
BLOCK
  5
392
330
390
100
AcDbEntity
  8
0
100
AcDbBlockBegin
  2
block 76
 70
     0
 10
0.0
 20
0.0
 30
0.0
  3
block 76
  1

  0
POLYLINE
  5
394
330
390
100
AcDbEntity
  8
レイヤー 1
 62
     7
370
     9
100
AcDb2dPolyline
 66
     1
 10
0.0
 20
0.0
 30
0.0
  0
VERTEX
  5
395
330
394
100
AcDbEntity
  8
レイヤー 1
 62
     7
370
     9
100
AcDbVertex
100
AcDb2dVertex
 10
199.9784911609429
 20
83.1663275616737
 30
0.0
  0
VERTEX
  5
396
330
394
100
AcDbEntity
  8
レイヤー 1
 62
     7
370
     9
100
AcDbVertex
100
AcDb2dVertex
 10
199.9784911609429
 20
147.8323201127815
 30
0.0
  0
SEQEND
  5
397
330
394
100
AcDbEntity
  8
レイヤー 1
370
     9
  0
ENDBLK
  5
393
330
390
100
AcDbEntity
  8
0
100
AcDbBlockEnd
  0
BLOCK
  5
39A
330
398
100
AcDbEntity
  8
0
100
AcDbBlockBegin
  2
block 77
 70
     0
 10
0.0
 20
0.0
 30
0.0
  3
block 77
  1

  0
SPLINE
  5
39C
330
398
100
AcDbEntity
  8
レイヤー 1
 62
     7
370
     9
100
AcDbSpline
210
0.0
220
0.0
230
1.0
 70
     8
 71
     3
 72
     8
 73
     4
 74
     0
 42
0.000000001
 43
0.0000000001
 40
0.0
 40
0.0
 40
0.0
 40
0.0
 40
1.0
 40
1.0
 40
1.0
 40
1.0
 10
161.0199733755436
 20
98.1676513426456
 30
0.0
 10
162.7232285834511
 20
99.03168129034626
 30
0.0
 10
164.113669121298
 20
101.4294677480801
 30
0.0
 10
164.1257269554964
 20
103.5209852171753
 30
0.0
  0
ENDBLK
  5
39B
330
398
100
AcDbEntity
  8
0
100
AcDbBlockEnd
  0
BLOCK
  5
39F
330
39D
100
AcDbEntity
  8
0
100
AcDbBlockBegin
  2
block 78
 70
     0
 10
0.0
 20
0.0
 30
0.0
  3
block 78
  1

  0
SPLINE
  5
3A1
330
39D
100
AcDbEntity
  8
レイヤー 1
 62
     7
370
     9
100
AcDbSpline
210
0.0
220
0.0
230
1.0
 70
     8
 71
     3
 72
     8
 73
     4
 74
     0
 42
0.000000001
 43
0.0000000001
 40
0.0
 40
0.0
 40
0.0
 40
0.0
 40
1.0
 40
1.0
 40
1.0
 40
1.0
 10
159.7993760451196
 20
100.2994764289182
 30
0.0
 10
160.8284260665637
 20
100.8141736944145
 30
0.0
 10
161.6624836835427
 20
102.2531900786034
 30
0.0
 10
161.6624836835427
 20
103.510305421171
 30
0.0
  0
ENDBLK
  5
3A0
330
39D
100
AcDbEntity
  8
0
100
AcDbBlockEnd
  0
BLOCK
  5
3A4
330
3A2
100
AcDbEntity
  8
0
100
AcDbBlockBegin
  2
block 79
 70
     0
 10
0.0
 20
0.0
 30
0.0
  3
block 79
  1

  0
SPLINE
  5
3A6
330
3A2
100
AcDbEntity
  8
レイヤー 1
 62
     7
370
     9
100
AcDbSpline
210
0.0
220
0.0
230
1.0
 70
     8
 71
     3
 72
     8
 73
     4
 74
     0
 42
0.000000001
 43
0.0000000001
 40
0.0
 40
0.0
 40
0.0
 40
0.0
 40
1.0
 40
1.0
 40
1.0
 40
1.0
 10
167.3630831829856
 20
94.9712917514308
 30
0.0
 10
169.0783962250915
 20
95.829120527258
 30
0.0
 10
170.4688367629384
 20
98.22759600408894
 30
0.0
 10
170.4688367629384
 20
100.3280707214458
 30
0.0
  0
ENDBLK
  5
3A5
330
3A2
100
AcDbEntity
  8
0
100
AcDbBlockEnd
  0
BLOCK
  5
3A9
330
3A7
100
AcDbEntity
  8
0
100
AcDbBlockBegin
  2
block 80
 70
     0
 10
0.0
 20
0.0
 30
0.0
  3
block 80
  1

  0
SPLINE
  5
3AB
330
3A7
100
AcDbEntity
  8
レイヤー 1
 62
     7
370
     9
100
AcDbSpline
210
0.0
220
0.0
230
1.0
 70
     8
 71
     3
 72
     8
 73
     4
 74
     0
 42
0.000000001
 43
0.0000000001
 40
0.0
 40
0.0
 40
0.0
 40
0.0
 40
1.0
 40
1.0
 40
1.0
 40
1.0
 10
100.9967637551328
 20
147.4728243988957
 30
0.0
 10
99.96771373368863
 20
146.9581271333994
 30
0.0
 10
99.13313935238686
 20
145.5192830039848
 30
0.0
 10
99.13313935238686
 20
144.2587225659319
 30
0.0
  0
ENDBLK
  5
3AA
330
3A7
100
AcDbEntity
  8
0
100
AcDbBlockEnd
  0
BLOCK
  5
3AE
330
3AC
100
AcDbEntity
  8
0
100
AcDbBlockBegin
  2
block 81
 70
     0
 10
0.0
 20
0.0
 30
0.0
  3
block 81
  1

  0
POLYLINE
  5
3B0
330
3AC
100
AcDbEntity
  8
レイヤー 1
 62
     7
370
     9
100
AcDb2dPolyline
 66
     1
 10
0.0
 20
0.0
 30
0.0
  0
VERTEX
  5
3B1
330
3B0
100
AcDbEntity
  8
レイヤー 1
 62
     7
370
     9
100
AcDbVertex
100
AcDb2dVertex
 10
159.7993760451196
 20
176.8741305438891
 30
0.0
  0
VERTEX
  5
3B2
330
3B0
100
AcDbEntity
  8
レイヤー 1
 62
     7
370
     9
100
AcDbVertex
100
AcDb2dVertex
 10
100.9967637551328
 20
147.4728243988957
 30
0.0
  0
SEQEND
  5
3B3
330
3B0
100
AcDbEntity
  8
レイヤー 1
370
     9
  0
ENDBLK
  5
3AF
330
3AC
100
AcDbEntity
  8
0
100
AcDbBlockEnd
  0
BLOCK
  5
3B6
330
3B4
100
AcDbEntity
  8
0
100
AcDbBlockBegin
  2
block 82
 70
     0
 10
0.0
 20
0.0
 30
0.0
  3
block 82
  1

  0
SPLINE
  5
3B8
330
3B4
100
AcDbEntity
  8
レイヤー 1
 62
     7
370
     9
100
AcDbSpline
210
0.0
220
0.0
230
1.0
 70
     8
 71
     3
 72
     8
 73
     4
 74
     0
 42
0.000000001
 43
0.0000000001
 40
0.0
 40
0.0
 40
0.0
 40
0.0
 40
1.0
 40
1.0
 40
1.0
 40
1.0
 10
161.6624836835427
 20
175.5234808588969
 30
0.0
 10
161.6624836835427
 20
176.7840412969498
 30
0.0
 10
160.8284260665637
 20
177.3886555546112
 30
0.0
 10
159.7993760451196
 20
176.8741305438891
 30
0.0
  0
ENDBLK
  5
3B7
330
3B4
100
AcDbEntity
  8
0
100
AcDbBlockEnd
  0
BLOCK
  5
3BB
330
3B9
100
AcDbEntity
  8
0
100
AcDbBlockBegin
  2
block 83
 70
     0
 10
0.0
 20
0.0
 30
0.0
  3
block 83
  1

  0
POLYLINE
  5
3BD
330
3B9
100
AcDbEntity
  8
レイヤー 1
 62
     7
370
     9
100
AcDb2dPolyline
 66
     1
 10
0.0
 20
0.0
 30
0.0
  0
VERTEX
  5
3BE
330
3BD
100
AcDbEntity
  8
レイヤー 1
 62
     7
370
     9
100
AcDbVertex
100
AcDb2dVertex
 10
161.6624836835427
 20
103.510305421171
 30
0.0
  0
VERTEX
  5
3BF
330
3BD
100
AcDbEntity
  8
レイヤー 1
 62
     7
370
     9
100
AcDbVertex
100
AcDb2dVertex
 10
161.6624836835427
 20
175.5234808588969
 30
0.0
  0
SEQEND
  5
3C0
330
3BD
100
AcDbEntity
  8
レイヤー 1
370
     9
  0
ENDBLK
  5
3BC
330
3B9
100
AcDbEntity
  8
0
100
AcDbBlockEnd
  0
BLOCK
  5
3C3
330
3C1
100
AcDbEntity
  8
0
100
AcDbBlockBegin
  2
block 84
 70
     0
 10
0.0
 20
0.0
 30
0.0
  3
block 84
  1

  0
POLYLINE
  5
3C5
330
3C1
100
AcDbEntity
  8
レイヤー 1
 62
     7
370
     9
100
AcDb2dPolyline
 66
     1
 10
0.0
 20
0.0
 30
0.0
  0
VERTEX
  5
3C6
330
3C5
100
AcDbEntity
  8
レイヤー 1
 62
     7
370
     9
100
AcDbVertex
100
AcDb2dVertex
 10
100.9967637551328
 20
70.89834253869903
 30
0.0
  0
VERTEX
  5
3C7
330
3C5
100
AcDbEntity
  8
レイヤー 1
 62
     7
370
     9
100
AcDbVertex
100
AcDb2dVertex
 10
159.7993760451196
 20
100.2994764289182
 30
0.0
  0
SEQEND
  5
3C8
330
3C5
100
AcDbEntity
  8
レイヤー 1
370
     9
  0
ENDBLK
  5
3C4
330
3C1
100
AcDbEntity
  8
0
100
AcDbBlockEnd
  0
BLOCK
  5
3CB
330
3C9
100
AcDbEntity
  8
0
100
AcDbBlockBegin
  2
block 85
 70
     0
 10
0.0
 20
0.0
 30
0.0
  3
block 85
  1

  0
SPLINE
  5
3CD
330
3C9
100
AcDbEntity
  8
レイヤー 1
 62
     7
370
     9
100
AcDbSpline
210
0.0
220
0.0
230
1.0
 70
     8
 71
     3
 72
     8
 73
     4
 74
     0
 42
0.000000001
 43
0.0000000001
 40
0.0
 40
0.0
 40
0.0
 40
0.0
 40
1.0
 40
1.0
 40
1.0
 40
1.0
 10
99.13313935238686
 20
72.24881996891696
 30
0.0
 10
99.13313935238686
 20
70.98791502131553
 30
0.0
 10
99.96771373368863
 20
70.3836452732027
 30
0.0
 10
100.9967637551328
 20
70.89834253869903
 30
0.0
  0
ENDBLK
  5
3CC
330
3C9
100
AcDbEntity
  8
0
100
AcDbBlockEnd
  0
BLOCK
  5
3D0
330
3CE
100
AcDbEntity
  8
0
100
AcDbBlockBegin
  2
block 86
 70
     0
 10
0.0
 20
0.0
 30
0.0
  3
block 86
  1

  0
POLYLINE
  5
3D2
330
3CE
100
AcDbEntity
  8
レイヤー 1
 62
     7
370
     9
100
AcDb2dPolyline
 66
     1
 10
0.0
 20
0.0
 30
0.0
  0
VERTEX
  5
3D3
330
3D2
100
AcDbEntity
  8
レイヤー 1
 62
     7
370
     9
100
AcDbVertex
100
AcDb2dVertex
 10
99.13313935238686
 20
144.2587225659319
 30
0.0
  0
VERTEX
  5
3D4
330
3D2
100
AcDbEntity
  8
レイヤー 1
 62
     7
370
     9
100
AcDbVertex
100
AcDb2dVertex
 10
99.13313935238686
 20
72.24881996891696
 30
0.0
  0
SEQEND
  5
3D5
330
3D2
100
AcDbEntity
  8
レイヤー 1
370
     9
  0
ENDBLK
  5
3D1
330
3CE
100
AcDbEntity
  8
0
100
AcDbBlockEnd
  0
BLOCK
  5
3D8
330
3D6
100
AcDbEntity
  8
0
100
AcDbBlockBegin
  2
block 87
 70
     0
 10
0.0
 20
0.0
 30
0.0
  3
block 87
  1

  0
POLYLINE
  5
3DA
330
3D6
100
AcDbEntity
  8
レイヤー 1
 62
     7
370
     9
100
AcDb2dPolyline
 66
     1
 10
0.0
 20
0.0
 30
0.0
  0
VERTEX
  5
3DB
330
3DA
100
AcDbEntity
  8
レイヤー 1
 62
     7
370
     9
100
AcDbVertex
100
AcDb2dVertex
 10
159.9075520433564
 20
176.110180620035
 30
0.0
  0
VERTEX
  5
3DC
330
3DA
100
AcDbEntity
  8
レイヤー 1
 62
     7
370
     9
100
AcDbVertex
100
AcDb2dVertex
 10
160.1194254156993
 20
176.1906235996155
 30
0.0
  0
VERTEX
  5
3DD
330
3DA
100
AcDbEntity
  8
レイヤー 1
 62
     7
370
     9
100
AcDbVertex
100
AcDb2dVertex
 10
160.3237195779746
 20
176.2168063253035
 30
0.0
  0
VERTEX
  5
3DE
330
3DA
100
AcDbEntity
  8
レイヤー 1
 62
     7
370
     9
100
AcDbVertex
100
AcDb2dVertex
 10
160.5114772819207
 20
176.1876952684531
 30
0.0
  0
VERTEX
  5
3DF
330
3DA
100
AcDbEntity
  8
レイヤー 1
 62
     7
370
     9
100
AcDbVertex
100
AcDb2dVertex
 10
160.6764973556642
 20
176.1044962124843
 30
0.0
  0
VERTEX
  5
3E0
330
3DA
100
AcDbEntity
  8
レイヤー 1
 62
     7
370
     9
100
AcDbVertex
100
AcDb2dVertex
 10
160.811545098686
 20
175.9703097433338
 30
0.0
  0
VERTEX
  5
3E1
330
3DA
100
AcDbEntity
  8
レイヤー 1
 62
     7
370
     9
100
AcDbVertex
100
AcDb2dVertex
 10
160.9121418868553
 20
175.7903035042295
 30
0.0
  0
VERTEX
  5
3E2
330
3DA
100
AcDbEntity
  8
レイヤー 1
 62
     7
370
     9
100
AcDbVertex
100
AcDb2dVertex
 10
160.9738090960413
 20
175.5715399409162
 30
0.0
  0
VERTEX
  5
3E3
330
3DA
100
AcDbEntity
  8
レイヤー 1
 62
     7
370
     9
100
AcDbVertex
100
AcDb2dVertex
 10
160.9948241785013
 20
175.3222872825583
 30
0.0
  0
SEQEND
  5
3E4
330
3DA
100
AcDbEntity
  8
レイヤー 1
370
     9
  0
ENDBLK
  5
3D9
330
3D6
100
AcDbEntity
  8
0
100
AcDbBlockEnd
  0
BLOCK
  5
3E7
330
3E5
100
AcDbEntity
  8
0
100
AcDbBlockBegin
  2
block 88
 70
     0
 10
0.0
 20
0.0
 30
0.0
  3
block 88
  1

  0
POLYLINE
  5
3E9
330
3E5
100
AcDbEntity
  8
レイヤー 1
 62
     7
370
     9
100
AcDb2dPolyline
 66
     1
 10
0.0
 20
0.0
 30
0.0
  0
VERTEX
  5
3EA
330
3E9
100
AcDbEntity
  8
レイヤー 1
 62
     7
370
     9
100
AcDbVertex
100
AcDb2dVertex
 10
159.9075520433564
 20
176.110180620035
 30
0.0
  0
VERTEX
  5
3EB
330
3E9
100
AcDbEntity
  8
レイヤー 1
 62
     7
370
     9
100
AcDbVertex
100
AcDb2dVertex
 10
100.8884155021216
 20
146.6005262220304
 30
0.0
  0
SEQEND
  5
3EC
330
3E9
100
AcDbEntity
  8
レイヤー 1
370
     9
  0
ENDBLK
  5
3E8
330
3E5
100
AcDbEntity
  8
0
100
AcDbBlockEnd
  0
BLOCK
  5
3EF
330
3ED
100
AcDbEntity
  8
0
100
AcDbBlockBegin
  2
block 89
 70
     0
 10
0.0
 20
0.0
 30
0.0
  3
block 89
  1

  0
SPLINE
  5
3F1
330
3ED
100
AcDbEntity
  8
レイヤー 1
 62
     7
370
     9
100
AcDbSpline
210
0.0
220
0.0
230
1.0
 70
     8
 71
     3
 72
     8
 73
     4
 74
     0
 42
0.000000001
 43
0.0000000001
 40
0.0
 40
0.0
 40
0.0
 40
0.0
 40
1.0
 40
1.0
 40
1.0
 40
1.0
 10
100.8884155021216
 20
146.6005262220304
 30
0.0
 10
100.2255791307596
 20
146.2060627889693
 30
0.0
 10
99.81423472982075
 20
145.4965453737821
 30
0.0
 10
99.8011433669768
 20
144.7253607494089
 30
0.0
  0
ENDBLK
  5
3F0
330
3ED
100
AcDbEntity
  8
0
100
AcDbBlockEnd
  0
BLOCK
  5
3F4
330
3F2
100
AcDbEntity
  8
0
100
AcDbBlockBegin
  2
block 90
 70
     0
 10
0.0
 20
0.0
 30
0.0
  3
block 90
  1

  0
POLYLINE
  5
3F6
330
3F2
100
AcDbEntity
  8
レイヤー 1
 62
     7
370
     9
100
AcDb2dPolyline
 66
     1
 10
0.0
 20
0.0
 30
0.0
  0
VERTEX
  5
3F7
330
3F6
100
AcDbEntity
  8
レイヤー 1
 62
     7
370
     9
100
AcDbVertex
100
AcDb2dVertex
 10
99.8011433669768
 20
144.7253607494089
 30
0.0
  0
VERTEX
  5
3F8
330
3F6
100
AcDbEntity
  8
レイヤー 1
 62
     7
370
     9
100
AcDbVertex
100
AcDb2dVertex
 10
99.8011433669768
 20
72.45001354525556
 30
0.0
  0
SEQEND
  5
3F9
330
3F6
100
AcDbEntity
  8
レイヤー 1
370
     9
  0
ENDBLK
  5
3F5
330
3F2
100
AcDbEntity
  8
0
100
AcDbBlockEnd
  0
BLOCK
  5
3FC
330
3FA
100
AcDbEntity
  8
0
100
AcDbBlockBegin
  2
block 91
 70
     0
 10
0.0
 20
0.0
 30
0.0
  3
block 91
  1

  0
POLYLINE
  5
3FE
330
3FA
100
AcDbEntity
  8
レイヤー 1
 62
     7
370
     9
100
AcDb2dPolyline
 66
     1
 10
0.0
 20
0.0
 30
0.0
  0
VERTEX
  5
3FF
330
3FE
100
AcDbEntity
  8
レイヤー 1
 62
     7
370
     9
100
AcDbVertex
100
AcDb2dVertex
 10
100.8884155021216
 20
71.66246471732744
 30
0.0
  0
VERTEX
  5
400
330
3FE
100
AcDbEntity
  8
レイヤー 1
 62
     7
370
     9
100
AcDbVertex
100
AcDb2dVertex
 10
100.6761976202303
 20
71.5818494829726
 30
0.0
  0
VERTEX
  5
401
330
3FE
100
AcDbEntity
  8
レイヤー 1
 62
     7
370
     9
100
AcDbVertex
100
AcDb2dVertex
 10
100.472592477052
 20
71.55497773818765
 30
0.0
  0
VERTEX
  5
402
330
3FE
100
AcDbEntity
  8
レイヤー 1
 62
     7
370
     9
100
AcDbVertex
100
AcDb2dVertex
 10
100.2843180087831
 20
71.5846055593608
 30
0.0
  0
VERTEX
  5
403
330
3FE
100
AcDbEntity
  8
レイヤー 1
 62
     7
370
     9
100
AcDbVertex
100
AcDb2dVertex
 10
100.1196424445882
 20
71.66797687010384
 30
0.0
  0
VERTEX
  5
404
330
3FE
100
AcDbEntity
  8
レイヤー 1
 62
     7
370
     9
100
AcDbVertex
100
AcDb2dVertex
 10
99.98459470156635
 20
71.80164657493154
 30
0.0
  0
VERTEX
  5
405
330
3FE
100
AcDbEntity
  8
レイヤー 1
 62
     7
370
     9
100
AcDbVertex
100
AcDb2dVertex
 10
99.88417016817132
 20
71.98216957835862
 30
0.0
  0
VERTEX
  5
406
330
3FE
100
AcDbEntity
  8
レイヤー 1
 62
     7
370
     9
100
AcDbVertex
100
AcDb2dVertex
 10
99.82215844943683
 20
72.20058863212347
 30
0.0
  0
VERTEX
  5
407
330
3FE
100
AcDbEntity
  8
レイヤー 1
 62
     7
370
     9
100
AcDbVertex
100
AcDb2dVertex
 10
99.8011433669768
 20
72.45001354525556
 30
0.0
  0
SEQEND
  5
408
330
3FE
100
AcDbEntity
  8
レイヤー 1
370
     9
  0
ENDBLK
  5
3FD
330
3FA
100
AcDbEntity
  8
0
100
AcDbBlockEnd
  0
BLOCK
  5
40B
330
409
100
AcDbEntity
  8
0
100
AcDbBlockBegin
  2
block 92
 70
     0
 10
0.0
 20
0.0
 30
0.0
  3
block 92
  1

  0
POLYLINE
  5
40D
330
409
100
AcDbEntity
  8
レイヤー 1
 62
     7
370
     9
100
AcDb2dPolyline
 66
     1
 10
0.0
 20
0.0
 30
0.0
  0
VERTEX
  5
40E
330
40D
100
AcDbEntity
  8
レイヤー 1
 62
     7
370
     9
100
AcDbVertex
100
AcDb2dVertex
 10
100.8884155021216
 20
71.66246471732744
 30
0.0
  0
VERTEX
  5
40F
330
40D
100
AcDbEntity
  8
レイヤー 1
 62
     7
370
     9
100
AcDbVertex
100
AcDb2dVertex
 10
159.9075520433564
 20
101.1714300962349
 30
0.0
  0
SEQEND
  5
410
330
40D
100
AcDbEntity
  8
レイヤー 1
370
     9
  0
ENDBLK
  5
40C
330
409
100
AcDbEntity
  8
0
100
AcDbBlockEnd
  0
BLOCK
  5
413
330
411
100
AcDbEntity
  8
0
100
AcDbBlockBegin
  2
block 93
 70
     0
 10
0.0
 20
0.0
 30
0.0
  3
block 93
  1

  0
SPLINE
  5
415
330
411
100
AcDbEntity
  8
レイヤー 1
 62
     7
370
     9
100
AcDbSpline
210
0.0
220
0.0
230
1.0
 70
     8
 71
     3
 72
     8
 73
     4
 74
     0
 42
0.000000001
 43
0.0000000001
 40
0.0
 40
0.0
 40
0.0
 40
0.0
 40
1.0
 40
1.0
 40
1.0
 40
1.0
 10
159.9075520433564
 20
101.1714300962349
 30
0.0
 10
160.5703884147185
 20
101.565893529296
 30
0.0
 10
160.9817328156574
 20
102.2755831992575
 30
0.0
 10
160.9948241785013
 20
103.0459065497594
 30
0.0
  0
ENDBLK
  5
414
330
411
100
AcDbEntity
  8
0
100
AcDbBlockEnd
  0
BLOCK
  5
418
330
416
100
AcDbEntity
  8
0
100
AcDbBlockBegin
  2
block 94
 70
     0
 10
0.0
 20
0.0
 30
0.0
  3
block 94
  1

  0
POLYLINE
  5
41A
330
416
100
AcDbEntity
  8
レイヤー 1
 62
     7
370
     9
100
AcDb2dPolyline
 66
     1
 10
0.0
 20
0.0
 30
0.0
  0
VERTEX
  5
41B
330
41A
100
AcDbEntity
  8
レイヤー 1
 62
     7
370
     9
100
AcDbVertex
100
AcDb2dVertex
 10
160.9948241785013
 20
103.0459065497594
 30
0.0
  0
VERTEX
  5
41C
330
41A
100
AcDbEntity
  8
レイヤー 1
 62
     7
370
     9
100
AcDbVertex
100
AcDb2dVertex
 10
160.9948241785013
 20
175.3222872825583
 30
0.0
  0
SEQEND
  5
41D
330
41A
100
AcDbEntity
  8
レイヤー 1
370
     9
  0
ENDBLK
  5
419
330
416
100
AcDbEntity
  8
0
100
AcDbBlockEnd
  0
BLOCK
  5
420
330
41E
100
AcDbEntity
  8
0
100
AcDbBlockBegin
  2
block 95
 70
     0
 10
0.0
 20
0.0
 30
0.0
  3
block 95
  1

  0
POLYLINE
  5
422
330
41E
100
AcDbEntity
  8
レイヤー 1
 62
     7
370
     9
100
AcDb2dPolyline
 66
     1
 10
0.0
 20
0.0
 30
0.0
  0
VERTEX
  5
423
330
422
100
AcDbEntity
  8
レイヤー 1
 62
     7
370
     9
100
AcDbVertex
100
AcDb2dVertex
 10
164.1257269554964
 20
175.5341606549012
 30
0.0
  0
VERTEX
  5
424
330
422
100
AcDbEntity
  8
レイヤー 1
 62
     7
370
     9
100
AcDbVertex
100
AcDb2dVertex
 10
164.1257269554964
 20
103.5209852171753
 30
0.0
  0
SEQEND
  5
425
330
422
100
AcDbEntity
  8
レイヤー 1
370
     9
  0
ENDBLK
  5
421
330
41E
100
AcDbEntity
  8
0
100
AcDbBlockEnd
  0
BLOCK
  5
428
330
426
100
AcDbEntity
  8
0
100
AcDbBlockBegin
  2
block 96
 70
     0
 10
0.0
 20
0.0
 30
0.0
  3
block 96
  1

  0
POLYLINE
  5
42A
330
426
100
AcDbEntity
  8
レイヤー 1
 62
     7
370
     9
100
AcDb2dPolyline
 66
     1
 10
0.0
 20
0.0
 30
0.0
  0
VERTEX
  5
42B
330
42A
100
AcDbEntity
  8
レイヤー 1
 62
     7
370
     9
100
AcDbVertex
100
AcDb2dVertex
 10
161.0199733755436
 20
98.1676513426456
 30
0.0
  0
VERTEX
  5
42C
330
42A
100
AcDbEntity
  8
レイヤー 1
 62
     7
370
     9
100
AcDbVertex
100
AcDb2dVertex
 10
102.217533340331
 20
68.76651745242643
 30
0.0
  0
SEQEND
  5
42D
330
42A
100
AcDbEntity
  8
レイヤー 1
370
     9
  0
ENDBLK
  5
429
330
426
100
AcDbEntity
  8
0
100
AcDbBlockEnd
  0
BLOCK
  5
430
330
42E
100
AcDbEntity
  8
0
100
AcDbBlockBegin
  2
block 97
 70
     0
 10
0.0
 20
0.0
 30
0.0
  3
block 97
  1

  0
POLYLINE
  5
432
330
42E
100
AcDbEntity
  8
レイヤー 1
 62
     7
370
     9
100
AcDb2dPolyline
 66
     1
 10
0.0
 20
0.0
 30
0.0
  0
VERTEX
  5
433
330
432
100
AcDbEntity
  8
レイヤー 1
 62
     7
370
     9
100
AcDbVertex
100
AcDb2dVertex
 10
170.4688367629384
 20
172.6047959637933
 30
0.0
  0
VERTEX
  5
434
330
432
100
AcDbEntity
  8
レイヤー 1
 62
     7
370
     9
100
AcDbVertex
100
AcDb2dVertex
 10
170.4688367629384
 20
100.3280707214458
 30
0.0
  0
SEQEND
  5
435
330
432
100
AcDbEntity
  8
レイヤー 1
370
     9
  0
ENDBLK
  5
431
330
42E
100
AcDbEntity
  8
0
100
AcDbBlockEnd
  0
BLOCK
  5
438
330
436
100
AcDbEntity
  8
0
100
AcDbBlockBegin
  2
block 98
 70
     0
 10
0.0
 20
0.0
 30
0.0
  3
block 98
  1

  0
POLYLINE
  5
43A
330
436
100
AcDbEntity
  8
レイヤー 1
 62
     7
370
     9
100
AcDb2dPolyline
 66
     1
 10
0.0
 20
0.0
 30
0.0
  0
VERTEX
  5
43B
330
43A
100
AcDbEntity
  8
レイヤー 1
 62
     7
370
     9
100
AcDbVertex
100
AcDb2dVertex
 10
101.0749674226479
 20
146.5071641343802
 30
0.0
  0
VERTEX
  5
43C
330
43A
100
AcDbEntity
  8
レイヤー 1
 62
     7
370
     9
100
AcDbVertex
100
AcDb2dVertex
 10
100.9922851310019
 20
146.4622056382977
 30
0.0
  0
SEQEND
  5
43D
330
43A
100
AcDbEntity
  8
レイヤー 1
370
     9
  0
ENDBLK
  5
439
330
436
100
AcDbEntity
  8
0
100
AcDbBlockEnd
  0
BLOCK
  5
440
330
43E
100
AcDbEntity
  8
0
100
AcDbBlockBegin
  2
block 99
 70
     0
 10
0.0
 20
0.0
 30
0.0
  3
block 99
  1

  0
POLYLINE
  5
442
330
43E
100
AcDbEntity
  8
レイヤー 1
 62
     7
370
     9
100
AcDb2dPolyline
 66
     1
 10
0.0
 20
0.0
 30
0.0
  0
VERTEX
  5
443
330
442
100
AcDbEntity
  8
レイヤー 1
 62
     7
370
     9
100
AcDbVertex
100
AcDb2dVertex
 10
160.094276218657
 20
176.0168185323847
 30
0.0
  0
VERTEX
  5
444
330
442
100
AcDbEntity
  8
レイヤー 1
 62
     7
370
     9
100
AcDbVertex
100
AcDb2dVertex
 10
101.0749674226479
 20
146.5071641343802
 30
0.0
  0
SEQEND
  5
445
330
442
100
AcDbEntity
  8
レイヤー 1
370
     9
  0
ENDBLK
  5
441
330
43E
100
AcDbEntity
  8
0
100
AcDbBlockEnd
  0
BLOCK
  5
448
330
446
100
AcDbEntity
  8
0
100
AcDbBlockBegin
  2
block 100
 70
     0
 10
0.0
 20
0.0
 30
0.0
  3
block 100
  1

  0
POLYLINE
  5
44A
330
446
100
AcDbEntity
  8
レイヤー 1
 62
     7
370
     9
100
AcDb2dPolyline
 66
     1
 10
0.0
 20
0.0
 30
0.0
  0
VERTEX
  5
44B
330
44A
100
AcDbEntity
  8
レイヤー 1
 62
     7
370
     9
100
AcDbVertex
100
AcDb2dVertex
 10
167.3630831829856
 20
94.9712917514308
 30
0.0
  0
VERTEX
  5
44C
330
44A
100
AcDbEntity
  8
レイヤー 1
 62
     7
370
     9
100
AcDbVertex
100
AcDb2dVertex
 10
108.3429131131053
 20
65.46129284387773
 30
0.0
  0
SEQEND
  5
44D
330
44A
100
AcDbEntity
  8
レイヤー 1
370
     9
  0
ENDBLK
  5
449
330
446
100
AcDbEntity
  8
0
100
AcDbBlockEnd
  0
BLOCK
  5
450
330
44E
100
AcDbEntity
  8
0
100
AcDbBlockBegin
  2
block 101
 70
     0
 10
0.0
 20
0.0
 30
0.0
  3
block 101
  1

  0
SPLINE
  5
452
330
44E
100
AcDbEntity
  8
レイヤー 1
 62
     7
370
     9
100
AcDbSpline
210
0.0
220
0.0
230
1.0
 70
     8
 71
     3
 72
     8
 73
     4
 74
     0
 42
0.000000001
 43
0.0000000001
 40
0.0
 40
0.0
 40
0.0
 40
0.0
 40
1.0
 40
1.0
 40
1.0
 40
1.0
 10
170.4688367629384
 20
172.6047959637933
 30
0.0
 10
170.4688367629384
 20
173.7725110785187
 30
0.0
 10
170.0313096363116
 20
174.6563503252595
 30
0.0
 10
169.2813123491727
 20
175.0025824215271
 30
0.0
  0
ENDBLK
  5
451
330
44E
100
AcDbEntity
  8
0
100
AcDbBlockEnd
  0
BLOCK
  5
455
330
453
100
AcDbEntity
  8
0
100
AcDbBlockBegin
  2
block 102
 70
     0
 10
0.0
 20
0.0
 30
0.0
  3
block 102
  1

  0
SPLINE
  5
457
330
453
100
AcDbEntity
  8
レイヤー 1
 62
     7
370
     9
100
AcDbSpline
210
0.0
220
0.0
230
1.0
 70
     8
 71
     3
 72
     8
 73
     4
 74
     0
 42
0.000000001
 43
0.0000000001
 40
0.0
 40
0.0
 40
0.0
 40
0.0
 40
1.0
 40
1.0
 40
1.0
 40
1.0
 10
106.3330444070105
 20
65.36069605570844
 30
0.0
 10
106.8942504615577
 20
65.05752765300646
 30
0.0
 10
107.6066962079074
 20
65.09335664605305
 30
0.0
 10
108.3429131131053
 20
65.46129284387773
 30
0.0
  0
ENDBLK
  5
456
330
453
100
AcDbEntity
  8
0
100
AcDbBlockEnd
  0
BLOCK
  5
45A
330
458
100
AcDbEntity
  8
0
100
AcDbBlockBegin
  2
block 103
 70
     0
 10
0.0
 20
0.0
 30
0.0
  3
block 103
  1

  0
SPLINE
  5
45C
330
458
100
AcDbEntity
  8
レイヤー 1
 62
     7
370
     9
100
AcDbSpline
210
0.0
220
0.0
230
1.0
 70
     8
 71
     3
 72
     8
 73
     4
 74
     0
 42
0.000000001
 43
0.0000000001
 40
0.0
 40
0.0
 40
0.0
 40
0.0
 40
1.0
 40
1.0
 40
1.0
 40
1.0
 10
176.9593966571491
 20
95.28135034510328
 30
0.0
 10
177.0727402986138
 20
95.47151961588906
 30
0.0
 10
177.1368190746394
 20
95.68683808371718
 30
0.0
 10
177.1461208324496
 20
95.9076687043217
 30
0.0
  0
ENDBLK
  5
45B
330
458
100
AcDbEntity
  8
0
100
AcDbBlockEnd
  0
BLOCK
  5
45F
330
45D
100
AcDbEntity
  8
0
100
AcDbBlockBegin
  2
block 104
 70
     0
 10
0.0
 20
0.0
 30
0.0
  3
block 104
  1

  0
SPLINE
  5
461
330
45D
100
AcDbEntity
  8
レイヤー 1
 62
     7
370
     9
100
AcDbSpline
210
0.0
220
0.0
230
1.0
 70
     8
 71
     3
 72
     8
 73
     4
 74
     0
 42
0.000000001
 43
0.0000000001
 40
0.0
 40
0.0
 40
0.0
 40
0.0
 40
1.0
 40
1.0
 40
1.0
 40
1.0
 10
176.524970116459
 20
94.83693302750605
 30
0.0
 10
176.7075601771773
 20
94.9423529493547
 30
0.0
 10
176.8584553594312
 20
95.09600420799684
 30
0.0
 10
176.9593966571491
 20
95.28135034510328
 30
0.0
  0
ENDBLK
  5
460
330
45D
100
AcDbEntity
  8
0
100
AcDbBlockEnd
  0
BLOCK
  5
464
330
462
100
AcDbEntity
  8
0
100
AcDbBlockBegin
  2
block 105
 70
     0
 10
0.0
 20
0.0
 30
0.0
  3
block 105
  1

  0
POLYLINE
  5
466
330
462
100
AcDbEntity
  8
レイヤー 1
 62
     7
370
     9
100
AcDb2dPolyline
 66
     1
 10
0.0
 20
0.0
 30
0.0
  0
VERTEX
  5
467
330
466
100
AcDbEntity
  8
レイヤー 1
 62
     7
370
     9
100
AcDbVertex
100
AcDb2dVertex
 10
177.2928819001212
 20
95.11254066632604
 30
0.0
  0
VERTEX
  5
468
330
466
100
AcDbEntity
  8
レイヤー 1
 62
     7
370
     9
100
AcDbVertex
100
AcDb2dVertex
 10
178.3818765830087
 20
94.67294648240815
 30
0.0
  0
SEQEND
  5
469
330
466
100
AcDbEntity
  8
レイヤー 1
370
     9
  0
ENDBLK
  5
465
330
462
100
AcDbEntity
  8
0
100
AcDbBlockEnd
  0
BLOCK
  5
46C
330
46A
100
AcDbEntity
  8
0
100
AcDbBlockBegin
  2
block 106
 70
     0
 10
0.0
 20
0.0
 30
0.0
  3
block 106
  1

  0
SPLINE
  5
46E
330
46A
100
AcDbEntity
  8
レイヤー 1
 62
     7
370
     9
100
AcDbSpline
210
0.0
220
0.0
230
1.0
 70
     8
 71
     3
 72
     8
 73
     4
 74
     0
 42
0.000000001
 43
0.0000000001
 40
0.0
 40
0.0
 40
0.0
 40
0.0
 40
1.0
 40
1.0
 40
1.0
 40
1.0
 10
178.23442649624
 20
93.97497013709653
 30
0.0
 10
178.5775580065709
 20
94.14653589226198
 30
0.0
 10
178.8559217217791
 20
94.62609318380876
 30
0.0
 10
178.8559217217791
 20
95.04639483300924
 30
0.0
  0
ENDBLK
  5
46D
330
46A
100
AcDbEntity
  8
0
100
AcDbBlockEnd
  0
BLOCK
  5
471
330
46F
100
AcDbEntity
  8
0
100
AcDbBlockBegin
  2
block 107
 70
     0
 10
0.0
 20
0.0
 30
0.0
  3
block 107
  1

  0
POLYLINE
  5
473
330
46F
100
AcDbEntity
  8
レイヤー 1
 62
     7
370
     9
100
AcDb2dPolyline
 66
     1
 10
0.0
 20
0.0
 30
0.0
  0
VERTEX
  5
474
330
473
100
AcDbEntity
  8
レイヤー 1
 62
     7
370
     9
100
AcDbVertex
100
AcDb2dVertex
 10
177.1461208324496
 20
152.8941989092591
 30
0.0
  0
VERTEX
  5
475
330
473
100
AcDbEntity
  8
レイヤー 1
 62
     7
370
     9
100
AcDbVertex
100
AcDb2dVertex
 10
177.1461208324496
 20
95.9076687043217
 30
0.0
  0
SEQEND
  5
476
330
473
100
AcDbEntity
  8
レイヤー 1
370
     9
  0
ENDBLK
  5
472
330
46F
100
AcDbEntity
  8
0
100
AcDbBlockEnd
  0
BLOCK
  5
479
330
477
100
AcDbEntity
  8
0
100
AcDbBlockBegin
  2
block 108
 70
     0
 10
0.0
 20
0.0
 30
0.0
  3
block 108
  1

  0
POLYLINE
  5
47B
330
477
100
AcDbEntity
  8
レイヤー 1
 62
     7
370
     9
100
AcDb2dPolyline
 66
     1
 10
0.0
 20
0.0
 30
0.0
  0
VERTEX
  5
47C
330
47B
100
AcDbEntity
  8
レイヤー 1
 62
     7
370
     9
100
AcDbVertex
100
AcDb2dVertex
 10
176.524970116459
 20
94.83693302750605
 30
0.0
  0
VERTEX
  5
47D
330
47B
100
AcDbEntity
  8
レイヤー 1
 62
     7
370
     9
100
AcDbVertex
100
AcDb2dVertex
 10
129.989137066027
 20
71.5694471392257
 30
0.0
  0
SEQEND
  5
47E
330
47B
100
AcDbEntity
  8
レイヤー 1
370
     9
  0
ENDBLK
  5
47A
330
477
100
AcDbEntity
  8
0
100
AcDbBlockEnd
  0
BLOCK
  5
481
330
47F
100
AcDbEntity
  8
0
100
AcDbBlockBegin
  2
block 109
 70
     0
 10
0.0
 20
0.0
 30
0.0
  3
block 109
  1

  0
POLYLINE
  5
483
330
47F
100
AcDbEntity
  8
レイヤー 1
 62
     7
370
     9
100
AcDb2dPolyline
 66
     1
 10
0.0
 20
0.0
 30
0.0
  0
VERTEX
  5
484
330
483
100
AcDbEntity
  8
レイヤー 1
 62
     7
370
     9
100
AcDbVertex
100
AcDb2dVertex
 10
178.8559217217791
 20
152.1044107692656
 30
0.0
  0
VERTEX
  5
485
330
483
100
AcDbEntity
  8
レイヤー 1
 62
     7
370
     9
100
AcDbVertex
100
AcDb2dVertex
 10
178.8559217217791
 20
95.04639483300924
 30
0.0
  0
SEQEND
  5
486
330
483
100
AcDbEntity
  8
レイヤー 1
370
     9
  0
ENDBLK
  5
482
330
47F
100
AcDbEntity
  8
0
100
AcDbBlockEnd
  0
BLOCK
  5
489
330
487
100
AcDbEntity
  8
0
100
AcDbBlockBegin
  2
block 110
 70
     0
 10
0.0
 20
0.0
 30
0.0
  3
block 110
  1

  0
POLYLINE
  5
48B
330
487
100
AcDbEntity
  8
レイヤー 1
 62
     7
370
     9
100
AcDb2dPolyline
 66
     1
 10
0.0
 20
0.0
 30
0.0
  0
VERTEX
  5
48C
330
48B
100
AcDbEntity
  8
レイヤー 1
 62
     7
370
     9
100
AcDbVertex
100
AcDb2dVertex
 10
178.23442649624
 20
93.97497013709653
 30
0.0
  0
VERTEX
  5
48D
330
48B
100
AcDbEntity
  8
レイヤー 1
 62
     7
370
     9
100
AcDbVertex
100
AcDb2dVertex
 10
131.640199077333
 20
70.67785642764304
 30
0.0
  0
SEQEND
  5
48E
330
48B
100
AcDbEntity
  8
レイヤー 1
370
     9
  0
ENDBLK
  5
48A
330
487
100
AcDbEntity
  8
0
100
AcDbBlockEnd
  0
BLOCK
  5
491
330
48F
100
AcDbEntity
  8
0
100
AcDbBlockBegin
  2
block 111
 70
     0
 10
0.0
 20
0.0
 30
0.0
  3
block 111
  1

  0
SPLINE
  5
493
330
48F
100
AcDbEntity
  8
レイヤー 1
 62
     7
370
     9
100
AcDbSpline
210
0.0
220
0.0
230
1.0
 70
     8
 71
     3
 72
     8
 73
     4
 74
     0
 42
0.000000001
 43
0.0000000001
 40
0.0
 40
0.0
 40
0.0
 40
0.0
 40
1.0
 40
1.0
 40
1.0
 40
1.0
 10
161.0754394128562
 20
80.24075247559954
 30
0.0
 10
162.0142279325867
 20
79.89073077429815
 30
0.0
 10
163.3312879365977
 20
79.89762096526866
 30
0.0
 10
164.2859238955605
 20
80.25866697212284
 30
0.0
  0
ENDBLK
  5
492
330
48F
100
AcDbEntity
  8
0
100
AcDbBlockEnd
  0
BLOCK
  5
496
330
494
100
AcDbEntity
  8
0
100
AcDbBlockBegin
  2
block 112
 70
     0
 10
0.0
 20
0.0
 30
0.0
  3
block 112
  1

  0
POLYLINE
  5
498
330
494
100
AcDbEntity
  8
レイヤー 1
 62
     7
370
     9
100
AcDb2dPolyline
 66
     1
 10
0.0
 20
0.0
 30
0.0
  0
VERTEX
  5
499
330
498
100
AcDbEntity
  8
レイヤー 1
 62
     7
370
     9
100
AcDbVertex
100
AcDb2dVertex
 10
176.1332627597861
 20
153.3591145449936
 30
0.0
  0
VERTEX
  5
49A
330
498
100
AcDbEntity
  8
レイヤー 1
 62
     7
370
     9
100
AcDbVertex
100
AcDb2dVertex
 10
170.4688367629384
 20
150.5270738013439
 30
0.0
  0
SEQEND
  5
49B
330
498
100
AcDbEntity
  8
レイヤー 1
370
     9
  0
ENDBLK
  5
497
330
494
100
AcDbEntity
  8
0
100
AcDbBlockEnd
  0
BLOCK
  5
49E
330
49C
100
AcDbEntity
  8
0
100
AcDbBlockBegin
  2
block 113
 70
     0
 10
0.0
 20
0.0
 30
0.0
  3
block 113
  1

  0
SPLINE
  5
4A0
330
49C
100
AcDbEntity
  8
レイヤー 1
 62
     7
370
     9
100
AcDbSpline
210
0.0
220
0.0
230
1.0
 70
     8
 71
     3
 72
     8
 73
     4
 74
     0
 42
0.000000001
 43
0.0000000001
 40
0.0
 40
0.0
 40
0.0
 40
0.0
 40
1.0
 40
1.0
 40
1.0
 40
1.0
 10
177.1461208324496
 20
152.8941989092591
 30
0.0
 10
177.1568006284539
 20
153.0649033905532
 30
0.0
 10
177.0878987187489
 20
153.230784738168
 30
0.0
 10
176.9593966571491
 20
153.3432671057614
 30
0.0
  0
ENDBLK
  5
49F
330
49C
100
AcDbEntity
  8
0
100
AcDbBlockEnd
  0
BLOCK
  5
4A3
330
4A1
100
AcDbEntity
  8
0
100
AcDbBlockBegin
  2
block 114
 70
     0
 10
0.0
 20
0.0
 30
0.0
  3
block 114
  1

  0
SPLINE
  5
4A5
330
4A1
100
AcDbEntity
  8
レイヤー 1
 62
     7
370
     9
100
AcDbSpline
210
0.0
220
0.0
230
1.0
 70
     8
 71
     3
 72
     8
 73
     4
 74
     0
 42
0.000000001
 43
0.0000000001
 40
0.0
 40
0.0
 40
0.0
 40
0.0
 40
1.0
 40
1.0
 40
1.0
 40
1.0
 10
176.9593966571491
 20
153.3432671057614
 30
0.0
 10
176.704115081692
 20
153.4865830779478
 30
0.0
 10
176.393711978471
 20
153.492611995047
 30
0.0
 10
176.1332627597861
 20
153.3591145449936
 30
0.0
  0
ENDBLK
  5
4A4
330
4A1
100
AcDbEntity
  8
0
100
AcDbBlockEnd
  0
BLOCK
  5
4A8
330
4A6
100
AcDbEntity
  8
0
100
AcDbBlockBegin
  2
block 115
 70
     0
 10
0.0
 20
0.0
 30
0.0
  3
block 115
  1

  0
SPLINE
  5
4AA
330
4A6
100
AcDbEntity
  8
レイヤー 1
 62
     7
370
     9
100
AcDbSpline
210
0.0
220
0.0
230
1.0
 70
     8
 71
     3
 72
     8
 73
     4
 74
     0
 42
0.000000001
 43
0.0000000001
 40
0.0
 40
0.0
 40
0.0
 40
0.0
 40
1.0
 40
1.0
 40
1.0
 40
1.0
 10
178.8559217217791
 20
152.1044107692656
 30
0.0
 10
178.8559217217791
 20
152.3379882431655
 30
0.0
 10
178.7684162964538
 20
152.5148938963331
 30
0.0
 10
178.6182101332969
 20
152.5839680608123
 30
0.0
  0
ENDBLK
  5
4A9
330
4A6
100
AcDbEntity
  8
0
100
AcDbBlockEnd
  0
BLOCK
  5
4AD
330
4AB
100
AcDbEntity
  8
0
100
AcDbBlockBegin
  2
block 116
 70
     0
 10
0.0
 20
0.0
 30
0.0
  3
block 116
  1

  0
SPLINE
  5
4AF
330
4AB
100
AcDbEntity
  8
レイヤー 1
 62
     7
370
     9
100
AcDbSpline
210
0.0
220
0.0
230
1.0
 70
     8
 71
     3
 72
     8
 73
     4
 74
     0
 42
0.000000001
 43
0.0000000001
 40
0.0
 40
0.0
 40
0.0
 40
0.0
 40
1.0
 40
1.0
 40
1.0
 40
1.0
 10
131.2383286889786
 20
70.65718585473154
 30
0.0
 10
131.3506388017978
 20
70.5972411932882
 30
0.0
 10
131.4930935001128
 20
70.6041313842587
 30
0.0
 10
131.640199077333
 20
70.67785642764304
 30
0.0
  0
ENDBLK
  5
4AE
330
4AB
100
AcDbEntity
  8
0
100
AcDbBlockEnd
  0
BLOCK
  5
4B2
330
4B0
100
AcDbEntity
  8
0
100
AcDbBlockBegin
  2
block 117
 70
     0
 10
0.0
 20
0.0
 30
0.0
  3
block 117
  1

  0
SPLINE
  5
4B4
330
4B0
100
AcDbEntity
  8
レイヤー 1
 62
     7
370
     9
100
AcDbSpline
210
0.0
220
0.0
230
1.0
 70
     8
 71
     3
 72
     8
 73
     4
 74
     0
 42
0.000000001
 43
0.0000000001
 40
0.0
 40
0.0
 40
0.0
 40
0.0
 40
1.0
 40
1.0
 40
1.0
 40
1.0
 10
185.1883517332168
 20
122.4078599411862
 30
0.0
 10
184.6657307481044
 20
122.0366509026506
 30
0.0
 10
184.3828884087654
 20
121.4134331293689
 30
0.0
 10
184.4473116943396
 20
120.7759182098234
 30
0.0
  0
ENDBLK
  5
4B3
330
4B0
100
AcDbEntity
  8
0
100
AcDbBlockEnd
  0
BLOCK
  5
4B7
330
4B5
100
AcDbEntity
  8
0
100
AcDbBlockBegin
  2
block 118
 70
     0
 10
0.0
 20
0.0
 30
0.0
  3
block 118
  1

  0
POLYLINE
  5
4B9
330
4B5
100
AcDbEntity
  8
レイヤー 1
 62
     7
370
     9
100
AcDb2dPolyline
 66
     1
 10
0.0
 20
0.0
 30
0.0
  0
VERTEX
  5
4BA
330
4B9
100
AcDbEntity
  8
レイヤー 1
 62
     7
370
     9
100
AcDbVertex
100
AcDb2dVertex
 10
188.0091959165394
 20
116.9444552659028
 30
0.0
  0
VERTEX
  5
4BB
330
4B9
100
AcDbEntity
  8
レイヤー 1
 62
     7
370
     9
100
AcDbVertex
100
AcDb2dVertex
 10
187.9771565285266
 20
116.9287800814449
 30
0.0
  0
VERTEX
  5
4BC
330
4B9
100
AcDbEntity
  8
レイヤー 1
 62
     7
370
     9
100
AcDbVertex
100
AcDb2dVertex
 10
187.5647785989422
 20
116.8173312424971
 30
0.0
  0
VERTEX
  5
4BD
330
4B9
100
AcDbEntity
  8
レイヤー 1
 62
     7
370
     9
100
AcDbVertex
100
AcDb2dVertex
 10
187.1055473707583
 20
116.8500596496069
 30
0.0
  0
VERTEX
  5
4BE
330
4B9
100
AcDbEntity
  8
レイヤー 1
 62
     7
370
     9
100
AcDbVertex
100
AcDb2dVertex
 10
186.6215114550807
 20
117.0255872645804
 30
0.0
  0
VERTEX
  5
4BF
330
4B9
100
AcDbEntity
  8
レイヤー 1
 62
     7
370
     9
100
AcDbVertex
100
AcDb2dVertex
 10
186.1374755394031
 20
117.3344400748331
 30
0.0
  0
VERTEX
  5
4C0
330
4B9
100
AcDbEntity
  8
レイヤー 1
 62
     7
370
     9
100
AcDbVertex
100
AcDb2dVertex
 10
185.6778998016708
 20
117.760942895907
 30
0.0
  0
VERTEX
  5
4C1
330
4B9
100
AcDbEntity
  8
レイヤー 1
 62
     7
370
     9
100
AcDbVertex
100
AcDb2dVertex
 10
185.2658663816349
 20
118.2842529001164
 30
0.0
  0
VERTEX
  5
4C2
330
4B9
100
AcDbEntity
  8
レイヤー 1
 62
     7
370
     9
100
AcDbVertex
100
AcDb2dVertex
 10
184.9213568331099
 20
118.8781873617735
 30
0.0
  0
VERTEX
  5
4C3
330
4B9
100
AcDbEntity
  8
レイヤー 1
 62
     7
370
     9
100
AcDbVertex
100
AcDb2dVertex
 10
184.6626301621677
 20
119.5126016953823
 30
0.0
  0
VERTEX
  5
4C4
330
4B9
100
AcDbEntity
  8
レイヤー 1
 62
     7
370
     9
100
AcDbVertex
100
AcDb2dVertex
 10
184.5017442030065
 20
120.1559732772527
 30
0.0
  0
VERTEX
  5
4C5
330
4B9
100
AcDbEntity
  8
レイヤー 1
 62
     7
370
     9
100
AcDbVertex
100
AcDb2dVertex
 10
184.4473116943396
 20
120.7759182098234
 30
0.0
  0
SEQEND
  5
4C6
330
4B9
100
AcDbEntity
  8
レイヤー 1
370
     9
  0
ENDBLK
  5
4B8
330
4B5
100
AcDbEntity
  8
0
100
AcDbBlockEnd
  0
BLOCK
  5
4C9
330
4C7
100
AcDbEntity
  8
0
100
AcDbBlockBegin
  2
block 119
 70
     0
 10
0.0
 20
0.0
 30
0.0
  3
block 119
  1

  0
SPLINE
  5
4CB
330
4C7
100
AcDbEntity
  8
レイヤー 1
 62
     7
370
     9
100
AcDbSpline
210
0.0
220
0.0
230
1.0
 70
     8
 71
     3
 72
     8
 73
     4
 74
     0
 42
0.000000001
 43
0.0000000001
 40
0.0
 40
0.0
 40
0.0
 40
0.0
 40
1.0
 40
1.0
 40
1.0
 40
1.0
 10
164.1257269554964
 20
175.5341606549012
 30
0.0
 10
164.1191812740744
 20
176.7037705721435
 30
0.0
 10
163.679242580608
 20
177.5886433475299
 30
0.0
 10
162.9313123507602
 20
177.9350476985718
 30
0.0
  0
ENDBLK
  5
4CA
330
4C7
100
AcDbEntity
  8
0
100
AcDbBlockEnd
  0
BLOCK
  5
4CE
330
4CC
100
AcDbEntity
  8
0
100
AcDbBlockBegin
  2
block 120
 70
     0
 10
0.0
 20
0.0
 30
0.0
  3
block 120
  1

  0
SPLINE
  5
4D0
330
4CC
100
AcDbEntity
  8
レイヤー 1
 62
     7
370
     9
100
AcDbSpline
210
0.0
220
0.0
230
1.0
 70
     8
 71
     3
 72
     8
 73
     4
 74
     0
 42
0.000000001
 43
0.0000000001
 40
0.0
 40
0.0
 40
0.0
 40
0.0
 40
1.0
 40
1.0
 40
1.0
 40
1.0
 10
100.1892333733902
 20
68.67487791251878
 30
0.0
 10
100.75216197568
 20
68.36619735704039
 30
0.0
 10
101.4716701677744
 20
68.39858125460175
 30
0.0
 10
102.217533340331
 20
68.76651745242643
 30
0.0
  0
ENDBLK
  5
4CF
330
4CC
100
AcDbEntity
  8
0
100
AcDbBlockEnd
  0
BLOCK
  5
4D3
330
4D1
100
AcDbEntity
  8
0
100
AcDbBlockBegin
  2
block 121
 70
     0
 10
0.0
 20
0.0
 30
0.0
  3
block 121
  1

  0
POLYLINE
  5
4D5
330
4D1
100
AcDbEntity
  8
レイヤー 1
 62
     7
370
     9
100
AcDb2dPolyline
 66
     1
 10
0.0
 20
0.0
 30
0.0
  0
VERTEX
  5
4D6
330
4D5
100
AcDbEntity
  8
レイヤー 1
 62
     7
370
     9
100
AcDbVertex
100
AcDb2dVertex
 10
176.9039306198365
 20
153.375823258097
 30
0.0
  0
VERTEX
  5
4D7
330
4D5
100
AcDbEntity
  8
レイヤー 1
 62
     7
370
     9
100
AcDbVertex
100
AcDb2dVertex
 10
176.9142659062923
 20
153.3708278696434
 30
0.0
  0
VERTEX
  5
4D8
330
4D5
100
AcDbEntity
  8
レイヤー 1
 62
     7
370
     9
100
AcDbVertex
100
AcDb2dVertex
 10
176.9593966571491
 20
153.3432671057614
 30
0.0
  0
SEQEND
  5
4D9
330
4D5
100
AcDbEntity
  8
レイヤー 1
370
     9
  0
ENDBLK
  5
4D4
330
4D1
100
AcDbEntity
  8
0
100
AcDbBlockEnd
  0
BLOCK
  5
4DC
330
4DA
100
AcDbEntity
  8
0
100
AcDbBlockBegin
  2
block 122
 70
     0
 10
0.0
 20
0.0
 30
0.0
  3
block 122
  1

  0
SPLINE
  5
4DE
330
4DA
100
AcDbEntity
  8
レイヤー 1
 62
     7
370
     9
100
AcDbSpline
210
0.0
220
0.0
230
1.0
 70
     8
 71
     3
 72
     8
 73
     4
 74
     0
 42
0.000000001
 43
0.0000000001
 40
0.0
 40
0.0
 40
0.0
 40
0.0
 40
1.0
 40
1.0
 40
1.0
 40
1.0
 10
129.5826157987675
 20
71.55084362360535
 30
0.0
 10
129.71284040811
 20
71.4895209239679
 30
0.0
 10
129.8647691190095
 20
71.4964111149384
 30
0.0
 10
129.989137066027
 20
71.5694471392257
 30
0.0
  0
ENDBLK
  5
4DD
330
4DA
100
AcDbEntity
  8
0
100
AcDbBlockEnd
  0
ENDSEC
  0
SECTION
  2
ENTITIES
  0
INSERT
  5
19E
330
1F
100
AcDbEntity
  8
レイヤー 1
100
AcDbBlockReference
  2
block 19
 10
0.0
 20
0.0
 30
0.0
  0
INSERT
  5
1A3
330
1F
100
AcDbEntity
  8
レイヤー 1
100
AcDbBlockReference
  2
block 20
 10
0.0
 20
0.0
 30
0.0
  0
INSERT
  5
1AB
330
1F
100
AcDbEntity
  8
レイヤー 1
100
AcDbBlockReference
  2
block 21
 10
0.0
 20
0.0
 30
0.0
  0
INSERT
  5
1B3
330
1F
100
AcDbEntity
  8
レイヤー 1
100
AcDbBlockReference
  2
block 22
 10
0.0
 20
0.0
 30
0.0
  0
INSERT
  5
1BB
330
1F
100
AcDbEntity
  8
レイヤー 1
100
AcDbBlockReference
  2
block 23
 10
0.0
 20
0.0
 30
0.0
  0
INSERT
  5
1C3
330
1F
100
AcDbEntity
  8
レイヤー 1
100
AcDbBlockReference
  2
block 24
 10
0.0
 20
0.0
 30
0.0
  0
INSERT
  5
1C8
330
1F
100
AcDbEntity
  8
レイヤー 1
100
AcDbBlockReference
  2
block 25
 10
0.0
 20
0.0
 30
0.0
  0
INSERT
  5
1D0
330
1F
100
AcDbEntity
  8
レイヤー 1
100
AcDbBlockReference
  2
block 26
 10
0.0
 20
0.0
 30
0.0
  0
INSERT
  5
1D8
330
1F
100
AcDbEntity
  8
レイヤー 1
100
AcDbBlockReference
  2
block 27
 10
0.0
 20
0.0
 30
0.0
  0
INSERT
  5
1DD
330
1F
100
AcDbEntity
  8
レイヤー 1
100
AcDbBlockReference
  2
block 28
 10
0.0
 20
0.0
 30
0.0
  0
INSERT
  5
1E5
330
1F
100
AcDbEntity
  8
レイヤー 1
100
AcDbBlockReference
  2
block 29
 10
0.0
 20
0.0
 30
0.0
  0
INSERT
  5
1ED
330
1F
100
AcDbEntity
  8
レイヤー 1
100
AcDbBlockReference
  2
block 30
 10
0.0
 20
0.0
 30
0.0
  0
INSERT
  5
1F2
330
1F
100
AcDbEntity
  8
レイヤー 1
100
AcDbBlockReference
  2
block 31
 10
0.0
 20
0.0
 30
0.0
  0
INSERT
  5
1FA
330
1F
100
AcDbEntity
  8
レイヤー 1
100
AcDbBlockReference
  2
block 32
 10
0.0
 20
0.0
 30
0.0
  0
INSERT
  5
202
330
1F
100
AcDbEntity
  8
レイヤー 1
100
AcDbBlockReference
  2
block 33
 10
0.0
 20
0.0
 30
0.0
  0
INSERT
  5
207
330
1F
100
AcDbEntity
  8
レイヤー 1
100
AcDbBlockReference
  2
block 34
 10
0.0
 20
0.0
 30
0.0
  0
INSERT
  5
20C
330
1F
100
AcDbEntity
  8
レイヤー 1
100
AcDbBlockReference
  2
block 35
 10
0.0
 20
0.0
 30
0.0
  0
INSERT
  5
211
330
1F
100
AcDbEntity
  8
レイヤー 1
100
AcDbBlockReference
  2
block 36
 10
0.0
 20
0.0
 30
0.0
  0
INSERT
  5
219
330
1F
100
AcDbEntity
  8
レイヤー 1
100
AcDbBlockReference
  2
block 37
 10
0.0
 20
0.0
 30
0.0
  0
INSERT
  5
23A
330
1F
100
AcDbEntity
  8
レイヤー 1
100
AcDbBlockReference
  2
block 38
 10
0.0
 20
0.0
 30
0.0
  0
INSERT
  5
242
330
1F
100
AcDbEntity
  8
レイヤー 1
100
AcDbBlockReference
  2
block 39
 10
0.0
 20
0.0
 30
0.0
  0
INSERT
  5
24A
330
1F
100
AcDbEntity
  8
レイヤー 1
100
AcDbBlockReference
  2
block 40
 10
0.0
 20
0.0
 30
0.0
  0
INSERT
  5
252
330
1F
100
AcDbEntity
  8
レイヤー 1
100
AcDbBlockReference
  2
block 41
 10
0.0
 20
0.0
 30
0.0
  0
INSERT
  5
25A
330
1F
100
AcDbEntity
  8
レイヤー 1
100
AcDbBlockReference
  2
block 42
 10
0.0
 20
0.0
 30
0.0
  0
INSERT
  5
262
330
1F
100
AcDbEntity
  8
レイヤー 1
100
AcDbBlockReference
  2
block 43
 10
0.0
 20
0.0
 30
0.0
  0
INSERT
  5
26A
330
1F
100
AcDbEntity
  8
レイヤー 1
100
AcDbBlockReference
  2
block 44
 10
0.0
 20
0.0
 30
0.0
  0
INSERT
  5
272
330
1F
100
AcDbEntity
  8
レイヤー 1
100
AcDbBlockReference
  2
block 45
 10
0.0
 20
0.0
 30
0.0
  0
INSERT
  5
27A
330
1F
100
AcDbEntity
  8
レイヤー 1
100
AcDbBlockReference
  2
block 46
 10
0.0
 20
0.0
 30
0.0
  0
INSERT
  5
282
330
1F
100
AcDbEntity
  8
レイヤー 1
100
AcDbBlockReference
  2
block 47
 10
0.0
 20
0.0
 30
0.0
  0
INSERT
  5
28A
330
1F
100
AcDbEntity
  8
レイヤー 1
100
AcDbBlockReference
  2
block 48
 10
0.0
 20
0.0
 30
0.0
  0
INSERT
  5
292
330
1F
100
AcDbEntity
  8
レイヤー 1
100
AcDbBlockReference
  2
block 49
 10
0.0
 20
0.0
 30
0.0
  0
INSERT
  5
297
330
1F
100
AcDbEntity
  8
レイヤー 1
100
AcDbBlockReference
  2
block 50
 10
0.0
 20
0.0
 30
0.0
  0
INSERT
  5
29F
330
1F
100
AcDbEntity
  8
レイヤー 1
100
AcDbBlockReference
  2
block 51
 10
0.0
 20
0.0
 30
0.0
  0
INSERT
  5
2BB
330
1F
100
AcDbEntity
  8
レイヤー 1
100
AcDbBlockReference
  2
block 52
 10
0.0
 20
0.0
 30
0.0
  0
INSERT
  5
2C3
330
1F
100
AcDbEntity
  8
レイヤー 1
100
AcDbBlockReference
  2
block 53
 10
0.0
 20
0.0
 30
0.0
  0
INSERT
  5
2E4
330
1F
100
AcDbEntity
  8
レイヤー 1
100
AcDbBlockReference
  2
block 54
 10
0.0
 20
0.0
 30
0.0
  0
INSERT
  5
2ED
330
1F
100
AcDbEntity
  8
レイヤー 1
100
AcDbBlockReference
  2
block 55
 10
0.0
 20
0.0
 30
0.0
  0
INSERT
  5
2F2
330
1F
100
AcDbEntity
  8
レイヤー 1
100
AcDbBlockReference
  2
block 56
 10
0.0
 20
0.0
 30
0.0
  0
INSERT
  5
2F7
330
1F
100
AcDbEntity
  8
レイヤー 1
100
AcDbBlockReference
  2
block 57
 10
0.0
 20
0.0
 30
0.0
  0
INSERT
  5
2FC
330
1F
100
AcDbEntity
  8
レイヤー 1
100
AcDbBlockReference
  2
block 58
 10
0.0
 20
0.0
 30
0.0
  0
INSERT
  5
301
330
1F
100
AcDbEntity
  8
レイヤー 1
100
AcDbBlockReference
  2
block 59
 10
0.0
 20
0.0
 30
0.0
  0
INSERT
  5
306
330
1F
100
AcDbEntity
  8
レイヤー 1
100
AcDbBlockReference
  2
block 60
 10
0.0
 20
0.0
 30
0.0
  0
INSERT
  5
315
330
1F
100
AcDbEntity
  8
レイヤー 1
100
AcDbBlockReference
  2
block 61
 10
0.0
 20
0.0
 30
0.0
  0
INSERT
  5
31D
330
1F
100
AcDbEntity
  8
レイヤー 1
100
AcDbBlockReference
  2
block 62
 10
0.0
 20
0.0
 30
0.0
  0
INSERT
  5
322
330
1F
100
AcDbEntity
  8
レイヤー 1
100
AcDbBlockReference
  2
block 63
 10
0.0
 20
0.0
 30
0.0
  0
INSERT
  5
32A
330
1F
100
AcDbEntity
  8
レイヤー 1
100
AcDbBlockReference
  2
block 64
 10
0.0
 20
0.0
 30
0.0
  0
INSERT
  5
339
330
1F
100
AcDbEntity
  8
レイヤー 1
100
AcDbBlockReference
  2
block 65
 10
0.0
 20
0.0
 30
0.0
  0
INSERT
  5
341
330
1F
100
AcDbEntity
  8
レイヤー 1
100
AcDbBlockReference
  2
block 66
 10
0.0
 20
0.0
 30
0.0
  0
INSERT
  5
349
330
1F
100
AcDbEntity
  8
レイヤー 1
100
AcDbBlockReference
  2
block 67
 10
0.0
 20
0.0
 30
0.0
  0
INSERT
  5
351
330
1F
100
AcDbEntity
  8
レイヤー 1
100
AcDbBlockReference
  2
block 68
 10
0.0
 20
0.0
 30
0.0
  0
INSERT
  5
359
330
1F
100
AcDbEntity
  8
レイヤー 1
100
AcDbBlockReference
  2
block 69
 10
0.0
 20
0.0
 30
0.0
  0
INSERT
  5
361
330
1F
100
AcDbEntity
  8
レイヤー 1
100
AcDbBlockReference
  2
block 70
 10
0.0
 20
0.0
 30
0.0
  0
INSERT
  5
369
330
1F
100
AcDbEntity
  8
レイヤー 1
100
AcDbBlockReference
  2
block 71
 10
0.0
 20
0.0
 30
0.0
  0
INSERT
  5
371
330
1F
100
AcDbEntity
  8
レイヤー 1
100
AcDbBlockReference
  2
block 72
 10
0.0
 20
0.0
 30
0.0
  0
INSERT
  5
379
330
1F
100
AcDbEntity
  8
レイヤー 1
100
AcDbBlockReference
  2
block 73
 10
0.0
 20
0.0
 30
0.0
  0
INSERT
  5
381
330
1F
100
AcDbEntity
  8
レイヤー 1
100
AcDbBlockReference
  2
block 74
 10
0.0
 20
0.0
 30
0.0
  0
INSERT
  5
389
330
1F
100
AcDbEntity
  8
レイヤー 1
100
AcDbBlockReference
  2
block 75
 10
0.0
 20
0.0
 30
0.0
  0
INSERT
  5
391
330
1F
100
AcDbEntity
  8
レイヤー 1
100
AcDbBlockReference
  2
block 76
 10
0.0
 20
0.0
 30
0.0
  0
INSERT
  5
399
330
1F
100
AcDbEntity
  8
レイヤー 1
100
AcDbBlockReference
  2
block 77
 10
0.0
 20
0.0
 30
0.0
  0
INSERT
  5
39E
330
1F
100
AcDbEntity
  8
レイヤー 1
100
AcDbBlockReference
  2
block 78
 10
0.0
 20
0.0
 30
0.0
  0
INSERT
  5
3A3
330
1F
100
AcDbEntity
  8
レイヤー 1
100
AcDbBlockReference
  2
block 79
 10
0.0
 20
0.0
 30
0.0
  0
INSERT
  5
3A8
330
1F
100
AcDbEntity
  8
レイヤー 1
100
AcDbBlockReference
  2
block 80
 10
0.0
 20
0.0
 30
0.0
  0
INSERT
  5
3AD
330
1F
100
AcDbEntity
  8
レイヤー 1
100
AcDbBlockReference
  2
block 81
 10
0.0
 20
0.0
 30
0.0
  0
INSERT
  5
3B5
330
1F
100
AcDbEntity
  8
レイヤー 1
100
AcDbBlockReference
  2
block 82
 10
0.0
 20
0.0
 30
0.0
  0
INSERT
  5
3BA
330
1F
100
AcDbEntity
  8
レイヤー 1
100
AcDbBlockReference
  2
block 83
 10
0.0
 20
0.0
 30
0.0
  0
INSERT
  5
3C2
330
1F
100
AcDbEntity
  8
レイヤー 1
100
AcDbBlockReference
  2
block 84
 10
0.0
 20
0.0
 30
0.0
  0
INSERT
  5
3CA
330
1F
100
AcDbEntity
  8
レイヤー 1
100
AcDbBlockReference
  2
block 85
 10
0.0
 20
0.0
 30
0.0
  0
INSERT
  5
3CF
330
1F
100
AcDbEntity
  8
レイヤー 1
100
AcDbBlockReference
  2
block 86
 10
0.0
 20
0.0
 30
0.0
  0
INSERT
  5
3D7
330
1F
100
AcDbEntity
  8
レイヤー 1
100
AcDbBlockReference
  2
block 87
 10
0.0
 20
0.0
 30
0.0
  0
INSERT
  5
3E6
330
1F
100
AcDbEntity
  8
レイヤー 1
100
AcDbBlockReference
  2
block 88
 10
0.0
 20
0.0
 30
0.0
  0
INSERT
  5
3EE
330
1F
100
AcDbEntity
  8
レイヤー 1
100
AcDbBlockReference
  2
block 89
 10
0.0
 20
0.0
 30
0.0
  0
INSERT
  5
3F3
330
1F
100
AcDbEntity
  8
レイヤー 1
100
AcDbBlockReference
  2
block 90
 10
0.0
 20
0.0
 30
0.0
  0
INSERT
  5
3FB
330
1F
100
AcDbEntity
  8
レイヤー 1
100
AcDbBlockReference
  2
block 91
 10
0.0
 20
0.0
 30
0.0
  0
INSERT
  5
40A
330
1F
100
AcDbEntity
  8
レイヤー 1
100
AcDbBlockReference
  2
block 92
 10
0.0
 20
0.0
 30
0.0
  0
INSERT
  5
412
330
1F
100
AcDbEntity
  8
レイヤー 1
100
AcDbBlockReference
  2
block 93
 10
0.0
 20
0.0
 30
0.0
  0
INSERT
  5
417
330
1F
100
AcDbEntity
  8
レイヤー 1
100
AcDbBlockReference
  2
block 94
 10
0.0
 20
0.0
 30
0.0
  0
INSERT
  5
41F
330
1F
100
AcDbEntity
  8
レイヤー 1
100
AcDbBlockReference
  2
block 95
 10
0.0
 20
0.0
 30
0.0
  0
INSERT
  5
427
330
1F
100
AcDbEntity
  8
レイヤー 1
100
AcDbBlockReference
  2
block 96
 10
0.0
 20
0.0
 30
0.0
  0
INSERT
  5
42F
330
1F
100
AcDbEntity
  8
レイヤー 1
100
AcDbBlockReference
  2
block 97
 10
0.0
 20
0.0
 30
0.0
  0
INSERT
  5
437
330
1F
100
AcDbEntity
  8
レイヤー 1
100
AcDbBlockReference
  2
block 98
 10
0.0
 20
0.0
 30
0.0
  0
INSERT
  5
43F
330
1F
100
AcDbEntity
  8
レイヤー 1
100
AcDbBlockReference
  2
block 99
 10
0.0
 20
0.0
 30
0.0
  0
INSERT
  5
447
330
1F
100
AcDbEntity
  8
レイヤー 1
100
AcDbBlockReference
  2
block 100
 10
0.0
 20
0.0
 30
0.0
  0
INSERT
  5
44F
330
1F
100
AcDbEntity
  8
レイヤー 1
100
AcDbBlockReference
  2
block 101
 10
0.0
 20
0.0
 30
0.0
  0
INSERT
  5
454
330
1F
100
AcDbEntity
  8
レイヤー 1
100
AcDbBlockReference
  2
block 102
 10
0.0
 20
0.0
 30
0.0
  0
INSERT
  5
459
330
1F
100
AcDbEntity
  8
レイヤー 1
100
AcDbBlockReference
  2
block 103
 10
0.0
 20
0.0
 30
0.0
  0
INSERT
  5
45E
330
1F
100
AcDbEntity
  8
レイヤー 1
100
AcDbBlockReference
  2
block 104
 10
0.0
 20
0.0
 30
0.0
  0
INSERT
  5
463
330
1F
100
AcDbEntity
  8
レイヤー 1
100
AcDbBlockReference
  2
block 105
 10
0.0
 20
0.0
 30
0.0
  0
INSERT
  5
46B
330
1F
100
AcDbEntity
  8
レイヤー 1
100
AcDbBlockReference
  2
block 106
 10
0.0
 20
0.0
 30
0.0
  0
INSERT
  5
470
330
1F
100
AcDbEntity
  8
レイヤー 1
100
AcDbBlockReference
  2
block 107
 10
0.0
 20
0.0
 30
0.0
  0
INSERT
  5
478
330
1F
100
AcDbEntity
  8
レイヤー 1
100
AcDbBlockReference
  2
block 108
 10
0.0
 20
0.0
 30
0.0
  0
INSERT
  5
480
330
1F
100
AcDbEntity
  8
レイヤー 1
100
AcDbBlockReference
  2
block 109
 10
0.0
 20
0.0
 30
0.0
  0
INSERT
  5
488
330
1F
100
AcDbEntity
  8
レイヤー 1
100
AcDbBlockReference
  2
block 110
 10
0.0
 20
0.0
 30
0.0
  0
INSERT
  5
490
330
1F
100
AcDbEntity
  8
レイヤー 1
100
AcDbBlockReference
  2
block 111
 10
0.0
 20
0.0
 30
0.0
  0
INSERT
  5
495
330
1F
100
AcDbEntity
  8
レイヤー 1
100
AcDbBlockReference
  2
block 112
 10
0.0
 20
0.0
 30
0.0
  0
INSERT
  5
49D
330
1F
100
AcDbEntity
  8
レイヤー 1
100
AcDbBlockReference
  2
block 113
 10
0.0
 20
0.0
 30
0.0
  0
INSERT
  5
4A2
330
1F
100
AcDbEntity
  8
レイヤー 1
100
AcDbBlockReference
  2
block 114
 10
0.0
 20
0.0
 30
0.0
  0
INSERT
  5
4A7
330
1F
100
AcDbEntity
  8
レイヤー 1
100
AcDbBlockReference
  2
block 115
 10
0.0
 20
0.0
 30
0.0
  0
INSERT
  5
4AC
330
1F
100
AcDbEntity
  8
レイヤー 1
100
AcDbBlockReference
  2
block 116
 10
0.0
 20
0.0
 30
0.0
  0
INSERT
  5
4B1
330
1F
100
AcDbEntity
  8
レイヤー 1
100
AcDbBlockReference
  2
block 117
 10
0.0
 20
0.0
 30
0.0
  0
INSERT
  5
4B6
330
1F
100
AcDbEntity
  8
レイヤー 1
100
AcDbBlockReference
  2
block 118
 10
0.0
 20
0.0
 30
0.0
  0
INSERT
  5
4C8
330
1F
100
AcDbEntity
  8
レイヤー 1
100
AcDbBlockReference
  2
block 119
 10
0.0
 20
0.0
 30
0.0
  0
INSERT
  5
4CD
330
1F
100
AcDbEntity
  8
レイヤー 1
100
AcDbBlockReference
  2
block 120
 10
0.0
 20
0.0
 30
0.0
  0
INSERT
  5
4D2
330
1F
100
AcDbEntity
  8
レイヤー 1
100
AcDbBlockReference
  2
block 121
 10
0.0
 20
0.0
 30
0.0
  0
INSERT
  5
4DB
330
1F
100
AcDbEntity
  8
レイヤー 1
100
AcDbBlockReference
  2
block 122
 10
0.0
 20
0.0
 30
0.0
  0
POLYLINE
  5
4DF
330
1F
100
AcDbEntity
  8
レイヤー 1
 62
     7
370
     9
100
AcDb2dPolyline
 66
     1
 10
0.0
 20
0.0
 30
0.0
  0
VERTEX
  5
4E0
330
4DF
100
AcDbEntity
  8
レイヤー 1
 62
     7
370
     9
100
AcDbVertex
100
AcDb2dVertex
 10
164.1243489173023
 20
100.3470187466146
 30
0.0
  0
VERTEX
  5
4E1
330
4DF
100
AcDbEntity
  8
レイヤー 1
 62
     7
370
     9
100
AcDbVertex
100
AcDb2dVertex
 10
168.7066704222331
 20
97.88928762743741
 30
0.0
  0
SEQEND
  5
4E2
330
4DF
100
AcDbEntity
  8
レイヤー 1
370
     9
  0
POLYLINE
  5
4E3
330
1F
100
AcDbEntity
  8
レイヤー 1
 62
     7
370
     9
100
AcDb2dPolyline
 66
     1
 10
0.0
 20
0.0
 30
0.0
  0
VERTEX
  5
4E4
330
4E3
100
AcDbEntity
  8
レイヤー 1
 62
     7
370
     9
100
AcDbVertex
100
AcDb2dVertex
 10
193.1496228900806
 20
87.35074053805815
 30
0.0
  0
VERTEX
  5
4E5
330
4E3
100
AcDbEntity
  8
レイヤー 1
 62
     7
370
     9
100
AcDbVertex
100
AcDb2dVertex
 10
179.2993055107307
 20
94.07453339662025
 30
0.0
  0
SEQEND
  5
4E6
330
4E3
100
AcDbEntity
  8
レイヤー 1
370
     9
  0
POLYLINE
  5
4E7
330
1F
100
AcDbEntity
  8
レイヤー 1
 62
     7
370
     9
100
AcDb2dPolyline
 66
     1
 10
0.0
 20
0.0
 30
0.0
  0
VERTEX
  5
4E8
330
4E7
100
AcDbEntity
  8
レイヤー 1
 62
     7
370
     9
100
AcDbVertex
100
AcDb2dVertex
 10
175.7274305116237
 20
95.9076687043217
 30
0.0
  0
VERTEX
  5
4E9
330
4E7
100
AcDbEntity
  8
レイヤー 1
 62
     7
370
     9
100
AcDbVertex
100
AcDb2dVertex
 10
171.1358072488827
 20
97.88928762743741
 30
0.0
  0
SEQEND
  5
4EA
330
4E7
100
AcDbEntity
  8
レイヤー 1
370
     9
  0
POLYLINE
  5
4EB
330
1F
100
AcDbEntity
  8
レイヤー 1
 62
     7
370
     9
100
AcDb2dPolyline
 66
     1
 10
0.0
 20
0.0
 30
0.0
  0
VERTEX
  5
4EC
330
4EB
100
AcDbEntity
  8
レイヤー 1
 62
     7
370
     9
100
AcDbVertex
100
AcDb2dVertex
 10
176.1425645175963
 20
152.344189415039
 30
0.0
  0
VERTEX
  5
4ED
330
4EB
100
AcDbEntity
  8
レイヤー 1
 62
     7
370
     9
100
AcDbVertex
100
AcDb2dVertex
 10
171.1358072488827
 20
149.3855414123064
 30
0.0
  0
SEQEND
  5
4EE
330
4EB
100
AcDbEntity
  8
レイヤー 1
370
     9
  0
POLYLINE
  5
4EF
330
1F
100
AcDbEntity
  8
レイヤー 1
 62
     7
370
     9
100
AcDb2dPolyline
 66
     1
 10
0.0
 20
0.0
 30
0.0
  0
VERTEX
  5
4F0
330
4EF
100
AcDbEntity
  8
レイヤー 1
 62
     7
370
     9
100
AcDbVertex
100
AcDb2dVertex
 10
129.989137066027
 20
72.94576278558301
 30
0.0
  0
VERTEX
  5
4F1
330
4EF
100
AcDbEntity
  8
レイヤー 1
 62
     7
370
     9
100
AcDbVertex
100
AcDb2dVertex
 10
131.0569444116802
 20
76.20895722921165
 30
0.0
  0
SEQEND
  5
4F2
330
4EF
100
AcDbEntity
  8
レイヤー 1
370
     9
  0
MTEXT
  5
53A
330
1F
100
AcDbEntity
  8
0
100
AcDbMText
 10
160.1987960009902
 20
34.71413463343879
 30
0.0
 40
6.0
 41
231.4298032286653
 46
3.135050643991497
 71
     1
 72
     5
  1
{\fＭＳ Ｐゴシック|b0|i0|c0|p0;HFB-D32P/N/R/S/G/K}
 73
     1
 44
1.0
  0
ENDSEC
  0
SECTION
  2
OBJECTS
  0
DICTIONARY
  5
C
330
0
100
AcDbDictionary
281
     1
  3
ACAD_DETAILVIEWSTYLE
350
540
  3
ACAD_GROUP
350
D
  3
ACAD_LAYOUT
350
1A
  3
ACAD_MATERIAL
350
516
  3
ACAD_MLEADERSTYLE
350
525
  3
ACAD_MLINESTYLE
350
17
  3
ACAD_PLOTSETTINGS
350
19
  3
ACAD_PLOTSTYLENAME
350
E
  3
ACAD_SCALELIST
350
4F4
  3
ACAD_SECTIONVIEWSTYLE
350
541
  3
ACAD_TABLESTYLE
350
4F3
  3
ACAD_VISUALSTYLE
350
2A
  3
ACDB_RECOMPOSE_DATA
350
546
  3
AcDbVariableDictionary
350
53B
  3
APPDATA
350
527
  0
SUN
  5
542
330
29
100
AcDbSun
 90
        1
290
     0
 63
     7
421
 16777215
 40
1.0
291
     1
 91
  2455826
 92
 54000000
292
     0
 70
     2
 71
   256
280
     1
  0
DICTIONARY
  5
528
330
2
100
AcDbDictionary
280
     1
281
     1
  3
ACAD_LAYERSTATES
360
529
  0
DICTIONARY
  5
540
102
{ACAD_REACTORS
330
C
102
}
330
C
100
AcDbDictionary
281
     1
  0
DICTIONARY
  5
D
102
{ACAD_REACTORS
330
C
102
}
330
C
100
AcDbDictionary
281
     1
  0
DICTIONARY
  5
1A
102
{ACAD_REACTORS
330
C
102
}
330
C
100
AcDbDictionary
281
     1
  3
Layout1
350
1E
  3
Layout2
350
26
  3
Model
350
22
  0
DICTIONARY
  5
516
102
{ACAD_REACTORS
330
C
102
}
330
C
100
AcDbDictionary
281
     1
  3
ByBlock
350
518
  3
ByLayer
350
517
  3
Global
350
519
  0
DICTIONARY
  5
525
102
{ACAD_REACTORS
330
C
102
}
330
C
100
AcDbDictionary
281
     1
  3
Standard
350
526
  0
DICTIONARY
  5
17
102
{ACAD_REACTORS
330
C
102
}
330
C
100
AcDbDictionary
281
     1
  3
Standard
350
18
  0
DICTIONARY
  5
19
102
{ACAD_REACTORS
330
C
102
}
330
C
100
AcDbDictionary
281
     1
  0
ACDBDICTIONARYWDFLT
  5
E
102
{ACAD_REACTORS
330
C
102
}
330
C
100
AcDbDictionary
281
     1
  3
Normal
350
F
100
AcDbDictionaryWithDefault
340
F
  0
DICTIONARY
  5
4F4
102
{ACAD_REACTORS
330
C
102
}
330
C
100
AcDbDictionary
281
     1
  3
A0
350
4F5
  3
A1
350
4F6
  3
A2
350
4F7
  3
A3
350
4F8
  3
A4
350
4F9
  3
A5
350
4FA
  3
A6
350
4FB
  3
A7
350
4FC
  3
A8
350
4FD
  3
A9
350
4FE
  3
B0
350
4FF
  3
B1
350
500
  3
B2
350
501
  3
B3
350
502
  3
B4
350
503
  3
B5
350
504
  3
B6
350
505
  3
B7
350
506
  3
B8
350
507
  3
B9
350
508
  3
C0
350
509
  3
C1
350
50A
  3
C2
350
50B
  3
C3
350
50C
  3
C4
350
50D
  3
C5
350
50E
  3
C6
350
50F
  3
C7
350
510
  3
C8
350
511
  3
C9
350
512
  3
D0
350
513
  3
D1
350
514
  3
D2
350
515
  0
DICTIONARY
  5
541
102
{ACAD_REACTORS
330
C
102
}
330
C
100
AcDbDictionary
281
     1
  0
DICTIONARY
  5
4F3
102
{ACAD_REACTORS
330
C
102
}
330
C
100
AcDbDictionary
281
     1
  3
Standard
350
524
  0
DICTIONARY
  5
2A
102
{ACAD_REACTORS
330
C
102
}
330
C
100
AcDbDictionary
281
     1
  3
2dWireframe
350
2F
  3
3D Hidden
350
31
  3
3dWireframe
350
30
  3
Basic
350
32
  3
Brighten
350
36
  3
ColorChange
350
3A
  3
Conceptual
350
34
  3
Dim
350
35
  3
EdgeColorOff
350
51E
  3
Facepattern
350
39
  3
Flat
350
2B
  3
FlatWithEdges
350
2C
  3
Gouraud
350
2D
  3
GouraudWithEdges
350
2E
  3
Hidden
350
51B
  3
JitterOff
350
51C
  3
Linepattern
350
38
  3
OverhangOff
350
51D
  3
Realistic
350
33
  3
Shaded
350
523
  3
Shaded with edges
350
522
  3
Shades of Gray
350
51F
  3
Sketchy
350
520
  3
Thicken
350
37
  3
Wireframe
350
51A
  3
X-Ray
350
521
  0
XRECORD
  5
546
102
{ACAD_REACTORS
330
C
102
}
330
C
100
AcDbXrecord
280
     1
 90
        1
330
524
  0
DICTIONARY
  5
53B
102
{ACAD_REACTORS
330
C
102
}
330
C
100
AcDbDictionary
281
     1
  3
CANNOSCALE
350
53C
  3
CMLEADERSTYLE
350
53E
  3
CTABLESTYLE
350
53D
  3
MSLTSCALE
350
53F
  0
DICTIONARY
  5
527
102
{ACAD_REACTORS
330
C
102
}
330
C
100
AcDbDictionary
281
     1
  0
DICTIONARY
  5
529
102
{ACAD_REACTORS
330
528
102
}
330
528
100
AcDbDictionary
281
     1
  0
LAYOUT
  5
1E
102
{ACAD_REACTORS
330
1A
102
}
330
1A
100
AcDbPlotSettings
  1

  2
none_device
  4

  6

 40
0.0
 41
0.0
 42
0.0
 43
0.0
 44
0.0
 45
0.0
 46
0.0
 47
0.0
 48
0.0
 49
0.0
140
0.0
141
0.0
142
1.0
143
1.0
 70
   688
 72
     0
 73
     0
 74
     5
  7

 75
    16
 76
     0
 77
     2
 78
   300
147
1.0
148
0.0
149
0.0
100
AcDbLayout
  1
Layout1
 70
     1
 71
     1
 10
0.0
 20
0.0
 11
12.0
 21
9.0
 12
0.0
 22
0.0
 32
0.0
 14
1.000000000000000E+20
 24
1.000000000000000E+20
 34
1.000000000000000E+20
 15
-1.000000000000000E+20
 25
-1.000000000000000E+20
 35
-1.000000000000000E+20
146
0.0
 13
0.0
 23
0.0
 33
0.0
 16
1.0
 26
0.0
 36
0.0
 17
0.0
 27
1.0
 37
0.0
 76
     0
330
1B
  0
LAYOUT
  5
26
102
{ACAD_REACTORS
330
1A
102
}
330
1A
100
AcDbPlotSettings
  1

  2
none_device
  4

  6

 40
0.0
 41
0.0
 42
0.0
 43
0.0
 44
0.0
 45
0.0
 46
0.0
 47
0.0
 48
0.0
 49
0.0
140
0.0
141
0.0
142
1.0
143
1.0
 70
   688
 72
     0
 73
     0
 74
     5
  7

 75
    16
 76
     0
 77
     2
 78
   300
147
1.0
148
0.0
149
0.0
100
AcDbLayout
  1
Layout2
 70
     1
 71
     2
 10
0.0
 20
0.0
 11
0.0
 21
0.0
 12
0.0
 22
0.0
 32
0.0
 14
0.0
 24
0.0
 34
0.0
 15
0.0
 25
0.0
 35
0.0
146
0.0
 13
0.0
 23
0.0
 33
0.0
 16
1.0
 26
0.0
 36
0.0
 17
0.0
 27
1.0
 37
0.0
 76
     0
330
23
  0
LAYOUT
  5
22
102
{ACAD_REACTORS
330
1A
102
}
330
1A
100
AcDbPlotSettings
  1

  2
none_device
  4

  6

 40
0.0
 41
0.0
 42
0.0
 43
0.0
 44
0.0
 45
0.0
 46
0.0
 47
0.0
 48
0.0
 49
0.0
140
0.0
141
0.0
142
1.0
143
1.0
 70
  1712
 72
     0
 73
     0
 74
     0
  7

 75
     0
 76
     0
 77
     2
 78
   300
147
1.0
148
0.0
149
0.0
100
AcDbLayout
  1
Model
 70
     1
 71
     0
 10
0.0
 20
0.0
 11
12.0
 21
9.0
 12
0.0
 22
0.0
 32
0.0
 14
98.6186143416648
 24
28.06964294905717
 34
0.0
 15
248.7980207102561
 25
178.1922361882096
 35
0.0
146
0.0
 13
0.0
 23
0.0
 33
0.0
 16
1.0
 26
0.0
 36
0.0
 17
0.0
 27
1.0
 37
0.0
 76
     0
330
1F
331
29
  0
MATERIAL
  5
518
102
{ACAD_REACTORS
330
516
102
}
330
516
100
AcDbMaterial
  1
ByBlock
 72
     1
 94
      127
  0
MATERIAL
  5
517
102
{ACAD_REACTORS
330
516
102
}
330
516
100
AcDbMaterial
  1
ByLayer
 72
     1
 94
      127
  0
MATERIAL
  5
519
102
{ACAD_REACTORS
330
516
102
}
330
516
100
AcDbMaterial
  1
Global
 72
     1
 94
      127
  0
MLEADERSTYLE
  5
526
102
{ACAD_REACTORS
330
525
102
}
330
525
100
AcDbMLeaderStyle
179
     2
170
     2
171
     1
172
     0
 90
        2
 40
0.0
 41
0.0
173
     1
 91
-1056964608
340
14
 92
       -2
290
     1
 42
0.09
291
     1
 43
0.36
  3
Standard
341
0
 44
0.18
300

342
11
174
     1
178
     1
175
     1
176
     0
 93
-1056964608
 45
0.18
292
     0
297
     0
 46
0.18
343
0
 94
-1056964608
 47
1.0
 49
1.0
140
1.0
293
     1
141
0.0
294
     1
177
     0
142
1.0
295
     0
296
     0
143
0.125
271
     0
272
     9
273
     9
298
     0
  0
MLINESTYLE
  5
18
102
{ACAD_REACTORS
330
17
102
}
330
17
100
AcDbMlineStyle
  2
Standard
 70
     0
  3

 62
   256
 51
90.0
 52
90.0
 71
     2
 49
0.5
 62
   256
  6
BYLAYER
 49
-0.5
 62
   256
  6
BYLAYER
  0
ACDBPLACEHOLDER
  5
F
102
{ACAD_REACTORS
330
E
102
}
330
E
  0
SCALE
  5
4F5
102
{ACAD_REACTORS
330
4F4
102
}
330
4F4
100
AcDbScale
 70
     0
300
1:1
140
1.0
141
1.0
290
     1
  0
SCALE
  5
4F6
102
{ACAD_REACTORS
330
4F4
102
}
330
4F4
100
AcDbScale
 70
     0
300
1:2
140
1.0
141
2.0
290
     0
  0
SCALE
  5
4F7
102
{ACAD_REACTORS
330
4F4
102
}
330
4F4
100
AcDbScale
 70
     0
300
1:4
140
1.0
141
4.0
290
     0
  0
SCALE
  5
4F8
102
{ACAD_REACTORS
330
4F4
102
}
330
4F4
100
AcDbScale
 70
     0
300
1:5
140
1.0
141
5.0
290
     0
  0
SCALE
  5
4F9
102
{ACAD_REACTORS
330
4F4
102
}
330
4F4
100
AcDbScale
 70
     0
300
1:8
140
1.0
141
8.0
290
     0
  0
SCALE
  5
4FA
102
{ACAD_REACTORS
330
4F4
102
}
330
4F4
100
AcDbScale
 70
     0
300
1:10
140
1.0
141
10.0
290
     0
  0
SCALE
  5
4FB
102
{ACAD_REACTORS
330
4F4
102
}
330
4F4
100
AcDbScale
 70
     0
300
1:16
140
1.0
141
16.0
290
     0
  0
SCALE
  5
4FC
102
{ACAD_REACTORS
330
4F4
102
}
330
4F4
100
AcDbScale
 70
     0
300
1:20
140
1.0
141
20.0
290
     0
  0
SCALE
  5
4FD
102
{ACAD_REACTORS
330
4F4
102
}
330
4F4
100
AcDbScale
 70
     0
300
1:30
140
1.0
141
30.0
290
     0
  0
SCALE
  5
4FE
102
{ACAD_REACTORS
330
4F4
102
}
330
4F4
100
AcDbScale
 70
     0
300
1:40
140
1.0
141
40.0
290
     0
  0
SCALE
  5
4FF
102
{ACAD_REACTORS
330
4F4
102
}
330
4F4
100
AcDbScale
 70
     0
300
1:50
140
1.0
141
50.0
290
     0
  0
SCALE
  5
500
102
{ACAD_REACTORS
330
4F4
102
}
330
4F4
100
AcDbScale
 70
     0
300
1:100
140
1.0
141
100.0
290
     0
  0
SCALE
  5
501
102
{ACAD_REACTORS
330
4F4
102
}
330
4F4
100
AcDbScale
 70
     0
300
2:1
140
2.0
141
1.0
290
     0
  0
SCALE
  5
502
102
{ACAD_REACTORS
330
4F4
102
}
330
4F4
100
AcDbScale
 70
     0
300
4:1
140
4.0
141
1.0
290
     0
  0
SCALE
  5
503
102
{ACAD_REACTORS
330
4F4
102
}
330
4F4
100
AcDbScale
 70
     0
300
8:1
140
8.0
141
1.0
290
     0
  0
SCALE
  5
504
102
{ACAD_REACTORS
330
4F4
102
}
330
4F4
100
AcDbScale
 70
     0
300
10:1
140
10.0
141
1.0
290
     0
  0
SCALE
  5
505
102
{ACAD_REACTORS
330
4F4
102
}
330
4F4
100
AcDbScale
 70
     0
300
100:1
140
100.0
141
1.0
290
     0
  0
SCALE
  5
506
102
{ACAD_REACTORS
330
4F4
102
}
330
4F4
100
AcDbScale
 70
     0
300
1/128" = 1'-0"
140
0.0078125
141
12.0
290
     0
  0
SCALE
  5
507
102
{ACAD_REACTORS
330
4F4
102
}
330
4F4
100
AcDbScale
 70
     0
300
1/64" = 1'-0"
140
0.015625
141
12.0
290
     0
  0
SCALE
  5
508
102
{ACAD_REACTORS
330
4F4
102
}
330
4F4
100
AcDbScale
 70
     0
300
1/32" = 1'-0"
140
0.03125
141
12.0
290
     0
  0
SCALE
  5
509
102
{ACAD_REACTORS
330
4F4
102
}
330
4F4
100
AcDbScale
 70
     0
300
1/16" = 1'-0"
140
0.0625
141
12.0
290
     0
  0
SCALE
  5
50A
102
{ACAD_REACTORS
330
4F4
102
}
330
4F4
100
AcDbScale
 70
     0
300
3/32" = 1'-0"
140
0.09375
141
12.0
290
     0
  0
SCALE
  5
50B
102
{ACAD_REACTORS
330
4F4
102
}
330
4F4
100
AcDbScale
 70
     0
300
1/8" = 1'-0"
140
0.125
141
12.0
290
     0
  0
SCALE
  5
50C
102
{ACAD_REACTORS
330
4F4
102
}
330
4F4
100
AcDbScale
 70
     0
300
3/16" = 1'-0"
140
0.1875
141
12.0
290
     0
  0
SCALE
  5
50D
102
{ACAD_REACTORS
330
4F4
102
}
330
4F4
100
AcDbScale
 70
     0
300
1/4" = 1'-0"
140
0.25
141
12.0
290
     0
  0
SCALE
  5
50E
102
{ACAD_REACTORS
330
4F4
102
}
330
4F4
100
AcDbScale
 70
     0
300
3/8" = 1'-0"
140
0.375
141
12.0
290
     0
  0
SCALE
  5
50F
102
{ACAD_REACTORS
330
4F4
102
}
330
4F4
100
AcDbScale
 70
     0
300
1/2" = 1'-0"
140
0.5
141
12.0
290
     0
  0
SCALE
  5
510
102
{ACAD_REACTORS
330
4F4
102
}
330
4F4
100
AcDbScale
 70
     0
300
3/4" = 1'-0"
140
0.75
141
12.0
290
     0
  0
SCALE
  5
511
102
{ACAD_REACTORS
330
4F4
102
}
330
4F4
100
AcDbScale
 70
     0
300
1" = 1'-0"
140
1.0
141
12.0
290
     0
  0
SCALE
  5
512
102
{ACAD_REACTORS
330
4F4
102
}
330
4F4
100
AcDbScale
 70
     0
300
1-1/2" = 1'-0"
140
1.5
141
12.0
290
     0
  0
SCALE
  5
513
102
{ACAD_REACTORS
330
4F4
102
}
330
4F4
100
AcDbScale
 70
     0
300
3" = 1'-0"
140
3.0
141
12.0
290
     0
  0
SCALE
  5
514
102
{ACAD_REACTORS
330
4F4
102
}
330
4F4
100
AcDbScale
 70
     0
300
6" = 1'-0"
140
6.0
141
12.0
290
     0
  0
SCALE
  5
515
102
{ACAD_REACTORS
330
4F4
102
}
330
4F4
100
AcDbScale
 70
     0
300
1'-0" = 1'-0"
140
12.0
141
12.0
290
     0
  0
TABLESTYLE
  5
524
102
{ACAD_REACTORS
330
4F3
102
}
102
{ACAD_XDICTIONARY
360
544
102
}
330
4F3
100
AcDbTableStyle
  3
Standard
 70
     0
 71
     0
 40
0.06
 41
0.06
280
     0
281
     0
  7
Standard
140
0.18
170
     2
 62
     0
 63
   257
283
     0
 90
        4
 91
        0
  1

274
    -2
284
     1
 64
     0
275
    -2
285
     1
 65
     0
276
    -2
286
     1
 66
     0
277
    -2
287
     1
 67
     0
278
    -2
288
     1
 68
     0
279
    -2
289
     1
 69
     0
  7
Standard
140
0.25
170
     5
 62
     0
 63
   257
283
     0
 90
        4
 91
        0
  1

274
    -2
284
     1
 64
     0
275
    -2
285
     1
 65
     0
276
    -2
286
     1
 66
     0
277
    -2
287
     1
 67
     0
278
    -2
288
     1
 68
     0
279
    -2
289
     1
 69
     0
  7
Standard
140
0.18
170
     5
 62
     0
 63
   257
283
     0
 90
        4
 91
        0
  1

274
    -2
284
     1
 64
     0
275
    -2
285
     1
 65
     0
276
    -2
286
     1
 66
     0
277
    -2
287
     1
 67
     0
278
    -2
288
     1
 68
     0
279
    -2
289
     1
 69
     0
  0
VISUALSTYLE
  5
2F
102
{ACAD_REACTORS
330
2A
102
}
330
2A
100
AcDbVisualStyle
  2
2dWireframe
 70
     4
177
     3
291
     0
 70
    58
 90
        0
176
     1
 90
        2
176
     1
 90
        0
176
     1
 90
        0
176
     1
 40
-0.6
176
     1
 40
-30.0
176
     1
 62
     7
176
     1
 90
        1
176
     1
 90
        4
176
     1
 62
     7
176
     1
 62
   257
176
     1
 90
        1
176
     1
 90
        1
176
     1
 40
1.0
176
     1
 90
        0
176
     1
 62
   257
176
     1
 40
1.0
176
     1
 90
        1
176
     1
 90
        6
176
     1
 90
        2
176
     1
 62
     7
176
     1
 90
        5
176
     1
 90
        0
176
     1
 90
        0
176
     1
290
     0
176
     1
 90
        1
176
     1
 40
0.0
176
     1
 90
        0
176
     1
290
     1
176
     1
290
     1
176
     1
290
     0
176
     1
290
     0
176
     1
290
     0
176
     1
290
     0
176
     1
290
     0
176
     1
290
     0
176
     1
290
     0
176
     1
 90
       50
176
     1
 40
0.0
176
     1
 40
1.0
176
     1
 90
        0
176
     1
 62
    18
420
        0
176
     1
 90
       50
176
     1
 90
        3
176
     1
 62
     5
420
      255
176
     1
290
     0
176
     1
 90
       50
176
     1
 90
       50
176
     1
 90
       50
176
     1
290
     0
176
     1
 90
       50
176
     1
 62
   256
176
     0
 40
1.0
176
     0
 90
        2
176
     1
  1
strokes_ogs.tif
176
     1
290
     0
176
     1
 40
1.0
176
     1
 40
1.0
176
     1
  0
VISUALSTYLE
  5
31
102
{ACAD_REACTORS
330
2A
102
}
330
2A
100
AcDbVisualStyle
  2
3D Hidden
 70
     6
177
     3
291
     0
 70
    58
 90
        1
176
     1
 90
        2
176
     1
 90
        2
176
     1
 90
        0
176
     1
 40
-0.6
176
     1
 40
-30.0
176
     1
 62
     7
176
     1
 90
        2
176
     1
 90
        2
176
     1
 62
     7
176
     1
 62
   257
176
     1
 90
        2
176
     1
 90
        1
176
     1
 40
40.0
176
     1
 90
        0
176
     1
 62
   257
176
     1
 40
1.0
176
     1
 90
        1
176
     1
 90
        6
176
     1
 90
        2
176
     1
 62
     7
176
     1
 90
        3
176
     1
 90
        0
176
     1
 90
        0
176
     1
290
     0
176
     1
 90
        1
176
     1
 40
0.0
176
     1
 90
        0
176
     1
290
     0
176
     1
290
     1
176
     1
290
     1
176
     1
290
     0
176
     1
290
     0
176
     1
290
     0
176
     1
290
     0
176
     1
290
     0
176
     1
290
     0
176
     1
 90
       50
176
     1
 40
0.0
176
     1
 40
1.0
176
     1
 90
        0
176
     1
 62
    18
420
        0
176
     1
 90
       50
176
     1
 90
        3
176
     1
 62
     5
420
      255
176
     1
290
     0
176
     1
 90
       50
176
     1
 90
       50
176
     1
 90
       50
176
     1
290
     0
176
     1
 90
       50
176
     1
 62
   256
176
     0
 40
1.0
176
     0
 90
        2
176
     1
  1
strokes_ogs.tif
176
     1
290
     0
176
     1
 40
1.0
176
     1
 40
1.0
176
     1
  0
VISUALSTYLE
  5
30
102
{ACAD_REACTORS
330
2A
102
}
330
2A
100
AcDbVisualStyle
  2
3dWireframe
 70
     5
177
     3
291
     0
 70
    58
 90
        0
176
     1
 90
        2
176
     1
 90
        0
176
     1
 90
        0
176
     1
 40
-0.6
176
     1
 40
-30.0
176
     1
 62
     7
176
     1
 90
        1
176
     1
 90
        4
176
     1
 62
     7
176
     1
 62
   257
176
     1
 90
        1
176
     1
 90
        1
176
     1
 40
1.0
176
     1
 90
        0
176
     1
 62
   257
176
     1
 40
1.0
176
     1
 90
        1
176
     1
 90
        6
176
     1
 90
        2
176
     1
 62
     7
176
     1
 90
        5
176
     1
 90
        0
176
     1
 90
        0
176
     1
290
     0
176
     1
 90
        1
176
     1
 40
0.0
176
     1
 90
        0
176
     1
290
     0
176
     1
290
     1
176
     1
290
     1
176
     1
290
     0
176
     1
290
     0
176
     1
290
     0
176
     1
290
     0
176
     1
290
     0
176
     1
290
     0
176
     1
 90
       50
176
     1
 40
0.0
176
     1
 40
1.0
176
     1
 90
        0
176
     1
 62
    18
420
        0
176
     1
 90
       50
176
     1
 90
        3
176
     1
 62
     5
420
      255
176
     1
290
     0
176
     1
 90
       50
176
     1
 90
       50
176
     1
 90
       50
176
     1
290
     0
176
     1
 90
       50
176
     1
 62
   256
176
     0
 40
1.0
176
     0
 90
        2
176
     1
  1
strokes_ogs.tif
176
     1
290
     0
176
     1
 40
1.0
176
     1
 40
1.0
176
     1
  0
VISUALSTYLE
  5
32
102
{ACAD_REACTORS
330
2A
102
}
330
2A
100
AcDbVisualStyle
  2
Basic
 70
     7
177
     3
291
     1
 70
    58
 90
        1
176
     1
 90
        0
176
     1
 90
        1
176
     1
 90
        0
176
     1
 40
-0.6
176
     1
 40
-30.0
176
     1
 62
     7
176
     1
 90
        0
176
     1
 90
        4
176
     1
 62
     7
176
     1
 62
   257
176
     1
 90
        1
176
     1
 90
        1
176
     1
 40
1.0
176
     1
 90
        8
176
     1
 62
     7
176
     1
 40
1.0
176
     1
 90
        1
176
     1
 90
        6
176
     1
 90
        2
176
     1
 62
     7
176
     1
 90
        5
176
     1
 90
        0
176
     1
 90
        0
176
     1
290
     0
176
     1
 90
        1
176
     1
 40
0.0
176
     1
 90
        0
176
     1
290
     0
176
     1
290
     1
176
     1
290
     1
176
     1
290
     0
176
     1
290
     0
176
     1
290
     0
176
     1
290
     0
176
     1
290
     0
176
     1
290
     0
176
     1
 90
       50
176
     1
 40
0.0
176
     1
 40
1.0
176
     1
 90
        0
176
     1
 62
    18
420
        0
176
     1
 90
       50
176
     1
 90
        3
176
     1
 62
     5
420
      255
176
     1
290
     0
176
     1
 90
       50
176
     1
 90
       50
176
     1
 90
       50
176
     1
290
     0
176
     1
 90
       50
176
     1
 62
   256
176
     0
 40
1.0
176
     0
 90
        2
176
     1
  1
strokes_ogs.tif
176
     1
290
     0
176
     1
 40
1.0
176
     1
 40
1.0
176
     1
  0
VISUALSTYLE
  5
36
102
{ACAD_REACTORS
330
2A
102
}
330
2A
100
AcDbVisualStyle
  2
Brighten
 70
    12
177
     3
291
     1
 70
    58
 90
        2
176
     1
 90
        2
176
     1
 90
        0
176
     1
 90
        0
176
     1
 40
-0.6
176
     1
 40
-30.0
176
     1
 62
     7
176
     1
 90
        1
176
     1
 90
        4
176
     1
 62
     7
176
     1
 62
   257
176
     1
 90
        1
176
     1
 90
        1
176
     1
 40
1.0
176
     1
 90
        8
176
     1
 62
     7
176
     1
 40
1.0
176
     1
 90
        1
176
     1
 90
        6
176
     1
 90
        2
176
     1
 62
     7
176
     1
 90
        5
176
     1
 90
        0
176
     1
 90
        0
176
     1
290
     0
176
     1
 90
        1
176
     1
 40
50.0
176
     1
 90
        0
176
     1
290
     0
176
     1
290
     1
176
     1
290
     1
176
     1
290
     0
176
     1
290
     0
176
     1
290
     0
176
     1
290
     0
176
     1
290
     0
176
     1
290
     0
176
     1
 90
       50
176
     1
 40
0.0
176
     1
 40
1.0
176
     1
 90
        0
176
     1
 62
    18
420
        0
176
     1
 90
       50
176
     1
 90
        3
176
     1
 62
     5
420
      255
176
     1
290
     0
176
     1
 90
       50
176
     1
 90
       50
176
     1
 90
       50
176
     1
290
     0
176
     1
 90
       50
176
     1
 62
   256
176
     0
 40
1.0
176
     0
 90
        2
176
     1
  1
strokes_ogs.tif
176
     1
290
     0
176
     1
 40
1.0
176
     1
 40
1.0
176
     1
  0
VISUALSTYLE
  5
3A
102
{ACAD_REACTORS
330
2A
102
}
330
2A
100
AcDbVisualStyle
  2
ColorChange
 70
    16
177
     3
291
     1
 70
    58
 90
        2
176
     1
 90
        2
176
     1
 90
        3
176
     1
 90
        0
176
     1
 40
-0.6
176
     1
 40
-30.0
176
     1
 62
     8
176
     1
 90
        1
176
     1
 90
        4
176
     1
 62
     7
176
     1
 62
   257
176
     1
 90
        1
176
     1
 90
        1
176
     1
 40
1.0
176
     1
 90
        8
176
     1
 62
     8
176
     1
 40
1.0
176
     1
 90
        1
176
     1
 90
        6
176
     1
 90
        2
176
     1
 62
     7
176
     1
 90
        5
176
     1
 90
        0
176
     1
 90
        0
176
     1
290
     0
176
     1
 90
        1
176
     1
 40
0.0
176
     1
 90
        0
176
     1
290
     0
176
     1
290
     1
176
     1
290
     1
176
     1
290
     0
176
     1
290
     0
176
     1
290
     0
176
     1
290
     0
176
     1
290
     0
176
     1
290
     0
176
     1
 90
       50
176
     1
 40
0.0
176
     1
 40
1.0
176
     1
 90
        0
176
     1
 62
    18
420
        0
176
     1
 90
       50
176
     1
 90
        3
176
     1
 62
     5
420
      255
176
     1
290
     0
176
     1
 90
       50
176
     1
 90
       50
176
     1
 90
       50
176
     1
290
     0
176
     1
 90
       50
176
     1
 62
   256
176
     0
 40
1.0
176
     0
 90
        2
176
     1
  1
strokes_ogs.tif
176
     1
290
     0
176
     1
 40
1.0
176
     1
 40
1.0
176
     1
  0
VISUALSTYLE
  5
34
102
{ACAD_REACTORS
330
2A
102
}
330
2A
100
AcDbVisualStyle
  2
Conceptual
 70
     9
177
     3
291
     0
 70
    58
 90
        3
176
     1
 90
        2
176
     1
 90
        0
176
     1
 90
        0
176
     1
 40
-0.6
176
     1
 40
-30.0
176
     1
 62
     7
176
     1
 90
        2
176
     1
 90
        2
176
     1
 62
     7
176
     1
 62
   257
176
     1
 90
        1
176
     1
 90
        1
176
     1
 40
40.0
176
     1
 90
        8
176
     1
 62
     7
176
     1
 40
1.0
176
     1
 90
        1
176
     1
 90
        6
176
     1
 90
        2
176
     1
 62
     7
176
     1
 90
        3
176
     1
 90
        0
176
     1
 90
        0
176
     1
290
     0
176
     1
 90
        1
176
     1
 40
0.0
176
     1
 90
        0
176
     1
290
     0
176
     1
290
     1
176
     1
290
     1
176
     1
290
     0
176
     1
290
     0
176
     1
290
     0
176
     1
290
     0
176
     1
290
     0
176
     1
290
     0
176
     1
 90
       50
176
     1
 40
0.0
176
     1
 40
1.0
176
     1
 90
        0
176
     1
 62
    18
420
        0
176
     1
 90
       50
176
     1
 90
        3
176
     1
 62
     5
420
      255
176
     1
290
     0
176
     1
 90
       50
176
     1
 90
       50
176
     1
 90
       50
176
     1
290
     0
176
     1
 90
       50
176
     1
 62
   256
176
     0
 40
1.0
176
     0
 90
        2
176
     1
  1
strokes_ogs.tif
176
     1
290
     0
176
     1
 40
1.0
176
     1
 40
1.0
176
     1
  0
VISUALSTYLE
  5
35
102
{ACAD_REACTORS
330
2A
102
}
330
2A
100
AcDbVisualStyle
  2
Dim
 70
    11
177
     3
291
     1
 70
    58
 90
        2
176
     1
 90
        2
176
     1
 90
        0
176
     1
 90
        0
176
     1
 40
-0.6
176
     1
 40
-30.0
176
     1
 62
     7
176
     1
 90
        1
176
     1
 90
        4
176
     1
 62
     7
176
     1
 62
   257
176
     1
 90
        1
176
     1
 90
        1
176
     1
 40
1.0
176
     1
 90
        8
176
     1
 62
     7
176
     1
 40
1.0
176
     1
 90
        1
176
     1
 90
        6
176
     1
 90
        2
176
     1
 62
     7
176
     1
 90
        5
176
     1
 90
        0
176
     1
 90
        0
176
     1
290
     0
176
     1
 90
        1
176
     1
 40
-50.0
176
     1
 90
        0
176
     1
290
     0
176
     1
290
     1
176
     1
290
     1
176
     1
290
     0
176
     1
290
     0
176
     1
290
     0
176
     1
290
     0
176
     1
290
     0
176
     1
290
     0
176
     1
 90
       50
176
     1
 40
0.0
176
     1
 40
1.0
176
     1
 90
        0
176
     1
 62
    18
420
        0
176
     1
 90
       50
176
     1
 90
        3
176
     1
 62
     5
420
      255
176
     1
290
     0
176
     1
 90
       50
176
     1
 90
       50
176
     1
 90
       50
176
     1
290
     0
176
     1
 90
       50
176
     1
 62
   256
176
     0
 40
1.0
176
     0
 90
        2
176
     1
  1
strokes_ogs.tif
176
     1
290
     0
176
     1
 40
1.0
176
     1
 40
1.0
176
     1
  0
VISUALSTYLE
  5
51E
102
{ACAD_REACTORS
330
2A
102
}
330
2A
100
AcDbVisualStyle
  2
EdgeColorOff
 70
    22
177
     3
291
     1
 70
    58
 90
        2
176
     0
 90
        2
176
     0
 90
        0
176
     0
 90
        0
176
     0
 40
0.6
176
     0
 40
30.0
176
     0
 62
     7
420
 16777215
176
     0
 90
        1
176
     0
 90
        4
176
     0
 62
     7
176
     0
 62
   257
176
     0
 90
        1
176
     0
 90
        1
176
     0
 40
1.0
176
     0
 90
        8
176
     2
 62
     7
176
     0
 40
1.0
176
     0
 90
        1
176
     0
 90
        6
176
     0
 90
        2
176
     0
 62
     7
176
     0
 90
        5
176
     0
 90
        0
176
     0
 90
        0
176
     0
290
     0
176
     0
 90
        1
176
     0
 40
0.0
176
     0
 90
        0
176
     0
290
     0
176
     0
290
     1
176
     0
290
     1
176
     0
290
     0
176
     0
290
     0
176
     0
290
     0
176
     0
290
     0
176
     0
290
     0
176
     0
290
     0
176
     0
 90
       50
176
     0
 40
0.0
176
     0
 40
1.0
176
     0
 90
        0
176
     0
 62
    18
420
        0
176
     0
 90
       50
176
     0
 90
        3
176
     0
 62
     5
420
      255
176
     0
290
     0
176
     0
 90
       50
176
     0
 90
       50
176
     0
 90
       50
176
     0
290
     0
176
     0
 90
       50
176
     0
 62
   256
176
     0
 40
1.0
176
     0
 90
        2
176
     0
  1
strokes_ogs.tif
176
     0
290
     0
176
     0
 40
1.0
176
     0
 40
1.0
176
     0
  0
VISUALSTYLE
  5
39
102
{ACAD_REACTORS
330
2A
102
}
330
2A
100
AcDbVisualStyle
  2
Facepattern
 70
    15
177
     3
291
     1
 70
    58
 90
        2
176
     1
 90
        2
176
     1
 90
        0
176
     1
 90
        0
176
     1
 40
-0.6
176
     1
 40
-30.0
176
     1
 62
     7
176
     1
 90
        1
176
     1
 90
        4
176
     1
 62
     7
176
     1
 62
   257
176
     1
 90
        1
176
     1
 90
        1
176
     1
 40
1.0
176
     1
 90
        8
176
     1
 62
     7
176
     1
 40
1.0
176
     1
 90
        1
176
     1
 90
        6
176
     1
 90
        2
176
     1
 62
     7
176
     1
 90
        5
176
     1
 90
        0
176
     1
 90
        0
176
     1
290
     0
176
     1
 90
        1
176
     1
 40
0.0
176
     1
 90
        0
176
     1
290
     0
176
     1
290
     1
176
     1
290
     1
176
     1
290
     0
176
     1
290
     0
176
     1
290
     0
176
     1
290
     0
176
     1
290
     0
176
     1
290
     0
176
     1
 90
       50
176
     1
 40
0.0
176
     1
 40
1.0
176
     1
 90
        0
176
     1
 62
    18
420
        0
176
     1
 90
       50
176
     1
 90
        3
176
     1
 62
     5
420
      255
176
     1
290
     0
176
     1
 90
       50
176
     1
 90
       50
176
     1
 90
       50
176
     1
290
     0
176
     1
 90
       50
176
     1
 62
   256
176
     0
 40
1.0
176
     0
 90
        2
176
     1
  1
strokes_ogs.tif
176
     1
290
     0
176
     1
 40
1.0
176
     1
 40
1.0
176
     1
  0
VISUALSTYLE
  5
2B
102
{ACAD_REACTORS
330
2A
102
}
330
2A
100
AcDbVisualStyle
  2
Flat
 70
     0
177
     3
291
     1
 70
    58
 90
        2
176
     1
 90
        1
176
     1
 90
        1
176
     1
 90
        2
176
     1
 40
-0.6
176
     1
 40
30.0
176
     1
 62
     7
176
     1
 90
        0
176
     1
 90
        4
176
     1
 62
     7
176
     1
 62
   257
176
     1
 90
        1
176
     1
 90
        1
176
     1
 40
1.0
176
     1
 90
        8
176
     1
 62
     7
176
     1
 40
1.0
176
     1
 90
        1
176
     1
 90
        6
176
     1
 90
        2
176
     1
 62
     7
176
     1
 90
        5
176
     1
 90
        0
176
     1
 90
        0
176
     1
290
     0
176
     1
 90
       13
176
     1
 40
0.0
176
     1
 90
        0
176
     1
290
     0
176
     1
290
     1
176
     1
290
     1
176
     1
290
     0
176
     1
290
     0
176
     1
290
     0
176
     1
290
     0
176
     1
290
     0
176
     1
290
     0
176
     1
 90
       50
176
     1
 40
0.0
176
     1
 40
1.0
176
     1
 90
        0
176
     1
 62
    18
420
        0
176
     1
 90
       50
176
     1
 90
        3
176
     1
 62
     5
420
      255
176
     1
290
     0
176
     1
 90
       50
176
     1
 90
       50
176
     1
 90
       50
176
     1
290
     0
176
     1
 90
       50
176
     1
 62
   256
176
     0
 40
1.0
176
     0
 90
        2
176
     1
  1
strokes_ogs.tif
176
     1
290
     0
176
     1
 40
1.0
176
     1
 40
1.0
176
     1
  0
VISUALSTYLE
  5
2C
102
{ACAD_REACTORS
330
2A
102
}
330
2A
100
AcDbVisualStyle
  2
FlatWithEdges
 70
     1
177
     3
291
     1
 70
    58
 90
        2
176
     1
 90
        1
176
     1
 90
        1
176
     1
 90
        2
176
     1
 40
-0.6
176
     1
 40
30.0
176
     1
 62
     7
176
     1
 90
        1
176
     1
 90
        4
176
     1
 62
     7
176
     1
 62
   257
176
     1
 90
        1
176
     1
 90
        1
176
     1
 40
1.0
176
     1
 90
        0
176
     1
 62
   257
176
     1
 40
1.0
176
     1
 90
        1
176
     1
 90
        6
176
     1
 90
        2
176
     1
 62
     7
176
     1
 90
        5
176
     1
 90
        0
176
     1
 90
        0
176
     1
290
     0
176
     1
 90
       13
176
     1
 40
0.0
176
     1
 90
        0
176
     1
290
     0
176
     1
290
     1
176
     1
290
     1
176
     1
290
     0
176
     1
290
     0
176
     1
290
     0
176
     1
290
     0
176
     1
290
     0
176
     1
290
     0
176
     1
 90
       50
176
     1
 40
0.0
176
     1
 40
1.0
176
     1
 90
        0
176
     1
 62
    18
420
        0
176
     1
 90
       50
176
     1
 90
        3
176
     1
 62
     5
420
      255
176
     1
290
     0
176
     1
 90
       50
176
     1
 90
       50
176
     1
 90
       50
176
     1
290
     0
176
     1
 90
       50
176
     1
 62
   256
176
     0
 40
1.0
176
     0
 90
        2
176
     1
  1
strokes_ogs.tif
176
     1
290
     0
176
     1
 40
1.0
176
     1
 40
1.0
176
     1
  0
VISUALSTYLE
  5
2D
102
{ACAD_REACTORS
330
2A
102
}
330
2A
100
AcDbVisualStyle
  2
Gouraud
 70
     2
177
     3
291
     1
 70
    58
 90
        2
176
     1
 90
        2
176
     1
 90
        1
176
     1
 90
        2
176
     1
 40
-0.6
176
     1
 40
30.0
176
     1
 62
     7
176
     1
 90
        0
176
     1
 90
        4
176
     1
 62
     7
176
     1
 62
   257
176
     1
 90
        1
176
     1
 90
        1
176
     1
 40
1.0
176
     1
 90
        0
176
     1
 62
     7
176
     1
 40
1.0
176
     1
 90
        1
176
     1
 90
        6
176
     1
 90
        2
176
     1
 62
     7
176
     1
 90
        5
176
     1
 90
        0
176
     1
 90
        0
176
     1
290
     0
176
     1
 90
       13
176
     1
 40
0.0
176
     1
 90
        0
176
     1
290
     0
176
     1
290
     1
176
     1
290
     1
176
     1
290
     0
176
     1
290
     0
176
     1
290
     0
176
     1
290
     0
176
     1
290
     0
176
     1
290
     0
176
     1
 90
       50
176
     1
 40
0.0
176
     1
 40
1.0
176
     1
 90
        0
176
     1
 62
    18
420
        0
176
     1
 90
       50
176
     1
 90
        3
176
     1
 62
     5
420
      255
176
     1
290
     0
176
     1
 90
       50
176
     1
 90
       50
176
     1
 90
       50
176
     1
290
     0
176
     1
 90
       50
176
     1
 62
   256
176
     0
 40
1.0
176
     0
 90
        2
176
     1
  1
strokes_ogs.tif
176
     1
290
     0
176
     1
 40
1.0
176
     1
 40
1.0
176
     1
  0
VISUALSTYLE
  5
2E
102
{ACAD_REACTORS
330
2A
102
}
330
2A
100
AcDbVisualStyle
  2
GouraudWithEdges
 70
     3
177
     3
291
     1
 70
    58
 90
        2
176
     1
 90
        2
176
     1
 90
        1
176
     1
 90
        2
176
     1
 40
-0.6
176
     1
 40
30.0
176
     1
 62
     7
176
     1
 90
        1
176
     1
 90
        4
176
     1
 62
     7
176
     1
 62
   257
176
     1
 90
        1
176
     1
 90
        1
176
     1
 40
1.0
176
     1
 90
        0
176
     1
 62
   257
176
     1
 40
1.0
176
     1
 90
        1
176
     1
 90
        6
176
     1
 90
        2
176
     1
 62
     7
176
     1
 90
        5
176
     1
 90
        0
176
     1
 90
        0
176
     1
290
     0
176
     1
 90
       13
176
     1
 40
0.0
176
     1
 90
        0
176
     1
290
     0
176
     1
290
     1
176
     1
290
     1
176
     1
290
     0
176
     1
290
     0
176
     1
290
     0
176
     1
290
     0
176
     1
290
     0
176
     1
290
     0
176
     1
 90
       50
176
     1
 40
0.0
176
     1
 40
1.0
176
     1
 90
        0
176
     1
 62
    18
420
        0
176
     1
 90
       50
176
     1
 90
        3
176
     1
 62
     5
420
      255
176
     1
290
     0
176
     1
 90
       50
176
     1
 90
       50
176
     1
 90
       50
176
     1
290
     0
176
     1
 90
       50
176
     1
 62
   256
176
     0
 40
1.0
176
     0
 90
        2
176
     1
  1
strokes_ogs.tif
176
     1
290
     0
176
     1
 40
1.0
176
     1
 40
1.0
176
     1
  0
VISUALSTYLE
  5
51B
102
{ACAD_REACTORS
330
2A
102
}
330
2A
100
AcDbVisualStyle
  2
Hidden
 70
     6
177
     3
291
     0
 70
    58
 90
        1
176
     1
 90
        2
176
     1
 90
        2
176
     1
 90
        0
176
     1
 40
0.6
176
     1
 40
30.0
176
     1
 62
     7
420
 16777215
176
     1
 90
        2
176
     1
 90
        2
176
     1
 62
     7
176
     1
 62
   257
176
     1
 90
        2
176
     1
 90
        1
176
     1
 40
40.0
176
     1
 90
        0
176
     1
 62
   257
176
     1
 40
1.0
176
     1
 90
        1
176
     1
 90
        6
176
     1
 90
        2
176
     1
 62
     7
176
     1
 90
        3
176
     1
 90
        0
176
     1
 90
        0
176
     1
290
     0
176
     1
 90
        1
176
     1
 40
0.0
176
     1
 90
        0
176
     1
290
     0
176
     1
290
     1
176
     1
290
     1
176
     1
290
     0
176
     1
290
     0
176
     1
290
     0
176
     1
290
     0
176
     1
290
     0
176
     1
290
     0
176
     1
 90
       50
176
     1
 40
0.0
176
     1
 40
1.0
176
     1
 90
        0
176
     1
 62
    18
420
        0
176
     1
 90
       50
176
     1
 90
        3
176
     1
 62
     5
420
      255
176
     1
290
     0
176
     1
 90
       50
176
     1
 90
       50
176
     1
 90
       50
176
     1
290
     0
176
     1
 90
       50
176
     1
 62
   256
176
     0
 40
1.0
176
     0
 90
        2
176
     1
  1
strokes_ogs.tif
176
     1
290
     0
176
     1
 40
1.0
176
     1
 40
1.0
176
     1
  0
VISUALSTYLE
  5
51C
102
{ACAD_REACTORS
330
2A
102
}
330
2A
100
AcDbVisualStyle
  2
JitterOff
 70
    20
177
     3
291
     1
 70
    58
 90
        2
176
     0
 90
        2
176
     0
 90
        0
176
     0
 90
        0
176
     0
 40
0.6
176
     0
 40
30.0
176
     0
 62
     7
420
 16777215
176
     0
 90
        1
176
     0
 90
        4
176
     0
 62
     7
176
     0
 62
   257
176
     0
 90
        1
176
     0
 90
        1
176
     0
 40
1.0
176
     0
 90
       10
176
     2
 62
     7
176
     0
 40
1.0
176
     0
 90
        1
176
     0
 90
        6
176
     0
 90
        2
176
     0
 62
     7
176
     0
 90
        5
176
     0
 90
        0
176
     0
 90
        0
176
     0
290
     0
176
     0
 90
        1
176
     0
 40
0.0
176
     0
 90
        0
176
     0
290
     0
176
     0
290
     1
176
     0
290
     1
176
     0
290
     0
176
     0
290
     0
176
     0
290
     0
176
     0
290
     0
176
     0
290
     0
176
     0
290
     0
176
     0
 90
       50
176
     0
 40
0.0
176
     0
 40
1.0
176
     0
 90
        0
176
     0
 62
    18
420
        0
176
     0
 90
       50
176
     0
 90
        3
176
     0
 62
     5
420
      255
176
     0
290
     0
176
     0
 90
       50
176
     0
 90
       50
176
     0
 90
       50
176
     0
290
     0
176
     0
 90
       50
176
     0
 62
   256
176
     0
 40
1.0
176
     0
 90
        2
176
     0
  1
strokes_ogs.tif
176
     0
290
     0
176
     0
 40
1.0
176
     0
 40
1.0
176
     0
  0
VISUALSTYLE
  5
38
102
{ACAD_REACTORS
330
2A
102
}
330
2A
100
AcDbVisualStyle
  2
Linepattern
 70
    14
177
     3
291
     1
 70
    58
 90
        2
176
     1
 90
        2
176
     1
 90
        0
176
     1
 90
        0
176
     1
 40
-0.6
176
     1
 40
-30.0
176
     1
 62
     7
176
     1
 90
        1
176
     1
 90
        4
176
     1
 62
     7
176
     1
 62
   257
176
     1
 90
        7
176
     1
 90
        7
176
     1
 40
1.0
176
     1
 90
        8
176
     1
 62
     7
176
     1
 40
1.0
176
     1
 90
        1
176
     1
 90
        6
176
     1
 90
        2
176
     1
 62
     7
176
     1
 90
        5
176
     1
 90
        0
176
     1
 90
        0
176
     1
290
     0
176
     1
 90
        1
176
     1
 40
0.0
176
     1
 90
        0
176
     1
290
     0
176
     1
290
     1
176
     1
290
     1
176
     1
290
     0
176
     1
290
     0
176
     1
290
     0
176
     1
290
     0
176
     1
290
     0
176
     1
290
     0
176
     1
 90
       50
176
     1
 40
0.0
176
     1
 40
1.0
176
     1
 90
        0
176
     1
 62
    18
420
        0
176
     1
 90
       50
176
     1
 90
        3
176
     1
 62
     5
420
      255
176
     1
290
     0
176
     1
 90
       50
176
     1
 90
       50
176
     1
 90
       50
176
     1
290
     0
176
     1
 90
       50
176
     1
 62
   256
176
     0
 40
1.0
176
     0
 90
        2
176
     1
  1
strokes_ogs.tif
176
     1
290
     0
176
     1
 40
1.0
176
     1
 40
1.0
176
     1
  0
VISUALSTYLE
  5
51D
102
{ACAD_REACTORS
330
2A
102
}
330
2A
100
AcDbVisualStyle
  2
OverhangOff
 70
    21
177
     3
291
     1
 70
    58
 90
        2
176
     0
 90
        2
176
     0
 90
        0
176
     0
 90
        0
176
     0
 40
0.6
176
     0
 40
30.0
176
     0
 62
     7
420
 16777215
176
     0
 90
        1
176
     0
 90
        4
176
     0
 62
     7
176
     0
 62
   257
176
     0
 90
        1
176
     0
 90
        1
176
     0
 40
1.0
176
     0
 90
        9
176
     2
 62
     7
176
     0
 40
1.0
176
     0
 90
        1
176
     0
 90
        6
176
     0
 90
        2
176
     0
 62
     7
176
     0
 90
        5
176
     0
 90
        0
176
     0
 90
        0
176
     0
290
     0
176
     0
 90
        1
176
     0
 40
0.0
176
     0
 90
        0
176
     0
290
     0
176
     0
290
     1
176
     0
290
     1
176
     0
290
     0
176
     0
290
     0
176
     0
290
     0
176
     0
290
     0
176
     0
290
     0
176
     0
290
     0
176
     0
 90
       50
176
     0
 40
0.0
176
     0
 40
1.0
176
     0
 90
        0
176
     0
 62
    18
420
        0
176
     0
 90
       50
176
     0
 90
        3
176
     0
 62
     5
420
      255
176
     0
290
     0
176
     0
 90
       50
176
     0
 90
       50
176
     0
 90
       50
176
     0
290
     0
176
     0
 90
       50
176
     0
 62
   256
176
     0
 40
1.0
176
     0
 90
        2
176
     0
  1
strokes_ogs.tif
176
     0
290
     0
176
     0
 40
1.0
176
     0
 40
1.0
176
     0
  0
VISUALSTYLE
  5
33
102
{ACAD_REACTORS
330
2A
102
}
330
2A
100
AcDbVisualStyle
  2
Realistic
 70
     8
177
     3
291
     0
 70
    58
 90
        2
176
     1
 90
        2
176
     1
 90
        0
176
     1
 90
        0
176
     1
 40
-0.6
176
     1
 40
-30.0
176
     1
 62
     7
176
     1
 90
        1
176
     1
 90
        0
176
     1
 62
     7
176
     1
 62
   257
176
     1
 90
        1
176
     1
 90
        1
176
     1
 40
1.0
176
     1
 90
        8
176
     1
 62
     8
176
     1
 40
1.0
176
     1
 90
        1
176
     1
 90
        6
176
     1
 90
        2
176
     1
 62
     7
176
     1
 90
        5
176
     1
 90
        0
176
     1
 90
        0
176
     1
290
     0
176
     1
 90
       13
176
     1
 40
0.0
176
     1
 90
        0
176
     1
290
     0
176
     1
290
     1
176
     1
290
     1
176
     1
290
     0
176
     1
290
     0
176
     1
290
     0
176
     1
290
     0
176
     1
290
     0
176
     1
290
     0
176
     1
 90
       50
176
     1
 40
0.0
176
     1
 40
1.0
176
     1
 90
        0
176
     1
 62
    18
420
        0
176
     1
 90
       50
176
     1
 90
        3
176
     1
 62
     5
420
      255
176
     1
290
     0
176
     1
 90
       50
176
     1
 90
       50
176
     1
 90
       50
176
     1
290
     0
176
     1
 90
       50
176
     1
 62
   256
176
     0
 40
1.0
176
     0
 90
        2
176
     1
  1
strokes_ogs.tif
176
     1
290
     0
176
     1
 40
1.0
176
     1
 40
1.0
176
     1
  0
VISUALSTYLE
  5
523
102
{ACAD_REACTORS
330
2A
102
}
330
2A
100
AcDbVisualStyle
  2
Shaded
 70
    27
177
     3
291
     0
 70
    58
 90
        2
176
     1
 90
        2
176
     1
 90
        1
176
     1
 90
        2
176
     1
 40
0.6
176
     1
 40
30.0
176
     1
 62
     7
420
 16777215
176
     1
 90
        0
176
     1
 90
        4
176
     1
 62
     7
176
     1
 62
   257
176
     1
 90
        1
176
     1
 90
        1
176
     1
 40
1.0
176
     1
 90
        8
176
     1
 62
   257
176
     1
 40
1.0
176
     1
 90
        1
176
     1
 90
        6
176
     1
 90
        2
176
     1
 62
     8
420
  7895160
176
     1
 90
        3
176
     1
 90
        0
176
     1
 90
        0
176
     1
290
     0
176
     1
 90
        5
176
     1
 40
0.0
176
     1
 90
        0
176
     1
290
     0
176
     1
290
     1
176
     1
290
     1
176
     1
290
     0
176
     1
290
     0
176
     1
290
     0
176
     1
290
     0
176
     1
290
     0
176
     1
290
     0
176
     1
 90
       50
176
     1
 40
0.0
176
     1
 40
1.0
176
     1
 90
        0
176
     1
 62
    18
420
        0
176
     1
 90
       50
176
     1
 90
        3
176
     1
 62
     5
420
      255
176
     1
290
     0
176
     1
 90
       50
176
     1
 90
       50
176
     1
 90
       50
176
     1
290
     0
176
     1
 90
       50
176
     1
 62
   256
176
     0
 40
1.0
176
     0
 90
        2
176
     1
  1
strokes_ogs.tif
176
     1
290
     0
176
     1
 40
1.0
176
     1
 40
1.0
176
     1
  0
VISUALSTYLE
  5
522
102
{ACAD_REACTORS
330
2A
102
}
330
2A
100
AcDbVisualStyle
  2
Shaded with edges
 70
    26
177
     3
291
     0
 70
    58
 90
        2
176
     1
 90
        2
176
     1
 90
        1
176
     1
 90
        2
176
     1
 40
0.6
176
     1
 40
30.0
176
     1
 62
     7
420
 16777215
176
     1
 90
        1
176
     1
 90
       10
176
     1
 62
     7
176
     1
 62
   257
176
     1
 90
        2
176
     1
 90
        1
176
     1
 40
1.0
176
     1
 90
        8
176
     1
 62
   257
176
     1
 40
1.0
176
     1
 90
        1
176
     1
 90
        6
176
     1
 90
        2
176
     1
 62
     7
176
     1
 90
        3
176
     1
 90
        0
176
     1
 90
        0
176
     1
290
     0
176
     1
 90
        5
176
     1
 40
0.0
176
     1
 90
        0
176
     1
290
     0
176
     1
290
     1
176
     1
290
     1
176
     1
290
     0
176
     1
290
     0
176
     1
290
     0
176
     1
290
     0
176
     1
290
     0
176
     1
290
     0
176
     1
 90
       50
176
     1
 40
0.0
176
     1
 40
1.0
176
     1
 90
        0
176
     1
 62
    18
420
        0
176
     1
 90
       50
176
     1
 90
        3
176
     1
 62
     5
420
      255
176
     1
290
     0
176
     1
 90
       50
176
     1
 90
       50
176
     1
 90
       50
176
     1
290
     0
176
     1
 90
       50
176
     1
 62
   256
176
     0
 40
1.0
176
     0
 90
        2
176
     1
  1
strokes_ogs.tif
176
     1
290
     0
176
     1
 40
1.0
176
     1
 40
1.0
176
     1
  0
VISUALSTYLE
  5
51F
102
{ACAD_REACTORS
330
2A
102
}
330
2A
100
AcDbVisualStyle
  2
Shades of Gray
 70
    23
177
     3
291
     0
 70
    58
 90
        2
176
     1
 90
        2
176
     1
 90
        3
176
     1
 90
        0
176
     1
 40
0.6
176
     1
 40
30.0
176
     1
 62
     7
420
 16777215
176
     1
 90
        2
176
     1
 90
        2
176
     1
 62
     7
176
     1
 62
     7
176
     1
 90
        1
176
     1
 90
        1
176
     1
 40
40.0
176
     1
 90
        8
176
     1
 62
     7
176
     1
 40
1.0
176
     1
 90
        1
176
     1
 90
        6
176
     1
 90
        2
176
     1
 62
     7
176
     1
 90
        3
176
     1
 90
        0
176
     1
 90
        0
176
     1
290
     0
176
     1
 90
        1
176
     1
 40
0.0
176
     1
 90
        0
176
     1
290
     0
176
     1
290
     1
176
     1
290
     1
176
     1
290
     0
176
     1
290
     0
176
     1
290
     0
176
     1
290
     0
176
     1
290
     0
176
     1
290
     0
176
     1
 90
       50
176
     1
 40
0.0
176
     1
 40
1.0
176
     1
 90
        0
176
     1
 62
    18
420
        0
176
     1
 90
       50
176
     1
 90
        3
176
     1
 62
     5
420
      255
176
     1
290
     0
176
     1
 90
       50
176
     1
 90
       50
176
     1
 90
       50
176
     1
290
     0
176
     1
 90
       50
176
     1
 62
   256
176
     0
 40
1.0
176
     0
 90
        2
176
     1
  1
strokes_ogs.tif
176
     1
290
     0
176
     1
 40
1.0
176
     1
 40
1.0
176
     1
  0
VISUALSTYLE
  5
520
102
{ACAD_REACTORS
330
2A
102
}
330
2A
100
AcDbVisualStyle
  2
Sketchy
 70
    24
177
     3
291
     0
 70
    58
 90
        1
176
     1
 90
        2
176
     1
 90
        2
176
     1
 90
        0
176
     1
 40
0.6
176
     1
 40
30.0
176
     1
 62
     7
420
 16777215
176
     1
 90
        2
176
     1
 90
        2
176
     1
 62
     7
176
     1
 62
     7
176
     1
 90
        1
176
     1
 90
        1
176
     1
 40
40.0
176
     1
 90
       11
176
     1
 62
     7
176
     1
 40
1.0
176
     1
 90
        1
176
     1
 90
        6
176
     1
 90
        2
176
     1
 62
     7
176
     1
 90
        6
176
     1
 90
        0
176
     1
 90
        0
176
     1
290
     0
176
     1
 90
        1
176
     1
 40
0.0
176
     1
 90
        0
176
     1
290
     0
176
     1
290
     1
176
     1
290
     1
176
     1
290
     0
176
     1
290
     0
176
     1
290
     0
176
     1
290
     0
176
     1
290
     0
176
     1
290
     0
176
     1
 90
       50
176
     1
 40
0.0
176
     1
 40
1.0
176
     1
 90
        0
176
     1
 62
    18
420
        0
176
     1
 90
       50
176
     1
 90
        3
176
     1
 62
     5
420
      255
176
     1
290
     0
176
     1
 90
       50
176
     1
 90
       50
176
     1
 90
       50
176
     1
290
     0
176
     1
 90
       50
176
     1
 62
   256
176
     0
 40
1.0
176
     0
 90
        2
176
     1
  1
strokes_ogs.tif
176
     1
290
     0
176
     1
 40
1.0
176
     1
 40
1.0
176
     1
  0
VISUALSTYLE
  5
37
102
{ACAD_REACTORS
330
2A
102
}
330
2A
100
AcDbVisualStyle
  2
Thicken
 70
    13
177
     3
291
     1
 70
    58
 90
        2
176
     1
 90
        2
176
     1
 90
        0
176
     1
 90
        0
176
     1
 40
-0.6
176
     1
 40
-30.0
176
     1
 62
     7
176
     1
 90
        1
176
     1
 90
        4
176
     1
 62
     7
176
     1
 62
   257
176
     1
 90
        1
176
     1
 90
        1
176
     1
 40
1.0
176
     1
 90
       12
176
     1
 62
     7
176
     1
 40
1.0
176
     1
 90
        1
176
     1
 90
        6
176
     1
 90
        2
176
     1
 62
     7
176
     1
 90
        5
176
     1
 90
        0
176
     1
 90
        0
176
     1
290
     0
176
     1
 90
        1
176
     1
 40
0.0
176
     1
 90
        0
176
     1
290
     0
176
     1
290
     1
176
     1
290
     1
176
     1
290
     0
176
     1
290
     0
176
     1
290
     0
176
     1
290
     0
176
     1
290
     0
176
     1
290
     0
176
     1
 90
       50
176
     1
 40
0.0
176
     1
 40
1.0
176
     1
 90
        0
176
     1
 62
    18
420
        0
176
     1
 90
       50
176
     1
 90
        3
176
     1
 62
     5
420
      255
176
     1
290
     0
176
     1
 90
       50
176
     1
 90
       50
176
     1
 90
       50
176
     1
290
     0
176
     1
 90
       50
176
     1
 62
   256
176
     0
 40
1.0
176
     0
 90
        2
176
     1
  1
strokes_ogs.tif
176
     1
290
     0
176
     1
 40
1.0
176
     1
 40
1.0
176
     1
  0
VISUALSTYLE
  5
51A
102
{ACAD_REACTORS
330
2A
102
}
330
2A
100
AcDbVisualStyle
  2
Wireframe
 70
     5
177
     3
291
     0
 70
    58
 90
        0
176
     1
 90
        2
176
     1
 90
        0
176
     1
 90
        0
176
     1
 40
0.6
176
     1
 40
30.0
176
     1
 62
     7
420
 16777215
176
     1
 90
        1
176
     1
 90
        4
176
     1
 62
     7
176
     1
 62
   257
176
     1
 90
        1
176
     1
 90
        1
176
     1
 40
1.0
176
     1
 90
        0
176
     1
 62
   257
176
     1
 40
1.0
176
     1
 90
        1
176
     1
 90
        6
176
     1
 90
        2
176
     1
 62
     7
176
     1
 90
        3
176
     1
 90
        0
176
     1
 90
        0
176
     1
290
     0
176
     1
 90
        1
176
     1
 40
0.0
176
     1
 90
        0
176
     1
290
     0
176
     1
290
     1
176
     1
290
     1
176
     1
290
     0
176
     1
290
     0
176
     1
290
     0
176
     1
290
     0
176
     1
290
     0
176
     1
290
     0
176
     1
 90
       50
176
     1
 40
0.0
176
     1
 40
1.0
176
     1
 90
        0
176
     1
 62
    18
420
        0
176
     1
 90
       50
176
     1
 90
        3
176
     1
 62
     5
420
      255
176
     1
290
     0
176
     1
 90
       50
176
     1
 90
       50
176
     1
 90
       50
176
     1
290
     0
176
     1
 90
       50
176
     1
 62
   256
176
     0
 40
1.0
176
     0
 90
        2
176
     1
  1
strokes_ogs.tif
176
     1
290
     0
176
     1
 40
1.0
176
     1
 40
1.0
176
     1
  0
VISUALSTYLE
  5
521
102
{ACAD_REACTORS
330
2A
102
}
330
2A
100
AcDbVisualStyle
  2
X-Ray
 70
    25
177
     3
291
     0
 70
    58
 90
        2
176
     1
 90
        2
176
     1
 90
        1
176
     1
 90
        1
176
     1
 40
0.5
176
     1
 40
30.0
176
     1
 62
     7
420
 16777215
176
     1
 90
        1
176
     1
 90
        0
176
     1
 62
     7
176
     1
 62
   257
176
     1
 90
        1
176
     1
 90
        1
176
     1
 40
1.0
176
     1
 90
        8
176
     1
 62
     7
176
     1
 40
1.0
176
     1
 90
        1
176
     1
 90
        6
176
     1
 90
        2
176
     1
 62
     7
176
     1
 90
        3
176
     1
 90
        0
176
     1
 90
        0
176
     1
290
     0
176
     1
 90
       13
176
     1
 40
0.0
176
     1
 90
        0
176
     1
290
     0
176
     1
290
     1
176
     1
290
     1
176
     1
290
     0
176
     1
290
     0
176
     1
290
     0
176
     1
290
     0
176
     1
290
     0
176
     1
290
     0
176
     1
 90
       50
176
     1
 40
0.0
176
     1
 40
1.0
176
     1
 90
        0
176
     1
 62
    18
420
        0
176
     1
 90
       50
176
     1
 90
        3
176
     1
 62
     5
420
      255
176
     1
290
     0
176
     1
 90
       50
176
     1
 90
       50
176
     1
 90
       50
176
     1
290
     0
176
     1
 90
       50
176
     1
 62
   256
176
     0
 40
1.0
176
     0
 90
        2
176
     1
  1
strokes_ogs.tif
176
     1
290
     0
176
     1
 40
1.0
176
     1
 40
1.0
176
     1
  0
DICTIONARYVAR
  5
53C
102
{ACAD_REACTORS
330
53B
102
}
330
53B
100
DictionaryVariables
280
     0
  1
1:1
  0
DICTIONARYVAR
  5
53E
102
{ACAD_REACTORS
330
53B
102
}
330
53B
100
DictionaryVariables
280
     0
  1
Standard
  0
DICTIONARYVAR
  5
53D
102
{ACAD_REACTORS
330
53B
102
}
330
53B
100
DictionaryVariables
280
     0
  1
Standard
  0
DICTIONARYVAR
  5
53F
102
{ACAD_REACTORS
330
53B
102
}
330
53B
100
DictionaryVariables
280
     0
  1
0
  0
DICTIONARY
  5
544
330
524
100
AcDbDictionary
280
     1
281
     1
  3
ACAD_ROUNDTRIP_2008_TABLESTYLE_CELLSTYLEMAP
360
545
  0
CELLSTYLEMAP
  5
545
102
{ACAD_REACTORS
330
544
102
}
330
544
100
AcDbCellStyleMap
 90
        3
300
CELLSTYLE
  1
TABLEFORMAT_BEGIN
 90
        5
170
     1
 91
        0
 92
    32768
 62
   257
 93
        1
300
CONTENTFORMAT
  1
CONTENTFORMAT_BEGIN
 90
        0
 91
        0
 92
        4
 93
        0
300

 40
0.0
140
1.0
 94
        5
 62
     0
340
11
144
0.25
309
CONTENTFORMAT_END
171
     1
301
MARGIN
  1
CELLMARGIN_BEGIN
 40
0.06
 40
0.06
 40
0.06
 40
0.06
 40
0.06
 40
0.06
309
CELLMARGIN_END
 94
        6
 95
        1
302
GRIDFORMAT
  1
GRIDFORMAT_BEGIN
 90
        0
 91
        1
 62
     0
 92
       -2
340
14
 93
        0
 40
0.045
309
GRIDFORMAT_END
 95
        2
302
GRIDFORMAT
  1
GRIDFORMAT_BEGIN
 90
        0
 91
        1
 62
     0
 92
       -2
340
14
 93
        0
 40
0.045
309
GRIDFORMAT_END
 95
        4
302
GRIDFORMAT
  1
GRIDFORMAT_BEGIN
 90
        0
 91
        1
 62
     0
 92
       -2
340
14
 93
        0
 40
0.045
309
GRIDFORMAT_END
 95
        8
302
GRIDFORMAT
  1
GRIDFORMAT_BEGIN
 90
        0
 91
        1
 62
     0
 92
       -2
340
14
 93
        0
 40
0.045
309
GRIDFORMAT_END
 95
       16
302
GRIDFORMAT
  1
GRIDFORMAT_BEGIN
 90
        0
 91
        1
 62
     0
 92
       -2
340
14
 93
        0
 40
0.045
309
GRIDFORMAT_END
 95
       32
302
GRIDFORMAT
  1
GRIDFORMAT_BEGIN
 90
        0
 91
        1
 62
     0
 92
       -2
340
14
 93
        0
 40
0.045
309
GRIDFORMAT_END
309
TABLEFORMAT_END
  1
CELLSTYLE_BEGIN
 90
        1
 91
        1
300
_TITLE
309
CELLSTYLE_END
300
CELLSTYLE
  1
TABLEFORMAT_BEGIN
 90
        5
170
     1
 91
        0
 92
        0
 62
   257
 93
        1
300
CONTENTFORMAT
  1
CONTENTFORMAT_BEGIN
 90
        0
 91
        0
 92
        4
 93
        0
300

 40
0.0
140
1.0
 94
        5
 62
     0
340
11
144
0.18
309
CONTENTFORMAT_END
171
     1
301
MARGIN
  1
CELLMARGIN_BEGIN
 40
0.06
 40
0.06
 40
0.06
 40
0.06
 40
0.06
 40
0.06
309
CELLMARGIN_END
 94
        6
 95
        1
302
GRIDFORMAT
  1
GRIDFORMAT_BEGIN
 90
        0
 91
        1
 62
     0
 92
       -2
340
14
 93
        0
 40
0.045
309
GRIDFORMAT_END
 95
        2
302
GRIDFORMAT
  1
GRIDFORMAT_BEGIN
 90
        0
 91
        1
 62
     0
 92
       -2
340
14
 93
        0
 40
0.045
309
GRIDFORMAT_END
 95
        4
302
GRIDFORMAT
  1
GRIDFORMAT_BEGIN
 90
        0
 91
        1
 62
     0
 92
       -2
340
14
 93
        0
 40
0.045
309
GRIDFORMAT_END
 95
        8
302
GRIDFORMAT
  1
GRIDFORMAT_BEGIN
 90
        0
 91
        1
 62
     0
 92
       -2
340
14
 93
        0
 40
0.045
309
GRIDFORMAT_END
 95
       16
302
GRIDFORMAT
  1
GRIDFORMAT_BEGIN
 90
        0
 91
        1
 62
     0
 92
       -2
340
14
 93
        0
 40
0.045
309
GRIDFORMAT_END
 95
       32
302
GRIDFORMAT
  1
GRIDFORMAT_BEGIN
 90
        0
 91
        1
 62
     0
 92
       -2
340
14
 93
        0
 40
0.045
309
GRIDFORMAT_END
309
TABLEFORMAT_END
  1
CELLSTYLE_BEGIN
 90
        2
 91
        1
300
_HEADER
309
CELLSTYLE_END
300
CELLSTYLE
  1
TABLEFORMAT_BEGIN
 90
        5
170
     1
 91
        0
 92
        0
 62
   257
 93
        1
300
CONTENTFORMAT
  1
CONTENTFORMAT_BEGIN
 90
        0
 91
        0
 92
        4
 93
        0
300

 40
0.0
140
1.0
 94
        2
 62
     0
340
11
144
0.18
309
CONTENTFORMAT_END
171
     1
301
MARGIN
  1
CELLMARGIN_BEGIN
 40
0.06
 40
0.06
 40
0.06
 40
0.06
 40
0.06
 40
0.06
309
CELLMARGIN_END
 94
        6
 95
        1
302
GRIDFORMAT
  1
GRIDFORMAT_BEGIN
 90
        0
 91
        1
 62
     0
 92
       -2
340
14
 93
        0
 40
0.045
309
GRIDFORMAT_END
 95
        2
302
GRIDFORMAT
  1
GRIDFORMAT_BEGIN
 90
        0
 91
        1
 62
     0
 92
       -2
340
14
 93
        0
 40
0.045
309
GRIDFORMAT_END
 95
        4
302
GRIDFORMAT
  1
GRIDFORMAT_BEGIN
 90
        0
 91
        1
 62
     0
 92
       -2
340
14
 93
        0
 40
0.045
309
GRIDFORMAT_END
 95
        8
302
GRIDFORMAT
  1
GRIDFORMAT_BEGIN
 90
        0
 91
        1
 62
     0
 92
       -2
340
14
 93
        0
 40
0.045
309
GRIDFORMAT_END
 95
       16
302
GRIDFORMAT
  1
GRIDFORMAT_BEGIN
 90
        0
 91
        1
 62
     0
 92
       -2
340
14
 93
        0
 40
0.045
309
GRIDFORMAT_END
 95
       32
302
GRIDFORMAT
  1
GRIDFORMAT_BEGIN
 90
        0
 91
        1
 62
     0
 92
       -2
340
14
 93
        0
 40
0.045
309
GRIDFORMAT_END
309
TABLEFORMAT_END
  1
CELLSTYLE_BEGIN
 90
        3
 91
        2
300
_DATA
309
CELLSTYLE_END
  0
ENDSEC
  0
EOF
