  0
SECTION
  2
HEADER
  9
$ACADVER
  1
AC1015
  9
$ACADMAINTVER
 70
     6
  9
$DWGCODEPAGE
  3
DOS932
  9
$INSBASE
 10
0.0
 20
0.0
 30
0.0
  9
$EXTMIN
 10
0.0
 20
0.0
 30
0.0
  9
$EXTMAX
 10
1050.0
 20
1485.0
 30
0.0
  9
$LIMMIN
 10
0.0
 20
0.0
  9
$LIMMAX
 10
1050.0
 20
1485.0
  9
$ORTHOMODE
 70
     0
  9
$REGENMODE
 70
     1
  9
$FILLMODE
 70
     1
  9
$QTEXTMODE
 70
     0
  9
$MIRRTEXT
 70
     1
  9
$LTSCALE
 40
5.0
  9
$ATTMODE
 70
     1
  9
$TEXTSIZE
 40
17.5
  9
$TRACEWID
 40
1.0
  9
$TEXTSTYLE
  7
Standard
  9
$CLAYER
  8
0
  9
$CELTYPE
  6
ByLayer
  9
$CECOLOR
 62
   256
  9
$CELTSCALE
 40
1.0
  9
$DISPSILH
 70
     0
  9
$DIMSCALE
 40
1.0
  9
$DIMASZ
 40
7.5
  9
$DIMEXO
 40
5.0
  9
$DIMDLI
 40
3.75
  9
$DIMRND
 40
0.0
  9
$DIMDLE
 40
0.0
  9
$DIMEXE
 40
5.0
  9
$DIMTP
 40
0.0
  9
$DIMTM
 40
0.0
  9
$DIMTXT
 40
17.5
  9
$DIMCEN
 40
2.5
  9
$DIMTSZ
 40
0.0
  9
$DIMTOL
 70
     0
  9
$DIMLIM
 70
     0
  9
$DIMTIH
 70
     1
  9
$DIMTOH
 70
     1
  9
$DIMSE1
 70
     0
  9
$DIMSE2
 70
     0
  9
$DIMTAD
 70
     1
  9
$DIMZIN
 70
     0
  9
$DIMBLK
  1

  9
$DIMASO
 70
     1
  9
$DIMSHO
 70
     1
  9
$DIMPOST
  1

  9
$DIMAPOST
  1

  9
$DIMALT
 70
     0
  9
$DIMALTD
 70
     3
  9
$DIMALTF
 40
0.0393700787
  9
$DIMLFAC
 40
1.0
  9
$DIMTOFL
 70
     1
  9
$DIMTVP
 40
0.0
  9
$DIMTIX
 70
     0
  9
$DIMSOXD
 70
     0
  9
$DIMSAH
 70
     0
  9
$DIMBLK1
  1

  9
$DIMBLK2
  1

  9
$DIMSTYLE
  2
ISO-25
  9
$DIMCLRD
 70
     0
  9
$DIMCLRE
 70
     0
  9
$DIMCLRT
 70
     0
  9
$DIMTFAC
 40
1.0
  9
$DIMGAP
 40
7.5
  9
$DIMJUST
 70
     0
  9
$DIMSD1
 70
     0
  9
$DIMSD2
 70
     0
  9
$DIMTOLJ
 70
     0
  9
$DIMTZIN
 70
     0
  9
$DIMALTZ
 70
     0
  9
$DIMALTTZ
 70
     0
  9
$DIMUPT
 70
     0
  9
$DIMDEC
 70
     1
  9
$DIMTDEC
 70
     1
  9
$DIMALTU
 70
     2
  9
$DIMALTTD
 70
     3
  9
$DIMTXSTY
  7
Standard
  9
$DIMAUNIT
 70
     0
  9
$DIMADEC
 70
     2
  9
$DIMALTRND
 40
0.0
  9
$DIMAZIN
 70
     0
  9
$DIMDSEP
 70
    44
  9
$DIMATFIT
 70
     3
  9
$DIMFRAC
 70
     0
  9
$DIMLDRBLK
  1

  9
$DIMLUNIT
 70
     2
  9
$DIMLWD
 70
    -2
  9
$DIMLWE
 70
    -2
  9
$DIMTMOVE
 70
     0
  9
$LUNITS
 70
     2
  9
$LUPREC
 70
     2
  9
$SKETCHINC
 40
1.0
  9
$FILLETRAD
 40
0.0
  9
$AUNITS
 70
     0
  9
$AUPREC
 70
     2
  9
$MENU
  1
.
  9
$ELEVATION
 40
0.0
  9
$PELEVATION
 40
0.0
  9
$THICKNESS
 40
0.0
  9
$LIMCHECK
 70
     0
  9
$CHAMFERA
 40
0.0
  9
$CHAMFERB
 40
0.0
  9
$CHAMFERC
 40
0.0
  9
$CHAMFERD
 40
0.0
  9
$SKPOLY
 70
     0
  9
$TDCREATE
 40
2460115.636498878
  9
$TDUCREATE
 40
2460115.261498878
  9
$TDUPDATE
 40
2460115.636499387
  9
$TDUUPDATE
 40
2460115.261499387
  9
$TDINDWG
 40
0.0000000116
  9
$TDUSRTIMER
 40
0.0000000116
  9
$USRTIMER
 70
     1
  9
$ANGBASE
 50
0.0
  9
$ANGDIR
 70
     0
  9
$PDMODE
 70
     0
  9
$PDSIZE
 40
-1.0
  9
$PLINEWID
 40
0.0
  9
$SPLFRAME
 70
     0
  9
$SPLINETYPE
 70
     6
  9
$SPLINESEGS
 70
     8
  9
$HANDSEED
  5
10E
  9
$SURFTAB1
 70
     6
  9
$SURFTAB2
 70
     6
  9
$SURFTYPE
 70
     6
  9
$SURFU
 70
     6
  9
$SURFV
 70
     6
  9
$UCSBASE
  2

  9
$UCSNAME
  2

  9
$UCSORG
 10
0.0
 20
0.0
 30
0.0
  9
$UCSXDIR
 10
1.0
 20
0.0
 30
0.0
  9
$UCSYDIR
 10
0.0
 20
1.0
 30
0.0
  9
$UCSORTHOREF
  2

  9
$UCSORTHOVIEW
 70
     0
  9
$UCSORGTOP
 10
0.0
 20
0.0
 30
0.0
  9
$UCSORGBOTTOM
 10
0.0
 20
0.0
 30
0.0
  9
$UCSORGLEFT
 10
0.0
 20
0.0
 30
0.0
  9
$UCSORGRIGHT
 10
0.0
 20
0.0
 30
0.0
  9
$UCSORGFRONT
 10
0.0
 20
0.0
 30
0.0
  9
$UCSORGBACK
 10
0.0
 20
0.0
 30
0.0
  9
$PUCSBASE
  2

  9
$PUCSNAME
  2

  9
$PUCSORG
 10
0.0
 20
0.0
 30
0.0
  9
$PUCSXDIR
 10
1.0
 20
0.0
 30
0.0
  9
$PUCSYDIR
 10
0.0
 20
1.0
 30
0.0
  9
$PUCSORTHOREF
  2

  9
$PUCSORTHOVIEW
 70
     0
  9
$PUCSORGTOP
 10
0.0
 20
0.0
 30
0.0
  9
$PUCSORGBOTTOM
 10
0.0
 20
0.0
 30
0.0
  9
$PUCSORGLEFT
 10
0.0
 20
0.0
 30
0.0
  9
$PUCSORGRIGHT
 10
0.0
 20
0.0
 30
0.0
  9
$PUCSORGFRONT
 10
0.0
 20
0.0
 30
0.0
  9
$PUCSORGBACK
 10
0.0
 20
0.0
 30
0.0
  9
$USERI1
 70
     0
  9
$USERI2
 70
     0
  9
$USERI3
 70
     0
  9
$USERI4
 70
     0
  9
$USERI5
 70
     0
  9
$USERR1
 40
0.0
  9
$USERR2
 40
0.0
  9
$USERR3
 40
0.0
  9
$USERR4
 40
0.0
  9
$USERR5
 40
0.0
  9
$WORLDVIEW
 70
     1
  9
$SHADEDGE
 70
     3
  9
$SHADEDIF
 70
    70
  9
$TILEMODE
 70
     1
  9
$MAXACTVP
 70
    64
  9
$PINSBASE
 10
0.0
 20
0.0
 30
0.0
  9
$PLIMCHECK
 70
     0
  9
$PEXTMIN
 10
1.0000000000E+20
 20
1.0000000000E+20
 30
1.0000000000E+20
  9
$PEXTMAX
 10
-1.0000000000E+20
 20
-1.0000000000E+20
 30
-1.0000000000E+20
  9
$PLIMMIN
 10
0.0
 20
0.0
  9
$PLIMMAX
 10
420.0
 20
297.0
  9
$UNITMODE
 70
     0
  9
$VISRETAIN
 70
     1
  9
$PLINEGEN
 70
     0
  9
$PSLTSCALE
 70
     1
  9
$TREEDEPTH
 70
  3020
  9
$CMLSTYLE
  2
Standard
  9
$CMLJUST
 70
     0
  9
$CMLSCALE
 40
20.0
  9
$PROXYGRAPHICS
 70
     1
  9
$MEASUREMENT
 70
     1
  9
$CELWEIGHT
370
    -1
  9
$ENDCAPS
280
     0
  9
$JOINSTYLE
280
     0
  9
$LWDISPLAY
290
     1
  9
$INSUNITS
 70
     4
  9
$HYPERLINKBASE
  1

  9
$STYLESHEET
  1

  9
$XEDIT
290
     1
  9
$CEPSNTYPE
380
     0
  9
$PSTYLEMODE
290
     1
  9
$FINGERPRINTGUID
  2
{9d5ff145-f0cf-4a0c-9ed4-d55c9ef1598f}
  9
$VERSIONGUID
  2
{FAEB1C32-E019-11D5-929B-00C0DF256EC4}
  9
$EXTNAMES
290
     1
  9
$PSVPSCALE
 40
0.0
  9
$OLESTARTUP
290
     0
  0
ENDSEC
  0
SECTION
  2
CLASSES
  0
CLASS
  1
ACDBDICTIONARYWDFLT
  2
AcDbDictionaryWithDefault
  3
ObjectDBX Classes
 90
        0
280
     0
281
     0
  0
CLASS
  1
VISUALSTYLE
  2
AcDbVisualStyle
  3
ObjectDBX Classes
 90
     4095
280
     0
281
     0
  0
CLASS
  1
MATERIAL
  2
AcDbMaterial
  3
ObjectDBX Classes
 90
     1153
280
     0
281
     0
  0
CLASS
  1
SCALE
  2
AcDbScale
  3
ObjectDBX Classes
 90
     1153
280
     0
281
     0
  0
CLASS
  1
TABLESTYLE
  2
AcDbTableStyle
  3
ObjectDBX Classes
 90
     4095
280
     0
281
     0
  0
CLASS
  1
MLEADERSTYLE
  2
AcDbMLeaderStyle
  3
ACDB_MLEADERSTYLE_CLASS
 90
     4095
280
     0
281
     0
  0
CLASS
  1
SUN
  2
AcDbSun
  3
SCENEOE
 90
     1153
280
     0
281
     0
  0
CLASS
  1
ACDBPLACEHOLDER
  2
AcDbPlaceHolder
  3
ObjectDBX Classes
 90
        0
280
     0
281
     0
  0
CLASS
  1
LAYOUT
  2
AcDbLayout
  3
ObjectDBX Classes
 90
        0
280
     0
281
     0
  0
ENDSEC
  0
SECTION
  2
TABLES
  0
TABLE
  2
VPORT
  5
8
330
0
100
AcDbSymbolTable
 70
     1
  0
VPORT
  5
29
330
8
100
AcDbSymbolTableRecord
100
AcDbViewportTableRecord
  2
*Active
 70
     0
 10
0.0
 20
0.0
 11
1.0
 21
1.0
 12
525.0
 22
742.5
 13
0.0
 23
0.0
 14
10.0
 24
10.0
 15
10.0
 25
10.0
 16
0.0
 26
0.0
 36
1.0
 17
0.0
 27
0.0
 37
0.0
 40
1485.0
 41
0.7070707071
 42
50.0
 43
0.0
 44
0.0
 50
0.0
 51
0.0
 71
     0
 72
  2000
 73
     1
 74
     3
 75
     0
 76
     0
 77
     0
 78
     0
281
     0
 65
     1
110
0.0
120
0.0
130
0.0
111
1.0
121
0.0
131
0.0
112
0.0
122
1.0
132
0.0
 79
     0
146
0.0
  0
ENDTAB
  0
TABLE
  2
LTYPE
  5
5
330
0
100
AcDbSymbolTable
 70
     6
  0
LTYPE
  5
14
330
5
100
AcDbSymbolTableRecord
100
AcDbLinetypeTableRecord
  2
ByBlock
 70
     0
  3

 72
    65
 73
     0
 40
0.0
  0
LTYPE
  5
15
330
5
100
AcDbSymbolTableRecord
100
AcDbLinetypeTableRecord
  2
ByLayer
 70
     0
  3

 72
    65
 73
     0
 40
0.0
  0
LTYPE
  5
16
330
5
100
AcDbSymbolTableRecord
100
AcDbLinetypeTableRecord
  2
Continuous
 70
     0
  3
Solid line
 72
    65
 73
     0
 40
0.0
  0
LTYPE
  5
5E
330
5
100
AcDbSymbolTableRecord
100
AcDbLinetypeTableRecord
  2
HIDDEN
 70
     0
  3
Hidden __ __ __ __ __ __ __ __ __ __ __ __ __ __
 72
    65
 73
     2
 40
1.905
 49
1.27
 74
     0
 49
-0.635
 74
     0
  0
LTYPE
  5
5F
330
5
100
AcDbSymbolTableRecord
100
AcDbLinetypeTableRecord
  2
PHANTOM
 70
     0
  3
Phantom ______  __  __  ______  __  __  ______
 72
    65
 73
     6
 40
12.7
 49
6.35
 74
     0
 49
-1.27
 74
     0
 49
1.27
 74
     0
 49
-1.27
 74
     0
 49
1.27
 74
     0
 49
-1.27
 74
     0
  0
LTYPE
  5
60
330
5
100
AcDbSymbolTableRecord
100
AcDbLinetypeTableRecord
  2
CENTER
 70
     0
  3
Center ____ _ ____ _ ____ _ ____ _ ____ _ ____
 72
    65
 73
     4
 40
10.16
 49
6.35
 74
     0
 49
-1.27
 74
     0
 49
1.27
 74
     0
 49
-1.27
 74
     0
  0
LTYPE
  5
61
330
5
100
AcDbSymbolTableRecord
100
AcDbLinetypeTableRecord
  2
CENTERX2
 70
     0
  3
Center (2x) ________  __  ________  __  _____
 72
    65
 73
     4
 40
20.32
 49
12.7
 74
     0
 49
-2.54
 74
     0
 49
2.54
 74
     0
 49
-2.54
 74
     0
  0
LTYPE
  5
62
330
5
100
AcDbSymbolTableRecord
100
AcDbLinetypeTableRecord
  2
DOT2
 70
     0
  3
Dot (.5x) ........................................
 72
    65
 73
     2
 40
0.635
 49
0.0
 74
     0
 49
-0.635
 74
     0
  0
ENDTAB
  0
TABLE
  2
LAYER
  5
2
330
0
100
AcDbSymbolTable
 70
     2
  0
LAYER
  5
10
330
2
100
AcDbSymbolTableRecord
100
AcDbLayerTableRecord
  2
0
 70
     0
 62
     7
  6
Continuous
370
    -3
390
F
  0
LAYER
  5
63
330
2
100
AcDbSymbolTableRecord
100
AcDbLayerTableRecord
  2
FORMAT
 70
     0
 62
     7
  6
Continuous
370
    -3
390
F
  0
ENDTAB
  0
TABLE
  2
STYLE
  5
3
330
0
100
AcDbSymbolTable
 70
     2
  0
STYLE
  5
11
330
3
100
AcDbSymbolTableRecord
100
AcDbTextStyleTableRecord
  2
Standard
 70
     0
 40
0.0
 41
1.0
 50
0.0
 71
     0
 42
17.5
  3
txt
  4
bigfont
  0
STYLE
  5
64
330
3
100
AcDbSymbolTableRecord
100
AcDbTextStyleTableRecord
  2
SLDTEXTSTYLE0
 70
     0
 40
0.0
 41
0.7
 50
0.0
 71
     0
 42
17.5
  3
TXT
  4
bigfont
  0
ENDTAB
  0
TABLE
  2
VIEW
  5
6
330
0
100
AcDbSymbolTable
 70
     0
  0
ENDTAB
  0
TABLE
  2
UCS
  5
7
330
0
100
AcDbSymbolTable
 70
     0
  0
ENDTAB
  0
TABLE
  2
APPID
  5
9
330
0
100
AcDbSymbolTable
 70
     1
  0
APPID
  5
12
330
9
100
AcDbSymbolTableRecord
100
AcDbRegAppTableRecord
  2
ACAD
 70
     0
  0
ENDTAB
  0
TABLE
  2
DIMSTYLE
  5
A
330
0
100
AcDbSymbolTable
 70
     1
100
AcDbDimStyleTable
  0
DIMSTYLE
105
27
330
A
100
AcDbSymbolTableRecord
100
AcDbDimStyleTableRecord
  2
ISO-25
 70
     0
 41
2.5
 42
0.625
 43
3.75
 44
1.25
 73
     0
 74
     0
 77
     1
 78
     8
140
2.5
141
2.5
143
0.0393700787
147
0.625
171
     3
172
     1
178
     0
271
     2
272
     2
274
     3
278
    44
283
     0
284
     8
340
11
  0
ENDTAB
  0
TABLE
  2
BLOCK_RECORD
  5
1
330
0
100
AcDbSymbolTable
 70
     1
  0
BLOCK_RECORD
  5
1F
330
1
100
AcDbSymbolTableRecord
100
AcDbBlockTableRecord
  2
*Model_Space
340
22
  0
BLOCK_RECORD
  5
1B
330
1
100
AcDbSymbolTableRecord
100
AcDbBlockTableRecord
  2
*Paper_Space
340
1E
  0
BLOCK_RECORD
  5
23
330
1
100
AcDbSymbolTableRecord
100
AcDbBlockTableRecord
  2
*Paper_Space0
340
26
  0
ENDTAB
  0
ENDSEC
  0
SECTION
  2
BLOCKS
  0
BLOCK
  5
20
330
1F
100
AcDbEntity
  8
0
100
AcDbBlockBegin
  2
*Model_Space
 70
     0
 10
0.0
 20
0.0
 30
0.0
  3
*Model_Space
  1

  0
ENDBLK
  5
21
330
1F
100
AcDbEntity
  8
0
100
AcDbBlockEnd
  0
BLOCK
  5
1C
330
1B
100
AcDbEntity
 67
     1
  8
0
100
AcDbBlockBegin
  2
*Paper_Space
 70
     0
 10
0.0
 20
0.0
 30
0.0
  3
*Paper_Space
  1

  0
ENDBLK
  5
1D
330
1B
100
AcDbEntity
 67
     1
  8
0
100
AcDbBlockEnd
  0
BLOCK
  5
24
330
23
100
AcDbEntity
  8
0
100
AcDbBlockBegin
  2
*Paper_Space0
 70
     0
 10
0.0
 20
0.0
 30
0.0
  3
*Paper_Space0
  1

  0
ENDBLK
  5
25
330
23
100
AcDbEntity
  8
0
100
AcDbBlockEnd
  0
ENDSEC
  0
SECTION
  2
ENTITIES
  0
MTEXT
  5
65
330
1F
100
AcDbEntity
  8
0
  6
Continuous
 62
     7
370
     0
100
AcDbMText
 10
909.115892894
 20
170.8630631727
 30
0.0
 40
15.875
 41
0.0
 71
     2
 72
     1
  1
HFC-D10T
  7
SLDTEXTSTYLE0
 73
     1
 44
1.0
  0
MTEXT
  5
66
330
1F
100
AcDbEntity
  8
0
  6
Continuous
 62
     7
370
     0
100
AcDbMText
 10
908.9946269611
 20
204.9892605723
 30
0.0
 40
15.875
 41
0.0
 71
     2
 72
     1
  1
HBF-D39T
  7
SLDTEXTSTYLE0
 73
     1
 44
1.0
  0
MTEXT
  5
67
330
1F
100
AcDbEntity
  8
0
  6
Continuous
 62
     7
370
     0
100
AcDbMText
 10
763.5181418481
 20
306.3062645584
 30
0.0
 40
15.875
 41
0.0
 71
     2
 72
     1
  1
【ペグ仕様】
  7
SLDTEXTSTYLE0
 73
     1
 44
1.0
  0
MTEXT
  5
68
330
1F
100
AcDbEntity
  8
0
  6
Continuous
 62
     7
370
     0
100
AcDbMText
 10
254.2963413687
 20
306.3062645584
 30
0.0
 40
15.875
 41
0.0
 71
     2
 72
     1
  1
【スパイク仕様】
  7
SLDTEXTSTYLE0
 73
     1
 44
1.0
  0
LINE
  5
69
330
1F
100
AcDbEntity
  8
0
  6
Continuous
 62
     7
370
    25
100
AcDbLine
 10
477.1700777471
 20
942.453226579
 30
0.0
 11
477.1650152606
 21
941.9165852673
 31
0.0
  0
LINE
  5
6A
330
1F
100
AcDbEntity
  8
0
  6
Continuous
 62
     7
370
    25
100
AcDbLine
 10
482.1647927911
 20
941.8694191145
 30
0.0
 11
482.1657187189
 21
941.9675707051
 31
0.0
  0
LINE
  5
6B
330
1F
100
AcDbEntity
  8
0
  6
Continuous
 62
     7
370
    25
100
AcDbLine
 10
478.0322912742
 20
941.5551607086
 30
0.0
 11
479.3337474266
 21
941.3342084587
 31
0.0
  0
LINE
  5
6C
330
1F
100
AcDbEntity
  8
0
  6
Continuous
 62
     7
370
    25
100
AcDbLine
 10
479.9854596975
 20
941.328060433
 30
0.0
 11
481.290852629
 21
941.5244205804
 31
0.0
  0
ARC
  5
6D
330
1F
100
AcDbEntity
  8
0
  6
Continuous
 62
     7
370
    25
100
AcDbCircle
 10
502.6590402375
 20
1125.1562036291
 30
0.0
 40
175.0000000000001
100
AcDbArc
 50
289.6670337514
 51
359.4595076863
  0
ARC
  5
6E
330
1F
100
AcDbEntity
  8
0
  6
Continuous
 62
     7
370
    25
100
AcDbCircle
 10
502.6590402375
 20
1125.1562036291
 30
0.0
 40
175.0
100
AcDbArc
 50
359.4595076863
 51
249.2519816211
  0
LWPOLYLINE
  5
6F
330
1F
100
AcDbEntity
  8
0
  6
Continuous
 62
     7
370
    25
100
AcDbPolyline
 90
       10
 70
   128
 43
0.0
 10
477.1650152606
 20
941.9165852673
 10
477.2540052454
 20
941.7917919882
 10
477.6905093479
 20
941.6253033925
 10
478.4275971422
 20
941.4995695122
 10
479.3530536933
 20
941.4337321908
 10
480.3259866306
 20
941.4378145635
 10
481.1982757341
 20
941.5111951263
 10
481.837122895
 20
941.6427023535
 10
482.1452694243
 20
941.812315462
 10
482.1647927911
 20
941.8694191145
  0
ARC
  5
70
330
1F
100
AcDbEntity
  8
0
  6
Continuous
 62
     7
370
    25
100
AcDbCircle
 10
479.6802200857
 20
943.5165582267
 30
0.0
 40
2.209681835345435
100
AcDbArc
 50
260.978937857
 51
277.9400775155
  0
LWPOLYLINE
  5
71
330
1F
100
AcDbEntity
  8
0
  6
Continuous
 62
     7
370
    25
100
AcDbPolyline
 90
       32
 70
   128
 43
0.0
 10
561.5559043377
 20
960.3649435479
 10
559.5486931401
 20
959.7005298511
 10
556.9169046639
 20
958.9562841996
 10
553.994444276
 20
958.252068485
 10
550.7965483319
 20
957.5915541621
 10
547.3398891802
 20
956.9781848467
 10
543.6424882412
 20
956.4151583623
 10
539.7236220514
 20
955.9054100684
 10
535.6037217644
 20
955.4515975565
 10
531.3042666327
 20
955.056086795
 10
526.8476720246
 20
954.7209397938
 10
522.2571725609
 20
954.4479038542
 10
517.55670098
 20
954.2384024592
 10
512.7707633644
 20
954.093527852
 10
507.9243113768
 20
954.0140353418
 10
503.0426121736
 20
954.0003393656
 10
498.1511166743
 20
954.052511328
 10
493.2753268712
 20
954.1702792285
 10
488.440662875
 20
954.3530290799
 10
483.6723303849
 20
954.5998081089
 10
478.9951892786
 20
954.9093297241
 10
474.4336240043
 20
955.279980223
 10
470.0114164511
 20
955.7098272055
 10
465.7516219615
 20
956.1966296486
 10
461.6764491315
 20
956.7378495896
 10
457.8071440254
 20
957.3306653585
 10
454.1638794084
 20
957.9719862883
 10
450.7656495751
 20
958.6584688287
 10
447.6301713225
 20
959.3865339774
 10
444.7737915823
 20
960.15238594
 10
442.2114021959
 20
960.952031919
 10
440.663768547
 20
961.5053976793
  0
ELLIPSE
  5
72
330
1F
100
AcDbEntity
  8
0
  6
Continuous
 62
     7
370
    25
100
AcDbEllipse
 10
501.1867708558
 20
969.0904881351
 30
0.0
 11
51.07073209108724
 21
230.6467130985062
 31
0.0
210
0.0
220
0.0
230
1.0
 40
0.0452769817
 41
1.644467688235557
 42
1.699421899408048
  0
LWPOLYLINE
  5
73
330
1F
100
AcDbEntity
  8
0
  6
Continuous
 62
     7
370
    25
100
AcDbPolyline
 90
       11
 70
   128
 43
0.0
 10
484.2791483831
 20
941.7983863527
 10
480.1711649577
 20
942.1464466092
 10
476.2270426269
 20
942.5595926558
 10
472.4777940266
 20
943.0345759251
 10
468.9528995006
 20
943.5676616232
 10
465.6800752966
 20
944.1546580971
 10
462.685055633
 20
944.7909497932
 10
459.9913903511
 20
945.4715335494
 10
457.6202597425
 20
946.1910579354
 10
455.5903080084
 20
946.9438653305
 10
453.9174966604
 20
947.7240364098
  0
ELLIPSE
  5
74
330
1F
100
AcDbEntity
  8
0
  6
Continuous
 62
     7
370
    25
100
AcDbEllipse
 10
501.1867708558
 20
969.0904881351
 30
0.0
 11
-10.80570685944366
 21
242.4446945157043
 31
0.0
210
0.0
220
0.0
230
1.0
 40
0.1991297006
 41
1.607138332975947
 42
1.650161566978631
  0
ARC
  5
75
330
1F
100
AcDbEntity
  8
0
  6
Continuous
 62
     7
370
    25
100
AcDbCircle
 10
508.4984064039
 20
1115.9383718814
 30
0.0
 40
174.6892014052111
100
AcDbArc
 50
273.0535774498
 51
278.2111754146
  0
ELLIPSE
  5
76
330
1F
100
AcDbEntity
  8
0
  6
Continuous
 62
     7
370
    25
100
AcDbEllipse
 10
501.1867708558
 20
969.0904881351
 30
0.0
 11
-46.66138691052265
 21
231.5243729944011
 31
0.0
210
0.0
220
0.0
230
1.0
 40
0.046272915
 41
4.583603757046996
 42
4.638542851376561
  0
ELLIPSE
  5
77
330
1F
100
AcDbEntity
  8
0
  6
Continuous
 62
     7
370
    25
100
AcDbEllipse
 10
501.1867708558
 20
969.0904881351
 30
0.0
 11
15.14469321091718
 21
242.2115560310436
 31
0.0
210
0.0
220
0.0
230
1.0
 40
0.1993785641
 41
4.633024630553719
 42
4.675923361091128
  0
ARC
  5
78
330
1F
100
AcDbEntity
  8
0
  6
Continuous
 62
     7
370
    25
100
AcDbCircle
 10
532.4080825827
 20
981.1370869694
 30
0.0
 40
37.69291688136045
100
AcDbArc
 50
280.2275517854
 51
294.6450598662
  0
LINE
  5
79
330
1F
100
AcDbEntity
  8
0
  6
Continuous
 62
     7
370
    25
100
AcDbLine
 10
539.1007611169
 20
944.0430977385
 30
0.0
 11
539.1702718515
 21
951.4114792751
 31
0.0
  0
SPLINE
  5
7A
330
1F
100
AcDbEntity
  8
0
  6
Continuous
 62
     7
370
    25
100
AcDbSpline
210
0.0
220
0.0
230
1.0
 70
     8
 71
     3
 72
    38
 73
    34
 74
     0
 42
0.00000001
 43
0.00000001
 40
0.0
 40
0.0
 40
0.0
 40
0.0
 40
0.0625000000000001
 40
0.0625000000000001
 40
0.1250000000000001
 40
0.1250000000000001
 40
0.1875000000000002
 40
0.1875000000000002
 40
0.2500000000000002
 40
0.2500000000000002
 40
0.3125000000000003
 40
0.3125000000000003
 40
0.3750000000000003
 40
0.3750000000000003
 40
0.4375000000000004
 40
0.4375000000000004
 40
0.5000000000000004
 40
0.5000000000000004
 40
0.5625000000000004
 40
0.5625000000000004
 40
0.6250000000000006
 40
0.6250000000000006
 40
0.6875000000000007
 40
0.6875000000000007
 40
0.7500000000000007
 40
0.7500000000000007
 40
0.8125000000000007
 40
0.8125000000000007
 40
0.8750000000000008
 40
0.8750000000000008
 40
0.9375000000000003
 40
0.9375000000000003
 40
1.0
 40
1.0
 40
1.0
 40
1.0
 10
539.170271851524
 20
951.4114792750925
 30
0.0
 10
539.1727218366156
 20
951.6711862832151
 30
0.0
 10
539.1582834884443
 20
951.9229894679917
 30
0.0
 10
539.0968596727969
 20
952.411475998652
 30
0.0
 10
539.049088713765
 20
952.6506003191704
 30
0.0
 10
538.9222368279645
 20
953.0991899515258
 30
0.0
 10
538.8437975250029
 20
953.3082292706903
 30
0.0
 10
538.6564514592504
 20
953.6962414696251
 30
0.0
 10
538.5465514894119
 20
953.8757367273656
 30
0.0
 10
538.3041345812046
 20
954.1889502387533
 30
0.0
 10
538.1708004400932
 20
954.3249149874973
 30
0.0
 10
537.8784051037761
 20
954.5547145270701
 30
0.0
 10
537.7214671519127
 20
954.6463543972569
 30
0.0
 10
537.3937385788752
 20
954.7800410191431
 30
0.0
 10
537.2205305354142
 20
954.8231154785304
 30
0.0
 10
536.8623575988331
 20
954.8583109206069
 30
0.0
 10
536.6806325120258
 20
954.8505030073732
 30
0.0
 10
536.3118767112582
 20
954.7854180450047
 30
0.0
 10
536.122851533764
 20
954.7269917589285
 30
0.0
 10
535.7537076487512
 20
954.5635821922185
 30
0.0
 10
535.5726445036333
 20
954.4589776344668
 30
0.0
 10
535.21803756506
 20
954.2036005914442
 30
0.0
 10
535.0450938249415
 20
954.0525376027534
 30
0.0
 10
534.722536353572
 20
953.7166097892423
 30
0.0
 10
534.5708879120562
 20
953.5304256997306
 30
0.0
 10
534.2884564796881
 20
953.1199475766031
 30
0.0
 10
534.1621633262922
 20
952.9021068758341
 30
0.0
 10
533.9396876013155
 20
952.4431252682673
 30
0.0
 10
533.8425943879736
 20
952.1990416274831
 30
0.0
 10
533.6855385200744
 20
951.6999712269069
 30
0.0
 10
533.6255053280868
 20
951.4463790527783
 30
0.0
 10
533.5425343947613
 20
950.9310547000292
 30
0.0
 10
533.519825561419
 20
950.6681037582247
 30
0.0
 10
533.5173755798027
 20
950.408397118507
 30
0.0
  0
LINE
  5
7B
330
1F
100
AcDbEntity
  8
0
  6
Continuous
 62
     7
370
    25
100
AcDbLine
 10
533.5173755798
 20
950.4083971185
 30
0.0
 11
533.4478648452
 21
943.0400155819
 31
0.0
  0
LINE
  5
7C
330
1F
100
AcDbEntity
  8
0
  6
Continuous
 62
     7
370
    25
100
AcDbLine
 10
485.0563198
 20
942.3331051219
 30
0.0
 11
484.2791483831
 21
941.7983863527
 31
0.0
  0
ELLIPSE
  5
7D
330
1F
100
AcDbEntity
  8
0
  6
Continuous
 62
     7
370
    25
100
AcDbEllipse
 10
501.1867708558
 20
969.0904881351
 30
0.0
 11
48.0064881656219
 21
216.8079103125959
 31
0.0
210
0.0
220
0.0
230
1.0
 40
0.0452769817
 41
1.648680723220631
 42
1.70454577762704
  0
LINE
  5
7E
330
1F
100
AcDbEntity
  8
0
  6
Continuous
 62
     7
370
    25
100
AcDbLine
 10
517.8040572944
 20
941.4972014282
 30
0.0
 11
517.0230680012
 21
942.0459185805
 31
0.0
  0
ELLIPSE
  5
7F
330
1F
100
AcDbEntity
  8
0
  6
Continuous
 62
     7
370
    25
100
AcDbEllipse
 10
501.1867708558
 20
969.0904881351
 30
0.0
 11
-43.86170369589121
 21
217.6329106147371
 31
0.0
210
0.0
220
0.0
230
1.0
 40
0.046272915
 41
4.578479878828006
 42
4.634327052243478
  0
LINE
  5
80
330
1F
100
AcDbEntity
  8
0
  6
Continuous
 62
     7
370
    25
100
AcDbLine
 10
486.0344590297
 20
943.0060961683
 30
0.0
 11
486.0725836683
 21
947.0474415041
 31
0.0
  0
LINE
  5
81
330
1F
100
AcDbEntity
  8
0
  6
Continuous
 62
     7
370
    25
100
AcDbLine
 10
486.0344590297
 20
943.0060961683
 30
0.0
 11
485.0563198
 21
942.3331051219
 31
0.0
  0
LINE
  5
82
330
1F
100
AcDbEntity
  8
0
  6
Continuous
 62
     7
370
    25
100
AcDbLine
 10
515.9879631828
 20
942.7731753729
 30
0.0
 11
516.0290354552
 21
947.1269802284
 31
0.0
  0
LINE
  5
83
330
1F
100
AcDbEntity
  8
0
  6
Continuous
 62
     7
370
    25
100
AcDbLine
 10
517.0230680012
 20
942.0459185805
 30
0.0
 11
515.9879631828
 21
942.7731753729
 31
0.0
  0
LINE
  5
84
330
1F
100
AcDbEntity
  8
0
  6
Continuous
 62
     7
370
    25
100
AcDbLine
 10
539.1702718515
 20
951.4114792751
 30
0.0
 11
539.1421519445
 21
951.4169674063
 31
0.0
  0
LWPOLYLINE
  5
85
330
1F
100
AcDbEntity
  8
0
  6
Continuous
 62
     7
370
    25
100
AcDbPolyline
 90
        6
 70
   128
 43
0.0
 10
539.1421519445
 20
951.4169674063
 10
539.0152717253
 20
952.6067963005
 10
538.6241389894
 20
953.6310621173
 10
538.0070405342
 20
954.3895025821
 10
537.2243822561
 20
954.8078762579
 10
537.0819227891
 20
954.8413540495
  0
LINE
  5
86
330
1F
100
AcDbEntity
  8
0
  6
Continuous
 62
     7
370
    25
100
AcDbLine
 10
534.7258267322
 20
950.6333094715
 30
0.0
 11
534.6563159976
 21
943.2649279349
 31
0.0
  0
LINE
  5
87
330
1F
100
AcDbEntity
  8
0
  6
Continuous
 62
     7
370
    25
100
AcDbLine
 10
539.0726412099
 20
944.0485858697
 30
0.0
 11
539.1421519445
 21
951.4169674063
 31
0.0
  0
LINE
  5
88
330
1F
100
AcDbEntity
  8
0
  6
Continuous
 62
     7
370
    25
100
AcDbLine
 10
537.8360701505
 20
943.829161648
 30
0.0
 11
539.0726412099
 21
944.0485858697
 31
0.0
  0
LINE
  5
89
330
1F
100
AcDbEntity
  8
0
  6
Continuous
 62
     7
370
    25
100
AcDbLine
 10
537.8360701505
 20
943.829161648
 30
0.0
 11
537.9055808851
 21
951.1975431846
 31
0.0
  0
LWPOLYLINE
  5
8A
330
1F
100
AcDbEntity
  8
0
  6
Continuous
 62
     7
370
    25
100
AcDbPolyline
 90
        9
 70
   128
 43
0.0
 10
537.9055808851
 20
951.1975431846
 10
537.7925388807
 20
952.0219955788
 10
537.4546621242
 20
952.6779828356
 10
536.9433892888
 20
953.0656368418
 10
536.336557029
 20
953.125940789
 10
535.7265500555
 20
952.8497139478
 10
535.2062364002
 20
952.2790093509
 10
534.8548291005
 20
951.5007115997
 10
534.7258267322
 20
950.6333094715
  0
LINE
  5
8B
330
1F
100
AcDbEntity
  8
0
  6
Continuous
 62
     7
370
    25
100
AcDbLine
 10
533.4479638557
 20
943.0505110388
 30
0.0
 11
534.6563159976
 21
943.2649279349
 31
0.0
  0
LINE
  5
8C
330
1F
100
AcDbEntity
  8
0
  6
Continuous
 62
     7
370
    25
100
AcDbLine
 10
537.9055808851
 20
951.1975431846
 30
0.0
 11
535.3938121686
 21
951.6877623128
 31
0.0
  0
LINE
  5
8D
330
1F
100
AcDbEntity
  8
0
  6
Continuous
 62
     7
370
    25
100
AcDbLine
 10
535.3061489997
 20
952.4226711708
 30
0.0
 11
535.3938121686
 21
951.6877623128
 31
0.0
  0
LINE
  5
8E
330
1F
100
AcDbEntity
  8
0
  6
Continuous
 62
     7
370
    25
100
AcDbLine
 10
537.8360701505
 20
943.829161648
 30
0.0
 11
535.324301434
 21
944.3193807762
 31
0.0
  0
LINE
  5
8F
330
1F
100
AcDbEntity
  8
0
  6
Continuous
 62
     7
370
    25
100
AcDbLine
 10
535.3938121686
 20
951.6877623128
 30
0.0
 11
535.324301434
 21
944.3193807762
 31
0.0
  0
LINE
  5
90
330
1F
100
AcDbEntity
  8
0
  6
Continuous
 62
     7
370
    25
100
AcDbLine
 10
539.1007611169
 20
944.0430977385
 30
0.0
 11
539.0726412099
 21
944.0485858697
 31
0.0
  0
LINE
  5
91
330
1F
100
AcDbEntity
  8
0
  6
Continuous
 62
     7
370
    25
100
AcDbLine
 10
535.2277274497
 20
948.6074779639
 30
0.0
 11
535.36450202
 21
948.580783822
 31
0.0
  0
LINE
  5
92
330
1F
100
AcDbEntity
  8
0
  6
Continuous
 62
     7
370
    25
100
AcDbLine
 10
535.2277274497
 20
948.6074779639
 30
0.0
 11
535.2631597537
 21
952.3634263987
 31
0.0
  0
LINE
  5
93
330
1F
100
AcDbEntity
  8
0
  6
Continuous
 62
     7
370
    25
100
AcDbLine
 10
514.7432917917
 20
952.1729110243
 30
0.0
 11
515.0260149006
 21
952.2241929198
 31
0.0
  0
ARC
  5
94
330
1F
100
AcDbEntity
  8
0
  6
Continuous
 62
     7
370
    25
100
AcDbCircle
 10
501.8375232477
 20
1037.4487308864
 30
0.0
 40
86.24688002978291
100
AcDbArc
 50
260.2572169285
 51
278.605920439
  0
LINE
  5
95
330
1F
100
AcDbEntity
  8
0
  6
Continuous
 62
     7
370
    25
100
AcDbLine
 10
535.3595827478
 20
948.0593237173
 30
0.0
 11
535.2277274497
 21
948.6074779639
 31
0.0
  0
LINE
  5
96
330
1F
100
AcDbEntity
  8
0
  6
Continuous
 62
     7
370
    25
100
AcDbLine
 10
233.1616335896
 20
481.2890264097
 30
0.0
 11
233.1565711031
 21
480.752385098
 31
0.0
  0
LINE
  5
97
330
1F
100
AcDbEntity
  8
0
  6
Continuous
 62
     7
370
    25
100
AcDbLine
 10
238.1563486336
 20
480.7052189453
 30
0.0
 11
238.1572745614
 21
480.8033705359
 31
0.0
  0
LINE
  5
98
330
1F
100
AcDbEntity
  8
0
  6
Continuous
 62
     7
370
    25
100
AcDbLine
 10
234.0238471168
 20
480.3909605394
 30
0.0
 11
235.3253032691
 21
480.1700082894
 31
0.0
  0
LINE
  5
99
330
1F
100
AcDbEntity
  8
0
  6
Continuous
 62
     7
370
    25
100
AcDbLine
 10
235.97701554
 20
480.1638602638
 30
0.0
 11
237.2824084715
 21
480.3602204111
 31
0.0
  0
ARC
  5
9A
330
1F
100
AcDbEntity
  8
0
  6
Continuous
 62
     7
370
    25
100
AcDbCircle
 10
258.65059608
 20
663.9920034599
 30
0.0
 40
175.0
100
AcDbArc
 50
289.6670337514
 51
359.4595076863
  0
ARC
  5
9B
330
1F
100
AcDbEntity
  8
0
  6
Continuous
 62
     7
370
    25
100
AcDbCircle
 10
258.65059608
 20
663.9920034599
 30
0.0
 40
175.0
100
AcDbArc
 50
359.4595076863
 51
249.2519816211
  0
LWPOLYLINE
  5
9C
330
1F
100
AcDbEntity
  8
0
  6
Continuous
 62
     7
370
    25
100
AcDbPolyline
 90
       10
 70
   128
 43
0.0
 10
233.1565711031
 20
480.752385098
 10
233.2455610879
 20
480.627591819
 10
233.6820651904
 20
480.4611032233
 10
234.4191529847
 20
480.335369343
 10
235.3446095358
 20
480.2695320215
 10
236.3175424731
 20
480.2736143943
 10
237.1898315766
 20
480.346994957
 10
237.8286787375
 20
480.4785021843
 10
238.1368252668
 20
480.6481152928
 10
238.1563486336
 20
480.7052189453
  0
ARC
  5
9D
330
1F
100
AcDbEntity
  8
0
  6
Continuous
 62
     7
370
    25
100
AcDbCircle
 10
235.6717759282
 20
482.3523580574
 30
0.0
 40
2.209681835321666
100
AcDbArc
 50
260.9789378569
 51
277.9400775156
  0
LINE
  5
9E
330
1F
100
AcDbEntity
  8
0
  6
Continuous
 62
     7
370
    25
100
AcDbLine
 10
260.6251940778
 20
415.842705691
 30
0.0
 11
260.1617891805
 21
366.7201621137
 31
0.0
  0
LINE
  5
9F
330
1F
100
AcDbEntity
  8
0
  6
Continuous
 62
     7
370
    25
100
AcDbLine
 10
260.1617891805
 20
366.7201621137
 30
0.0
 11
255.5469207107
 21
338.1245327803
 31
0.0
  0
LINE
  5
A0
330
1F
100
AcDbEntity
  8
0
  6
Continuous
 62
     7
370
    25
100
AcDbLine
 10
256.9803820547
 20
490.076460232
 30
0.0
 11
255.5469207107
 21
338.1245327803
 31
0.0
  0
LINE
  5
A1
330
1F
100
AcDbEntity
  8
0
  6
Continuous
 62
     7
370
    25
100
AcDbLine
 10
269.5426819671
 20
490.8150584112
 30
0.0
 11
271.1292541674
 21
490.4938910809
 31
0.0
  0
LINE
  5
A2
330
1F
100
AcDbEntity
  8
0
  6
Continuous
 62
     7
370
    25
100
AcDbLine
 10
273.4309802225
 20
480.5891895783
 30
0.0
 11
260.6251940778
 21
415.842705691
 31
0.0
  0
LINE
  5
A3
330
1F
100
AcDbEntity
  8
0
  6
Continuous
 62
     7
370
    25
100
AcDbLine
 10
255.5469207107
 20
338.1245327803
 30
0.0
 11
251.3248426581
 21
366.8310565187
 31
0.0
  0
LINE
  5
A4
330
1F
100
AcDbEntity
  8
0
  6
Continuous
 62
     7
370
    25
100
AcDbLine
 10
251.3248426581
 20
366.8310565187
 30
0.0
 11
251.7882475554
 21
415.9536000959
 31
0.0
  0
LINE
  5
A5
330
1F
100
AcDbEntity
  8
0
  6
Continuous
 62
     7
370
    25
100
AcDbLine
 10
251.7882475554
 20
415.9536000959
 30
0.0
 11
239.8559473961
 21
480.6657881316
 31
0.0
  0
LINE
  5
A6
330
1F
100
AcDbEntity
  8
0
  6
Continuous
 62
     7
370
    25
100
AcDbLine
 10
243.1711978184
 20
490.9928613521
 30
0.0
 11
244.0080307372
 21
491.1354914869
 31
0.0
  0
LINE
  5
A7
330
1F
100
AcDbEntity
  8
0
  6
Continuous
 62
     7
370
    25
100
AcDbLine
 10
262.4252424742
 20
416.1495066541
 30
0.0
 11
260.6251940778
 21
415.842705691
 31
0.0
  0
LINE
  5
A8
330
1F
100
AcDbEntity
  8
0
  6
Continuous
 62
     7
370
    25
100
AcDbLine
 10
275.1356738657
 20
480.4138737138
 30
0.0
 11
262.4252424742
 21
416.1495066541
 31
0.0
  0
LINE
  5
A9
330
1F
100
AcDbEntity
  8
0
  6
Continuous
 62
     7
370
    25
100
AcDbLine
 10
250.0535173428
 20
416.3047588211
 30
0.0
 11
251.7882475554
 21
415.9536000959
 31
0.0
  0
LINE
  5
AA
330
1F
100
AcDbEntity
  8
0
  6
Continuous
 62
     7
370
    25
100
AcDbLine
 10
250.0535173428
 20
416.3047588211
 30
0.0
 11
238.1606514585
 21
480.8030837976
 31
0.0
  0
LINE
  5
AB
330
1F
100
AcDbEntity
  8
0
  6
Continuous
 62
     7
370
    25
100
AcDbLine
 10
262.58042211
 20
416.9341000929
 30
0.0
 11
262.1251330366
 21
368.6718622977
 31
0.0
  0
LINE
  5
AC
330
1F
100
AcDbEntity
  8
0
  6
Continuous
 62
     7
370
    25
100
AcDbLine
 10
262.1251330366
 20
368.6718622977
 30
0.0
 11
261.9679717207
 21
367.6772038199
 31
0.0
  0
LINE
  5
AD
330
1F
100
AcDbEntity
  8
0
  6
Continuous
 62
     7
370
    25
100
AcDbLine
 10
261.9618375769
 20
367.0269630769
 30
0.0
 11
260.1617891805
 21
366.7201621137
 31
0.0
  0
LINE
  5
AE
330
1F
100
AcDbEntity
  8
0
  6
Continuous
 62
     7
370
    25
100
AcDbLine
 10
262.4252424742
 20
416.1495066541
 30
0.0
 11
261.9618375769
 21
367.0269630769
 31
0.0
  0
LINE
  5
AF
330
1F
100
AcDbEntity
  8
0
  6
Continuous
 62
     7
370
    25
100
AcDbLine
 10
249.5901124455
 20
367.1822152439
 30
0.0
 11
251.3248426581
 21
366.8310565187
 31
0.0
  0
LINE
  5
B0
330
1F
100
AcDbEntity
  8
0
  6
Continuous
 62
     7
370
    25
100
AcDbLine
 10
249.5901124455
 20
367.1822152439
 30
0.0
 11
250.0535173428
 21
416.3047588211
 31
0.0
  0
LINE
  5
B1
330
1F
100
AcDbEntity
  8
0
  6
Continuous
 62
     7
370
    25
100
AcDbLine
 10
257.3469691072
 20
338.4313337435
 30
0.0
 11
255.5469207107
 21
338.1245327803
 31
0.0
  0
LINE
  5
B2
330
1F
100
AcDbEntity
  8
0
  6
Continuous
 62
     7
370
    25
100
AcDbLine
 10
261.9618375769
 20
367.0269630769
 30
0.0
 11
257.3469691072
 21
338.4313337435
 31
0.0
  0
LINE
  5
B3
330
1F
100
AcDbEntity
  8
0
  6
Continuous
 62
     7
370
    25
100
AcDbLine
 10
253.8121904982
 20
338.4756915054
 30
0.0
 11
255.5469207107
 21
338.1245327803
 31
0.0
  0
LINE
  5
B4
330
1F
100
AcDbEntity
  8
0
  6
Continuous
 62
     7
370
    25
100
AcDbLine
 10
253.8121904982
 20
338.4756915054
 30
0.0
 11
249.5901124455
 21
367.1822152439
 31
0.0
  0
LWPOLYLINE
  5
B5
330
1F
100
AcDbEntity
  8
0
  6
Continuous
 62
     7
370
    25
100
AcDbPolyline
 90
       32
 70
   128
 43
0.0
 10
317.5474601802
 20
499.2007433786
 10
315.5402489826
 20
498.5363296819
 10
312.9084605064
 20
497.7920840304
 10
309.9860001185
 20
497.0878683158
 10
306.7881041744
 20
496.4273539929
 10
303.3314450228
 20
495.8139846774
 10
299.6340440837
 20
495.2509581931
 10
295.7151778939
 20
494.7412098992
 10
291.5952776069
 20
494.2873973873
 10
287.2958224752
 20
493.8918866258
 10
282.8392278672
 20
493.5567396246
 10
278.2487284034
 20
493.283703685
 10
273.5482568225
 20
493.07420229
 10
268.7623192069
 20
492.9293276828
 10
263.9158672193
 20
492.8498351725
 10
259.0341680161
 20
492.8361391964
 10
254.1426725168
 20
492.8883111588
 10
249.2668827138
 20
493.0060790593
 10
244.4322187175
 20
493.1888289106
 10
239.6638862274
 20
493.4356079397
 10
234.9867451211
 20
493.7451295548
 10
230.4251798468
 20
494.1157800537
 10
226.0029722936
 20
494.5456270363
 10
221.743177804
 20
495.0324294794
 10
217.668004974
 20
495.5736494204
 10
213.7986998679
 20
496.1664651893
 10
210.1554352509
 20
496.8077861191
 10
206.7572054176
 20
497.4942686594
 10
203.621727165
 20
498.2223338082
 10
200.7653474248
 20
498.9881857708
 10
198.2029580384
 20
499.7878317498
 10
196.6553243895
 20
500.3411975101
  0
ELLIPSE
  5
B6
330
1F
100
AcDbEntity
  8
0
  6
Continuous
 62
     7
370
    25
100
AcDbEllipse
 10
257.1783266983
 20
507.9262879659
 30
0.0
 11
51.07073209108718
 21
230.6467130985062
 31
0.0
210
0.0
220
0.0
230
1.0
 40
0.0452769817
 41
1.644467688235556
 42
1.699421899408047
  0
LWPOLYLINE
  5
B7
330
1F
100
AcDbEntity
  8
0
  6
Continuous
 62
     7
370
    25
100
AcDbPolyline
 90
       11
 70
   128
 43
0.0
 10
240.2707042256
 20
480.6341861835
 10
236.1627208003
 20
480.9822464399
 10
232.2185984694
 20
481.3953924866
 10
228.4693498691
 20
481.8703757559
 10
224.9444553431
 20
482.403461454
 10
221.6716311391
 20
482.9904579279
 10
218.6766114755
 20
483.6267496239
 10
215.9829461936
 20
484.3073333802
 10
213.611815585
 20
485.0268577662
 10
211.5818638509
 20
485.7796651613
 10
209.9090525029
 20
486.5598362406
  0
ELLIPSE
  5
B8
330
1F
100
AcDbEntity
  8
0
  6
Continuous
 62
     7
370
    25
100
AcDbEllipse
 10
257.1783266983
 20
507.9262879659
 30
0.0
 11
-10.80570685944369
 21
242.4446945157039
 31
0.0
210
0.0
220
0.0
230
1.0
 40
0.1991297006
 41
1.607138332975947
 42
1.650161566978631
  0
ARC
  5
B9
330
1F
100
AcDbEntity
  8
0
  6
Continuous
 62
     7
370
    25
100
AcDbCircle
 10
264.4899622464
 20
654.7741717122
 30
0.0
 40
174.6892014052185
100
AcDbArc
 50
273.0535774498
 51
278.2111754146
  0
ELLIPSE
  5
BA
330
1F
100
AcDbEntity
  8
0
  6
Continuous
 62
     7
370
    25
100
AcDbEllipse
 10
257.1783266983
 20
507.9262879659
 30
0.0
 11
-46.66138691052268
 21
231.524372994401
 31
0.0
210
0.0
220
0.0
230
1.0
 40
0.046272915
 41
4.583603757046997
 42
4.638542851376561
  0
ELLIPSE
  5
BB
330
1F
100
AcDbEntity
  8
0
  6
Continuous
 62
     7
370
    25
100
AcDbEllipse
 10
257.1783266983
 20
507.9262879659
 30
0.0
 11
15.14469321091719
 21
242.2115560310435
 31
0.0
210
0.0
220
0.0
230
1.0
 40
0.1993785641
 41
4.633024630553718
 42
4.675923361091128
  0
ARC
  5
BC
330
1F
100
AcDbEntity
  8
0
  6
Continuous
 62
     7
370
    25
100
AcDbCircle
 10
288.3996384252
 20
519.9728868002
 30
0.0
 40
37.69291688137411
100
AcDbArc
 50
280.2275517854
 51
294.6450598662
  0
LINE
  5
BD
330
1F
100
AcDbEntity
  8
0
  6
Continuous
 62
     7
370
    25
100
AcDbLine
 10
295.0923169594
 20
482.8788975693
 30
0.0
 11
295.161827694
 21
490.2472791059
 31
0.0
  0
SPLINE
  5
BE
330
1F
100
AcDbEntity
  8
0
  6
Continuous
 62
     7
370
    25
100
AcDbSpline
210
0.0
220
0.0
230
1.0
 70
     8
 71
     3
 72
    38
 73
    34
 74
     0
 42
0.00000001
 43
0.00000001
 40
0.0
 40
0.0
 40
0.0
 40
0.0
 40
0.0625000000000001
 40
0.0625000000000001
 40
0.1250000000000001
 40
0.1250000000000001
 40
0.1875000000000002
 40
0.1875000000000002
 40
0.2500000000000002
 40
0.2500000000000002
 40
0.3125000000000003
 40
0.3125000000000003
 40
0.3750000000000003
 40
0.3750000000000003
 40
0.4375000000000004
 40
0.4375000000000004
 40
0.5000000000000004
 40
0.5000000000000004
 40
0.5625000000000004
 40
0.5625000000000004
 40
0.6250000000000006
 40
0.6250000000000006
 40
0.6875000000000007
 40
0.6875000000000007
 40
0.7500000000000007
 40
0.7500000000000007
 40
0.8125000000000007
 40
0.8125000000000007
 40
0.8750000000000008
 40
0.8750000000000008
 40
0.9375000000000003
 40
0.9375000000000003
 40
1.0
 40
1.0
 40
1.0
 40
1.0
 10
295.16182769403
 20
490.2472791058677
 30
0.0
 10
295.1642776791215
 20
490.5069861139904
 30
0.0
 10
295.1498393309503
 20
490.7587892987669
 30
0.0
 10
295.0884155153029
 20
491.2472758294273
 30
0.0
 10
295.0406445562709
 20
491.4864001499456
 30
0.0
 10
294.9137926704705
 20
491.9349897823011
 30
0.0
 10
294.8353533675087
 20
492.1440291014656
 30
0.0
 10
294.6480073017564
 20
492.5320413004004
 30
0.0
 10
294.5381073319178
 20
492.7115365581409
 30
0.0
 10
294.2956904237105
 20
493.0247500695285
 30
0.0
 10
294.1623562825993
 20
493.1607148182726
 30
0.0
 10
293.869960946282
 20
493.3905143578453
 30
0.0
 10
293.7130229944187
 20
493.4821542280322
 30
0.0
 10
293.3852944213811
 20
493.6158408499184
 30
0.0
 10
293.2120863779201
 20
493.6589153093057
 30
0.0
 10
292.853913441339
 20
493.6941107513822
 30
0.0
 10
292.6721883545317
 20
493.6863028381484
 30
0.0
 10
292.3034325537641
 20
493.62121787578
 30
0.0
 10
292.11440737627
 20
493.5627915897038
 30
0.0
 10
291.7452634912571
 20
493.3993820229938
 30
0.0
 10
291.5642003461393
 20
493.2947774652421
 30
0.0
 10
291.2095934075658
 20
493.0394004222194
 30
0.0
 10
291.0366496674475
 20
492.8883374335288
 30
0.0
 10
290.714092196078
 20
492.5524096200176
 30
0.0
 10
290.5624437545621
 20
492.3662255305059
 30
0.0
 10
290.2800123221941
 20
491.9557474073783
 30
0.0
 10
290.1537191687981
 20
491.7379067066094
 30
0.0
 10
289.9312434438215
 20
491.2789250990426
 30
0.0
 10
289.8341502304795
 20
491.0348414582585
 30
0.0
 10
289.6770943625804
 20
490.5357710576821
 30
0.0
 10
289.6170611705928
 20
490.2821788835535
 30
0.0
 10
289.5340902372673
 20
489.7668545308046
 30
0.0
 10
289.5113814039249
 20
489.5039035890001
 30
0.0
 10
289.5089314223087
 20
489.2441969492822
 30
0.0
  0
LINE
  5
BF
330
1F
100
AcDbEntity
  8
0
  6
Continuous
 62
     7
370
    25
100
AcDbLine
 10
289.5089314223
 20
489.2441969493
 30
0.0
 11
289.4394206877
 21
481.8758154127
 31
0.0
  0
LINE
  5
C0
330
1F
100
AcDbEntity
  8
0
  6
Continuous
 62
     7
370
    25
100
AcDbLine
 10
241.0478756425
 20
481.1689049527
 30
0.0
 11
240.2707042256
 21
480.6341861835
 31
0.0
  0
ELLIPSE
  5
C1
330
1F
100
AcDbEntity
  8
0
  6
Continuous
 62
     7
370
    25
100
AcDbEllipse
 10
257.1783266983
 20
507.9262879659
 30
0.0
 11
48.00648816562193
 21
216.8079103125957
 31
0.0
210
0.0
220
0.0
230
1.0
 40
0.0452769817
 41
1.648680723220632
 42
1.70454577762704
  0
LINE
  5
C2
330
1F
100
AcDbEntity
  8
0
  6
Continuous
 62
     7
370
    25
100
AcDbLine
 10
273.7956131369
 20
480.333001259
 30
0.0
 11
273.0146238437
 21
480.8817184113
 31
0.0
  0
ELLIPSE
  5
C3
330
1F
100
AcDbEntity
  8
0
  6
Continuous
 62
     7
370
    25
100
AcDbEllipse
 10
257.1783266983
 20
507.9262879659
 30
0.0
 11
-43.86170369589126
 21
217.6329106147368
 31
0.0
210
0.0
220
0.0
230
1.0
 40
0.046272915
 41
4.578479878828004
 42
4.634327052243477
  0
LINE
  5
C4
330
1F
100
AcDbEntity
  8
0
  6
Continuous
 62
     7
370
    25
100
AcDbLine
 10
242.0260148722
 20
481.8418959991
 30
0.0
 11
242.0641395108
 21
485.8832413349
 31
0.0
  0
LINE
  5
C5
330
1F
100
AcDbEntity
  8
0
  6
Continuous
 62
     7
370
    25
100
AcDbLine
 10
242.0260148722
 20
481.8418959991
 30
0.0
 11
241.0478756425
 21
481.1689049527
 31
0.0
  0
LINE
  5
C6
330
1F
100
AcDbEntity
  8
0
  6
Continuous
 62
     7
370
    25
100
AcDbLine
 10
271.9795190253
 20
481.6089752036
 30
0.0
 11
272.0205912977
 21
485.9627800592
 31
0.0
  0
LINE
  5
C7
330
1F
100
AcDbEntity
  8
0
  6
Continuous
 62
     7
370
    25
100
AcDbLine
 10
273.0146238437
 20
480.8817184113
 30
0.0
 11
271.9795190253
 21
481.6089752036
 31
0.0
  0
LINE
  5
C8
330
1F
100
AcDbEntity
  8
0
  6
Continuous
 62
     7
370
    25
100
AcDbLine
 10
295.161827694
 20
490.2472791059
 30
0.0
 11
295.133707787
 21
490.2527672371
 31
0.0
  0
LWPOLYLINE
  5
C9
330
1F
100
AcDbEntity
  8
0
  6
Continuous
 62
     7
370
    25
100
AcDbPolyline
 90
        6
 70
   128
 43
0.0
 10
295.133707787
 20
490.2527672371
 10
295.0068275678
 20
491.4425961313
 10
294.6156948319
 20
492.4668619481
 10
293.9985963767
 20
493.2253024129
 10
293.2159380986
 20
493.6436760887
 10
293.0734786316
 20
493.6771538802
  0
LINE
  5
CA
330
1F
100
AcDbEntity
  8
0
  6
Continuous
 62
     7
370
    25
100
AcDbLine
 10
290.7173825747
 20
489.4691093023
 30
0.0
 11
290.6478718401
 21
482.1007277657
 31
0.0
  0
LINE
  5
CB
330
1F
100
AcDbEntity
  8
0
  6
Continuous
 62
     7
370
    25
100
AcDbLine
 10
295.0641970524
 20
482.8843857005
 30
0.0
 11
295.133707787
 21
490.2527672371
 31
0.0
  0
LINE
  5
CC
330
1F
100
AcDbEntity
  8
0
  6
Continuous
 62
     7
370
    25
100
AcDbLine
 10
293.827625993
 20
482.6649614787
 30
0.0
 11
295.0641970524
 21
482.8843857005
 31
0.0
  0
LINE
  5
CD
330
1F
100
AcDbEntity
  8
0
  6
Continuous
 62
     7
370
    25
100
AcDbLine
 10
293.827625993
 20
482.6649614787
 30
0.0
 11
293.8971367276
 21
490.0333430153
 31
0.0
  0
LWPOLYLINE
  5
CE
330
1F
100
AcDbEntity
  8
0
  6
Continuous
 62
     7
370
    25
100
AcDbPolyline
 90
        9
 70
   128
 43
0.0
 10
293.8971367276
 20
490.0333430153
 10
293.7840947232
 20
490.8577954095
 10
293.4462179667
 20
491.5137826664
 10
292.9349451313
 20
491.9014366726
 10
292.3281128715
 20
491.9617406198
 10
291.718105898
 20
491.6855137786
 10
291.1977922427
 20
491.1148091817
 10
290.846384943
 20
490.3365114305
 10
290.7173825747
 20
489.4691093023
  0
LINE
  5
CF
330
1F
100
AcDbEntity
  8
0
  6
Continuous
 62
     7
370
    25
100
AcDbLine
 10
289.4395196982
 20
481.8863108696
 30
0.0
 11
290.6478718401
 21
482.1007277657
 31
0.0
  0
LINE
  5
D0
330
1F
100
AcDbEntity
  8
0
  6
Continuous
 62
     7
370
    25
100
AcDbLine
 10
293.8971367276
 20
490.0333430153
 30
0.0
 11
291.3853680111
 21
490.5235621435
 31
0.0
  0
LINE
  5
D1
330
1F
100
AcDbEntity
  8
0
  6
Continuous
 62
     7
370
    25
100
AcDbLine
 10
291.2977048422
 20
491.2584710016
 30
0.0
 11
291.3853680111
 21
490.5235621435
 31
0.0
  0
LINE
  5
D2
330
1F
100
AcDbEntity
  8
0
  6
Continuous
 62
     7
370
    25
100
AcDbLine
 10
293.827625993
 20
482.6649614787
 30
0.0
 11
291.3158572765
 21
483.155180607
 31
0.0
  0
LINE
  5
D3
330
1F
100
AcDbEntity
  8
0
  6
Continuous
 62
     7
370
    25
100
AcDbLine
 10
291.3853680111
 20
490.5235621435
 30
0.0
 11
291.3158572765
 21
483.155180607
 31
0.0
  0
LINE
  5
D4
330
1F
100
AcDbEntity
  8
0
  6
Continuous
 62
     7
370
    25
100
AcDbLine
 10
295.0923169594
 20
482.8788975693
 30
0.0
 11
295.0641970524
 21
482.8843857005
 31
0.0
  0
LINE
  5
D5
330
1F
100
AcDbEntity
  8
0
  6
Continuous
 62
     7
370
    25
100
AcDbLine
 10
291.2192832922
 20
487.4432777947
 30
0.0
 11
291.3560578625
 21
487.4165836527
 31
0.0
  0
LINE
  5
D6
330
1F
100
AcDbEntity
  8
0
  6
Continuous
 62
     7
370
    25
100
AcDbLine
 10
291.2192832922
 20
487.4432777947
 30
0.0
 11
291.2547155962
 21
491.1992262295
 31
0.0
  0
LINE
  5
D7
330
1F
100
AcDbEntity
  8
0
  6
Continuous
 62
     7
370
    25
100
AcDbLine
 10
270.7348476342
 20
491.0087108551
 30
0.0
 11
271.0175707431
 21
491.0599927506
 31
0.0
  0
ARC
  5
D8
330
1F
100
AcDbEntity
  8
0
  6
Continuous
 62
     7
370
    25
100
AcDbCircle
 10
257.8290790902
 20
576.2845307172
 30
0.0
 40
86.24688002977801
100
AcDbArc
 50
260.2572169285
 51
278.605920439
  0
LINE
  5
D9
330
1F
100
AcDbEntity
  8
0
  6
Continuous
 62
     7
370
    25
100
AcDbLine
 10
291.3511385903
 20
486.895123548
 30
0.0
 11
291.2192832922
 21
487.4432777947
 31
0.0
  0
LINE
  5
DA
330
1F
100
AcDbEntity
  8
0
  6
Continuous
 62
     7
370
    25
100
AcDbLine
 10
745.6368974364
 20
350.958431512
 30
0.0
 11
746.8555600064
 21
480.1409359539
 31
0.0
  0
LINE
  5
DB
330
1F
100
AcDbEntity
  8
0
  6
Continuous
 62
     7
370
    25
100
AcDbLine
 10
738.8625538906
 20
480.920045951
 30
0.0
 11
737.6372533877
 21
351.0338973564
 31
0.0
  0
LINE
  5
DC
330
1F
100
AcDbEntity
  8
0
  6
Continuous
 62
     7
370
    25
100
AcDbLine
 10
737.6546027872
 20
350.9630850922
 30
0.0
 11
741.5629306285
 21
343.1365574618
 31
0.0
  0
LINE
  5
DD
330
1F
100
AcDbEntity
  8
0
  6
Continuous
 62
     7
370
    25
100
AcDbLine
 10
741.5629306285
 20
343.1365574618
 30
0.0
 11
745.6182152072
 21
350.8879591576
 31
0.0
  0
LINE
  5
DE
330
1F
100
AcDbEntity
  8
0
  6
Continuous
 62
     7
370
    25
100
AcDbLine
 10
775.5547146426
 20
492.3797379421
 30
0.0
 11
764.9957166584
 21
490.506089115
 31
0.0
  0
LINE
  5
DF
330
1F
100
AcDbEntity
  8
0
  6
Continuous
 62
     7
370
    25
100
AcDbLine
 10
766.3934476694
 20
482.6291386885
 30
0.0
 11
779.2150736664
 21
484.9042811355
 31
0.0
  0
LINE
  5
E0
330
1F
100
AcDbEntity
  8
0
  6
Continuous
 62
     7
370
    25
100
AcDbLine
 10
788.0893264474
 20
342.6730377959
 30
0.0
 11
789.3890038369
 21
480.443397092
 31
0.0
  0
LINE
  5
E1
330
1F
100
AcDbEntity
  8
0
  6
Continuous
 62
     7
370
    25
100
AcDbLine
 10
781.3827218553
 20
479.8152187836
 30
0.0
 11
780.0896823987
 21
342.7485036403
 31
0.0
  0
LINE
  5
E2
330
1F
100
AcDbEntity
  8
0
  6
Continuous
 62
     7
370
    25
100
AcDbLine
 10
780.1070317982
 20
342.6776913761
 30
0.0
 11
784.0153596395
 21
334.8511637458
 31
0.0
  0
LINE
  5
E3
330
1F
100
AcDbEntity
  8
0
  6
Continuous
 62
     7
370
    25
100
AcDbLine
 10
784.0153596395
 20
334.8511637458
 30
0.0
 11
788.0706442182
 21
342.6025654415
 31
0.0
  0
ARC
  5
E4
330
1F
100
AcDbEntity
  8
0
  6
Continuous
 62
     7
370
    25
100
AcDbCircle
 10
765.8499665036
 20
663.4516554805
 30
0.0
 40
175.0000000000001
100
AcDbArc
 50
289.6670337514
 51
359.4595076863
  0
ARC
  5
E5
330
1F
100
AcDbEntity
  8
0
  6
Continuous
 62
     7
370
    25
100
AcDbCircle
 10
765.8499665036
 20
663.4516554805
 30
0.0
 40
175.0000000000001
100
AcDbArc
 50
359.4595076863
 51
249.2519816211
  0
LWPOLYLINE
  5
E6
330
1F
100
AcDbEntity
  8
0
  6
Continuous
 62
     7
370
    25
100
AcDbPolyline
 90
       13
 70
   128
 43
0.0
 10
737.6372533877
 20
351.0338973564
 10
737.6401433244
 20
351.0042087365
 10
737.8625723926
 20
350.7839513771
 10
738.4203826183
 20
350.5825500791
 10
739.2640101149
 20
350.4179002317
 10
740.3184948771
 20
350.3046316963
 10
741.4901413064
 20
350.2528088795
 10
742.6748434758
 20
350.2670364658
 10
743.7673353986
 20
350.3460502719
 10
744.670544373
 20
350.4828295743
 10
745.3042163181
 20
350.6652209317
 10
745.6120467008
 20
350.8770180716
 10
745.6368974364
 20
350.958431512
  0
LWPOLYLINE
  5
E7
330
1F
100
AcDbEntity
  8
0
  6
Continuous
 62
     7
370
    25
100
AcDbPolyline
 90
       22
 70
   128
 43
0.0
 10
762.8644202299
 20
487.1199734828
 10
763.0010836631
 20
488.2537636084
 10
763.3770762583
 20
489.237731933
 10
763.9589894235
 20
489.9844485529
 10
764.6951176201
 20
490.4275644196
 10
765.5200526276
 20
490.5277067436
 10
766.3604953503
 20
490.27597744
 10
767.141768764
 20
489.6947437621
 10
767.7944532975
 20
488.835650873
 10
768.2605550656
 20
487.7750329459
 10
768.4986588808
 20
486.6071305381
 10
768.4876081743
 20
485.4357169036
 10
768.2283848497
 20
484.3648772848
 10
767.7440220371
 20
483.4897604808
 10
767.0775574979
 20
482.8881244603
 10
766.2882095312
 20
482.6134272238
 10
765.4461151679
 20
482.6900768264
 10
764.6260981875
 20
483.1112626143
 10
763.9010206974
 20
483.8395603821
 10
763.3353090145
 20
484.810257677
 10
762.9792291045
 20
485.9371037845
 10
762.8644202299
 20
487.1199734828
  0
LWPOLYLINE
  5
E8
330
1F
100
AcDbEntity
  8
0
  6
Continuous
 62
     7
370
    25
100
AcDbPolyline
 90
       13
 70
   128
 43
0.0
 10
780.0896823987
 20
342.7485036403
 10
780.0925723354
 20
342.7188150204
 10
780.3150014037
 20
342.498557661
 10
780.8728116293
 20
342.297156363
 10
781.7164391259
 20
342.1325065156
 10
782.7709238882
 20
342.0192379802
 10
783.9425703175
 20
341.9674151634
 10
785.1272724869
 20
341.9816427497
 10
786.2197644096
 20
342.0606565558
 10
787.1229733841
 20
342.1974358582
 10
787.7566453292
 20
342.3798272156
 10
788.0644757118
 20
342.5916243555
 10
788.0893264474
 20
342.6730377959
  0
LWPOLYLINE
  5
E9
330
1F
100
AcDbEntity
  8
0
  6
Continuous
 62
     7
370
    25
100
AcDbPolyline
 90
       32
 70
   128
 43
0.0
 10
824.7468306038
 20
498.6603953993
 10
822.7396194062
 20
497.9959817026
 10
820.1078309299
 20
497.251736051
 10
817.1853705421
 20
496.5475203364
 10
813.987474598
 20
495.8870060135
 10
810.5308154463
 20
495.2736366981
 10
806.8334145073
 20
494.7106102137
 10
802.9145483174
 20
494.2008619198
 10
798.7946480305
 20
493.747049408
 10
794.4951928988
 20
493.3515386465
 10
790.0385982907
 20
493.0163916453
 10
785.4480988269
 20
492.7433557057
 10
780.7476272461
 20
492.5338543106
 10
775.9616896305
 20
492.3889797034
 10
771.1152376428
 20
492.3094871932
 10
766.2335384397
 20
492.295791217
 10
761.3420429403
 20
492.3479631794
 10
756.4662531373
 20
492.46573108
 10
751.631589141
 20
492.6484809313
 10
746.8632566509
 20
492.8952599603
 10
742.1861155447
 20
493.2047815755
 10
737.6245502704
 20
493.5754320744
 10
733.2023427171
 20
494.0052790569
 10
728.9425482275
 20
494.4920815
 10
724.8673753976
 20
495.0333014411
 10
720.9980702915
 20
495.62611721
 10
717.3548056744
 20
496.2674381398
 10
713.9565758412
 20
496.9539206801
 10
710.8210975886
 20
497.6819858288
 10
707.9647178484
 20
498.4478377915
 10
705.4023284619
 20
499.2474837704
 10
703.8546948131
 20
499.8008495307
  0
ELLIPSE
  5
EA
330
1F
100
AcDbEntity
  8
0
  6
Continuous
 62
     7
370
    25
100
AcDbEllipse
 10
764.3776971219
 20
507.3859399866
 30
0.0
 11
51.07073209108717
 21
230.6467130985061
 31
0.0
210
0.0
220
0.0
230
1.0
 40
0.0452769817
 41
1.644467688235558
 42
1.699421899408047
  0
LWPOLYLINE
  5
EB
330
1F
100
AcDbEntity
  8
0
  6
Continuous
 62
     7
370
    25
100
AcDbPolyline
 90
       11
 70
   128
 43
0.0
 10
747.4700746492
 20
480.0938382041
 10
743.3620912238
 20
480.4418984606
 10
739.4179688929
 20
480.8550445073
 10
735.6687202926
 20
481.3300277765
 10
732.1438257667
 20
481.8631134747
 10
728.8710015627
 20
482.4501099486
 10
725.8759818991
 20
483.0864016446
 10
723.1823166172
 20
483.7669854008
 10
720.8111860085
 20
484.4865097868
 10
718.7812342744
 20
485.239317182
 10
717.1084229265
 20
486.0194882612
  0
ELLIPSE
  5
EC
330
1F
100
AcDbEntity
  8
0
  6
Continuous
 62
     7
370
    25
100
AcDbEllipse
 10
764.3776971219
 20
507.3859399866
 30
0.0
 11
-10.80570685944372
 21
242.4446945157041
 31
0.0
210
0.0
220
0.0
230
1.0
 40
0.1991297006
 41
1.607138332975947
 42
1.650161566978631
  0
ARC
  5
ED
330
1F
100
AcDbEntity
  8
0
  6
Continuous
 62
     7
370
    25
100
AcDbCircle
 10
771.68933267
 20
654.2338237329
 30
0.0
 40
174.6892014052042
100
AcDbArc
 50
273.0535774498
 51
278.2111754146
  0
ELLIPSE
  5
EE
330
1F
100
AcDbEntity
  8
0
  6
Continuous
 62
     7
370
    25
100
AcDbEllipse
 10
764.3776971219
 20
507.3859399866
 30
0.0
 11
-46.66138691052267
 21
231.5243729944011
 31
0.0
210
0.0
220
0.0
230
1.0
 40
0.046272915
 41
4.583603757046999
 42
4.638542851376561
  0
ELLIPSE
  5
EF
330
1F
100
AcDbEntity
  8
0
  6
Continuous
 62
     7
370
    25
100
AcDbEllipse
 10
764.3776971219
 20
507.3859399866
 30
0.0
 11
15.14469321091724
 21
242.2115560310434
 31
0.0
210
0.0
220
0.0
230
1.0
 40
0.1993785641
 41
4.633024630553718
 42
4.675923361091128
  0
ARC
  5
F0
330
1F
100
AcDbEntity
  8
0
  6
Continuous
 62
     7
370
    25
100
AcDbCircle
 10
795.5990088488
 20
519.4325388209
 30
0.0
 40
37.69291688137617
100
AcDbArc
 50
280.2275517854
 51
294.6450598662
  0
LINE
  5
F1
330
1F
100
AcDbEntity
  8
0
  6
Continuous
 62
     7
370
    25
100
AcDbLine
 10
802.291687383
 20
482.3385495899
 30
0.0
 11
802.3611981176
 21
489.7069311265
 31
0.0
  0
SPLINE
  5
F2
330
1F
100
AcDbEntity
  8
0
  6
Continuous
 62
     7
370
    25
100
AcDbSpline
210
0.0
220
0.0
230
1.0
 70
     8
 71
     3
 72
    38
 73
    34
 74
     0
 42
0.00000001
 43
0.00000001
 40
0.0
 40
0.0
 40
0.0
 40
0.0
 40
0.0625000000000001
 40
0.0625000000000001
 40
0.1250000000000001
 40
0.1250000000000001
 40
0.1875000000000002
 40
0.1875000000000002
 40
0.2500000000000002
 40
0.2500000000000002
 40
0.3125000000000003
 40
0.3125000000000003
 40
0.3750000000000003
 40
0.3750000000000003
 40
0.4375000000000004
 40
0.4375000000000004
 40
0.5000000000000004
 40
0.5000000000000004
 40
0.5625000000000004
 40
0.5625000000000004
 40
0.6250000000000006
 40
0.6250000000000006
 40
0.6875000000000007
 40
0.6875000000000007
 40
0.7500000000000007
 40
0.7500000000000007
 40
0.8125000000000007
 40
0.8125000000000007
 40
0.8750000000000008
 40
0.8750000000000008
 40
0.9375000000000003
 40
0.9375000000000003
 40
1.0
 40
1.0
 40
1.0
 40
1.0
 10
802.3611981175867
 20
489.7069311265181
 30
0.0
 10
802.3636481026783
 20
489.9666381346408
 30
0.0
 10
802.3492097545071
 20
490.2184413194173
 30
0.0
 10
802.2877859388597
 20
490.7069278500776
 30
0.0
 10
802.2400149798277
 20
490.9460521705959
 30
0.0
 10
802.1131630940272
 20
491.3946418029515
 30
0.0
 10
802.0347237910655
 20
491.603681122116
 30
0.0
 10
801.8473777253131
 20
491.9916933210508
 30
0.0
 10
801.7374777554746
 20
492.1711885787913
 30
0.0
 10
801.4950608472674
 20
492.4844020901789
 30
0.0
 10
801.361726706156
 20
492.620366838923
 30
0.0
 10
801.0693313698389
 20
492.8501663784957
 30
0.0
 10
800.9123934179754
 20
492.9418062486826
 30
0.0
 10
800.5846648449378
 20
493.0754928705687
 30
0.0
 10
800.4114568014768
 20
493.118567329956
 30
0.0
 10
800.0532838648958
 20
493.1537627720326
 30
0.0
 10
799.8715587780885
 20
493.1459548587987
 30
0.0
 10
799.5028029773209
 20
493.0808698964304
 30
0.0
 10
799.3137777998268
 20
493.0224436103542
 30
0.0
 10
798.9446339148138
 20
492.8590340436442
 30
0.0
 10
798.7635707696961
 20
492.7544294858925
 30
0.0
 10
798.4089638311226
 20
492.4990524428698
 30
0.0
 10
798.2360200910042
 20
492.3479894541791
 30
0.0
 10
797.9134626196347
 20
492.0120616406679
 30
0.0
 10
797.7618141781188
 20
491.8258775511562
 30
0.0
 10
797.4793827457507
 20
491.4153994280287
 30
0.0
 10
797.3530895923549
 20
491.1975587272598
 30
0.0
 10
797.1306138673782
 20
490.738577119693
 30
0.0
 10
797.0335206540364
 20
490.4944934789089
 30
0.0
 10
796.876464786137
 20
489.9954230783325
 30
0.0
 10
796.8164315941495
 20
489.7418309042039
 30
0.0
 10
796.733460660824
 20
489.2265065514549
 30
0.0
 10
796.7107518274815
 20
488.9635556096504
 30
0.0
 10
796.7083018458654
 20
488.7038489699326
 30
0.0
  0
LINE
  5
F3
330
1F
100
AcDbEntity
  8
0
  6
Continuous
 62
     7
370
    25
100
AcDbLine
 10
796.7083018459
 20
488.7038489699
 30
0.0
 11
796.6387911113
 21
481.3354674333
 31
0.0
  0
LINE
  5
F4
330
1F
100
AcDbEntity
  8
0
  6
Continuous
 62
     7
370
    25
100
AcDbLine
 10
748.2472460661
 20
480.6285569734
 30
0.0
 11
747.4700746492
 21
480.0938382041
 31
0.0
  0
ELLIPSE
  5
F5
330
1F
100
AcDbEntity
  8
0
  6
Continuous
 62
     7
370
    25
100
AcDbEllipse
 10
764.3776971219
 20
507.3859399866
 30
0.0
 11
48.00648816562195
 21
216.8079103125957
 31
0.0
210
0.0
220
0.0
230
1.0
 40
0.0452769817
 41
1.648680723220632
 42
1.70454577762704
  0
LINE
  5
F6
330
1F
100
AcDbEntity
  8
0
  6
Continuous
 62
     7
370
    25
100
AcDbLine
 10
780.9949835605
 20
479.7926532796
 30
0.0
 11
780.2139942673
 21
480.3413704319
 31
0.0
  0
ELLIPSE
  5
F7
330
1F
100
AcDbEntity
  8
0
  6
Continuous
 62
     7
370
    25
100
AcDbEllipse
 10
764.3776971219
 20
507.3859399866
 30
0.0
 11
-43.86170369589126
 21
217.6329106147369
 31
0.0
210
0.0
220
0.0
230
1.0
 40
0.046272915
 41
4.578479878828006
 42
4.634327052243478
  0
LINE
  5
F8
330
1F
100
AcDbEntity
  8
0
  6
Continuous
 62
     7
370
    25
100
AcDbLine
 10
749.2253852958
 20
481.3015480197
 30
0.0
 11
749.2635099343
 21
485.3428933555
 31
0.0
  0
LINE
  5
F9
330
1F
100
AcDbEntity
  8
0
  6
Continuous
 62
     7
370
    25
100
AcDbLine
 10
749.2253852958
 20
481.3015480197
 30
0.0
 11
748.2472460661
 21
480.6285569734
 31
0.0
  0
LINE
  5
FA
330
1F
100
AcDbEntity
  8
0
  6
Continuous
 62
     7
370
    25
100
AcDbLine
 10
779.1788894488
 20
481.0686272243
 30
0.0
 11
779.2199617213
 21
485.4224320799
 31
0.0
  0
LINE
  5
FB
330
1F
100
AcDbEntity
  8
0
  6
Continuous
 62
     7
370
    25
100
AcDbLine
 10
780.2139942673
 20
480.3413704319
 30
0.0
 11
779.1788894488
 21
481.0686272243
 31
0.0
  0
LINE
  5
FC
330
1F
100
AcDbEntity
  8
0
  6
Continuous
 62
     7
370
    25
100
AcDbLine
 10
802.3611981176
 20
489.7069311265
 30
0.0
 11
802.3330782106
 21
489.7124192577
 31
0.0
  0
LWPOLYLINE
  5
FD
330
1F
100
AcDbEntity
  8
0
  6
Continuous
 62
     7
370
    25
100
AcDbPolyline
 90
        6
 70
   128
 43
0.0
 10
802.3330782106
 20
489.7124192577
 10
802.2061979914
 20
490.9022481519
 10
801.8150652555
 20
491.9265139687
 10
801.1979668003
 20
492.6849544336
 10
800.4153085222
 20
493.1033281093
 10
800.2728490551
 20
493.1368059009
  0
LINE
  5
FE
330
1F
100
AcDbEntity
  8
0
  6
Continuous
 62
     7
370
    25
100
AcDbLine
 10
797.9167529983
 20
488.9287613229
 30
0.0
 11
797.8472422637
 21
481.5603797863
 31
0.0
  0
LINE
  5
FF
330
1F
100
AcDbEntity
  8
0
  6
Continuous
 62
     7
370
    25
100
AcDbLine
 10
802.263567476
 20
482.3440377212
 30
0.0
 11
802.3330782106
 21
489.7124192577
 31
0.0
  0
LINE
  5
100
330
1F
100
AcDbEntity
  8
0
  6
Continuous
 62
     7
370
    25
100
AcDbLine
 10
801.0269964165
 20
482.1246134994
 30
0.0
 11
802.263567476
 21
482.3440377212
 31
0.0
  0
LINE
  5
101
330
1F
100
AcDbEntity
  8
0
  6
Continuous
 62
     7
370
    25
100
AcDbLine
 10
801.0269964165
 20
482.1246134994
 30
0.0
 11
801.0965071511
 21
489.492995036
 31
0.0
  0
LWPOLYLINE
  5
102
330
1F
100
AcDbEntity
  8
0
  6
Continuous
 62
     7
370
    25
100
AcDbPolyline
 90
        9
 70
   128
 43
0.0
 10
801.0965071511
 20
489.492995036
 10
800.9834651468
 20
490.3174474302
 10
800.6455883902
 20
490.9734346871
 10
800.1343155548
 20
491.3610886932
 10
799.5274832951
 20
491.4213926404
 10
798.9174763215
 20
491.1451657993
 10
798.3971626662
 20
490.5744612024
 10
798.0457553665
 20
489.7961634511
 10
797.9167529983
 20
488.9287613229
  0
LINE
  5
103
330
1F
100
AcDbEntity
  8
0
  6
Continuous
 62
     7
370
    25
100
AcDbLine
 10
796.6388901217
 20
481.3459628902
 30
0.0
 11
797.8472422637
 21
481.5603797863
 31
0.0
  0
LINE
  5
104
330
1F
100
AcDbEntity
  8
0
  6
Continuous
 62
     7
370
    25
100
AcDbLine
 10
801.0965071511
 20
489.492995036
 30
0.0
 11
798.5847384346
 21
489.9832141642
 31
0.0
  0
LINE
  5
105
330
1F
100
AcDbEntity
  8
0
  6
Continuous
 62
     7
370
    25
100
AcDbLine
 10
798.4970752658
 20
490.7181230222
 30
0.0
 11
798.5847384346
 21
489.9832141642
 31
0.0
  0
LINE
  5
106
330
1F
100
AcDbEntity
  8
0
  6
Continuous
 62
     7
370
    25
100
AcDbLine
 10
801.0269964165
 20
482.1246134994
 30
0.0
 11
798.5152277
 21
482.6148326276
 31
0.0
  0
LINE
  5
107
330
1F
100
AcDbEntity
  8
0
  6
Continuous
 62
     7
370
    25
100
AcDbLine
 10
798.5847384346
 20
489.9832141642
 30
0.0
 11
798.5152277
 21
482.6148326276
 31
0.0
  0
LINE
  5
108
330
1F
100
AcDbEntity
  8
0
  6
Continuous
 62
     7
370
    25
100
AcDbLine
 10
802.291687383
 20
482.3385495899
 30
0.0
 11
802.263567476
 21
482.3440377212
 31
0.0
  0
LINE
  5
109
330
1F
100
AcDbEntity
  8
0
  6
Continuous
 62
     7
370
    25
100
AcDbLine
 10
798.4186537158
 20
486.9029298153
 30
0.0
 11
798.5554282861
 21
486.8762356734
 31
0.0
  0
LINE
  5
10A
330
1F
100
AcDbEntity
  8
0
  6
Continuous
 62
     7
370
    25
100
AcDbLine
 10
798.4186537158
 20
486.9029298153
 30
0.0
 11
798.4540860198
 21
490.6588782502
 31
0.0
  0
ARC
  5
10B
330
1F
100
AcDbEntity
  8
0
  6
Continuous
 62
     7
370
    25
100
AcDbCircle
 10
763.8419161233
 20
565.1890207808
 30
0.0
 40
75.64567411144765
100
AcDbArc
 50
259.7900478617
 51
269.7936142009
  0
LINE
  5
10C
330
1F
100
AcDbEntity
  8
0
  6
Continuous
 62
     7
370
    25
100
AcDbLine
 10
798.5505090138
 20
486.3547755687
 30
0.0
 11
798.4186537158
 21
486.9029298153
 31
0.0
  0
ENDSEC
  0
SECTION
  2
OBJECTS
  0
DICTIONARY
  5
C
330
0
100
AcDbDictionary
281
     1
  3
ACAD_GROUP
350
D
  3
ACAD_LAYOUT
350
1A
  3
ACAD_MLINESTYLE
350
17
  3
ACAD_PLOTSETTINGS
350
19
  3
ACAD_PLOTSTYLENAME
350
E
  3
ACAD_SCALELIST
350
47
  3
DWGPROPS
350
10D
  0
DICTIONARY
  5
D
102
{ACAD_REACTORS
330
C
102
}
330
C
100
AcDbDictionary
281
     1
  0
DICTIONARY
  5
1A
102
{ACAD_REACTORS
330
C
102
}
330
C
100
AcDbDictionary
281
     1
  3
Layout1
350
1E
  3
Layout2
350
26
  3
Model
350
22
  0
DICTIONARY
  5
17
102
{ACAD_REACTORS
330
C
102
}
330
C
100
AcDbDictionary
281
     1
  3
Standard
350
18
  0
DICTIONARY
  5
19
102
{ACAD_REACTORS
330
C
102
}
330
C
100
AcDbDictionary
281
     1
  0
ACDBDICTIONARYWDFLT
  5
E
102
{ACAD_REACTORS
330
C
102
}
330
C
100
AcDbDictionary
281
     1
  3
Normal
350
F
100
AcDbDictionaryWithDefault
340
F
  0
DICTIONARY
  5
47
102
{ACAD_REACTORS
330
C
102
}
330
C
100
AcDbDictionary
281
     1
  3
A0
350
48
  3
A1
350
49
  3
A2
350
4A
  3
A3
350
4B
  3
A4
350
4C
  3
A5
350
4D
  3
A6
350
4E
  3
A7
350
4F
  3
A8
350
50
  3
A9
350
51
  3
B0
350
52
  3
B1
350
53
  3
B2
350
54
  3
B3
350
55
  3
B4
350
56
  3
B5
350
57
  3
B6
350
58
  0
XRECORD
  5
10D
102
{ACAD_REACTORS
330
C
102
}
330
C
100
AcDbXrecord
280
     1
  1
DWGPROPS COOKIE
  2

  3

  4

  6

  7

  8
9148
  9

300
=
301
=
302
=
303
=
304
=
305
=
306
=
307
=
308
=
309
=
 40
0.0
 41
2460115.261498878
 42
2460115.261499387
  1

 90
        0
  0
LAYOUT
  5
1E
102
{ACAD_REACTORS
330
1A
102
}
330
1A
100
AcDbPlotSettings
  1

  2
none_device
  4

  6

 40
0.0
 41
0.0
 42
0.0
 43
0.0
 44
0.0
 45
0.0
 46
0.0
 47
0.0
 48
0.0
 49
0.0
140
0.0
141
0.0
142
1.0
143
1.0
 70
   688
 72
     1
 73
     0
 74
     5
  7

 75
    16
147
1.0
148
0.0
149
0.0
100
AcDbLayout
  1
Layout1
 70
     1
 71
     1
 10
0.0
 20
0.0
 11
420.0
 21
297.0
 12
0.0
 22
0.0
 32
0.0
 14
1.0000000000E+20
 24
1.0000000000E+20
 34
1.0000000000E+20
 15
-1.0000000000E+20
 25
-1.0000000000E+20
 35
-1.0000000000E+20
146
0.0
 13
0.0
 23
0.0
 33
0.0
 16
1.0
 26
0.0
 36
0.0
 17
0.0
 27
1.0
 37
0.0
 76
     0
330
1B
  0
LAYOUT
  5
26
102
{ACAD_REACTORS
330
1A
102
}
330
1A
100
AcDbPlotSettings
  1

  2
none_device
  4

  6

 40
0.0
 41
0.0
 42
0.0
 43
0.0
 44
0.0
 45
0.0
 46
0.0
 47
0.0
 48
0.0
 49
0.0
140
0.0
141
0.0
142
1.0
143
1.0
 70
   688
 72
     1
 73
     0
 74
     5
  7

 75
    16
147
1.0
148
0.0
149
0.0
100
AcDbLayout
  1
Layout2
 70
     1
 71
     2
 10
0.0
 20
0.0
 11
0.0
 21
0.0
 12
0.0
 22
0.0
 32
0.0
 14
0.0
 24
0.0
 34
0.0
 15
0.0
 25
0.0
 35
0.0
146
0.0
 13
0.0
 23
0.0
 33
0.0
 16
1.0
 26
0.0
 36
0.0
 17
0.0
 27
1.0
 37
0.0
 76
     0
330
23
  0
LAYOUT
  5
22
102
{ACAD_REACTORS
330
1A
102
}
330
1A
100
AcDbPlotSettings
  1

  2
none_device
  4
Letter_(8.50_x_11.00_Inches)
  6

 40
6.35
 41
6.35
 42
6.35000508
 43
6.35000508
 44
215.9
 45
279.4
 46
0.0
 47
0.0
 48
0.0
 49
0.0
140
0.0
141
0.0
142
1.0
143
1.0
 70
  1712
 72
     1
 73
     0
 74
     0
  7

 75
     0
147
1.0
148
0.0
149
0.0
100
AcDbLayout
  1
Model
 70
     1
 71
     0
 10
0.0
 20
0.0
 11
1050.0
 21
1485.0
 12
0.0
 22
0.0
 32
0.0
 14
0.0
 24
0.0
 34
0.0
 15
1050.0
 25
1485.0
 35
0.0
146
0.0
 13
0.0
 23
0.0
 33
0.0
 16
1.0
 26
0.0
 36
0.0
 17
0.0
 27
1.0
 37
0.0
 76
     0
330
1F
331
29
  0
MLINESTYLE
  5
18
102
{ACAD_REACTORS
330
17
102
}
330
17
100
AcDbMlineStyle
  2
Standard
 70
     0
  3

 62
   256
 51
90.0
 52
90.0
 71
     2
 49
0.5
 62
   256
  6
BYLAYER
 49
-0.5
 62
   256
  6
BYLAYER
  0
ACDBPLACEHOLDER
  5
F
102
{ACAD_REACTORS
330
E
102
}
330
E
  0
SCALE
  5
48
102
{ACAD_REACTORS
330
47
102
}
330
47
100
AcDbScale
 70
     0
300
1:1
140
1.0
141
1.0
290
     1
  0
SCALE
  5
49
102
{ACAD_REACTORS
330
47
102
}
330
47
100
AcDbScale
 70
     0
300
1:2
140
1.0
141
2.0
290
     0
  0
SCALE
  5
4A
102
{ACAD_REACTORS
330
47
102
}
330
47
100
AcDbScale
 70
     0
300
1:4
140
1.0
141
4.0
290
     0
  0
SCALE
  5
4B
102
{ACAD_REACTORS
330
47
102
}
330
47
100
AcDbScale
 70
     0
300
1:5
140
1.0
141
5.0
290
     0
  0
SCALE
  5
4C
102
{ACAD_REACTORS
330
47
102
}
330
47
100
AcDbScale
 70
     0
300
1:8
140
1.0
141
8.0
290
     0
  0
SCALE
  5
4D
102
{ACAD_REACTORS
330
47
102
}
330
47
100
AcDbScale
 70
     0
300
1:10
140
1.0
141
10.0
290
     0
  0
SCALE
  5
4E
102
{ACAD_REACTORS
330
47
102
}
330
47
100
AcDbScale
 70
     0
300
1:16
140
1.0
141
16.0
290
     0
  0
SCALE
  5
4F
102
{ACAD_REACTORS
330
47
102
}
330
47
100
AcDbScale
 70
     0
300
1:20
140
1.0
141
20.0
290
     0
  0
SCALE
  5
50
102
{ACAD_REACTORS
330
47
102
}
330
47
100
AcDbScale
 70
     0
300
1:30
140
1.0
141
30.0
290
     0
  0
SCALE
  5
51
102
{ACAD_REACTORS
330
47
102
}
330
47
100
AcDbScale
 70
     0
300
1:40
140
1.0
141
40.0
290
     0
  0
SCALE
  5
52
102
{ACAD_REACTORS
330
47
102
}
330
47
100
AcDbScale
 70
     0
300
1:50
140
1.0
141
50.0
290
     0
  0
SCALE
  5
53
102
{ACAD_REACTORS
330
47
102
}
330
47
100
AcDbScale
 70
     0
300
1:100
140
1.0
141
100.0
290
     0
  0
SCALE
  5
54
102
{ACAD_REACTORS
330
47
102
}
330
47
100
AcDbScale
 70
     0
300
2:1
140
2.0
141
1.0
290
     0
  0
SCALE
  5
55
102
{ACAD_REACTORS
330
47
102
}
330
47
100
AcDbScale
 70
     0
300
4:1
140
4.0
141
1.0
290
     0
  0
SCALE
  5
56
102
{ACAD_REACTORS
330
47
102
}
330
47
100
AcDbScale
 70
     0
300
8:1
140
8.0
141
1.0
290
     0
  0
SCALE
  5
57
102
{ACAD_REACTORS
330
47
102
}
330
47
100
AcDbScale
 70
     0
300
10:1
140
10.0
141
1.0
290
     0
  0
SCALE
  5
58
102
{ACAD_REACTORS
330
47
102
}
330
47
100
AcDbScale
 70
     0
300
100:1
140
100.0
141
1.0
290
     0
  0
ENDSEC
  0
EOF
