  0
SECTION
  2
HEADER
  9
$ACADVER
  1
AC1015
  9
$ACADMAINTVER
 70
     6
  9
$DWGCODEPAGE
  3
DOS932
  9
$INSBASE
 10
0.0
 20
0.0
 30
0.0
  9
$EXTMIN
 10
0.0
 20
0.0
 30
0.0
  9
$EXTMAX
 10
1050.0
 20
1485.0
 30
0.0
  9
$LIMMIN
 10
0.0
 20
0.0
  9
$LIMMAX
 10
1050.0
 20
1485.0
  9
$ORTHOMODE
 70
     0
  9
$REGENMODE
 70
     1
  9
$FILLMODE
 70
     1
  9
$QTEXTMODE
 70
     0
  9
$MIRRTEXT
 70
     1
  9
$LTSCALE
 40
5.0
  9
$ATTMODE
 70
     1
  9
$TEXTSIZE
 40
17.5
  9
$TRACEWID
 40
1.0
  9
$TEXTSTYLE
  7
Standard
  9
$CLAYER
  8
0
  9
$CELTYPE
  6
ByLayer
  9
$CECOLOR
 62
   256
  9
$CELTSCALE
 40
1.0
  9
$DISPSILH
 70
     0
  9
$DIMSCALE
 40
1.0
  9
$DIMASZ
 40
7.5
  9
$DIMEXO
 40
5.0
  9
$DIMDLI
 40
3.75
  9
$DIMRND
 40
0.0
  9
$DIMDLE
 40
0.0
  9
$DIMEXE
 40
5.0
  9
$DIMTP
 40
0.0
  9
$DIMTM
 40
0.0
  9
$DIMTXT
 40
17.5
  9
$DIMCEN
 40
2.5
  9
$DIMTSZ
 40
0.0
  9
$DIMTOL
 70
     0
  9
$DIMLIM
 70
     0
  9
$DIMTIH
 70
     1
  9
$DIMTOH
 70
     1
  9
$DIMSE1
 70
     0
  9
$DIMSE2
 70
     0
  9
$DIMTAD
 70
     1
  9
$DIMZIN
 70
     0
  9
$DIMBLK
  1

  9
$DIMASO
 70
     1
  9
$DIMSHO
 70
     1
  9
$DIMPOST
  1

  9
$DIMAPOST
  1

  9
$DIMALT
 70
     0
  9
$DIMALTD
 70
     3
  9
$DIMALTF
 40
0.0393700787
  9
$DIMLFAC
 40
1.0
  9
$DIMTOFL
 70
     1
  9
$DIMTVP
 40
0.0
  9
$DIMTIX
 70
     0
  9
$DIMSOXD
 70
     0
  9
$DIMSAH
 70
     0
  9
$DIMBLK1
  1

  9
$DIMBLK2
  1

  9
$DIMSTYLE
  2
ISO-25
  9
$DIMCLRD
 70
     0
  9
$DIMCLRE
 70
     0
  9
$DIMCLRT
 70
     0
  9
$DIMTFAC
 40
1.0
  9
$DIMGAP
 40
7.5
  9
$DIMJUST
 70
     0
  9
$DIMSD1
 70
     0
  9
$DIMSD2
 70
     0
  9
$DIMTOLJ
 70
     0
  9
$DIMTZIN
 70
     0
  9
$DIMALTZ
 70
     0
  9
$DIMALTTZ
 70
     0
  9
$DIMUPT
 70
     0
  9
$DIMDEC
 70
     1
  9
$DIMTDEC
 70
     1
  9
$DIMALTU
 70
     2
  9
$DIMALTTD
 70
     3
  9
$DIMTXSTY
  7
Standard
  9
$DIMAUNIT
 70
     0
  9
$DIMADEC
 70
     2
  9
$DIMALTRND
 40
0.0
  9
$DIMAZIN
 70
     0
  9
$DIMDSEP
 70
    44
  9
$DIMATFIT
 70
     3
  9
$DIMFRAC
 70
     0
  9
$DIMLDRBLK
  1

  9
$DIMLUNIT
 70
     2
  9
$DIMLWD
 70
    -2
  9
$DIMLWE
 70
    -2
  9
$DIMTMOVE
 70
     0
  9
$LUNITS
 70
     2
  9
$LUPREC
 70
     2
  9
$SKETCHINC
 40
1.0
  9
$FILLETRAD
 40
0.0
  9
$AUNITS
 70
     0
  9
$AUPREC
 70
     2
  9
$MENU
  1
.
  9
$ELEVATION
 40
0.0
  9
$PELEVATION
 40
0.0
  9
$THICKNESS
 40
0.0
  9
$LIMCHECK
 70
     0
  9
$CHAMFERA
 40
0.0
  9
$CHAMFERB
 40
0.0
  9
$CHAMFERC
 40
0.0
  9
$CHAMFERD
 40
0.0
  9
$SKPOLY
 70
     0
  9
$TDCREATE
 40
2460115.643123114
  9
$TDUCREATE
 40
2460115.268123114
  9
$TDUPDATE
 40
2460115.64312345
  9
$TDUUPDATE
 40
2460115.26812345
  9
$TDINDWG
 40
0.0000000116
  9
$TDUSRTIMER
 40
0.0000000116
  9
$USRTIMER
 70
     1
  9
$ANGBASE
 50
0.0
  9
$ANGDIR
 70
     0
  9
$PDMODE
 70
     0
  9
$PDSIZE
 40
-1.0
  9
$PLINEWID
 40
0.0
  9
$SPLFRAME
 70
     0
  9
$SPLINETYPE
 70
     6
  9
$SPLINESEGS
 70
     8
  9
$HANDSEED
  5
CA
  9
$SURFTAB1
 70
     6
  9
$SURFTAB2
 70
     6
  9
$SURFTYPE
 70
     6
  9
$SURFU
 70
     6
  9
$SURFV
 70
     6
  9
$UCSBASE
  2

  9
$UCSNAME
  2

  9
$UCSORG
 10
0.0
 20
0.0
 30
0.0
  9
$UCSXDIR
 10
1.0
 20
0.0
 30
0.0
  9
$UCSYDIR
 10
0.0
 20
1.0
 30
0.0
  9
$UCSORTHOREF
  2

  9
$UCSORTHOVIEW
 70
     0
  9
$UCSORGTOP
 10
0.0
 20
0.0
 30
0.0
  9
$UCSORGBOTTOM
 10
0.0
 20
0.0
 30
0.0
  9
$UCSORGLEFT
 10
0.0
 20
0.0
 30
0.0
  9
$UCSORGRIGHT
 10
0.0
 20
0.0
 30
0.0
  9
$UCSORGFRONT
 10
0.0
 20
0.0
 30
0.0
  9
$UCSORGBACK
 10
0.0
 20
0.0
 30
0.0
  9
$PUCSBASE
  2

  9
$PUCSNAME
  2

  9
$PUCSORG
 10
0.0
 20
0.0
 30
0.0
  9
$PUCSXDIR
 10
1.0
 20
0.0
 30
0.0
  9
$PUCSYDIR
 10
0.0
 20
1.0
 30
0.0
  9
$PUCSORTHOREF
  2

  9
$PUCSORTHOVIEW
 70
     0
  9
$PUCSORGTOP
 10
0.0
 20
0.0
 30
0.0
  9
$PUCSORGBOTTOM
 10
0.0
 20
0.0
 30
0.0
  9
$PUCSORGLEFT
 10
0.0
 20
0.0
 30
0.0
  9
$PUCSORGRIGHT
 10
0.0
 20
0.0
 30
0.0
  9
$PUCSORGFRONT
 10
0.0
 20
0.0
 30
0.0
  9
$PUCSORGBACK
 10
0.0
 20
0.0
 30
0.0
  9
$USERI1
 70
     0
  9
$USERI2
 70
     0
  9
$USERI3
 70
     0
  9
$USERI4
 70
     0
  9
$USERI5
 70
     0
  9
$USERR1
 40
0.0
  9
$USERR2
 40
0.0
  9
$USERR3
 40
0.0
  9
$USERR4
 40
0.0
  9
$USERR5
 40
0.0
  9
$WORLDVIEW
 70
     1
  9
$SHADEDGE
 70
     3
  9
$SHADEDIF
 70
    70
  9
$TILEMODE
 70
     1
  9
$MAXACTVP
 70
    64
  9
$PINSBASE
 10
0.0
 20
0.0
 30
0.0
  9
$PLIMCHECK
 70
     0
  9
$PEXTMIN
 10
1.0000000000E+20
 20
1.0000000000E+20
 30
1.0000000000E+20
  9
$PEXTMAX
 10
-1.0000000000E+20
 20
-1.0000000000E+20
 30
-1.0000000000E+20
  9
$PLIMMIN
 10
0.0
 20
0.0
  9
$PLIMMAX
 10
420.0
 20
297.0
  9
$UNITMODE
 70
     0
  9
$VISRETAIN
 70
     1
  9
$PLINEGEN
 70
     0
  9
$PSLTSCALE
 70
     1
  9
$TREEDEPTH
 70
  3020
  9
$CMLSTYLE
  2
Standard
  9
$CMLJUST
 70
     0
  9
$CMLSCALE
 40
20.0
  9
$PROXYGRAPHICS
 70
     1
  9
$MEASUREMENT
 70
     1
  9
$CELWEIGHT
370
    -1
  9
$ENDCAPS
280
     0
  9
$JOINSTYLE
280
     0
  9
$LWDISPLAY
290
     1
  9
$INSUNITS
 70
     4
  9
$HYPERLINKBASE
  1

  9
$STYLESHEET
  1

  9
$XEDIT
290
     1
  9
$CEPSNTYPE
380
     0
  9
$PSTYLEMODE
290
     1
  9
$FINGERPRINTGUID
  2
{9cb67187-c890-4335-b696-d6a83e17b6fc}
  9
$VERSIONGUID
  2
{FAEB1C32-E019-11D5-929B-00C0DF256EC4}
  9
$EXTNAMES
290
     1
  9
$PSVPSCALE
 40
0.0
  9
$OLESTARTUP
290
     0
  0
ENDSEC
  0
SECTION
  2
CLASSES
  0
CLASS
  1
ACDBDICTIONARYWDFLT
  2
AcDbDictionaryWithDefault
  3
ObjectDBX Classes
 90
        0
280
     0
281
     0
  0
CLASS
  1
VISUALSTYLE
  2
AcDbVisualStyle
  3
ObjectDBX Classes
 90
     4095
280
     0
281
     0
  0
CLASS
  1
MATERIAL
  2
AcDbMaterial
  3
ObjectDBX Classes
 90
     1153
280
     0
281
     0
  0
CLASS
  1
SCALE
  2
AcDbScale
  3
ObjectDBX Classes
 90
     1153
280
     0
281
     0
  0
CLASS
  1
TABLESTYLE
  2
AcDbTableStyle
  3
ObjectDBX Classes
 90
     4095
280
     0
281
     0
  0
CLASS
  1
MLEADERSTYLE
  2
AcDbMLeaderStyle
  3
ACDB_MLEADERSTYLE_CLASS
 90
     4095
280
     0
281
     0
  0
CLASS
  1
SUN
  2
AcDbSun
  3
SCENEOE
 90
     1153
280
     0
281
     0
  0
CLASS
  1
ACDBPLACEHOLDER
  2
AcDbPlaceHolder
  3
ObjectDBX Classes
 90
        0
280
     0
281
     0
  0
CLASS
  1
LAYOUT
  2
AcDbLayout
  3
ObjectDBX Classes
 90
        0
280
     0
281
     0
  0
ENDSEC
  0
SECTION
  2
TABLES
  0
TABLE
  2
VPORT
  5
8
330
0
100
AcDbSymbolTable
 70
     1
  0
VPORT
  5
29
330
8
100
AcDbSymbolTableRecord
100
AcDbViewportTableRecord
  2
*Active
 70
     0
 10
0.0
 20
0.0
 11
1.0
 21
1.0
 12
525.0
 22
742.5
 13
0.0
 23
0.0
 14
10.0
 24
10.0
 15
10.0
 25
10.0
 16
0.0
 26
0.0
 36
1.0
 17
0.0
 27
0.0
 37
0.0
 40
1485.0
 41
0.7070707071
 42
50.0
 43
0.0
 44
0.0
 50
0.0
 51
0.0
 71
     0
 72
  2000
 73
     1
 74
     3
 75
     0
 76
     0
 77
     0
 78
     0
281
     0
 65
     1
110
0.0
120
0.0
130
0.0
111
1.0
121
0.0
131
0.0
112
0.0
122
1.0
132
0.0
 79
     0
146
0.0
  0
ENDTAB
  0
TABLE
  2
LTYPE
  5
5
330
0
100
AcDbSymbolTable
 70
     6
  0
LTYPE
  5
14
330
5
100
AcDbSymbolTableRecord
100
AcDbLinetypeTableRecord
  2
ByBlock
 70
     0
  3

 72
    65
 73
     0
 40
0.0
  0
LTYPE
  5
15
330
5
100
AcDbSymbolTableRecord
100
AcDbLinetypeTableRecord
  2
ByLayer
 70
     0
  3

 72
    65
 73
     0
 40
0.0
  0
LTYPE
  5
16
330
5
100
AcDbSymbolTableRecord
100
AcDbLinetypeTableRecord
  2
Continuous
 70
     0
  3
Solid line
 72
    65
 73
     0
 40
0.0
  0
LTYPE
  5
5E
330
5
100
AcDbSymbolTableRecord
100
AcDbLinetypeTableRecord
  2
HIDDEN
 70
     0
  3
Hidden __ __ __ __ __ __ __ __ __ __ __ __ __ __
 72
    65
 73
     2
 40
1.905
 49
1.27
 74
     0
 49
-0.635
 74
     0
  0
LTYPE
  5
5F
330
5
100
AcDbSymbolTableRecord
100
AcDbLinetypeTableRecord
  2
PHANTOM
 70
     0
  3
Phantom ______  __  __  ______  __  __  ______
 72
    65
 73
     6
 40
12.7
 49
6.35
 74
     0
 49
-1.27
 74
     0
 49
1.27
 74
     0
 49
-1.27
 74
     0
 49
1.27
 74
     0
 49
-1.27
 74
     0
  0
LTYPE
  5
60
330
5
100
AcDbSymbolTableRecord
100
AcDbLinetypeTableRecord
  2
CENTER
 70
     0
  3
Center ____ _ ____ _ ____ _ ____ _ ____ _ ____
 72
    65
 73
     4
 40
10.16
 49
6.35
 74
     0
 49
-1.27
 74
     0
 49
1.27
 74
     0
 49
-1.27
 74
     0
  0
LTYPE
  5
61
330
5
100
AcDbSymbolTableRecord
100
AcDbLinetypeTableRecord
  2
CENTERX2
 70
     0
  3
Center (2x) ________  __  ________  __  _____
 72
    65
 73
     4
 40
20.32
 49
12.7
 74
     0
 49
-2.54
 74
     0
 49
2.54
 74
     0
 49
-2.54
 74
     0
  0
LTYPE
  5
62
330
5
100
AcDbSymbolTableRecord
100
AcDbLinetypeTableRecord
  2
DOT2
 70
     0
  3
Dot (.5x) ........................................
 72
    65
 73
     2
 40
0.635
 49
0.0
 74
     0
 49
-0.635
 74
     0
  0
ENDTAB
  0
TABLE
  2
LAYER
  5
2
330
0
100
AcDbSymbolTable
 70
     2
  0
LAYER
  5
10
330
2
100
AcDbSymbolTableRecord
100
AcDbLayerTableRecord
  2
0
 70
     0
 62
     7
  6
Continuous
370
    -3
390
F
  0
LAYER
  5
63
330
2
100
AcDbSymbolTableRecord
100
AcDbLayerTableRecord
  2
FORMAT
 70
     0
 62
     7
  6
Continuous
370
    -3
390
F
  0
ENDTAB
  0
TABLE
  2
STYLE
  5
3
330
0
100
AcDbSymbolTable
 70
     2
  0
STYLE
  5
11
330
3
100
AcDbSymbolTableRecord
100
AcDbTextStyleTableRecord
  2
Standard
 70
     0
 40
0.0
 41
1.0
 50
0.0
 71
     0
 42
17.5
  3
txt
  4
bigfont
  0
STYLE
  5
64
330
3
100
AcDbSymbolTableRecord
100
AcDbTextStyleTableRecord
  2
SLDTEXTSTYLE0
 70
     0
 40
0.0
 41
0.7
 50
0.0
 71
     0
 42
17.5
  3
TXT
  4
bigfont
  0
ENDTAB
  0
TABLE
  2
VIEW
  5
6
330
0
100
AcDbSymbolTable
 70
     0
  0
ENDTAB
  0
TABLE
  2
UCS
  5
7
330
0
100
AcDbSymbolTable
 70
     0
  0
ENDTAB
  0
TABLE
  2
APPID
  5
9
330
0
100
AcDbSymbolTable
 70
     1
  0
APPID
  5
12
330
9
100
AcDbSymbolTableRecord
100
AcDbRegAppTableRecord
  2
ACAD
 70
     0
  0
ENDTAB
  0
TABLE
  2
DIMSTYLE
  5
A
330
0
100
AcDbSymbolTable
 70
     1
100
AcDbDimStyleTable
  0
DIMSTYLE
105
27
330
A
100
AcDbSymbolTableRecord
100
AcDbDimStyleTableRecord
  2
ISO-25
 70
     0
 41
2.5
 42
0.625
 43
3.75
 44
1.25
 73
     0
 74
     0
 77
     1
 78
     8
140
2.5
141
2.5
143
0.0393700787
147
0.625
171
     3
172
     1
178
     0
271
     2
272
     2
274
     3
278
    44
283
     0
284
     8
340
11
  0
ENDTAB
  0
TABLE
  2
BLOCK_RECORD
  5
1
330
0
100
AcDbSymbolTable
 70
     1
  0
BLOCK_RECORD
  5
1F
330
1
100
AcDbSymbolTableRecord
100
AcDbBlockTableRecord
  2
*Model_Space
340
22
  0
BLOCK_RECORD
  5
1B
330
1
100
AcDbSymbolTableRecord
100
AcDbBlockTableRecord
  2
*Paper_Space
340
1E
  0
BLOCK_RECORD
  5
23
330
1
100
AcDbSymbolTableRecord
100
AcDbBlockTableRecord
  2
*Paper_Space0
340
26
  0
ENDTAB
  0
ENDSEC
  0
SECTION
  2
BLOCKS
  0
BLOCK
  5
20
330
1F
100
AcDbEntity
  8
0
100
AcDbBlockBegin
  2
*Model_Space
 70
     0
 10
0.0
 20
0.0
 30
0.0
  3
*Model_Space
  1

  0
ENDBLK
  5
21
330
1F
100
AcDbEntity
  8
0
100
AcDbBlockEnd
  0
BLOCK
  5
1C
330
1B
100
AcDbEntity
 67
     1
  8
0
100
AcDbBlockBegin
  2
*Paper_Space
 70
     0
 10
0.0
 20
0.0
 30
0.0
  3
*Paper_Space
  1

  0
ENDBLK
  5
1D
330
1B
100
AcDbEntity
 67
     1
  8
0
100
AcDbBlockEnd
  0
BLOCK
  5
24
330
23
100
AcDbEntity
  8
0
100
AcDbBlockBegin
  2
*Paper_Space0
 70
     0
 10
0.0
 20
0.0
 30
0.0
  3
*Paper_Space0
  1

  0
ENDBLK
  5
25
330
23
100
AcDbEntity
  8
0
100
AcDbBlockEnd
  0
ENDSEC
  0
SECTION
  2
ENTITIES
  0
MTEXT
  5
65
330
1F
100
AcDbEntity
  8
0
  6
Continuous
 62
     7
370
     0
100
AcDbMText
 10
781.0057214799
 20
244.7775376706
 30
0.0
 40
15.875
 41
0.0
 71
     2
 72
     1
  1
HFC-D12H/B
  7
SLDTEXTSTYLE0
 73
     1
 44
1.0
  0
MTEXT
  5
66
330
1F
100
AcDbEntity
  8
0
  6
Continuous
 62
     7
370
     0
100
AcDbMText
 10
781.0351249131
 20
277.6767187425
 30
0.0
 40
15.875
 41
0.0
 71
     2
 72
     1
  1
HBF-D41H/B
  7
SLDTEXTSTYLE0
 73
     1
 44
1.0
  0
SPLINE
  5
67
330
1F
100
AcDbEntity
  8
0
  6
Continuous
 62
     7
370
    25
100
AcDbSpline
210
0.0
220
0.0
230
1.0
 70
     8
 71
     3
 72
    65
 73
    61
 74
     0
 42
0.00000001
 43
0.00000001
 40
0.0
 40
0.0
 40
0.0
 40
0.0
 40
0.0070751425466003
 40
0.0159082992472614
 40
0.0247054013191927
 40
0.0334888633180846
 40
0.042279048198731
 40
0.0510921063913786
 40
0.0599465447104609
 40
0.0688638471922743
 40
0.0778656540669038
 40
0.0869737182421322
 40
0.0962098577325548
 40
0.1055959188678648
 40
0.115153746592492
 40
0.1249051588734621
 40
0.1348719227249803
 40
0.1450757297358941
 40
0.155538169245899
 40
0.1662806974678594
 40
0.1773246009073018
 40
0.1886909523931789
 40
0.2004005579073643
 40
0.212473892179219
 40
0.2249310206838595
 40
0.2377915052278669
 40
0.2510742896926347
 40
0.2647975616886757
 40
0.2789785847877492
 40
0.2936334945515113
 40
0.3087770496304541
 40
0.3244223265693063
 40
0.3405803433362963
 40
0.3572595915578801
 40
0.3744654503240928
 40
0.3921994441920216
 40
0.4104584542754167
 40
0.4292611893495404
 40
0.4484692357230534
 40
0.4677947775767931
 40
0.4872791972339676
 40
0.5069650813116935
 40
0.5268997357598659
 40
0.5471363889423786
 40
0.5677358342171077
 40
0.5887686757728686
 40
0.6103184727911909
 40
0.6324862632055979
 40
0.655397285219222
 40
0.6792113557982284
 40
0.7041396628789085
 40
0.7304735585664767
 40
0.7586377160578592
 40
0.7892982573743332
 40
0.8236136717543503
 40
0.8639338982785576
 40
0.9161608529698054
 40
0.9534061471016457
 40
0.9863617824220163
 40
1.0
 40
1.0
 40
1.0
 40
1.0
 10
657.4679248710281
 20
459.4481313968789
 30
0.0
 10
659.090191589056
 20
460.4741678948948
 30
0.0
 10
662.737821900287
 20
462.7811879360517
 30
0.0
 10
668.2307211468047
 20
466.6555141296109
 30
0.0
 10
673.9553065190939
 20
471.0154705982197
 30
0.0
 10
679.4919425493985
 20
475.6128881770359
 30
0.0
 10
684.8468178187019
 20
480.4415222215242
 30
0.0
 10
690.0188697810835
 20
485.5059759796604
 30
0.0
 10
695.0088324288707
 20
490.8082663055244
 30
0.0
 10
699.8177728019268
 20
496.3526973821823
 30
0.0
 10
704.4470370330392
 20
502.1445590648389
 30
0.0
 10
708.8974772081114
 20
508.1898456839516
 30
0.0
 10
713.169431093354
 20
514.4951408346099
 30
0.0
 10
717.2626630075669
 20
521.067589846503
 30
0.0
 10
721.1763340027607
 20
527.9148429196996
 30
0.0
 10
724.9089803327847
 20
535.0450025823756
 30
0.0
 10
728.4585031496551
 20
542.4665667338903
 30
0.0
 10
731.8221663769772
 20
550.1883698118629
 30
0.0
 10
734.9966018046418
 20
558.2195212585095
 30
0.0
 10
737.977820250032
 20
566.5693411167734
 30
0.0
 10
740.7612280061021
 20
575.2472921260718
 30
0.0
 10
743.3416479762359
 20
584.2629075116891
 30
0.0
 10
745.7133451087136
 20
593.6257133727648
 30
0.0
 10
747.8700559403281
 20
603.3451442675907
 30
0.0
 10
749.8050222656564
 20
613.4304502259919
 30
0.0
 10
751.5110291696852
 20
623.8905929749869
 30
0.0
 10
752.9804479141568
 20
634.734128610537
 30
0.0
 10
754.2052844485263
 20
645.9690732611097
 30
0.0
 10
755.1772347133239
 20
657.6027473515213
 30
0.0
 10
755.8877481739723
 20
669.6415930490926
 30
0.0
 10
756.3281022633214
 20
682.0909573100122
 30
0.0
 10
756.4894885287075
 20
694.9548331558324
 30
0.0
 10
756.3631226179708
 20
708.2355397539632
 30
0.0
 10
755.9403512041935
 20
721.9333536429007
 30
0.0
 10
755.2128892586221
 20
736.0459574245804
 30
0.0
 10
754.1727015422056
 20
750.5681565524823
 30
0.0
 10
752.8127787762304
 20
765.4976190664606
 30
0.0
 10
751.1261796478615
 20
780.7978593431405
 30
0.0
 10
749.1067083344766
 20
796.3506300521225
 30
0.0
 10
746.7603241970006
 20
812.0439467979737
 30
0.0
 10
744.0936553140363
 20
827.8161151832617
 30
0.0
 10
741.1005856933764
 20
843.6961479231359
 30
0.0
 10
737.7733611708264
 20
859.7161156066792
 30
0.0
 10
734.1021816163909
 20
875.9127878465879
 30
0.0
 10
730.0747061112114
 20
892.3289370925272
 30
0.0
 10
725.6753888028687
 20
909.0151296146581
 30
0.0
 10
720.8845301884544
 20
926.032251019512
 30
0.0
 10
715.676894857168
 20
943.4551682965842
 30
0.0
 10
710.019625413244
 20
961.3782285988854
 30
0.0
 10
703.8689634926511
 20
979.9238711319555
 30
0.0
 10
697.1648210059057
 20
999.256835866498
 30
0.0
 10
689.8211905931603
 20
1019.609220296917
 30
0.0
 10
681.7076240279549
 20
1041.328666902629
 30
0.0
 10
672.6091177485807
 20
1064.982873561447
 30
0.0
 10
662.122339774617
 20
1091.627395529765
 30
0.0
 10
649.3338656046169
 20
1123.644908781094
 30
0.0
 10
636.229875189369
 20
1156.368463926816
 30
0.0
 10
624.0767277844448
 20
1187.304928567499
 30
0.0
 10
615.9041106771916
 20
1208.537076322087
 30
0.0
 10
611.5004764490832
 20
1220.397873772986
 30
0.0
 10
610.2115141074665
 20
1223.869579292525
 30
0.0
  0
SPLINE
  5
68
330
1F
100
AcDbEntity
  8
0
  6
Continuous
 62
     7
370
    25
100
AcDbSpline
210
0.0
220
0.0
230
1.0
 70
     8
 71
     3
 72
    64
 73
    60
 74
     0
 42
0.00000001
 43
0.00000001
 40
0.0
 40
0.0
 40
0.0
 40
0.0
 40
0.0013466102313319
 40
0.0236716955869614
 40
0.0571101612288653
 40
0.0944671021791062
 40
0.1401354868789868
 40
0.1827638796555346
 40
0.2176552675273293
 40
0.2485460130758742
 40
0.2766033148188276
 40
0.3026233989533034
 40
0.3271128371011915
 40
0.3504102455190943
 40
0.3751777064329162
 40
0.3988644428203198
 40
0.4216591400611976
 40
0.4437380056582951
 40
0.4652355470377021
 40
0.4862579526663959
 40
0.5068917120266837
 40
0.5272091306519906
 40
0.5472720115884215
 40
0.5671342021906105
 40
0.5868434091659332
 40
0.6064394521140175
 40
0.6256411668783907
 40
0.6441483737430298
 40
0.661986228409591
 40
0.6791745200855623
 40
0.695734555590133
 40
0.7116889098587839
 40
0.7270611416724327
 40
0.7418755648192478
 40
0.7561570641371663
 40
0.769930947293655
 40
0.7832228252645137
 40
0.7960585160702296
 40
0.8084639675377456
 40
0.8204651957795507
 40
0.8320882367961584
 40
0.8433591091668622
 40
0.854303786238071
 40
0.8649481765802236
 40
0.8753181117868962
 40
0.885439340953943
 40
0.8953375314202006
 40
0.9050382755921769
 40
0.914567103933699
 40
0.9239495045035833
 40
0.9332109498076587
 40
0.9423769322540181
 40
0.9514730102596829
 40
0.9605248682234689
 40
0.9695583954646194
 40
0.9785997924170311
 40
0.9876698846120452
 40
0.9967934098793749
 40
1.0
 40
1.0
 40
1.0
 40
1.0
 10
388.6201441492266
 20
1222.081831622821
 30
0.0
 10
388.4985845102032
 20
1221.736851319496
 30
0.0
 10
386.3617206251148
 20
1215.672536246141
 30
0.0
 10
381.119049530279
 20
1201.095679992339
 30
0.0
 10
372.3883914697197
 20
1177.371147346201
 30
0.0
 10
361.2357699533378
 20
1147.785659293829
 30
0.0
 10
349.0602575216723
 20
1115.901764316594
 30
0.0
 10
337.1541061723733
 20
1084.609894852632
 30
0.0
 10
326.8352256802628
 20
1056.990531662828
 30
0.0
 10
318.1019683059004
 20
1032.993111067853
 30
0.0
 10
310.4148092603876
 20
1011.170905400314
 30
0.0
 10
303.5393402346533
 20
990.8998892399903
 30
0.0
 10
297.3211979819403
 20
971.7661693545501
 30
0.0
 10
291.4641693856087
 20
952.8662500769575
 30
0.0
 10
285.9553963893933
 20
934.0803551633026
 30
0.0
 10
280.7991074587784
 20
915.328070113554
 30
0.0
 10
276.1525141725608
 20
897.1921284986817
 30
0.0
 10
271.9703631414438
 20
879.5508354108237
 30
0.0
 10
268.2170354692601
 20
862.302958803244
 30
0.0
 10
264.8659271848796
 20
845.3700752114615
 30
0.0
 10
261.8967709999285
 20
828.6895895464057
 30
0.0
 10
259.2939010001653
 20
812.2102117696246
 30
0.0
 10
257.0451896835435
 20
795.8889732024252
 30
0.0
 10
255.14103787415
 20
779.6891902431332
 30
0.0
 10
253.5747993099674
 20
763.5798359059185
 30
0.0
 10
252.3456952853573
 20
747.6210899345731
 30
0.0
 10
251.4655838250714
 20
731.9629041858684
 30
0.0
 10
250.9403195092531
 20
716.7652450518179
 30
0.0
 10
250.7601391130382
 20
702.1057114958928
 30
0.0
 10
250.9113629729036
 20
687.9741665499082
 30
0.0
 10
251.3806193048051
 20
674.3610493957036
 30
0.0
 10
252.154970693364
 20
661.255718662338
 30
0.0
 10
253.2219279455997
 20
648.6466594031617
 30
0.0
 10
254.569502121467
 20
636.5216952289336
 30
0.0
 10
256.186239818226
 20
624.8681596250816
 30
0.0
 10
258.0612572803779
 20
613.6730406092032
 30
0.0
 10
260.1842707096581
 20
602.923103041979
 30
0.0
 10
262.5456244029797
 20
592.6049937301625
 30
0.0
 10
265.1363169802131
 20
582.7053329075562
 30
0.0
 10
267.9480260745135
 20
573.210795041649
 30
0.0
 10
270.9731316351667
 20
564.1081812715012
 30
0.0
 10
274.2047378876251
 20
555.3844853066113
 30
0.0
 10
277.636693888756
 20
547.0269542183178
 30
0.0
 10
281.2636125346604
 20
539.0231452214308
 30
0.0
 10
285.080887821309
 20
531.3609792597507
 30
0.0
 10
289.0847101152303
 20
524.0287919350542
 30
0.0
 10
293.2720792180172
 20
517.0153821432763
 30
0.0
 10
297.640814927292
 20
510.3100583431869
 30
0.0
 10
302.1895652837129
 20
503.9026829543172
 30
0.0
 10
306.9178113510872
 20
497.7837123263826
 30
0.0
 10
311.8258730009906
 20
491.9442398707116
 30
0.0
 10
316.9149007949096
 20
486.3760118466572
 30
0.0
 10
322.1869120072729
 20
481.0715239694019
 30
0.0
 10
327.6446630495596
 20
476.0237948337614
 30
0.0
 10
333.2921385442924
 20
471.2273048815399
 30
0.0
 10
339.1315206722226
 20
466.6755341416954
 30
0.0
 10
345.1704497003839
 20
462.3730110679899
 30
0.0
 10
350.0341223175635
 20
459.1811155924808
 30
0.0
 10
352.8958346199433
 20
457.4509510826445
 30
0.0
 10
353.6400562357318
 20
457.0010016499152
 30
0.0
  0
SPLINE
  5
69
330
1F
100
AcDbEntity
  8
0
  6
Continuous
 62
     7
370
    25
100
AcDbSpline
210
0.0
220
0.0
230
1.0
 70
     8
 71
     3
 72
    65
 73
    61
 74
     0
 42
0.00000001
 43
0.00000001
 40
0.0
 40
0.0
 40
0.0
 40
0.0
 40
0.0058567971021576
 40
0.0176098909324256
 40
0.0305434449822231
 40
0.0454398333164484
 40
0.0629657743798942
 40
0.0826767083064109
 40
0.1026141817321092
 40
0.1219517345133016
 40
0.1408152734596337
 40
0.1593633118319008
 40
0.177700976498927
 40
0.1958942646126203
 40
0.2139854263732746
 40
0.2320023693438266
 40
0.2499641063685581
 40
0.2678839603421664
 40
0.285771505459142
 40
0.303633779848475
 40
0.3214760653658314
 40
0.3393024025433086
 40
0.3571159389881731
 40
0.3749191704170833
 40
0.3927141109391947
 40
0.4105024158125835
 40
0.4282854717565911
 40
0.4460644648401202
 40
0.4638404327573755
 40
0.4816143062388049
 40
0.4993869430062793
 40
0.5171591568165969
 40
0.5349316225459458
 40
0.5527049961226753
 40
0.5704801005500063
 40
0.5882578090484225
 40
0.6060390744733554
 40
0.6238249638482866
 40
0.6416167005349458
 40
0.6594157174582814
 40
0.6772237261297867
 40
0.6950428082449667
 40
0.7128755397682248
 40
0.7307251623286863
 40
0.748595824569615
 40
0.766492928796202
 40
0.7844236393556842
 40
0.8023976450075215
 40
0.8204283297855567
 40
0.8385346171157142
 40
0.8567439489517922
 40
0.8750972052417286
 40
0.8936568879714166
 40
0.912520114854762
 40
0.9318335396453121
 40
0.951766445640583
 40
0.9683395831895772
 40
0.9821695535310303
 40
0.9943006636065059
 40
1.0
 40
1.0
 40
1.0
 40
1.0
 10
610.1589849059663
 20
1223.859465352217
 30
0.0
 10
610.0814487856767
 20
1224.079732732669
 30
0.0
 10
609.8483175028598
 20
1224.742020409376
 30
0.0
 10
609.204168822432
 20
1225.690550552489
 30
0.0
 10
608.2720413499676
 20
1226.751958730955
 30
0.0
 10
607.0498270310533
 20
1227.767855451427
 30
0.0
 10
605.4773065930401
 20
1228.77999422579
 30
0.0
 10
603.5117315636143
 20
1229.771318899888
 30
0.0
 10
601.1938912974106
 20
1230.715651880429
 30
0.0
 10
598.6086511834433
 20
1231.592187347235
 30
0.0
 10
595.7926112388733
 20
1232.40609571171
 30
0.0
 10
592.7434305661458
 20
1233.169558083404
 30
0.0
 10
589.4581252018179
 20
1233.890052353699
 30
0.0
 10
585.9374377847032
 20
1234.571425080826
 30
0.0
 10
582.1853318824956
 20
1235.215418779609
 30
0.0
 10
578.2081848036073
 20
1235.822576003199
 30
0.0
 10
574.0142135978182
 20
1236.392750414837
 30
0.0
 10
569.6130878972641
 20
1236.925400514343
 30
0.0
 10
565.0156640982416
 20
1237.419765877347
 30
0.0
 10
560.2337944196172
 20
1237.874976968228
 30
0.0
 10
555.2801828953203
 20
1238.290126164715
 30
0.0
 10
550.1682712140911
 20
1238.664315227818
 30
0.0
 10
544.9121439099056
 20
1238.996687984627
 30
0.0
 10
539.526446288583
 20
1239.286453415381
 30
0.0
 10
534.0263108447256
 20
1239.53290231403
 30
0.0
 10
528.4272893913312
 20
1239.73541950508
 30
0.0
 10
522.7452890579373
 20
1239.893492884958
 30
0.0
 10
516.9965109180195
 20
1240.006720113807
 30
0.0
 10
511.1973904054059
 20
1240.074813502804
 30
0.0
 10
505.36453894483
 20
1240.097603459155
 30
0.0
 10
499.5146864025488
 20
1240.075040728201
 30
0.0
 10
493.6646373524777
 20
1240.00719774034
 30
0.0
 10
487.8312170595718
 20
1239.894269464227
 30
0.0
 10
482.0311992808054
 20
1239.736572994657
 30
0.0
 10
476.2812368028895
 20
1239.534545396337
 30
0.0
 10
470.5978032375946
 20
1239.288740538689
 30
0.0
 10
464.9971519174953
 20
1238.999825868805
 30
0.0
 10
459.4952586405175
 20
1238.668577671729
 30
0.0
 10
454.1077635795191
 20
1238.295874878901
 30
0.0
 10
448.8499118750784
 20
1237.882691059151
 30
0.0
 10
443.7364922033207
 20
1237.430084042967
 30
0.0
 10
438.7817722870046
 20
1236.939182350684
 30
0.0
 10
433.9994298330935
 20
1236.411167156804
 30
0.0
 10
429.402476648783
 20
1235.847247819019
 30
0.0
 10
425.0031725603469
 20
1235.248627845819
 30
0.0
 10
420.8129240128666
 20
1234.616456216515
 30
0.0
 10
416.8421593799674
 20
1233.951755591035
 30
0.0
 10
413.1001686249725
 20
1233.255312744969
 30
0.0
 10
409.5948867977408
 20
1232.527505497676
 30
0.0
 10
406.3325907324243
 20
1231.768017058872
 30
0.0
 10
403.3174491591821
 20
1230.975348678352
 30
0.0
 10
400.5508711818732
 20
1230.145930013818
 30
0.0
 10
398.030455179707
 20
1229.272490738314
 30
0.0
 10
395.7489842043067
 20
1228.340696932563
 30
0.0
 10
393.6935014216826
 20
1227.323555665
 30
0.0
 10
391.9765259997763
 20
1226.245765178205
 30
0.0
 10
390.6150866575923
 20
1225.124397041237
 30
0.0
 10
389.6216495006241
 20
1223.982610120185
 30
0.0
 10
388.9653301178311
 20
1222.993618552987
 30
0.0
 10
388.7379404707911
 20
1222.320713752424
 30
0.0
 10
388.6652574848022
 20
1222.105625990832
 30
0.0
  0
SPLINE
  5
6A
330
1F
100
AcDbEntity
  8
0
  6
Continuous
 62
     7
370
    25
100
AcDbSpline
210
0.0
220
0.0
230
1.0
 70
     8
 71
     3
 72
    64
 73
    60
 74
     0
 42
0.00000001
 43
0.00000001
 40
0.0
 40
0.0
 40
0.0
 40
0.0
 40
0.0118437804659218
 40
0.0260122382651986
 40
0.040651074291975
 40
0.0560184304483585
 40
0.0721117387804965
 40
0.0888328099624715
 40
0.1060560831776219
 40
0.1236630707789544
 40
0.1415560999782668
 40
0.1596603075426207
 40
0.1779204838530516
 40
0.1962966164232517
 40
0.214759827361273
 40
0.2332891924679197
 40
0.2518694175126511
 40
0.2704891946973056
 40
0.2891400550673796
 40
0.3078155687386229
 40
0.3265107850238503
 40
0.3452218372539634
 40
0.3639456608880171
 40
0.3826797899909847
 40
0.4014222083209322
 40
0.4201712387614255
 40
0.4389254598583294
 40
0.4576836415946049
 40
0.4764446948099481
 40
0.4952076302048702
 40
0.5139715238964991
 40
0.532735415771268
 40
0.5514982009397498
 40
0.5616896863746905
 40
0.5715595743732446
 40
0.5903151197209626
 40
0.6090685139923698
 40
0.6278165713518595
 40
0.6465579066391899
 40
0.6652908948941443
 40
0.6840135934951785
 40
0.7027236404265121
 40
0.7214181180118749
 40
0.7400933675249916
 40
0.7587447332962111
 40
0.7773662046533838
 40
0.7959499084450447
 40
0.8144853813734224
 40
0.8329585165020352
 40
0.851350028800072
 40
0.869633221086717
 40
0.8877707710767487
 40
0.905710269592655
 40
0.9233785208817036
 40
0.9406756747213109
 40
0.9574731322205281
 40
0.9736253092252056
 40
0.9874734045241605
 40
1.0
 40
1.0
 40
1.0
 40
1.0
 10
600.6636785380106
 20
1222.397287482362
 30
0.0
 10
600.6567934187016
 20
1222.386841147131
 30
0.0
 10
600.6416717804318
 20
1222.363898087539
 30
0.0
 10
600.3367600521844
 20
1222.074419150682
 30
0.0
 10
599.7611446879249
 20
1221.665797235455
 30
0.0
 10
598.8794665474564
 20
1221.154297917795
 30
0.0
 10
597.6789602514962
 20
1220.57507755171
 30
0.0
 10
596.1480749385286
 20
1219.946732758341
 30
0.0
 10
594.2870967118149
 20
1219.287794712629
 30
0.0
 10
592.1019268162615
 20
1218.612257285693
 30
0.0
 10
589.6025739424002
 20
1217.931338904918
 30
0.0
 10
586.801030634592
 20
1217.253686763277
 30
0.0
 10
583.7102713817613
 20
1216.586068420157
 30
0.0
 10
580.3437088342492
 20
1215.933845854878
 30
0.0
 10
576.715005528137
 20
1215.301369684516
 30
0.0
 10
572.8380372473496
 20
1214.692255342768
 30
0.0
 10
568.7269208045084
 20
1214.109576715258
 30
0.0
 10
564.3960559180953
 20
1213.555997243976
 30
0.0
 10
559.860161613721
 20
1213.033858365193
 30
0.0
 10
555.1343000930398
 20
1212.545238803589
 30
0.0
 10
550.2338871562736
 20
1212.091994312244
 30
0.0
 10
545.174690460041
 20
1211.67578426748
 30
0.0
 10
539.972817546275
 20
1211.298089422566
 30
0.0
 10
534.6446955630812
 20
1210.960223693233
 30
0.0
 10
529.2070443260145
 20
1210.663341905947
 30
0.0
 10
523.6768442014658
 20
1210.408444812215
 30
0.0
 10
518.0712995989769
 20
1210.196382264052
 30
0.0
 10
512.4078002851054
 20
1210.027855136677
 30
0.0
 10
506.7038764608787
 20
1209.903416503329
 30
0.0
 10
500.9771662229384
 20
1209.823472025977
 30
0.0
 10
495.2453361041933
 20
1209.78828100064
 30
0.0
 10
489.5262065242322
 20
1209.79795326004
 30
0.0
 10
484.7032191707653
 20
1209.84416071762
 30
0.0
 10
480.8049067985997
 20
1209.905511792352
 30
0.0
 10
476.928209362101
 20
1209.983250150481
 30
0.0
 10
472.2378589824743
 20
1210.106605860574
 30
0.0
 10
466.751461181501
 20
1210.296890502807
 30
0.0
 10
461.3656422385441
 20
1210.530331779899
 30
0.0
 10
456.0974815305514
 20
1210.80612747201
 30
0.0
 10
450.9634405796363
 20
1211.123329488771
 30
0.0
 10
445.979686341394
 20
1211.480829741491
 30
0.0
 10
441.1620184646576
 20
1211.877354060572
 30
0.0
 10
436.5258582536201
 20
1212.311451607859
 30
0.0
 10
432.0862306288657
 20
1212.781479284357
 30
0.0
 10
427.8577602350891
 20
1213.285578117099
 30
0.0
 10
423.8546795476893
 20
1213.821637592216
 30
0.0
 10
420.0908540510734
 20
1214.387241342831
 30
0.0
 10
416.579828261393
 20
1214.979584069957
 30
0.0
 10
413.334897780445
 20
1215.595342076523
 30
0.0
 10
410.3692070696254
 20
1216.230473404183
 30
0.0
 10
407.6958779522787
 20
1216.879890775976
 30
0.0
 10
405.3281068098458
 20
1217.536979658659
 30
0.0
 10
403.2792911403637
 20
1218.192680811923
 30
0.0
 10
401.5625027911685
 20
1218.834573492568
 30
0.0
 10
400.1907158794968
 20
1219.443519814902
 30
0.0
 10
399.1704325496013
 20
1219.9956940069
 30
0.0
 10
398.531872270398
 20
1220.427240545844
 30
0.0
 10
398.1995613219687
 20
1220.728488882902
 30
0.0
 10
398.1807245413389
 20
1220.755424036692
 30
0.0
 10
398.1717780580215
 20
1220.768216822719
 30
0.0
  0
SPLINE
  5
6B
330
1F
100
AcDbEntity
  8
0
  6
Continuous
 62
     7
370
    25
100
AcDbSpline
210
0.0
220
0.0
230
1.0
 70
     8
 71
     3
 72
    32
 73
    28
 74
     0
 42
0.00000001
 43
0.00000001
 40
0.0
 40
0.0
 40
0.0
 40
0.0
 40
0.0027957480998396
 40
0.0476308848838442
 40
0.0916108708283951
 40
0.1349264437150107
 40
0.1777635743734171
 40
0.2202574698842871
 40
0.2625015392595819
 40
0.3045603707324151
 40
0.3464793021512439
 40
0.3882907590776498
 40
0.4300183750067225
 40
0.4716796882806867
 40
0.5132879344472726
 40
0.5548532587414036
 40
0.5963835511663841
 40
0.6378850317138525
 40
0.6793626672828189
 40
0.7208204733378926
 40
0.7622617353910642
 40
0.8036891739021461
 40
0.8451050687212368
 40
0.8865113542607133
 40
0.9279096932752107
 40
0.9693015348796392
 40
1.0
 40
1.0
 40
1.0
 40
1.0
 10
356.8223804541941
 20
455.3436474699697
 30
0.0
 10
356.8703308475271
 20
455.3198492674254
 30
0.0
 10
357.6872569737081
 20
454.9144016357535
 30
0.0
 10
359.5350112474834
 20
454.1938114308463
 30
0.0
 10
362.3771322793694
 20
453.1708674265336
 30
0.0
 10
365.501456086305
 20
452.2073484055399
 30
0.0
 10
368.867826791512
 20
451.2859712381562
 30
0.0
 10
372.4871046614905
 20
450.4042144300976
 30
0.0
 10
376.3547380456939
 20
449.5586894497528
 30
0.0
 10
380.467956095431
 20
448.7482292940948
 30
0.0
 10
384.8215382139591
 20
447.9723345170984
 30
0.0
 10
389.4092776144522
 20
447.2311161013954
 30
0.0
 10
394.223866377179
 20
446.5250161110381
 30
0.0
 10
399.2571343176037
 20
445.8546943363321
 30
0.0
 10
404.5001434848612
 20
445.2209359114843
 30
0.0
 10
409.9432856799311
 20
444.6245938114465
 30
0.0
 10
415.576354500105
 20
444.0665477918158
 30
0.0
 10
421.3886067780249
 20
443.5476754718724
 30
0.0
 10
427.3688156389013
 20
443.0688319580161
 30
0.0
 10
433.5053143902148
 20
442.6308322766407
 30
0.0
 10
439.7860479910514
 20
442.2344475623084
 30
0.0
 10
446.1985769410441
 20
441.8803668587782
 30
0.0
 10
452.7302450916789
 20
441.5692993750235
 30
0.0
 10
459.3677262881206
 20
441.3015617249729
 30
0.0
 10
466.0988815901998
 20
441.0785932934133
 30
0.0
 10
472.3200886276037
 20
440.9128887780373
 30
0.0
 10
476.3118371724664
 20
440.8355045659502
 30
0.0
 10
478.0116572875552
 20
440.8025517787648
 30
0.0
  0
SPLINE
  5
6C
330
1F
100
AcDbEntity
  8
0
  6
Continuous
 62
     7
370
    25
100
AcDbSpline
210
0.0
220
0.0
230
1.0
 70
     8
 71
     3
 72
    40
 73
    36
 74
     0
 42
0.00000001
 43
0.00000001
 40
0.0
 40
0.0
 40
0.0
 40
0.0
 40
0.0164002749246419
 40
0.0475696360484578
 40
0.078739053534193
 40
0.1099071352425842
 40
0.1410745769255007
 40
0.1722420474484973
 40
0.2034100093293002
 40
0.2345791479023809
 40
0.265750171409063
 40
0.296923826854142
 40
0.328100917554518
 40
0.3592823231728006
 40
0.390469023248428
 40
0.4216621255060552
 40
0.4528629006039812
 40
0.4840728255296529
 40
0.5152936386246205
 40
0.5465274103319141
 40
0.5777766353650619
 40
0.609044354346499
 40
0.6403343164406996
 40
0.671651199726393
 40
0.7030009139966495
 40
0.7343910229426129
 40
0.7658313418802786
 40
0.7973347975976446
 40
0.8289186854137056
 40
0.8606065355823229
 40
0.8924309196892352
 40
0.9244376906513871
 40
0.9566922841351131
 40
0.9892883557162755
 40
1.0
 40
1.0
 40
1.0
 40
1.0
 10
478.0116572875552
 20
440.8025517787648
 30
0.0
 10
479.220896326155
 20
440.7821565319256
 30
0.0
 10
482.7283412455902
 20
440.7229993242738
 30
0.0
 10
488.5726759847008
 20
440.6594747719986
 30
0.0
 10
495.5446127394241
 20
440.6269745926986
 30
0.0
 10
502.5375799083104
 20
440.6403535690426
 30
0.0
 10
509.5362741143159
 20
440.6988091525664
 30
0.0
 10
516.5268469518841
 20
440.802428522559
 30
0.0
 10
523.4951108472467
 20
440.9509493368161
 30
0.0
 10
530.4270228308404
 20
441.1440925554797
 30
0.0
 10
537.3086101875671
 20
441.3814750299836
 30
0.0
 10
544.1260184980375
 20
441.6626344185055
 30
0.0
 10
550.8655346886503
 20
441.9870245066596
 30
0.0
 10
557.5136211626188
 20
442.3540190879114
 30
0.0
 10
564.0569471194942
 20
442.7629141883304
 30
0.0
 10
570.4824209008302
 20
443.2129314761616
 30
0.0
 10
576.777222498159
 20
443.7032222397496
 30
0.0
 10
582.9288366872586
 20
444.2328723020293
 30
0.0
 10
588.9250869893299
 20
444.8009080590312
 30
0.0
 10
594.7541708618298
 20
445.4063039978741
 30
0.0
 10
600.4046966371841
 20
446.0479921831321
 30
0.0
 10
605.8657229859233
 20
446.7248744214714
 30
0.0
 10
611.1268018321229
 20
447.4358381826928
 30
0.0
 10
616.1780266378322
 20
448.1797777788296
 30
0.0
 10
621.0100865308283
 20
448.9556235384273
 30
0.0
 10
625.6143354213981
 20
449.7623815848589
 30
0.0
 10
629.9828576555501
 20
450.5991946236584
 30
0.0
 10
634.1086221122889
 20
451.4654171918517
 30
0.0
 10
637.9854140705376
 20
452.3607831766108
 30
0.0
 10
641.6087572007323
 20
453.2854642001243
 30
0.0
 10
644.9733469848602
 20
454.2409308449463
 30
0.0
 10
648.0839085279821
 20
455.2284703897731
 30
0.0
 10
650.9158879812247
 20
456.2577154916301
 30
0.0
 10
652.9609801094688
 20
457.07704873678
 30
0.0
 10
653.968254240642
 20
457.575647871472
 30
0.0
 10
654.2173914203303
 20
457.6989703895114
 30
0.0
  0
SPLINE
  5
6D
330
1F
100
AcDbEntity
  8
0
  6
Continuous
 62
     7
370
    25
100
AcDbSpline
210
0.0
220
0.0
230
1.0
 70
     8
 71
     3
 72
    13
 73
     9
 74
     0
 42
0.00000001
 43
0.00000001
 40
0.0
 40
0.0
 40
0.0
 40
0.0
 40
0.0057097163884849
 40
0.2756956451640076
 40
0.5183284816121765
 40
0.7442040464515525
 40
0.9612860836481457
 40
1.0
 40
1.0
 40
1.0
 40
1.0
 10
650.2493672844735
 20
451.0808582881332
 30
0.0
 10
650.2578185599257
 20
451.088873720054
 30
0.0
 10
650.6658913396808
 20
451.4759016430416
 30
0.0
 10
651.3235099117953
 20
452.3690043114865
 30
0.0
 10
652.1754398582426
 20
453.7681281706669
 30
0.0
 10
652.732867654513
 20
455.2739646025047
 30
0.0
 10
653.0257985926509
 20
456.423635148629
 30
0.0
 10
653.0247661333531
 20
457.0548043255733
 30
0.0
 10
653.0246098738722
 20
457.1503298035222
 30
0.0
  0
SPLINE
  5
6E
330
1F
100
AcDbEntity
  8
0
  6
Continuous
 62
     7
370
    25
100
AcDbSpline
210
0.0
220
0.0
230
1.0
 70
     8
 71
     3
 72
    40
 73
    36
 74
     0
 42
0.00000001
 43
0.00000001
 40
0.0
 40
0.0
 40
0.0
 40
0.0
 40
0.0089401675520894
 40
0.0401822816605469
 40
0.0714215857684829
 40
0.1026593367163159
 40
0.1338967489825282
 40
0.165134741233149
 40
0.1963744060318843
 40
0.2276169874733813
 40
0.2588637942998094
 40
0.290116233125507
 40
0.3213758463949816
 40
0.3526443571428147
 40
0.3839237232176129
 40
0.4152162044707512
 40
0.4465244476275829
 40
0.4778515953281725
 40
0.5092014284170295
 40
0.540578554402933
 40
0.5719886607805843
 40
0.6034388607100363
 40
0.63493817220978
 40
0.6664981935967365
 40
0.6981340726233819
 40
0.729865923631902
 40
0.7617209416437465
 40
0.7937366209047672
 40
0.8259657481205455
 40
0.8584842458388992
 40
0.8914033915943151
 40
0.9248873982379353
 40
0.959169254327246
 40
0.9945039645083241
 40
0.9999999999999999
 40
0.9999999999999999
 40
0.9999999999999999
 40
0.9999999999999999
 10
485.1483679887042
 20
430.5828456857542
 30
0.0
 10
485.7820073815752
 20
430.5733524836166
 30
0.0
 10
488.6299491463367
 20
430.5306845447965
 30
0.0
 10
493.7363503962699
 20
430.5003559753408
 30
0.0
 10
500.4499048791814
 20
430.4931688037755
 30
0.0
 10
507.1780867638009
 20
430.5347667701499
 30
0.0
 10
513.9017894260313
 20
430.62072312617
 30
0.0
 10
520.6076206488043
 20
430.7520135511049
 30
0.0
 10
527.280700091994
 20
430.9280502170457
 30
0.0
 10
533.9066590657426
 20
431.1485503379698
 30
0.0
 10
540.4711457279346
 20
431.4130378544464
 30
0.0
 10
546.9599941800118
 20
431.7209796287445
 30
0.0
 10
553.3592254401955
 20
432.0717525890905
 30
0.0
 10
559.6550963212192
 20
432.4646572649755
 30
0.0
 10
565.8341363691676
 20
432.898920139078
 30
0.0
 10
571.88318930486
 20
433.3737005399136
 30
0.0
 10
577.7894551147574
 20
433.8880982793867
 30
0.0
 10
583.5405345905116
 20
434.4411636523714
 30
0.0
 10
589.1244769024854
 20
435.0319102329929
 30
0.0
 10
594.5298315536435
 20
435.6593316206593
 30
0.0
 10
599.7457064771868
 20
436.3224237243062
 30
0.0
 10
604.7618348908952
 20
437.0202149970942
 30
0.0
 10
609.568654560764
 20
437.7518084840394
 30
0.0
 10
614.1574054234919
 20
438.5164412790915
 30
0.0
 10
618.5202524528576
 20
439.3135724356339
 30
0.0
 10
622.6504519799953
 20
440.143010337935
 30
0.0
 10
626.5425605925881
 20
441.0051265077681
 30
0.0
 10
630.1927942457061
 20
441.90113294757
 30
0.0
 10
633.5992941061995
 20
442.8337851346545
 30
0.0
 10
636.7634571103423
 20
443.8076590284074
 30
0.0
 10
639.6882509513316
 20
444.833206003134
 30
0.0
 10
642.3891002530734
 20
445.92046538069
 30
0.0
 10
644.8556696729739
 20
447.1195996562181
 30
0.0
 10
646.5121006742738
 20
448.0203328397936
 30
0.0
 10
647.2958359672845
 20
448.6082436719122
 30
0.0
 10
647.4013309053635
 20
448.6873795962268
 30
0.0
  0
SPLINE
  5
6F
330
1F
100
AcDbEntity
  8
0
  6
Continuous
 62
     7
370
    25
100
AcDbSpline
210
0.0
220
0.0
230
1.0
 70
     8
 71
     3
 72
    38
 73
    34
 74
     0
 42
0.00000001
 43
0.00000001
 40
0.0
 40
0.0
 40
0.0
 40
0.0
 40
0.012281567453528
 40
0.0335689259254135
 40
0.0553604095218316
 40
0.0784835562159949
 40
0.1039400014382289
 40
0.1329340192351332
 40
0.1666013772747016
 40
0.2047519623498679
 40
0.2445842942533309
 40
0.2834029533867649
 40
0.3211398009090892
 40
0.358087759094484
 40
0.3944876824154955
 40
0.4305020162183486
 40
0.4662385535732295
 40
0.5017701495673357
 40
0.537147285604066
 40
0.5724058106998327
 40
0.6075717657534926
 40
0.6426644586177112
 40
0.6776984729244857
 40
0.7126850118354402
 40
0.7476328169158478
 40
0.7825488093153445
 40
0.8174385455822883
 40
0.8523065473428102
 40
0.8871565436520276
 40
0.9219916519485784
 40
0.9568145152628171
 40
0.9916274079065666
 40
1.0
 40
1.0
 40
1.0
 40
1.0
 10
358.1557899921266
 20
454.7803136911431
 30
0.0
 10
358.1800432517841
 20
454.4599131137618
 30
0.0
 10
358.2463341287399
 20
453.5841695827124
 30
0.0
 10
358.6880215573358
 20
452.2365559538262
 30
0.0
 10
359.3919647962646
 20
450.7928728338386
 30
0.0
 10
360.3282760258579
 20
449.4689938022984
 30
0.0
 10
361.4905593991131
 20
448.2223538679081
 30
0.0
 10
362.9400324537829
 20
447.0096318013087
 30
0.0
 10
364.7544604282664
 20
445.8020359775506
 30
0.0
 10
366.9804749975103
 20
444.608368056182
 30
0.0
 10
369.5840561012927
 20
443.4623677032352
 30
0.0
 10
372.477399201251
 20
442.3911898926725
 30
0.0
 10
375.5953930829223
 20
441.3983365491457
 30
0.0
 10
378.9355206816216
 20
440.468696405749
 30
0.0
 10
382.5039838539118
 20
439.5906726770727
 30
0.0
 10
386.304484813508
 20
438.7572735661756
 30
0.0
 10
390.3372778421042
 20
437.9645672773025
 30
0.0
 10
394.599851757168
 20
437.210480668158
 30
0.0
 10
399.0875933254259
 20
436.4940712920799
 30
0.0
 10
403.7942646383404
 20
435.8150943861763
 30
0.0
 10
408.7123339235757
 20
435.1737392616618
 30
0.0
 10
413.8332083294659
 20
434.5704635407804
 30
0.0
 10
419.1474033172302
 20
434.0058858389735
 30
0.0
 10
424.6446689460402
 20
433.480713150504
 30
0.0
 10
430.3140934928707
 20
432.9956942806267
 30
0.0
 10
436.1441694282568
 20
432.5515747071186
 30
0.0
 10
442.1229170164558
 20
432.1491103065306
 30
0.0
 10
448.2377362883105
 20
431.7889045901864
 30
0.0
 10
454.4762322269387
 20
431.4719334311168
 30
0.0
 10
460.8233828926299
 20
431.1975267284245
 30
0.0
 10
467.2723272906975
 20
430.9708496257784
 30
0.0
 10
472.1362477272583
 20
430.8245371906244
 30
0.0
 10
474.8657352595248
 20
430.7681436355684
 30
0.0
 10
475.3949150492356
 20
430.7572103269334
 30
0.0
  0
LINE
  5
70
330
1F
100
AcDbEntity
  8
0
  6
Continuous
 62
     7
370
    25
100
AcDbLine
 10
484.5156672888
 20
374.2607844281
 30
0.0
 11
485.2815320563
 21
430.6806748985
 31
0.0
  0
LINE
  5
71
330
1F
100
AcDbEntity
  8
0
  6
Continuous
 62
     7
370
    25
100
AcDbLine
 10
475.282788747
 20
430.8411218059
 30
0.0
 11
474.5136630078
 21
374.1810013767
 31
0.0
  0
LINE
  5
72
330
1F
100
AcDbEntity
  8
0
  6
Continuous
 62
     7
370
    25
100
AcDbLine
 10
490.9686941456
 20
358.3397245756
 30
0.0
 11
490.9208797239
 21
364.278282698
 31
0.0
  0
LINE
  5
73
330
1F
100
AcDbEntity
  8
0
  6
Continuous
 62
     7
370
    25
100
AcDbLine
 10
467.921625198
 20
364.0931037319
 30
0.0
 11
467.9694396196
 21
358.1545456096
 31
0.0
  0
LINE
  5
74
330
1F
100
AcDbEntity
  8
0
  6
Continuous
 62
     7
370
    25
100
AcDbLine
 10
488.4209607537
 20
364.2581545495
 30
0.0
 11
488.3811154024
 21
369.2069529848
 31
0.0
  0
LINE
  5
75
330
1F
100
AcDbEntity
  8
0
  6
Continuous
 62
     7
370
    25
100
AcDbLine
 10
470.3816988168
 20
369.0620303157
 30
0.0
 11
470.4215441682
 21
364.1132318804
 31
0.0
  0
LINE
  5
76
330
1F
100
AcDbEntity
  8
0
  6
Continuous
 62
     7
370
    25
100
AcDbLine
 10
487.3811478143
 20
369.1989017254
 30
0.0
 11
487.3413024629
 21
374.1477001607
 31
0.0
  0
LINE
  5
77
330
1F
100
AcDbEntity
  8
0
  6
Continuous
 62
     7
370
    25
100
AcDbLine
 10
471.3418210536
 20
374.0188800104
 30
0.0
 11
471.3816664049
 21
369.0700815751
 31
0.0
  0
LINE
  5
78
330
1F
100
AcDbEntity
  8
0
  6
Continuous
 62
     7
370
    25
100
AcDbLine
 10
657.7439337812
 20
392.7532538057
 30
0.0
 11
650.2051265584
 21
451.4251684727
 31
0.0
  0
LINE
  5
79
330
1F
100
AcDbEntity
  8
0
  6
Continuous
 62
     7
370
    25
100
AcDbLine
 10
640.903305654
 20
445.3516589349
 30
0.0
 11
647.6747854335
 21
392.6515868882
 31
0.0
  0
LINE
  5
7A
330
1F
100
AcDbEntity
  8
0
  6
Continuous
 62
     7
370
    25
100
AcDbLine
 10
665.2923417511
 20
376.9417220994
 30
0.0
 11
665.2445273294
 21
382.8802802218
 31
0.0
  0
LINE
  5
7B
330
1F
100
AcDbEntity
  8
0
  6
Continuous
 62
     7
370
    25
100
AcDbLine
 10
642.2452728035
 20
382.6951012557
 30
0.0
 11
642.2930872251
 21
376.7565431333
 31
0.0
  0
LINE
  5
7C
330
1F
100
AcDbEntity
  8
0
  6
Continuous
 62
     7
370
    25
100
AcDbLine
 10
662.7446083592
 20
382.8601520733
 30
0.0
 11
662.7047630079
 21
387.8089505086
 31
0.0
  0
LINE
  5
7D
330
1F
100
AcDbEntity
  8
0
  6
Continuous
 62
     7
370
    25
100
AcDbLine
 10
644.7053464223
 20
387.6640278395
 30
0.0
 11
644.7451917737
 21
382.7152294042
 31
0.0
  0
LINE
  5
7E
330
1F
100
AcDbEntity
  8
0
  6
Continuous
 62
     7
370
    25
100
AcDbLine
 10
661.7047954198
 20
387.8008992492
 30
0.0
 11
661.6649500684
 21
392.7496976845
 31
0.0
  0
LINE
  5
7F
330
1F
100
AcDbEntity
  8
0
  6
Continuous
 62
     7
370
    25
100
AcDbLine
 10
645.665468659
 20
392.6208775342
 30
0.0
 11
645.7053140104
 21
387.6720790989
 31
0.0
  0
LINE
  5
80
330
1F
100
AcDbEntity
  8
0
  6
Continuous
 62
     7
370
    25
100
AcDbLine
 10
364.4669249139
 20
397.9856312667
 30
0.0
 11
369.6046573023
 21
443.488453213
 31
0.0
  0
LINE
  5
81
330
1F
100
AcDbEntity
  8
0
  6
Continuous
 62
     7
370
    25
100
AcDbLine
 10
360.237468835
 20
449.6557725447
 30
0.0
 11
354.3974026301
 21
397.9326634789
 31
0.0
  0
LINE
  5
82
330
1F
100
AcDbEntity
  8
0
  6
Continuous
 62
     7
370
    25
100
AcDbLine
 10
370.103446403
 20
382.2327146005
 30
0.0
 11
370.0556319814
 21
388.1712727229
 31
0.0
  0
LINE
  5
83
330
1F
100
AcDbEntity
  8
0
  6
Continuous
 62
     7
370
    25
100
AcDbLine
 10
347.0563774554
 20
387.9860937568
 30
0.0
 11
347.104191877
 21
382.0475356344
 31
0.0
  0
LINE
  5
84
330
1F
100
AcDbEntity
  8
0
  6
Continuous
 62
     7
370
    25
100
AcDbLine
 10
367.5557130112
 20
388.1511445744
 30
0.0
 11
367.5158676598
 21
393.0999430097
 31
0.0
  0
LINE
  5
85
330
1F
100
AcDbEntity
  8
0
  6
Continuous
 62
     7
370
    25
100
AcDbLine
 10
349.5164510743
 20
392.9550203406
 30
0.0
 11
349.5562964256
 21
388.0062219053
 31
0.0
  0
LINE
  5
86
330
1F
100
AcDbEntity
  8
0
  6
Continuous
 62
     7
370
    25
100
AcDbLine
 10
366.5159000717
 20
393.0918917503
 30
0.0
 11
366.4760547204
 21
398.0406901856
 31
0.0
  0
LINE
  5
87
330
1F
100
AcDbEntity
  8
0
  6
Continuous
 62
     7
370
    25
100
AcDbLine
 10
350.476573311
 20
397.9118700353
 30
0.0
 11
350.5164186623
 21
392.9630716
 31
0.0
  0
LINE
  5
88
330
1F
100
AcDbEntity
  8
0
  6
Continuous
 62
     7
370
    25
100
AcDbLine
 10
537.6278221624
 20
416.4850989222
 30
0.0
 11
537.1771849373
 21
431.2880687729
 31
0.0
  0
LINE
  5
89
330
1F
100
AcDbEntity
  8
0
  6
Continuous
 62
     7
370
    25
100
AcDbLine
 10
527.1833584498
 20
430.9330987173
 30
0.0
 11
527.6258942999
 21
416.3962507125
 31
0.0
  0
LINE
  5
8A
330
1F
100
AcDbEntity
  8
0
  6
Continuous
 62
     7
370
    25
100
AcDbLine
 10
544.4270940085
 20
400.8347121243
 30
0.0
 11
544.3792795869
 21
406.7732702466
 31
0.0
  0
LINE
  5
8B
330
1F
100
AcDbEntity
  8
0
  6
Continuous
 62
     7
370
    25
100
AcDbLine
 10
521.3800250609
 20
406.5880912806
 30
0.0
 11
521.4278394825
 21
400.6495331582
 31
0.0
  0
LINE
  5
8C
330
1F
100
AcDbEntity
  8
0
  6
Continuous
 62
     7
370
    25
100
AcDbLine
 10
541.8793606167
 20
406.7531420982
 30
0.0
 11
541.8395152653
 21
411.7019405335
 31
0.0
  0
LINE
  5
8D
330
1F
100
AcDbEntity
  8
0
  6
Continuous
 62
     7
370
    25
100
AcDbLine
 10
523.8400986797
 20
411.5570178644
 30
0.0
 11
523.8799440311
 21
406.6082194291
 31
0.0
  0
LINE
  5
8E
330
1F
100
AcDbEntity
  8
0
  6
Continuous
 62
     7
370
    25
100
AcDbLine
 10
540.8395476772
 20
411.6938892741
 30
0.0
 11
540.7997023258
 21
416.6426877094
 31
0.0
  0
LINE
  5
8F
330
1F
100
AcDbEntity
  8
0
  6
Continuous
 62
     7
370
    25
100
AcDbLine
 10
524.8002209165
 20
416.513867559
 30
0.0
 11
524.8400662678
 21
411.5650691237
 31
0.0
  0
LWPOLYLINE
  5
90
330
1F
100
AcDbEntity
  8
0
  6
Continuous
 62
     7
370
    25
100
AcDbPolyline
 90
        3
 70
   128
 43
0.0
 10
654.6266115286
 20
457.8994978111
 10
655.6759519091
 20
458.415879519
 10
657.5122358207
 20
459.4527153848
  0
ARC
  5
91
330
1F
100
AcDbEntity
  8
0
  6
Continuous
 62
     7
370
    25
100
AcDbCircle
 10
368.1513572861
 20
481.5264675502
 30
0.0
 40
28.50476579706719
100
AcDbArc
 50
239.3371716955
 51
245.7408929299
  0
LINE
  5
92
330
1F
100
AcDbEntity
  8
0
  6
Continuous
 62
     7
370
    25
100
AcDbLine
 10
388.6108583614
 20
1222.0515725474
 30
0.0
 11
388.6215313499
 21
1222.081173513
 31
0.0
  0
LWPOLYLINE
  5
93
330
1F
100
AcDbEntity
  8
0
  6
Continuous
 62
     7
370
    25
100
AcDbPolyline
 90
      110
 70
   128
 43
0.0
 10
518.4921007749
 20
1239.9318540653
 10
512.3843873361
 20
1240.0155433751
 10
506.2335167548
 20
1240.0485200972
 10
500.0599216043
 20
1240.0306746863
 10
493.8841099471
 20
1239.962066423
 10
487.7265972082
 20
1239.8429232172
 10
481.6078380258
 20
1239.6736408504
 10
475.5481583026
 20
1239.4547816618
 10
469.5676876852
 20
1239.1870726795
 10
463.6862926955
 20
1238.8714032059
 10
457.9235107363
 20
1238.5088218632
 10
452.2984851897
 20
1238.1005331101
 10
446.8299018248
 20
1237.6478932409
 10
441.5359267257
 20
1237.1524058797
 10
436.4341459451
 20
1236.6157169856
 10
431.541507086
 20
1236.0396093852
 10
426.8742630023
 20
1235.4259968501
 10
422.4479178098
 20
1234.7769177392
 10
418.2771753819
 20
1234.0945282282
 10
414.3758905055
 20
1233.3810951464
 10
410.7570228567
 20
1232.6389884468
 10
407.4325939499
 20
1231.8706733331
 10
404.4136472036
 20
1231.0787020709
 10
401.7102112552
 20
1230.2657055092
 10
399.3312666472
 20
1229.4343843406
 10
397.2847159942
 20
1228.5875001306
 10
395.5773577317
 20
1227.7278661433
 10
394.2148635323
 20
1226.8583379964
 10
393.2017594644
 20
1225.9818041749
 10
392.5414109581
 20
1225.1011764361
 10
392.2360116246
 20
1224.2193801366
 10
392.2865759699
 20
1223.3393445153
 10
392.6929360241
 20
1222.4639929618
 10
393.4537419002
 20
1221.596233306
 10
394.5664662775
 20
1220.7389481583
 10
396.0274127974
 20
1219.8949853336
 10
397.8317283427
 20
1219.0671483916
 10
399.9734191585
 20
1218.2581873234
 10
402.4453707633
 20
1217.4707894163
 10
405.2393715824
 20
1216.7075703269
 10
408.3461402262
 20
1215.9710653924
 10
411.7553563215
 20
1215.2637212079
 10
415.4556947955
 20
1214.5878874999
 10
419.4348634958
 20
1213.9458093198
 10
423.6796440242
 20
1213.3396195869
 10
428.1759356466
 20
1212.7713320025
 10
432.9088021345
 20
1212.2428343607
 10
437.8625213812
 20
1211.7558822776
 10
443.0206376298
 20
1211.3120933591
 10
448.3660161366
 20
1210.9129418272
 10
453.8809000919
 20
1210.5597536233
 10
459.5469696058
 20
1210.253702003
 10
465.3454025652
 20
1209.9958036391
 10
471.2569371589
 20
1209.7869152439
 10
477.2619358635
 20
1209.6277307238
 10
483.3404506772
 20
1209.5187788736
 10
489.472289385
 20
1209.4604216205
 10
495.6370826355
 20
1209.4528528214
 10
501.8143516054
 20
1209.4960976191
 10
507.9835760285
 20
1209.5900123587
 10
514.1242623615
 20
1209.7342850649
 10
520.2160118621
 20
1209.9284364783
 10
526.238588351
 20
1210.1718216473
 10
532.1719854349
 20
1210.4636320711
 10
537.9964929652
 20
1210.8028983846
 10
543.6927625137
 20
1211.1884935792
 10
549.2418716459
 20
1211.6191367467
 10
554.6253867792
 20
1212.0933973335
 10
559.8254244177
 20
1212.6096998939
 10
564.8247105595
 20
1213.1663293225
 10
569.6066380786
 20
1213.7614365524
 10
574.1553218928
 20
1214.3930446972
 10
578.4556517318
 20
1215.0590556182
 10
582.4933423325
 20
1215.7572568941
 10
586.2549808926
 20
1216.4853291705
 10
589.7280716272
 20
1217.2408538645
 10
592.9010772781
 20
1218.021321199
 10
595.7634574397
 20
1218.82413854
 10
598.3057035729
 20
1219.646639009
 10
600.5193705918
 20
1220.4860903423
 10
602.397104917
 20
1221.3397039669
 10
603.9326689041
 20
1222.2046442642
 10
605.1209615638
 20
1223.0780379895
 10
605.9580355075
 20
1223.9569838167
 10
606.4411100597
 20
1224.8385619761
 10
606.5685804953
 20
1225.7198439538
 10
606.3400233704
 20
1226.5979022196
 10
605.7561979287
 20
1227.4698199523
 10
604.8190435796
 20
1228.3327007289
 10
603.5316734557
 20
1229.1836781462
 10
601.898364071
 20
1230.0199253427
 10
599.9245411151
 20
1230.8386643895
 10
597.6167614293
 20
1231.6371755178
 10
594.9826912256
 20
1232.4128061538
 10
592.0310806204
 20
1233.1629797306
 10
588.7717345672
 20
1233.885204247
 10
585.2154802859
 20
1234.5770805459
 10
581.3741312956
 20
1235.2363102837
 10
577.2604481713
 20
1235.8607035655
 10
572.8880961546
 20
1236.4481862196
 10
568.2715997592
 20
1236.9968066878
 10
563.4262945219
 20
1237.504742508
 10
558.3682760594
 20
1237.9703063685
 10
553.1143466005
 20
1238.391951713
 10
547.6819591703
 20
1238.768277878
 10
542.0891596136
 20
1239.098034746
 10
536.3545266481
 20
1239.3801268976
 10
530.4971101478
 20
1239.6136172512
 10
524.5363678612
 20
1239.7977301754
 10
518.4921007749
 20
1239.9318540653
  0
LWPOLYLINE
  5
94
330
1F
100
AcDbEntity
  8
0
  6
Continuous
 62
     7
370
    25
100
AcDbPolyline
 90
      109
 70
   128
 43
0.0
 10
518.1135212995
 20
1239.6309148279
 10
524.0924856041
 20
1239.4980024607
 10
529.9878735878
 20
1239.3151854968
 10
535.7797371237
 20
1239.083082531
 10
541.4484783791
 20
1238.8024789261
 10
546.974916128
 20
1238.474324156
 10
552.3403506543
 20
1238.0997285926
 10
557.526627026
 20
1237.6799597487
 10
562.5161965256
 20
1237.216437989
 10
567.2921760292
 20
1236.7107317247
 10
571.8384051341
 20
1236.1645521055
 10
576.13950084
 20
1235.5797472305
 10
580.1809096005
 20
1234.9582958941
 10
583.9489565677
 20
1234.3023008911
 10
587.4308918633
 20
1233.6139819008
 10
590.6149337205
 20
1232.8956679769
 10
593.4903083496
 20
1232.1497896662
 10
596.047286393
 20
1231.3788707849
 10
598.2772158463
 20
1230.5855198785
 10
600.1725513342
 20
1229.7724213952
 10
601.7268796414
 20
1228.942326603
 10
602.9349414128
 20
1228.0980442799
 10
603.7926489498
 20
1227.24243121
 10
604.2971000416
 20
1226.378382517
 10
604.4465877855
 20
1225.5088218684
 10
604.2406063621
 20
1224.636691582
 10
603.6798527475
 20
1223.7649426707
 10
602.7662243543
 20
1222.8965248569
 10
601.5028126119
 20
1222.0343765915
 10
599.8938925056
 20
1221.1814151113
 10
597.9449081119
 20
1220.3405265681
 10
595.6624541769
 20
1219.5145562624
 10
593.0542538022
 20
1218.7062990164
 10
590.1291323124
 20
1217.9184897166
 10
586.8969873927
 20
1217.1537940605
 10
583.3687555983
 20
1216.4147995359
 10
579.5563753487
 20
1215.7040066666
 10
575.4727465321
 20
1215.0238205505
 10
571.1316868555
 20
1214.3765427222
 10
566.547885091
 20
1213.7643633649
 10
561.7368513726
 20
1213.1893538999
 10
556.7148647156
 20
1212.653459977
 10
551.4989179331
 20
1212.1584948918
 10
546.106660138
 20
1211.7061334494
 10
540.5563370238
 20
1211.2979062977
 10
534.866729127
 20
1210.9351947482
 10
529.0570882797
 20
1210.619226102
 10
523.1470724676
 20
1210.3510694969
 10
517.1566793133
 20
1210.13163229
 10
511.1061784112
 20
1209.9616569873
 10
505.0160427409
 20
1209.8417187316
 10
498.9068793939
 20
1209.7722233558
 10
492.799359845
 20
1209.7534060103
 10
486.7141500072
 20
1209.7853303671
 10
480.6718403044
 20
1209.8678884042
 10
474.6928759998
 20
1210.0008007714
 10
468.7974880161
 20
1210.1836177352
 10
463.0056244802
 20
1210.4157207011
 10
457.3368832248
 20
1210.696324306
 10
451.8104454759
 20
1211.024479076
 10
446.4450109496
 20
1211.3990746394
 10
441.2587345779
 20
1211.8188434834
 10
436.2691650783
 20
1212.282365243
 10
431.4931855747
 20
1212.7880715074
 10
426.9469564698
 20
1213.3342511265
 10
422.6458607639
 20
1213.9190560016
 10
418.6044520034
 20
1214.5405073379
 10
414.8364050363
 20
1215.196502341
 10
411.3544697406
 20
1215.8848213312
 10
408.1704278834
 20
1216.6031352552
 10
405.2950532543
 20
1217.3490135659
 10
402.7380752109
 20
1218.1199324471
 10
400.5081457576
 20
1218.9132833536
 10
398.6128102697
 20
1219.7263818369
 10
397.0584819625
 20
1220.5564766291
 10
395.8504201912
 20
1221.4007589522
 10
394.9927126541
 20
1222.2563720221
 10
394.4882615623
 20
1223.120420715
 10
394.3387738184
 20
1223.9899813636
 10
394.5447552418
 20
1224.86211165
 10
395.1055088564
 20
1225.7338605613
 10
396.0191372496
 20
1226.6022783752
 10
397.282548992
 20
1227.4644266406
 10
398.8914690983
 20
1228.3173881207
 10
400.840453492
 20
1229.158276664
 10
403.1229074271
 20
1229.9842469697
 10
405.7311078017
 20
1230.7925042157
 10
408.6562292915
 20
1231.5803135155
 10
411.8883742112
 20
1232.3450091716
 10
415.4166060057
 20
1233.0840036961
 10
419.2289862552
 20
1233.7947965655
 10
423.3126150719
 20
1234.4749826815
 10
427.6536747484
 20
1235.1222605099
 10
432.2374765129
 20
1235.7344398671
 10
437.0485102313
 20
1236.3094493322
 10
442.0704968883
 20
1236.845343255
 10
447.2864436708
 20
1237.3403083402
 10
452.6787014659
 20
1237.7926697826
 10
458.2290245801
 20
1238.2008969343
 10
463.9186324769
 20
1238.5636084838
 10
469.7282733242
 20
1238.8795771301
 10
475.6382891363
 20
1239.1477337352
 10
481.6286822906
 20
1239.3671709421
 10
487.6791831928
 20
1239.5371462447
 10
493.769318863
 20
1239.6570845005
 10
499.87848221
 20
1239.7265798763
 10
505.9860017589
 20
1239.7453972218
 10
512.0712115967
 20
1239.713472865
 10
518.1135212995
 20
1239.6309148279
  0
SPLINE
  5
95
330
1F
100
AcDbEntity
  8
0
  6
Continuous
 62
     7
370
    25
100
AcDbSpline
210
0.0
220
0.0
230
1.0
 70
     8
 71
     3
 72
    11
 73
     7
 74
     0
 42
0.00000001
 43
0.00000001
 40
0.0
 40
0.0
 40
0.0
 40
0.0
 40
0.386452186128395
 40
0.6316482149531728
 40
0.8280884619166597
 40
1.0
 40
1.0
 40
1.0
 40
1.0
 10
648.334763470539
 20
449.4119175943829
 30
0.0
 10
648.7258994203956
 20
449.8208435290142
 30
0.0
 10
649.3652031516184
 20
450.4892246274514
 30
0.0
 10
649.8874392308213
 20
451.2181580026644
 30
0.0
 10
650.1531719477877
 20
451.5147173904103
 30
0.0
 10
650.1814246467785
 20
451.4528061249084
 30
0.0
 10
650.1946103163903
 20
451.4239118414837
 30
0.0
  0
SPLINE
  5
96
330
1F
100
AcDbEntity
  8
0
  6
Continuous
 62
     7
370
    25
100
AcDbSpline
210
0.0
220
0.0
230
1.0
 70
     8
 71
     3
 72
     9
 73
     5
 74
     0
 42
0.00000001
 43
0.00000001
 40
0.0
 40
0.0
 40
0.0
 40
0.0
 40
0.2818843251138822
 40
1.0
 40
1.0
 40
1.0
 40
1.0
 10
647.3981546285844
 20
448.6926267985334
 30
0.0
 10
647.4986965134067
 20
448.7520290376553
 30
0.0
 10
647.8553743271929
 20
448.9627617170903
 30
0.0
 10
648.1343946227139
 20
449.224185254433
 30
0.0
 10
648.334763470539
 20
449.4119175943829
 30
0.0
  0
SPLINE
  5
97
330
1F
100
AcDbEntity
  8
0
  6
Continuous
 62
     7
370
    25
100
AcDbSpline
210
0.0
220
0.0
230
1.0
 70
     8
 71
     3
 72
    10
 73
     6
 74
     0
 42
0.00000001
 43
0.00000001
 40
0.0
 40
0.0
 40
0.0
 40
0.0
 40
0.4203106226848117
 40
0.7677399386819355
 40
1.0
 40
1.0
 40
1.0
 40
1.0
 10
483.037904506007
 20
431.77316460027
 30
0.0
 10
483.451628344842
 20
431.5130154130525
 30
0.0
 10
484.207336855442
 20
431.0378265639897
 30
0.0
 10
484.93649410559
 20
430.6165585359604
 30
0.0
 10
485.0882648587667
 20
430.6181470622955
 30
0.0
 10
485.1490737778508
 20
430.6187835259576
 30
0.0
  0
SPLINE
  5
98
330
1F
100
AcDbEntity
  8
0
  6
Continuous
 62
     7
370
    25
100
AcDbSpline
210
0.0
220
0.0
230
1.0
 70
     8
 71
     3
 72
    15
 73
    11
 74
     0
 42
0.00000001
 43
0.00000001
 40
0.0
 40
0.0
 40
0.0
 40
0.0
 40
0.0733157910836136
 40
0.1933562116960264
 40
0.3685764985567072
 40
0.5462385584986588
 40
0.6352031894784864
 40
0.7245057794798776
 40
0.8440697242754428
 40
1.0
 40
1.0
 40
1.0
 40
1.0
 10
475.3202964049069
 20
430.8406470528957
 30
0.0
 10
475.3200982773774
 20
430.8781136003057
 30
0.0
 10
475.319575754358
 20
430.9769243689746
 30
0.0
 10
475.7693452799887
 20
431.4815046664036
 30
0.0
 10
476.7028742311878
 20
432.283185952691
 30
0.0
 10
477.9914146372679
 20
433.0448215950878
 30
0.0
 10
479.2966427028205
 20
433.2843968278623
 30
0.0
 10
480.4487372878478
 20
433.1246637653062
 30
0.0
 10
481.7524392788377
 20
432.5602857465311
 30
0.0
 10
482.5732972594282
 20
432.0576547449731
 30
0.0
 10
483.037904506007
 20
431.77316460027
 30
0.0
  0
ELLIPSE
  5
99
330
1F
100
AcDbEntity
  8
0
  6
Continuous
 62
     7
370
    25
100
AcDbEllipse
 10
479.5146651483
 20
374.2208929024
 30
0.0
 11
5.001007972704429
 21
0.04215802548799275
 31
0.0
210
0.0
220
0.0
230
1.0
 40
0.1434998907
 41
3.138434690804457
 42
4.530734378996387
  0
ELLIPSE
  5
9A
330
1F
100
AcDbEntity
  8
0
  6
Continuous
 62
     7
370
    25
100
AcDbEllipse
 10
479.5146651483
 20
374.2208929024
 30
0.0
 11
5.001007972704429
 21
0.04215802548799275
 31
0.0
210
0.0
220
0.0
230
1.0
 40
0.1434998907
 41
4.530734378996375
 42
6.280027344394345
  0
LWPOLYLINE
  5
9B
330
1F
100
AcDbEntity
  8
0
  6
Continuous
 62
     7
370
    25
100
AcDbPolyline
 90
       26
 70
   128
 43
0.0
 10
488.4127460892
 20
365.2784170787
 10
489.5458041148
 20
365.0427700778
 10
490.3567666326
 20
364.7790095929
 10
490.8162527271
 20
364.4961794315
 10
490.9094941372
 20
364.2033699877
 10
490.6334940073
 20
363.9099923978
 10
489.9971232087
 20
363.625476059
 10
489.0208352223
 20
363.3589655606
 10
487.7360087475
 20
363.1190267692
 10
486.1839391642
 20
362.913371515
 10
484.4145112658
 20
362.7486097271
 10
482.4845959211
 20
362.630036985
 10
480.456222197
 20
362.5614643141
 10
478.394583694
 20
362.5450956965
 10
476.3659431699
 20
362.581457233
 10
474.4355028003
 20
362.669380234
 10
472.6653085272
 20
362.8060387818
 10
471.1122558508
 20
362.9870405582
 10
469.8262611622
 20
363.2065680173
 10
468.8486573887
 20
363.4575653659
 10
468.21086552
 20
363.7319653427
 10
467.9333847115
 20
364.0209485065
 10
468.0251334248
 20
364.3152267009
 10
468.4831627806
 20
364.6053415825
 10
469.2927513386
 20
364.8819686202
 10
470.4133295037
 20
365.1334944096
  0
LWPOLYLINE
  5
9C
330
1F
100
AcDbEntity
  8
0
  6
Continuous
 62
     7
370
    25
100
AcDbPolyline
 90
       18
 70
   128
 43
0.0
 10
488.4209607537
 20
364.2581545495
 10
488.4176512437
 20
364.2218415058
 10
488.1843244309
 20
363.9625970945
 10
487.592236422
 20
363.7124862645
 10
486.6656273696
 20
363.4817485828
 10
485.4424327574
 20
363.2798304769
 10
483.9727303163
 20
363.114998498
 10
482.3166898371
 20
362.9940008866
 10
480.5421098115
 20
362.9217912992
 10
478.7216417543
 20
362.9013260047
 10
476.9298158416
 20
362.9334428546
 10
475.2399896368
 20
363.0168269815
 10
473.7213448233
 20
363.1480646293
 10
472.4360548982
 20
363.3217829133
 10
471.4367397821
 20
363.5308697866
 10
470.7643115532
 20
363.7667652079
 10
470.4462995022
 20
364.0198115911
 10
470.4215441682
 20
364.1132318804
  0
LWPOLYLINE
  5
9D
330
1F
100
AcDbEntity
  8
0
  6
Continuous
 62
     7
370
    25
100
AcDbPolyline
 90
       20
 70
   128
 43
0.0
 10
490.9686941456
 20
358.3397245756
 10
490.9573085589
 20
358.2648118653
 10
490.681308429
 20
357.9714342754
 10
490.0449376303
 20
357.6869179366
 10
489.068649644
 20
357.4204074382
 10
487.7838231691
 20
357.1804686468
 10
486.2317535858
 20
356.9748133926
 10
484.4623256875
 20
356.8100516048
 10
482.5324103427
 20
356.6914788627
 10
480.5040366186
 20
356.6229061918
 10
478.4423981156
 20
356.6065375742
 10
476.4137575915
 20
356.6428991107
 10
474.483317222
 20
356.7308221116
 10
472.7131229488
 20
356.8674806594
 10
471.1600702725
 20
357.0484824359
 10
469.8740755839
 20
357.268009895
 10
468.8964718104
 20
357.5190072435
 10
468.2586799417
 20
357.7934072203
 10
467.9811991332
 20
358.0823903842
 10
467.9694396196
 20
358.1545456096
  0
LWPOLYLINE
  5
9E
330
1F
100
AcDbEntity
  8
0
  6
Continuous
 62
     7
370
    25
100
AcDbPolyline
 90
       22
 70
   128
 43
0.0
 10
487.3764166573
 20
369.7865121104
 10
487.7450450243
 20
369.6741361092
 10
488.242819082
 20
369.4284044371
 10
488.3778058924
 20
369.1706399411
 10
488.1444790795
 20
368.9113955298
 10
487.5523910706
 20
368.6612846998
 10
486.6257820183
 20
368.4305470181
 10
485.402587406
 20
368.2286289122
 10
483.932884965
 20
368.0637969333
 10
482.2768444858
 20
367.9427993219
 10
480.5022644601
 20
367.8705897345
 10
478.6817964029
 20
367.85012444
 10
476.8899704902
 20
367.8822412899
 10
475.2001442854
 20
367.9656254168
 10
473.681499472
 20
368.0968630646
 10
472.3962095469
 20
368.2705813486
 10
471.3968944308
 20
368.4796682219
 10
470.7244662018
 20
368.7155636432
 10
470.4064541508
 20
368.9686100264
 10
470.4558777285
 20
369.2284476228
 10
470.8707135277
 20
369.4844386506
 10
471.3769352479
 20
369.6576919601
  0
LWPOLYLINE
  5
9F
330
1F
100
AcDbEntity
  8
0
  6
Continuous
 62
     7
370
    25
100
AcDbPolyline
 90
       16
 70
   128
 43
0.0
 10
487.3811478143
 20
369.1989017254
 10
487.3187445716
 20
369.0549556354
 10
486.918783761
 20
368.8119258993
 10
486.1663835953
 20
368.5839789793
 10
485.0967254701
 20
368.3817734199
 10
483.7598254105
 20
368.2147641284
 10
482.2181953774
 20
368.0907602736
 10
480.5439202778
 20
368.0155601379
 10
478.8152873545
 20
367.9926799962
 10
477.1131255617
 20
368.0231896984
 10
475.5170260931
 20
368.1056626447
 10
474.1016207858
 20
368.2362424919
 10
472.933092419
 20
368.4088234713
 10
472.0660800804
 20
368.6153358883
 10
471.5411243032
 20
368.8461234517
 10
471.3816664049
 20
369.0700815751
  0
LWPOLYLINE
  5
A0
330
1F
100
AcDbEntity
  8
0
  6
Continuous
 62
     7
370
    25
100
AcDbPolyline
 90
       25
 70
   128
 43
0.0
 10
484.525600995
 20
374.9925828358
 10
485.2401902785
 20
374.900036557
 10
486.2639620251
 20
374.709372176
 10
486.9640500289
 20
374.4894328923
 10
487.3077189529
 20
374.2505028223
 10
487.2788992203
 20
374.0037540707
 10
486.8789384096
 20
373.7607243346
 10
486.1265382439
 20
373.5327774146
 10
485.0568801188
 20
373.3305718552
 10
483.7199800592
 20
373.1635625637
 10
482.1783500261
 20
373.0395587089
 10
480.5040749264
 20
372.9643585732
 10
478.7754420031
 20
372.9414784315
 10
477.0732802103
 20
372.9719881337
 10
475.4771807417
 20
373.05446108
 10
474.0617754345
 20
373.1850409272
 10
472.8932470677
 20
373.3576219066
 10
472.026234729
 20
373.5641343236
 10
471.5012789519
 20
373.794921887
 10
471.3429260849
 20
374.0391932269
 10
471.5585805321
 20
374.2855264869
 10
472.1381585313
 20
374.5224033975
 10
473.0545596594
 20
374.7387478577
 10
474.2649340182
 20
374.924443841
 10
474.5241773546
 20
374.9555745393
  0
ELLIPSE
  5
A1
330
1F
100
AcDbEntity
  8
0
  6
Continuous
 62
     7
370
    25
100
AcDbEllipse
 10
652.7093596074
 20
392.7024203469
 30
0.0
 11
5.035402311776012
 21
0.03866431737685617
 31
0.0
210
0.0
220
0.0
230
1.0
 40
0.1415479456
 41
3.158674884405073
 42
6.104220151735888
  0
ELLIPSE
  5
A2
330
1F
100
AcDbEntity
  8
0
  6
Continuous
 62
     7
370
    25
100
AcDbEllipse
 10
652.7093596074
 20
392.7024203469
 30
0.0
 11
5.035402311776012
 21
0.03866431737685617
 31
0.0
210
0.0
220
0.0
230
1.0
 40
0.1415479456
 41
6.104220151735888
 42
6.300267537994687
  0
ARC
  5
A3
330
1F
100
AcDbEntity
  8
0
  6
Continuous
 62
     7
370
    25
100
AcDbCircle
 10
645.5416777312
 20
377.296265982
 30
0.0
 40
6.489312285885928
100
AcDbArc
 50
97.1232411644
 51
118.6600636113
  0
LWPOLYLINE
  5
A4
330
1F
100
AcDbEntity
  8
0
  6
Continuous
 62
     7
370
    25
100
AcDbPolyline
 90
       25
 70
   128
 43
0.0
 10
662.7363936947
 20
383.8804146025
 10
663.0458500112
 20
383.8249428775
 10
664.1039042574
 20
383.5810919969
 10
664.8290115855
 20
383.3117405472
 10
665.1978664493
 20
383.0255457053
 10
665.19861355
 20
382.7317060092
 10
664.8312288752
 20
382.4396657083
 10
664.1075204707
 20
382.1588112183
 10
663.05074892
 20
381.8981694335
 10
661.6948797302
 20
381.6661175953
 10
660.0834916528
 20
381.4701140408
 10
658.2683760263
 20
381.3164584855
 10
656.3078721606
 20
381.2100895453
 10
654.264992263
 20
381.1544260056
 10
652.2053961743
 20
381.1512569382
 10
650.1952810073
 20
381.2006841996
 10
648.2992535176
 20
381.301119157
 10
646.5782535886
 20
381.4493337482
 10
645.0875955741
 20
381.6405642343
 10
643.8751904493
 20
381.8686643101
 10
642.9800059124
 20
382.1263026514
 10
642.430813931
 20
382.4051985501
 10
642.2452659873
 20
382.6963880625
 10
642.4293257448
 20
382.9905121179
 10
642.4293257448
 20
382.9905121179
  0
LWPOLYLINE
  5
A5
330
1F
100
AcDbEntity
  8
0
  6
Continuous
 62
     7
370
    25
100
AcDbPolyline
 90
       18
 70
   128
 43
0.0
 10
662.7446083592
 20
382.8601520733
 10
662.7173802624
 20
382.7587497523
 10
662.3928824658
 20
382.5008009573
 10
661.7143352536
 20
382.2545974637
 10
660.7095184286
 20
382.0302188714
 10
659.4195693094
 20
381.8368512663
 10
657.8972985648
 20
381.682411141
 10
656.2050281377
 20
381.5732212922
 10
654.4120397783
 20
381.5137519653
 10
652.5917386407
 20
381.5064378414
 10
650.8186480674
 20
381.5515783617
 10
649.1653585948
 20
381.647325468
 10
647.6995560881
 20
381.7897592624
 10
646.4812506741
 20
381.9730484887
 10
645.5603199197
 20
382.1896892645
 10
644.9744668382
 20
382.4308122908
 10
644.7476763235
 20
382.6865459628
 10
644.7451917737
 20
382.7152294042
  0
LWPOLYLINE
  5
A6
330
1F
100
AcDbEntity
  8
0
  6
Continuous
 62
     7
370
    25
100
AcDbPolyline
 90
       19
 70
   128
 43
0.0
 10
665.2923417511
 20
376.9417220994
 10
665.2464279716
 20
376.7931478868
 10
664.8790432969
 20
376.501107586
 10
664.1553348923
 20
376.2202530959
 10
663.0985633416
 20
375.9596113111
 10
661.7426941518
 20
375.727559473
 10
660.1313060744
 20
375.5315559185
 10
658.316190448
 20
375.3779003632
 10
656.3556865823
 20
375.271531423
 10
654.3128066847
 20
375.2158678832
 10
652.2532105959
 20
375.2126988159
 10
650.2430954289
 20
375.2621260773
 10
648.3470679392
 20
375.3625610347
 10
646.6260680102
 20
375.5107756259
 10
645.1354099958
 20
375.7020061119
 10
643.9230048709
 20
375.9301061877
 10
643.027820334
 20
376.1877445291
 10
642.4786283527
 20
376.4666404277
 10
642.2930872251
 20
376.7565431333
  0
LWPOLYLINE
  5
A7
330
1F
100
AcDbEntity
  8
0
  6
Continuous
 62
     7
370
    25
100
AcDbPolyline
 90
        3
 70
   128
 43
0.0
 10
644.8493878546
 20
387.8952189491
 10
645.3534967789
 20
388.1485950844
 10
645.7005828534
 20
388.2596894839
  0
LWPOLYLINE
  5
A8
330
1F
100
AcDbEntity
  8
0
  6
Continuous
 62
     7
370
    25
100
AcDbPolyline
 90
       21
 70
   128
 43
0.0
 10
661.7000642628
 20
388.3885096342
 10
662.2262810592
 20
388.216391358
 10
662.6346983142
 20
387.96668183
 10
662.677534911
 20
387.7075481876
 10
662.3530371144
 20
387.4495993926
 10
661.6744899023
 20
387.203395899
 10
660.6696730772
 20
386.9790173067
 10
659.3797239581
 20
386.7856497016
 10
657.8574532134
 20
386.6312095763
 10
656.1651827863
 20
386.5220197275
 10
654.3721944269
 20
386.4625504006
 10
652.5518932894
 20
386.4552362767
 10
650.7788027161
 20
386.500376797
 10
649.1255132434
 20
386.5961239033
 10
647.6597107367
 20
386.7385576977
 10
646.4414053228
 20
386.921846924
 10
645.5204745684
 20
387.1384876998
 10
644.9346214868
 20
387.3796107261
 10
644.7078309722
 20
387.6353443981
 10
644.8493878546
 20
387.8952189491
 10
644.8493878546
 20
387.8952189491
  0
LWPOLYLINE
  5
A9
330
1F
100
AcDbEntity
  8
0
  6
Continuous
 62
     7
370
    25
100
AcDbPolyline
 90
       17
 70
   128
 43
0.0
 10
661.7047954198
 20
387.8008992492
 10
661.6847441848
 20
387.7187435704
 10
661.3764844665
 20
387.4737026989
 10
660.7095172191
 20
387.2409494308
 10
659.7150290899
 20
387.0313670504
 10
658.4395212386
 20
386.8547553968
 10
656.9426349946
 20
386.7193726347
 10
655.2943630951
 20
386.6315491115
 10
653.5717769021
 20
386.5953913575
 10
651.8554226315
 20
386.6125900692
 10
650.2255551014
 20
386.682341054
 10
648.7583851061
 20
386.8013828332
 10
647.5225158838
 20
386.9641491456
 10
646.575735306
 20
387.1630292194
 10
645.96231378
 20
387.3887236433
 10
645.7109342147
 20
387.6306791969
 10
645.7053140104
 20
387.6720790989
  0
ARC
  5
AA
330
1F
100
AcDbEntity
  8
0
  6
Continuous
 62
     7
370
    25
100
AcDbCircle
 10
648.2378748585
 20
388.0739337059
 30
0.0
 40
5.344220659583443
100
AcDbArc
 50
97.0549902371
 51
117.2185308576
  0
LWPOLYLINE
  5
AB
330
1F
100
AcDbEntity
  8
0
  6
Continuous
 62
     7
370
    25
100
AcDbPolyline
 90
       23
 70
   128
 43
0.0
 10
657.621319951
 20
393.7075146023
 10
657.9031368878
 20
393.6857797677
 10
659.2626258793
 20
393.5440448658
 10
660.3603858956
 20
393.362155429
 10
661.1450868984
 20
393.1486164053
 10
661.580037141
 20
392.913412642
 10
661.6448988335
 20
392.6675420057
 10
661.3366391151
 20
392.4225011342
 10
660.6696718677
 20
392.1897478661
 10
659.6751837386
 20
391.9801654857
 10
658.3996758872
 20
391.8035538321
 10
656.9027896433
 20
391.66817107
 10
655.2545177437
 20
391.5803475468
 10
653.5319315507
 20
391.5441897928
 10
651.8155772801
 20
391.5613885045
 10
650.1857097501
 20
391.6311394893
 10
648.7185397547
 20
391.7501812685
 10
647.4826705325
 20
391.9129475809
 10
646.5358899546
 20
392.1118276547
 10
645.9224684286
 20
392.3375220786
 10
645.6710888633
 20
392.5794776322
 10
645.7935054878
 20
392.8263807427
 10
645.7935054878
 20
392.8263807427
  0
ELLIPSE
  5
AC
330
1F
100
AcDbEntity
  8
0
  6
Continuous
 62
     7
370
    25
100
AcDbEllipse
 10
359.432163772
 20
397.9591473728
 30
0.0
 11
5.035402311776011
 21
0.03866431737679932
 31
0.0
210
0.0
220
0.0
230
1.0
 40
0.1415479456
 41
3.124510422774698
 42
6.266103076364512
  0
LWPOLYLINE
  5
AD
330
1F
100
AcDbEntity
  8
0
  6
Continuous
 62
     7
370
    25
100
AcDbPolyline
 90
       18
 70
   128
 43
0.0
 10
369.9193934617
 20
381.9373037383
 10
369.371641835
 20
381.6496985288
 10
368.4778035271
 20
381.3778560334
 10
367.2666072367
 20
381.1305134936
 10
365.7769818091
 20
380.915620702
 10
364.0568050312
 20
380.74008449
 10
362.1613648
 20
380.6095467356
 10
360.1515821241
 20
380.5282030298
 10
358.0920530725
 20
380.4986678262
 10
356.0489726033
 20
380.5218904105
 10
354.088007004
 20
380.5971243898
 10
352.2721833223
 20
380.7219516821
 10
350.6598636255
 20
380.8923602354
 10
349.3028691952
 20
381.1028729787
 10
348.2448149491
 20
381.3467238593
 10
347.519707621
 20
381.616075309
 10
347.1508527572
 20
381.9022701509
 10
347.104191877
 20
382.0475356344
  0
LWPOLYLINE
  5
AE
330
1F
100
AcDbEntity
  8
0
  6
Continuous
 62
     7
370
    25
100
AcDbPolyline
 90
        3
 70
   128
 43
0.0
 10
370.103446403
 20
382.2327146005
 10
370.1034532192
 20
382.2314277937
 10
369.9193934617
 20
381.9373037383
  0
LWPOLYLINE
  5
AF
330
1F
100
AcDbEntity
  8
0
  6
Continuous
 62
     7
370
    25
100
AcDbPolyline
 90
       22
 70
   128
 43
0.0
 10
369.8715790401
 20
387.8758618606
 10
369.3238274134
 20
387.5882566511
 10
368.4299891055
 20
387.3164141558
 10
367.2187928151
 20
387.0690716159
 10
365.7291673874
 20
386.8541788244
 10
364.0089906095
 20
386.6786426123
 10
362.1135503784
 20
386.5481048579
 10
360.1037677025
 20
386.4667611521
 10
358.0442386509
 20
386.4372259485
 10
356.0011581817
 20
386.4604485329
 10
354.0401925823
 20
386.5356825121
 10
352.2243689007
 20
386.6605098044
 10
350.6120492039
 20
386.8309183578
 10
349.2550547736
 20
387.0414311011
 10
348.1970005274
 20
387.2852819816
 10
347.4718931994
 20
387.5546334314
 10
347.1030383356
 20
387.8408282732
 10
347.1022912348
 20
388.1346679694
 10
347.4696759096
 20
388.4267082702
 10
348.1933843141
 20
388.7075627603
 10
349.2501558649
 20
388.9682045451
 10
349.5480817611
 20
389.0264844345
  0
LWPOLYLINE
  5
B0
330
1F
100
AcDbEntity
  8
0
  6
Continuous
 62
     7
370
    25
100
AcDbPolyline
 90
        6
 70
   128
 43
0.0
 10
367.5474983466
 20
389.1714071036
 10
368.4257143355
 20
388.9977096685
 10
369.3208988724
 20
388.7400713271
 10
369.8700908538
 20
388.4611754284
 10
370.0556387976
 20
388.1699859161
 10
369.8715790401
 20
387.8758618606
  0
LWPOLYLINE
  5
B1
330
1F
100
AcDbEntity
  8
0
  6
Continuous
 62
     7
370
    25
100
AcDbPolyline
 90
       17
 70
   128
 43
0.0
 10
367.5557130112
 20
388.1511445744
 10
367.4116715788
 20
387.9199534648
 10
366.9075626546
 20
387.6665773295
 10
366.0615399672
 20
387.4300728585
 10
364.9082397848
 20
387.2201225728
 10
363.4948783525
 20
387.0453218617
 10
361.8793188533
 20
386.9128270868
 10
360.1277024829
 20
386.8280625998
 10
358.3117406214
 20
386.7944986687
 10
356.5057789607
 20
386.8135094049
 10
354.7837537834
 20
386.8843165065
 10
353.2161650027
 20
387.0040211225
 10
351.8671898872
 20
387.1677225319
 10
350.7920556369
 20
387.3687187797
 10
350.0347783742
 20
387.5987810559
 10
349.6263611193
 20
387.8484905838
 10
349.5562964256
 20
388.0062219053
  0
LWPOLYLINE
  5
B2
330
1F
100
AcDbEntity
  8
0
  6
Continuous
 62
     7
370
    25
100
AcDbPolyline
 90
       18
 70
   128
 43
0.0
 10
367.3718262275
 20
392.8687519001
 10
366.8677173032
 20
392.6153757648
 10
366.0216946158
 20
392.3788712938
 10
364.8683944334
 20
392.1689210081
 10
363.4550330011
 20
391.994120297
 10
361.8394735019
 20
391.8616255221
 10
360.0878571315
 20
391.7768610351
 10
358.27189527
 20
391.743297104
 10
356.4659336093
 20
391.7623078402
 10
354.7439084321
 20
391.8331149418
 10
353.1763196513
 20
391.9528195578
 10
351.8273445359
 20
392.1165209672
 10
350.7522102856
 20
392.317517215
 10
349.9949330229
 20
392.5475794912
 10
349.5865157679
 20
392.7972890191
 10
349.5436791711
 20
393.0564226615
 10
349.8681769677
 20
393.3143714565
 10
350.5116875054
 20
393.550681985
  0
LWPOLYLINE
  5
B3
330
1F
100
AcDbEntity
  8
0
  6
Continuous
 62
     7
370
    25
100
AcDbPolyline
 90
        5
 70
   128
 43
0.0
 10
366.5111689147
 20
393.6795021353
 10
366.7007395137
 20
393.6254831494
 10
367.2865925953
 20
393.384360123
 10
367.51338311
 20
393.1286264511
 10
367.3718262275
 20
392.8687519001
  0
LWPOLYLINE
  5
B4
330
1F
100
AcDbEntity
  8
0
  6
Continuous
 62
     7
370
    25
100
AcDbPolyline
 90
       16
 70
   128
 43
0.0
 10
366.5159000717
 20
393.0918917503
 10
366.387863243
 20
392.8863885418
 10
365.897374494
 20
392.6460827893
 10
365.0617483294
 20
392.4236108249
 10
363.9200576998
 20
392.2293751903
 10
362.5256867901
 20
392.0724581279
 10
360.9438348344
 20
391.9601969051
 10
359.248467472
 20
391.897840732
 10
357.5188581965
 20
391.8883053139
 10
355.8358816154
 20
391.9320365163
 10
354.278231843
 20
392.0269895168
 10
352.9187428515
 20
392.1687244187
 10
351.8209828352
 20
392.3506138555
 10
351.0362818323
 20
392.5641528792
 10
350.6013315897
 20
392.7993566425
 10
350.5164186623
 20
392.9630716
  0
LWPOLYLINE
  5
B5
330
1F
100
AcDbEntity
  8
0
  6
Continuous
 62
     7
370
    25
100
AcDbPolyline
 90
       20
 70
   128
 43
0.0
 10
366.3480178916
 20
397.8351869771
 10
365.8575291427
 20
397.5948812246
 10
365.021902978
 20
397.3724092602
 10
363.8802123484
 20
397.1781736256
 10
362.4858414387
 20
397.0212565632
 10
360.903989483
 20
396.9089953404
 10
359.2086221206
 20
396.8466391673
 10
357.4790128452
 20
396.8371037492
 10
355.796036264
 20
396.8808349516
 10
354.2383864916
 20
396.9757879521
 10
352.8788975001
 20
397.117522854
 10
351.7811374838
 20
397.2994122908
 10
350.996436481
 20
397.5129513145
 10
350.5614862384
 20
397.7481550778
 10
350.4966245459
 20
397.994025714
 10
350.8048842643
 20
398.2390665856
 10
351.4718515117
 20
398.4718198536
 10
352.4663396408
 20
398.681402234
 10
353.7418474922
 20
398.8580138876
 10
354.5106037733
 20
398.9352403109
  0
LWPOLYLINE
  5
B6
330
1F
100
AcDbEntity
  8
0
  6
Continuous
 62
     7
370
    25
100
AcDbPolyline
 90
        6
 70
   128
 43
0.0
 10
364.5549760411
 20
398.7654645585
 10
364.6588528469
 20
398.7486201388
 10
365.6056334248
 20
398.5497400651
 10
366.2190549508
 20
398.3240456412
 10
366.4704345161
 20
398.0820900876
 10
366.3480178916
 20
397.8351869771
  0
ELLIPSE
  5
B7
330
1F
100
AcDbEntity
  8
0
  6
Continuous
 62
     7
370
    25
100
AcDbEllipse
 10
532.6268582311
 20
416.4406748174
 30
0.0
 11
5.001007972704429
 21
0.04215802548804959
 31
0.0
210
0.0
220
0.0
230
1.0
 40
0.1434998907
 41
3.144750616375189
 42
6.286343269964806
  0
LWPOLYLINE
  5
B8
330
1F
100
AcDbEntity
  8
0
  6
Continuous
 62
     7
370
    25
100
AcDbPolyline
 90
       13
 70
   128
 43
0.0
 10
530.8304136625
 20
405.0517062409
 10
528.8428719571
 20
405.1140996873
 10
526.9850756941
 20
405.2268443385
 10
525.3167359742
 20
405.3863164886
 10
523.8914746085
 20
405.5873905715
 10
522.75510067
 20
405.8236039008
 10
521.9441381522
 20
406.0873643856
 10
521.4846520577
 20
406.370194547
 10
521.3914106476
 20
406.6630039909
 10
521.6674107775
 20
406.9563815808
 10
522.3037815761
 20
407.2408979196
 10
523.2800695625
 20
407.507408418
 10
523.8717293666
 20
407.6284819583
  0
LWPOLYLINE
  5
B9
330
1F
100
AcDbEntity
  8
0
  6
Continuous
 62
     7
370
    25
100
AcDbPolyline
 90
       15
 70
   128
 43
0.0
 10
541.8711459521
 20
407.7734046274
 10
542.4746436226
 20
407.6598059612
 10
543.4522473961
 20
407.4088086127
 10
544.0900392648
 20
407.1344086359
 10
544.3675200733
 20
406.845425472
 10
544.2757713601
 20
406.5511472776
 10
543.8177420042
 20
406.2610323961
 10
543.0081534462
 20
405.9844053583
 10
541.8730265284
 20
405.730157185
 10
540.4488451638
 20
405.5064596216
 10
538.7813837134
 20
405.3205024919
 10
536.9242357602
 20
405.1782626109
 10
534.9370915675
 20
405.0843116856
 10
532.8838195846
 20
405.041669376
 10
530.8304136625
 20
405.0517062409
  0
LWPOLYLINE
  5
BA
330
1F
100
AcDbEntity
  8
0
  6
Continuous
 62
     7
370
    25
100
AcDbPolyline
 90
        8
 70
   128
 43
0.0
 10
531.275900328
 20
405.4058311371
 10
529.5260965922
 20
405.4638794527
 10
527.913587822
 20
405.5717437569
 10
526.5043903161
 20
405.7250080724
 10
525.3561967858
 20
405.9173977402
 10
524.5160144092
 20
406.1410363047
 10
524.0182403515
 20
406.3867679767
 10
523.8799440311
 20
406.6082194291
  0
LWPOLYLINE
  5
BB
330
1F
100
AcDbEntity
  8
0
  6
Continuous
 62
     7
370
    25
100
AcDbPolyline
 90
       10
 70
   128
 43
0.0
 10
541.8793606167
 20
406.7531420982
 10
541.805181705
 20
406.5867247911
 10
541.3903459058
 20
406.3307337633
 10
540.6270813114
 20
406.0890696068
 10
539.546636064
 20
405.8716260806
 10
538.1932437189
 20
405.6873053481
 10
536.6223123177
 20
405.5436535219
 10
534.8981559767
 20
405.4465517246
 10
533.091361859
 20
405.3999753151
 10
531.275900328
 20
405.4058311371
  0
LWPOLYLINE
  5
BC
330
1F
100
AcDbEntity
  8
0
  6
Continuous
 62
     7
370
    25
100
AcDbPolyline
 90
        9
 70
   128
 43
0.0
 10
530.8782280841
 20
399.1131481185
 10
528.8906863787
 20
399.175541565
 10
527.0328901158
 20
399.2882862162
 10
525.3645503958
 20
399.4477583663
 10
523.9392890301
 20
399.6488324492
 10
522.8029150917
 20
399.8850457784
 10
521.9919525739
 20
400.1488062633
 10
521.5324664794
 20
400.4316364247
 10
521.4278394825
 20
400.6495331582
  0
LWPOLYLINE
  5
BD
330
1F
100
AcDbEntity
  8
0
  6
Continuous
 62
     7
370
    25
100
AcDbPolyline
 90
       11
 70
   128
 43
0.0
 10
544.4270940085
 20
400.8347121243
 10
544.3235857817
 20
400.6125891553
 10
543.8655564259
 20
400.3224742737
 10
543.0559678679
 20
400.045847236
 10
541.92084095
 20
399.7915990627
 10
540.4966595854
 20
399.5679014993
 10
538.829198135
 20
399.3819443695
 10
536.9720501818
 20
399.2397044886
 10
534.9849059891
 20
399.1457535633
 10
532.9316340062
 20
399.1031112536
 10
530.8782280841
 20
399.1131481185
  0
LWPOLYLINE
  5
BE
330
1F
100
AcDbEntity
  8
0
  6
Continuous
 62
     7
370
    25
100
AcDbPolyline
 90
       11
 70
   128
 43
0.0
 10
531.2360549766
 20
410.3546295724
 10
529.4862512408
 20
410.412677888
 10
527.8737424706
 20
410.5205421922
 10
526.4645449647
 20
410.6738065077
 10
525.3163514344
 20
410.8661961755
 10
524.4761690578
 20
411.08983474
 10
523.9783950001
 20
411.335566412
 10
523.8434081898
 20
411.5933309081
 10
524.0767350026
 20
411.8525753194
 10
524.6688230115
 20
412.1026861493
 10
524.8353351109
 20
412.1526795088
  0
LWPOLYLINE
  5
BF
330
1F
100
AcDbEntity
  8
0
  6
Continuous
 62
     7
370
    25
100
AcDbPolyline
 90
       12
 70
   128
 43
0.0
 10
540.8348165202
 20
412.2814996591
 10
541.4967478803
 20
412.0484072059
 10
541.8147599313
 20
411.7953608227
 10
541.7653363537
 20
411.5355232264
 10
541.3505005545
 20
411.2795321986
 10
540.5872359601
 20
411.0378680421
 10
539.5067907126
 20
410.8204245159
 10
538.1533983675
 20
410.6361037834
 10
536.5824669664
 20
410.4924519572
 10
534.8583106253
 20
410.3953501599
 10
533.0515165076
 20
410.3487737504
 10
531.2360549766
 20
410.3546295724
  0
LWPOLYLINE
  5
C0
330
1F
100
AcDbEntity
  8
0
  6
Continuous
 62
     7
370
    25
100
AcDbPolyline
 90
        8
 70
   128
 43
0.0
 10
531.4142496428
 20
410.4962795309
 10
529.7553947336
 20
410.5531039624
 10
528.2407635126
 20
410.6602585037
 10
526.9411784522
 20
410.8127327274
 10
525.9174067057
 20
411.0033971084
 10
525.2173187019
 20
411.2233363921
 10
524.8736497778
 20
411.4622664621
 10
524.8400662678
 20
411.5650691237
  0
LWPOLYLINE
  5
C1
330
1F
100
AcDbEntity
  8
0
  6
Continuous
 62
     7
370
    25
100
AcDbPolyline
 90
       10
 70
   128
 43
0.0
 10
540.8395476772
 20
411.6938892741
 10
540.8384426459
 20
411.6735760575
 10
540.6227881986
 20
411.4272427975
 10
540.0432101994
 20
411.1903658869
 10
539.1268090713
 20
410.9740214267
 10
537.9164347126
 20
410.7883254435
 10
536.468682883
 20
410.6419608749
 10
534.851248849
 20
410.5417715657
 10
533.1397620284
 20
410.4924422565
 10
531.4142496428
 20
410.4962795309
  0
LWPOLYLINE
  5
C2
330
1F
100
AcDbEntity
  8
0
  6
Continuous
 62
     7
370
    25
100
AcDbPolyline
 90
       12
 70
   128
 43
0.0
 10
531.3744042915
 20
415.4450779662
 10
529.7155493822
 20
415.5019023977
 10
528.2009181612
 20
415.609056939
 10
526.9013331009
 20
415.7615311627
 10
525.8775613543
 20
415.9521955437
 10
525.1774733505
 20
416.1721348274
 10
524.8338044265
 20
416.4110648974
 10
524.8626241591
 20
416.6578136491
 10
525.2625849698
 20
416.9008433851
 10
526.0149851355
 20
417.1287903052
 10
527.0846432606
 20
417.3309958645
 10
527.5952432026
 20
417.4031077659
  0
LWPOLYLINE
  5
C3
330
1F
100
AcDbEntity
  8
0
  6
Continuous
 62
     7
370
    25
100
AcDbPolyline
 90
       14
 70
   128
 43
0.0
 10
537.5960532786
 20
417.5286741148
 10
538.0797479449
 20
417.4765267926
 10
539.2482763117
 20
417.3039458131
 10
540.1152886504
 20
417.0974333961
 10
540.6402444275
 20
416.8666458327
 10
540.7985972945
 20
416.6223744928
 10
540.5829428473
 20
416.3760412328
 10
540.0033648481
 20
416.1391643222
 10
539.08696372
 20
415.922819862
 10
537.8765893612
 20
415.7371238788
 10
536.4288375316
 20
415.5907593102
 10
534.8114034976
 20
415.490570001
 10
533.0999166771
 20
415.4412406918
 10
531.3744042915
 20
415.4450779662
  0
LWPOLYLINE
  5
C4
330
1F
100
AcDbEntity
  8
0
  6
Continuous
 62
     7
370
    25
100
AcDbPolyline
 90
       32
 70
   128
 43
0.0
 10
477.7271092989
 20
441.1588332166
 10
485.0619106755
 20
441.0529553034
 10
492.4430649687
 20
440.9973720452
 10
499.85385149
 20
440.9922093559
 10
507.2774824245
 20
441.0374789307
 10
514.6971408603
 20
441.1330782193
 10
522.0960188846
 20
441.2787906587
 10
529.4573556591
 20
441.4742861634
 10
536.7644753882
 20
441.719121873
 10
544.0008250956
 20
442.0127431561
 10
551.1500121217
 20
442.354484866
 10
558.1958412585
 20
442.7435728477
 10
565.1223514368
 20
443.1791256919
 10
571.9138518832
 20
443.6601567312
 10
578.5549576649
 20
444.1855762757
 10
585.0306245413
 20
444.754194081
 10
591.326183044
 20
445.3647220451
 10
597.4273717083
 20
446.0157771256
 10
603.3203693794
 20
446.7058844734
 10
608.9918265223
 20
447.4334807734
 10
614.4288954623
 20
448.1969177859
 10
619.6192594895
 20
448.9944660807
 10
624.5511607602
 20
449.8243189542
 10
629.2134269315
 20
450.6845965229
 10
633.5954964711
 20
451.5733499812
 10
637.6874425821
 20
452.4885660169
 10
641.4799956904
 20
453.4281713711
 10
644.9645644434
 20
454.3900375356
 10
648.1332551721
 20
455.3719855741
 10
650.9788897729
 20
456.3717910586
 10
653.4950219681
 20
457.3871891079
 10
654.6266115286
 20
457.8994978111
  0
LWPOLYLINE
  5
C5
330
1F
100
AcDbEntity
  8
0
  6
Continuous
 62
     7
370
    25
100
AcDbPolyline
 90
       24
 70
   128
 43
0.0
 10
356.4397817333
 20
455.5387652428
 10
358.6998174359
 20
454.5894625152
 10
361.3723526411
 20
453.6233070334
 10
364.3714373947
 20
452.6789703168
 10
367.6902778051
 20
451.7585915919
 10
371.3213556312
 20
450.8642558124
 10
375.256445314
 20
449.9979889365
 10
379.4866326097
 20
449.1617533374
 10
384.0023347834
 20
448.3574433576
 10
388.7933223173
 20
447.586881018
 10
393.8487420837
 20
446.85181189
 10
399.1571419309
 20
446.1539011417
 10
404.7064966258
 20
445.4947297653
 10
410.4842350952
 20
444.8757909962
 10
416.4772689031
 20
444.2984869296
 10
422.6720219005
 20
443.7641253449
 10
429.0544609792
 20
443.273916743
 10
435.6101278621
 20
442.8289716041
 10
442.324171855
 20
442.4302978719
 10
449.1813834889
 20
442.0787986708
 10
456.1662289739
 20
441.7752702595
 10
463.2628853884
 20
441.5204002274
 10
470.4552765232
 20
441.3147659372
 10
477.7271092989
 20
441.1588332166
  0
LWPOLYLINE
  5
C6
330
1F
100
AcDbEntity
  8
0
  6
Continuous
 62
     7
370
    25
100
AcDbPolyline
 90
       27
 70
   128
 43
0.0
 10
479.6434176759
 20
1206.4106485581
 10
473.4988444389
 20
1206.5465232571
 10
467.4372846156
 20
1206.7323051901
 10
461.4781552094
 20
1206.9673992418
 10
455.6405451085
 20
1207.2510523348
 10
449.9431539379
 20
1207.582355843
 10
444.4042321591
 20
1207.9602485012
 10
439.0415226084
 20
1208.3835198054
 10
433.8722036612
 20
1208.8508138899
 10
428.9128342046
 20
1209.3606338709
 10
424.179300594
 20
1209.9113466414
 10
419.6867657646
 20
1210.5011881023
 10
415.44962066
 20
1211.1282688135
 10
411.4814381332
 20
1211.7905800466
 10
407.7949294692
 20
1212.4860002189
 10
404.4019036666
 20
1213.21230169
 10
401.31322961
 20
1213.9671578974
 10
398.5388012536
 20
1214.7481508089
 10
396.0875059277
 20
1215.552778669
 10
393.9671958704
 20
1216.3784640119
 10
392.184663074
 20
1217.2225619186
 10
390.7456175284
 20
1218.082368489
 10
389.6546689303
 20
1218.9551295034
 10
388.915311917
 20
1219.8380492453
 10
388.5299148719
 20
1220.7282994565
 10
388.4997123379
 20
1221.6230283972
 10
388.6108583614
 20
1222.0515725474
  0
LWPOLYLINE
  5
C7
330
1F
100
AcDbEntity
  8
0
  6
Continuous
 62
     7
370
    25
100
AcDbPolyline
 90
       33
 70
   128
 43
0.0
 10
610.202305334
 20
1223.8391515193
 10
610.3572173851
 20
1223.0776368615
 10
610.209715216
 20
1222.1817428002
 10
609.7073003266
 20
1221.2856716511
 10
608.8515821032
 20
1220.3922938004
 10
607.6453016693
 20
1219.5044710065
 10
606.0923231047
 20
1218.6250472337
 10
604.197621068
 20
1217.7568395412
 10
601.9672648609
 20
1216.9026290602
 10
599.4083989869
 20
1216.0651520843
 10
596.5292202647
 20
1215.2470913047
 10
593.3389515719
 20
1214.4510672168
 10
589.8478123007
 20
1213.6796297257
 10
586.0669856229
 20
1212.9352499782
 10
582.008582666
 20
1212.2203124471
 10
577.6856037182
 20
1211.5371072928
 10
573.1118965844
 20
1210.8878230275
 10
568.3021122275
 20
1210.2745395042
 10
563.2716578366
 20
1209.6992212552
 10
558.0366474738
 20
1209.1637111981
 10
552.6138504556
 20
1208.6697247331
 10
547.0206376355
 20
1208.2188442478
 10
541.2749257605
 20
1207.8125140483
 10
535.3951200779
 20
1207.4520357328
 10
529.400055378
 20
1207.1385640219
 10
523.3089356602
 20
1206.8731030601
 10
517.1412726174
 20
1206.6565031989
 10
510.9168231338
 20
1206.4894582728
 10
504.6555259975
 20
1206.3725033772
 10
498.3774380308
 20
1206.3060131538
 10
492.1026698423
 20
1206.2902005909
 10
485.8513214061
 20
1206.3251163409
 10
479.6434176759
 20
1206.4106485581
  0
LWPOLYLINE
  5
C8
330
1F
100
AcDbEntity
  8
0
  6
Continuous
 62
     7
370
    25
100
AcDbPolyline
 90
       51
 70
   128
 43
0.0
 10
600.098192112
 20
1221.8526892972
 10
599.6344057214
 20
1222.3583405655
 10
598.5803848254
 20
1223.1923548279
 10
597.1781132215
 20
1224.0132430428
 10
595.4325164398
 20
1224.8181218104
 10
593.3497259525
 20
1225.6041639648
 10
590.9370576373
 20
1226.3686085042
 10
588.2029860795
 20
1227.1087702892
 10
585.1571148054
 20
1227.8220494746
 10
581.8101425487
 20
1228.5059406412
 10
578.1738256717
 20
1229.1580415964
 10
574.2609368699
 20
1229.7760618118
 10
570.085220308
 20
1230.3578304688
 10
565.6613433428
 20
1230.9013040839
 10
561.0048450033
 20
1231.404573686
 10
556.1320814099
 20
1231.8658715225
 10
551.0601683224
 20
1232.2835772677
 10
545.8069210204
 20
1232.6562237151
 10
540.3907917268
 20
1232.9825019304
 10
534.8308047932
 20
1233.2612658495
 10
529.1464898764
 20
1233.4915363039
 10
523.35781334
 20
1233.6725044603
 10
517.4851081214
 20
1233.8035346615
 10
511.5490023119
 20
1233.884166659
 10
505.5703466996
 20
1233.91411723
 10
499.5701415304
 20
1233.8932811721
 10
493.5694627438
 20
1233.8217316726
 10
487.5893879429
 20
1233.6997200519
 10
481.6509223585
 20
1233.5276748801
 10
475.7749250676
 20
1233.3062004722
 10
469.982035725
 20
1233.0360747652
 10
464.2926020658
 20
1232.7182465854
 10
458.7266084331
 20
1232.353832316
 10
453.3036055826
 20
1231.9441119752
 10
448.0426420097
 20
1231.4905247208
 10
442.9621970407
 20
1230.9946637946
 10
438.0801159239
 20
1230.4582709261
 10
433.4135471473
 20
1229.8832302148
 10
428.9788822039
 20
1229.2715615123
 10
424.791698016
 20
1228.6254133271
 10
420.8667022208
 20
1227.9470552783
 10
417.2176815093
 20
1227.2388701232
 10
413.8574531996
 20
1226.5033453882
 10
410.7978202164
 20
1225.7430646306
 10
408.049529632
 20
1224.9606983643
 10
405.6222349175
 20
1224.1589946794
 10
403.5244620339
 20
1223.3407695893
 10
401.763579485
 20
1222.5088971395
 10
400.3457724351
 20
1221.6662993122
 10
399.2760209831
 20
1220.8159357632
 10
398.7315603752
 20
1220.2113142275
  0
ENDSEC
  0
SECTION
  2
OBJECTS
  0
DICTIONARY
  5
C
330
0
100
AcDbDictionary
281
     1
  3
ACAD_GROUP
350
D
  3
ACAD_LAYOUT
350
1A
  3
ACAD_MLINESTYLE
350
17
  3
ACAD_PLOTSETTINGS
350
19
  3
ACAD_PLOTSTYLENAME
350
E
  3
ACAD_SCALELIST
350
47
  3
DWGPROPS
350
C9
  0
DICTIONARY
  5
D
102
{ACAD_REACTORS
330
C
102
}
330
C
100
AcDbDictionary
281
     1
  0
DICTIONARY
  5
1A
102
{ACAD_REACTORS
330
C
102
}
330
C
100
AcDbDictionary
281
     1
  3
Layout1
350
1E
  3
Layout2
350
26
  3
Model
350
22
  0
DICTIONARY
  5
17
102
{ACAD_REACTORS
330
C
102
}
330
C
100
AcDbDictionary
281
     1
  3
Standard
350
18
  0
DICTIONARY
  5
19
102
{ACAD_REACTORS
330
C
102
}
330
C
100
AcDbDictionary
281
     1
  0
ACDBDICTIONARYWDFLT
  5
E
102
{ACAD_REACTORS
330
C
102
}
330
C
100
AcDbDictionary
281
     1
  3
Normal
350
F
100
AcDbDictionaryWithDefault
340
F
  0
DICTIONARY
  5
47
102
{ACAD_REACTORS
330
C
102
}
330
C
100
AcDbDictionary
281
     1
  3
A0
350
48
  3
A1
350
49
  3
A2
350
4A
  3
A3
350
4B
  3
A4
350
4C
  3
A5
350
4D
  3
A6
350
4E
  3
A7
350
4F
  3
A8
350
50
  3
A9
350
51
  3
B0
350
52
  3
B1
350
53
  3
B2
350
54
  3
B3
350
55
  3
B4
350
56
  3
B5
350
57
  3
B6
350
58
  0
XRECORD
  5
C9
102
{ACAD_REACTORS
330
C
102
}
330
C
100
AcDbXrecord
280
     1
  1
DWGPROPS COOKIE
  2

  3

  4

  6

  7

  8
9148
  9

300
=
301
=
302
=
303
=
304
=
305
=
306
=
307
=
308
=
309
=
 40
0.0
 41
2460115.268123114
 42
2460115.26812345
  1

 90
        0
  0
LAYOUT
  5
1E
102
{ACAD_REACTORS
330
1A
102
}
330
1A
100
AcDbPlotSettings
  1

  2
none_device
  4

  6

 40
0.0
 41
0.0
 42
0.0
 43
0.0
 44
0.0
 45
0.0
 46
0.0
 47
0.0
 48
0.0
 49
0.0
140
0.0
141
0.0
142
1.0
143
1.0
 70
   688
 72
     1
 73
     0
 74
     5
  7

 75
    16
147
1.0
148
0.0
149
0.0
100
AcDbLayout
  1
Layout1
 70
     1
 71
     1
 10
0.0
 20
0.0
 11
420.0
 21
297.0
 12
0.0
 22
0.0
 32
0.0
 14
1.0000000000E+20
 24
1.0000000000E+20
 34
1.0000000000E+20
 15
-1.0000000000E+20
 25
-1.0000000000E+20
 35
-1.0000000000E+20
146
0.0
 13
0.0
 23
0.0
 33
0.0
 16
1.0
 26
0.0
 36
0.0
 17
0.0
 27
1.0
 37
0.0
 76
     0
330
1B
  0
LAYOUT
  5
26
102
{ACAD_REACTORS
330
1A
102
}
330
1A
100
AcDbPlotSettings
  1

  2
none_device
  4

  6

 40
0.0
 41
0.0
 42
0.0
 43
0.0
 44
0.0
 45
0.0
 46
0.0
 47
0.0
 48
0.0
 49
0.0
140
0.0
141
0.0
142
1.0
143
1.0
 70
   688
 72
     1
 73
     0
 74
     5
  7

 75
    16
147
1.0
148
0.0
149
0.0
100
AcDbLayout
  1
Layout2
 70
     1
 71
     2
 10
0.0
 20
0.0
 11
0.0
 21
0.0
 12
0.0
 22
0.0
 32
0.0
 14
0.0
 24
0.0
 34
0.0
 15
0.0
 25
0.0
 35
0.0
146
0.0
 13
0.0
 23
0.0
 33
0.0
 16
1.0
 26
0.0
 36
0.0
 17
0.0
 27
1.0
 37
0.0
 76
     0
330
23
  0
LAYOUT
  5
22
102
{ACAD_REACTORS
330
1A
102
}
330
1A
100
AcDbPlotSettings
  1

  2
none_device
  4
Letter_(8.50_x_11.00_Inches)
  6

 40
6.35
 41
6.35
 42
6.35000508
 43
6.35000508
 44
215.9
 45
279.4
 46
0.0
 47
0.0
 48
0.0
 49
0.0
140
0.0
141
0.0
142
1.0
143
1.0
 70
  1712
 72
     1
 73
     0
 74
     0
  7

 75
     0
147
1.0
148
0.0
149
0.0
100
AcDbLayout
  1
Model
 70
     1
 71
     0
 10
0.0
 20
0.0
 11
1050.0
 21
1485.0
 12
0.0
 22
0.0
 32
0.0
 14
0.0
 24
0.0
 34
0.0
 15
1050.0
 25
1485.0
 35
0.0
146
0.0
 13
0.0
 23
0.0
 33
0.0
 16
1.0
 26
0.0
 36
0.0
 17
0.0
 27
1.0
 37
0.0
 76
     0
330
1F
331
29
  0
MLINESTYLE
  5
18
102
{ACAD_REACTORS
330
17
102
}
330
17
100
AcDbMlineStyle
  2
Standard
 70
     0
  3

 62
   256
 51
90.0
 52
90.0
 71
     2
 49
0.5
 62
   256
  6
BYLAYER
 49
-0.5
 62
   256
  6
BYLAYER
  0
ACDBPLACEHOLDER
  5
F
102
{ACAD_REACTORS
330
E
102
}
330
E
  0
SCALE
  5
48
102
{ACAD_REACTORS
330
47
102
}
330
47
100
AcDbScale
 70
     0
300
1:1
140
1.0
141
1.0
290
     1
  0
SCALE
  5
49
102
{ACAD_REACTORS
330
47
102
}
330
47
100
AcDbScale
 70
     0
300
1:2
140
1.0
141
2.0
290
     0
  0
SCALE
  5
4A
102
{ACAD_REACTORS
330
47
102
}
330
47
100
AcDbScale
 70
     0
300
1:4
140
1.0
141
4.0
290
     0
  0
SCALE
  5
4B
102
{ACAD_REACTORS
330
47
102
}
330
47
100
AcDbScale
 70
     0
300
1:5
140
1.0
141
5.0
290
     0
  0
SCALE
  5
4C
102
{ACAD_REACTORS
330
47
102
}
330
47
100
AcDbScale
 70
     0
300
1:8
140
1.0
141
8.0
290
     0
  0
SCALE
  5
4D
102
{ACAD_REACTORS
330
47
102
}
330
47
100
AcDbScale
 70
     0
300
1:10
140
1.0
141
10.0
290
     0
  0
SCALE
  5
4E
102
{ACAD_REACTORS
330
47
102
}
330
47
100
AcDbScale
 70
     0
300
1:16
140
1.0
141
16.0
290
     0
  0
SCALE
  5
4F
102
{ACAD_REACTORS
330
47
102
}
330
47
100
AcDbScale
 70
     0
300
1:20
140
1.0
141
20.0
290
     0
  0
SCALE
  5
50
102
{ACAD_REACTORS
330
47
102
}
330
47
100
AcDbScale
 70
     0
300
1:30
140
1.0
141
30.0
290
     0
  0
SCALE
  5
51
102
{ACAD_REACTORS
330
47
102
}
330
47
100
AcDbScale
 70
     0
300
1:40
140
1.0
141
40.0
290
     0
  0
SCALE
  5
52
102
{ACAD_REACTORS
330
47
102
}
330
47
100
AcDbScale
 70
     0
300
1:50
140
1.0
141
50.0
290
     0
  0
SCALE
  5
53
102
{ACAD_REACTORS
330
47
102
}
330
47
100
AcDbScale
 70
     0
300
1:100
140
1.0
141
100.0
290
     0
  0
SCALE
  5
54
102
{ACAD_REACTORS
330
47
102
}
330
47
100
AcDbScale
 70
     0
300
2:1
140
2.0
141
1.0
290
     0
  0
SCALE
  5
55
102
{ACAD_REACTORS
330
47
102
}
330
47
100
AcDbScale
 70
     0
300
4:1
140
4.0
141
1.0
290
     0
  0
SCALE
  5
56
102
{ACAD_REACTORS
330
47
102
}
330
47
100
AcDbScale
 70
     0
300
8:1
140
8.0
141
1.0
290
     0
  0
SCALE
  5
57
102
{ACAD_REACTORS
330
47
102
}
330
47
100
AcDbScale
 70
     0
300
10:1
140
10.0
141
1.0
290
     0
  0
SCALE
  5
58
102
{ACAD_REACTORS
330
47
102
}
330
47
100
AcDbScale
 70
     0
300
100:1
140
100.0
141
1.0
290
     0
  0
ENDSEC
  0
EOF
