  0
SECTION
  2
HEADER
  9
$ACADVER
  1
AC1032
  9
$ACADMAINTVER
 90
        4
  9
$DWGCODEPAGE
  3
ANSI_932
  9
$LASTSAVEDBY
  1
9128
  9
$REQUIREDVERSIONS
160
                 0
  9
$INSBASE
 10
0.0
 20
0.0
 30
0.0
  9
$EXTMIN
 10
191.1729731293983
 20
59.58841269976057
 30
0.0
  9
$EXTMAX
 10
271.3203410093169
 20
256.9840057017913
 30
0.0
  9
$LIMMIN
 10
0.0
 20
0.0
  9
$LIMMAX
 10
0.0
 20
0.0
  9
$ORTHOMODE
 70
     0
  9
$REGENMODE
 70
     1
  9
$FILLMODE
 70
     1
  9
$QTEXTMODE
 70
     0
  9
$MIRRTEXT
 70
     1
  9
$LTSCALE
 40
5.08
  9
$ATTMODE
 70
     1
  9
$TEXTSIZE
 40
2.5
  9
$TRACEWID
 40
1.0
  9
$TEXTSTYLE
  7
Standard
  9
$CLAYER
  8
0
  9
$CELTYPE
  6
Continuous
  9
$CECOLOR
 62
   256
  9
$CELTSCALE
 40
1.0
  9
$DISPSILH
 70
     0
  9
$DIMSCALE
 40
1.0
  9
$DIMASZ
 40
0.18
  9
$DIMEXO
 40
0.0625
  9
$DIMDLI
 40
0.38
  9
$DIMRND
 40
0.0
  9
$DIMDLE
 40
0.0
  9
$DIMEXE
 40
0.18
  9
$DIMTP
 40
0.0
  9
$DIMTM
 40
0.0
  9
$DIMTXT
 40
0.18
  9
$DIMCEN
 40
0.09
  9
$DIMTSZ
 40
0.0
  9
$DIMTOL
 70
     0
  9
$DIMLIM
 70
     0
  9
$DIMTIH
 70
     1
  9
$DIMTOH
 70
     1
  9
$DIMSE1
 70
     0
  9
$DIMSE2
 70
     0
  9
$DIMTAD
 70
     0
  9
$DIMZIN
 70
     0
  9
$DIMBLK
  1

  9
$DIMASO
 70
     1
  9
$DIMSHO
 70
     1
  9
$DIMPOST
  1

  9
$DIMAPOST
  1

  9
$DIMALT
 70
     0
  9
$DIMALTD
 70
     2
  9
$DIMALTF
 40
25.4
  9
$DIMLFAC
 40
1.0
  9
$DIMTOFL
 70
     0
  9
$DIMTVP
 40
0.0
  9
$DIMTIX
 70
     0
  9
$DIMSOXD
 70
     0
  9
$DIMSAH
 70
     0
  9
$DIMBLK1
  1

  9
$DIMBLK2
  1

  9
$DIMSTYLE
  2
Standard
  9
$DIMCLRD
 70
     0
  9
$DIMCLRE
 70
     0
  9
$DIMCLRT
 70
     0
  9
$DIMTFAC
 40
1.0
  9
$DIMGAP
 40
0.09
  9
$DIMJUST
 70
     0
  9
$DIMSD1
 70
     0
  9
$DIMSD2
 70
     0
  9
$DIMTOLJ
 70
     1
  9
$DIMTZIN
 70
     0
  9
$DIMALTZ
 70
     0
  9
$DIMALTTZ
 70
     0
  9
$DIMUPT
 70
     0
  9
$DIMDEC
 70
     4
  9
$DIMTDEC
 70
     4
  9
$DIMALTU
 70
     2
  9
$DIMALTTD
 70
     2
  9
$DIMTXSTY
  7
Standard
  9
$DIMAUNIT
 70
     0
  9
$DIMADEC
 70
     0
  9
$DIMALTRND
 40
0.0
  9
$DIMAZIN
 70
     0
  9
$DIMDSEP
 70
     0
  9
$DIMATFIT
 70
     3
  9
$DIMFRAC
 70
     0
  9
$DIMLDRBLK
  1

  9
$DIMLUNIT
 70
     2
  9
$DIMLWD
 70
     0
  9
$DIMLWE
 70
     0
  9
$DIMTMOVE
 70
     0
  9
$DIMFXL
 40
1.0
  9
$DIMFXLON
 70
     0
  9
$DIMJOGANG
 40
0.7853981633974483
  9
$DIMTFILL
 70
     0
  9
$DIMTFILLCLR
 70
     0
  9
$DIMARCSYM
 70
     0
  9
$DIMLTYPE
  6

  9
$DIMLTEX1
  6

  9
$DIMLTEX2
  6

  9
$DIMTXTDIRECTION
 70
     0
  9
$LUNITS
 70
     2
  9
$LUPREC
 70
     4
  9
$SKETCHINC
 40
0.1
  9
$FILLETRAD
 40
0.0
  9
$AUNITS
 70
     0
  9
$AUPREC
 70
     0
  9
$MENU
  1
acad
  9
$ELEVATION
 40
0.0
  9
$PELEVATION
 40
0.0
  9
$THICKNESS
 40
0.0
  9
$LIMCHECK
 70
     0
  9
$CHAMFERA
 40
0.0
  9
$CHAMFERB
 40
0.0
  9
$CHAMFERC
 40
0.0
  9
$CHAMFERD
 40
0.0
  9
$SKPOLY
 70
     0
  9
$TDCREATE
 40
2447893.375
  9
$TDUCREATE
 40
0.0
  9
$TDUPDATE
 40
2459608.567273333
  9
$TDUUPDATE
 40
2459608.192273333
  9
$TDINDWG
 40
0.0007335185
  9
$TDUSRTIMER
 40
0.0000664931
  9
$USRTIMER
 70
     1
  9
$ANGBASE
 50
0.0
  9
$ANGDIR
 70
     0
  9
$PDMODE
 70
     1
  9
$PDSIZE
 40
-2.0
  9
$PLINEWID
 40
0.0
  9
$SPLFRAME
 70
     0
  9
$SPLINETYPE
 70
     6
  9
$SPLINESEGS
 70
     8
  9
$HANDSEED
  5
272
  9
$SURFTAB1
 70
     6
  9
$SURFTAB2
 70
     6
  9
$SURFTYPE
 70
     6
  9
$SURFU
 70
     6
  9
$SURFV
 70
     6
  9
$UCSBASE
  2

  9
$UCSNAME
  2

  9
$UCSORG
 10
0.0
 20
0.0
 30
0.0
  9
$UCSXDIR
 10
1.0
 20
0.0
 30
0.0
  9
$UCSYDIR
 10
0.0
 20
1.0
 30
0.0
  9
$UCSORTHOREF
  2

  9
$UCSORTHOVIEW
 70
     0
  9
$UCSORGTOP
 10
0.0
 20
0.0
 30
0.0
  9
$UCSORGBOTTOM
 10
0.0
 20
0.0
 30
0.0
  9
$UCSORGLEFT
 10
0.0
 20
0.0
 30
0.0
  9
$UCSORGRIGHT
 10
0.0
 20
0.0
 30
0.0
  9
$UCSORGFRONT
 10
0.0
 20
0.0
 30
0.0
  9
$UCSORGBACK
 10
0.0
 20
0.0
 30
0.0
  9
$PUCSBASE
  2

  9
$PUCSNAME
  2

  9
$PUCSORG
 10
0.0
 20
0.0
 30
0.0
  9
$PUCSXDIR
 10
1.0
 20
0.0
 30
0.0
  9
$PUCSYDIR
 10
0.0
 20
1.0
 30
0.0
  9
$PUCSORTHOREF
  2

  9
$PUCSORTHOVIEW
 70
     0
  9
$PUCSORGTOP
 10
0.0
 20
0.0
 30
0.0
  9
$PUCSORGBOTTOM
 10
0.0
 20
0.0
 30
0.0
  9
$PUCSORGLEFT
 10
0.0
 20
0.0
 30
0.0
  9
$PUCSORGRIGHT
 10
0.0
 20
0.0
 30
0.0
  9
$PUCSORGFRONT
 10
0.0
 20
0.0
 30
0.0
  9
$PUCSORGBACK
 10
0.0
 20
0.0
 30
0.0
  9
$USERI1
 70
     0
  9
$USERI2
 70
     0
  9
$USERI3
 70
     0
  9
$USERI4
 70
     0
  9
$USERI5
 70
     0
  9
$USERR1
 40
0.0
  9
$USERR2
 40
0.0
  9
$USERR3
 40
0.0
  9
$USERR4
 40
0.0
  9
$USERR5
 40
0.0
  9
$WORLDVIEW
 70
     1
  9
$SHADEDGE
 70
     3
  9
$SHADEDIF
 70
    70
  9
$TILEMODE
 70
     1
  9
$MAXACTVP
 70
    16
  9
$PINSBASE
 10
0.0
 20
0.0
 30
0.0
  9
$PLIMCHECK
 70
     0
  9
$PEXTMIN
 10
1.000000000000000E+20
 20
1.000000000000000E+20
 30
1.000000000000000E+20
  9
$PEXTMAX
 10
-1.000000000000000E+20
 20
-1.000000000000000E+20
 30
-1.000000000000000E+20
  9
$PLIMMIN
 10
0.0
 20
0.0
  9
$PLIMMAX
 10
0.0
 20
0.0
  9
$UNITMODE
 70
     0
  9
$VISRETAIN
 70
     0
  9
$PLINEGEN
 70
     1
  9
$PSLTSCALE
 70
     0
  9
$TREEDEPTH
 70
  3020
  9
$CMLSTYLE
  2
Standard
  9
$CMLJUST
 70
     0
  9
$CMLSCALE
 40
1.0
  9
$PROXYGRAPHICS
 70
     0
  9
$MEASUREMENT
 70
     1
  9
$CELWEIGHT
370
     0
  9
$ENDCAPS
280
     0
  9
$JOINSTYLE
280
     0
  9
$LWDISPLAY
290
     1
  9
$INSUNITS
 70
     4
  9
$HYPERLINKBASE
  1

  9
$STYLESHEET
  1

  9
$XEDIT
290
     1
  9
$CEPSNTYPE
380
     0
  9
$PSTYLEMODE
290
     1
  9
$FINGERPRINTGUID
  2

  9
$VERSIONGUID
  2

  9
$EXTNAMES
290
     1
  9
$PSVPSCALE
 40
0.0
  9
$OLESTARTUP
290
     0
  9
$SORTENTS
280
   127
  9
$INDEXCTL
280
     0
  9
$HIDETEXT
280
     1
  9
$XCLIPFRAME
280
     2
  9
$HALOGAP
280
     0
  9
$OBSCOLOR
 70
   257
  9
$OBSLTYPE
280
     0
  9
$INTERSECTIONDISPLAY
280
     0
  9
$INTERSECTIONCOLOR
 70
   257
  9
$DIMASSOC
280
     2
  9
$PROJECTNAME
  1

  9
$CAMERADISPLAY
290
     0
  9
$LENSLENGTH
 40
50.0
  9
$CAMERAHEIGHT
 40
0.0
  9
$STEPSPERSEC
 40
2.0
  9
$STEPSIZE
 40
6.0
  9
$3DDWFPREC
 40
2.0
  9
$PSOLWIDTH
 40
0.25
  9
$PSOLHEIGHT
 40
4.0
  9
$LOFTANG1
 40
1.570796326794897
  9
$LOFTANG2
 40
1.570796326794897
  9
$LOFTMAG1
 40
0.0
  9
$LOFTMAG2
 40
0.0
  9
$LOFTPARAM
 70
     7
  9
$LOFTNORMALS
280
     1
  9
$LATITUDE
 40
37.795
  9
$LONGITUDE
 40
-122.394
  9
$NORTHDIRECTION
 40
0.0
  9
$TIMEZONE
 70
 -8000
  9
$LIGHTGLYPHDISPLAY
280
     1
  9
$TILEMODELIGHTSYNCH
280
     1
  9
$SOLIDHIST
280
     0
  9
$SHOWHIST
280
     1
  9
$DWFFRAME
280
     2
  9
$DGNFRAME
280
     2
  9
$REALWORLDSCALE
290
     1
  9
$INTERFERECOLOR
 62
   256
  9
$CSHADOW
280
     0
  9
$SHADOWPLANELOCATION
 40
0.0
  0
ENDSEC
  0
SECTION
  2
CLASSES
  0
CLASS
  1
LWPOLYLINE
  2
AcDbPolyline
  3
ObjectDBX Classes
 90
        0
 91
        1
280
     0
281
     1
  0
CLASS
  1
IMAGE
  2
AcDbRasterImage
  3
ISM
 90
      127
 91
        4
280
     0
281
     1
  0
CLASS
  1
OLE2FRAME
  2
AcDbOle2Frame
  3
ObjectDBX Classes
 90
        0
 91
        1
280
     0
281
     1
  0
CLASS
  1
HATCH
  2
AcDbHatch
  3
ObjectDBX Classes
 90
        0
 91
        1
280
     0
281
     1
  0
CLASS
  1
DICTIONARYVAR
  2
AcDbDictionaryVar
  3
ObjectDBX Classes
 90
        0
 91
        3
280
     0
281
     0
  0
CLASS
  1
RASTERVARIABLES
  2
AcDbRasterVariables
  3
ISM
 90
        0
 91
        3
280
     0
281
     0
  0
CLASS
  1
IMAGEDEF
  2
AcDbRasterImageDef
  3
ISM
 90
        0
 91
        3
280
     0
281
     0
  0
CLASS
  1
IMAGEDEF_REACTOR
  2
AcDbRasterImageDefReactor
  3
ISM
 90
        1
 91
        3
280
     0
281
     0
  0
CLASS
  1
IDBUFFER
  2
AcDbIdBuffer
  3
ObjectDBX Classes
 90
        0
 91
        3
280
     0
281
     0
  0
CLASS
  1
SPATIAL_FILTER
  2
AcDbSpatialFilter
  3
ObjectDBX Classes
 90
        0
 91
        3
280
     0
281
     0
  0
CLASS
  1
XRECORD
  2
AcDbXrecord
  3
ObjectDBX Classes
 90
        0
 91
        1
280
     0
281
     0
  0
CLASS
  1
SORTENTSTABLE
  2
AcDbSortentsTable
  3
ObjectDBX Classes
 90
        0
 91
        3
280
     0
281
     0
  0
CLASS
  1
LAYER_INDEX
  2
AcDbLayerIndex
  3
ObjectDBX Classes
 90
        0
 91
        3
280
     0
281
     0
  0
CLASS
  1
SPATIAL_INDEX
  2
AcDbSpatialIndex
  3
AutoCAD 2000
 90
        0
 91
        3
280
     0
281
     0
  0
CLASS
  1
OBJECT_PTR
  2
CAseDLPNTableRecord
  3
ASE-LPNTableRecord
 90
        1
 91
        3
280
     0
281
     0
  0
CLASS
  1
LAYOUT
  2
AcDbLayout
  3
ObjectDBX Classes
 90
        0
 91
        1
280
     0
281
     0
  0
CLASS
  1
PLOTSETTINGS
  2
AcDbPlotSettings
  3
ObjectDBX Classes
 90
        0
 91
        3
280
     0
281
     0
  0
CLASS
  1
ACDBDICTIONARYWDFLT
  2
AcDbDictionaryWithDefault
  3
ObjectDBX Classes
 90
        0
 91
        3
280
     0
281
     0
  0
CLASS
  1
ACDBPLACEHOLDER
  2
AcDbPlaceHolder
  3
ObjectDBX Classes
 90
        0
 91
        1
280
     0
281
     0
  0
CLASS
  1
VBA_PROJECT
  2
AcDbVbaProject
  3
ObjectDBX Classes
 90
        0
 91
        1
280
     0
281
     0
  0
CLASS
  1
WIPEOUT
  2
AcDbWipeout
  3
WipeOut|AutoCAD Express Tool|expresstools@autodesk.com
 90
      127
 91
        3
280
     0
281
     1
  0
CLASS
  1
WIPEOUTVARIABLES
  2
AcDbWipeoutVariables
  3
WipeOut|AutoCAD Express Tool|expresstools@autodesk.com
 90
        0
 91
        3
280
     0
281
     0
  0
CLASS
  1
RTEXT
  2
RText
  3
RText|AutoCAD Express Tool|expresstools@autodesk.com
 90
        0
 91
        3
280
     0
281
     1
  0
CLASS
  1
ARCALIGNEDTEXT
  2
AcDbArcAlignedText
  3
ATEXT|AutoCAD Express Tool|expresstools@autodesk.com
 90
        0
 91
        3
280
     0
281
     1
  0
CLASS
  1
SCALE
  2
AcDbScale
  3
ObjectDBX Classes
 90
     1153
 91
        3
280
     0
281
     0
  0
CLASS
  1
VISUALSTYLE
  2
AcDbVisualStyle
  3
ObjectDBX Classes
 90
     4095
 91
        3
280
     0
281
     0
  0
CLASS
  1
MATERIAL
  2
AcDbMaterial
  3
ObjectDBX Classes
 90
     1153
 91
        3
280
     0
281
     0
  0
CLASS
  1
TABLESTYLE
  2
AcDbTableStyle
  3
ObjectDBX Classes
 90
     4095
 91
        3
280
     0
281
     0
  0
CLASS
  1
MLEADERSTYLE
  2
AcDbMLeaderStyle
  3
ACDB_MLEADERSTYLE_CLASS
 90
     4095
 91
        3
280
     0
281
     0
  0
CLASS
  1
SUN
  2
AcDbSun
  3
SCENEOE
 90
     1153
 91
        3
280
     0
281
     0
  0
CLASS
  1
CELLSTYLEMAP
  2
AcDbCellStyleMap
  3
ObjectDBX Classes
 90
     1152
 91
        3
280
     0
281
     0
  0
ENDSEC
  0
SECTION
  2
TABLES
  0
TABLE
  2
VPORT
  5
7
330
0
100
AcDbSymbolTable
 70
     1
  0
VPORT
  5
15
330
7
100
AcDbSymbolTableRecord
100
AcDbViewportTableRecord
  2
*ACTIVE
 70
     0
 10
0.0
 20
0.0
 11
1.0
 21
1.0
 12
252.9733358172237
 22
120.3281365968767
 13
0.0
 23
0.0
 14
1.0
 24
1.0
 15
0.0
 25
0.0
 16
0.0
 26
0.0
 36
1.0
 17
0.0
 27
0.0
 37
0.0
 40
372.222472269491
 41
0.9324116743471582
 42
50.0
 43
0.0
 44
0.0
 50
0.0
 51
0.0
 71
    16
 72
   100
 73
     1
 74
     1
 75
     0
 76
     0
 77
     0
 78
     0
281
     0
 65
     0
110
0.0
120
0.0
130
0.0
111
1.0
121
0.0
131
0.0
112
0.0
122
1.0
132
0.0
 79
     0
146
0.0
348
239
 60
     3
 61
     5
292
     1
282
     1
141
0.0
142
0.0
 63
   256
361
25D
  0
ENDTAB
  0
TABLE
  2
LTYPE
  5
4
330
0
100
AcDbSymbolTable
 70
    12
  0
LTYPE
  5
11
330
4
100
AcDbSymbolTableRecord
100
AcDbLinetypeTableRecord
  2
ByBlock
 70
     0
  3

 72
    65
 73
     0
 40
0.0
  0
LTYPE
  5
12
330
4
100
AcDbSymbolTableRecord
100
AcDbLinetypeTableRecord
  2
ByLayer
 70
     0
  3

 72
    65
 73
     0
 40
0.0
  0
LTYPE
  5
13
330
4
100
AcDbSymbolTableRecord
100
AcDbLinetypeTableRecord
  2
Continuous
 70
     0
  3
Solid line
 72
    65
 73
     0
 40
0.0
  0
LTYPE
  5
27
330
4
100
AcDbSymbolTableRecord
100
AcDbLinetypeTableRecord
  2
STYLE_01
 70
     0
  3

 72
    65
 73
     2
 40
0.075
 49
0.05
 74
     0
 49
-0.025
 74
     0
  0
LTYPE
  5
28
330
4
100
AcDbSymbolTableRecord
100
AcDbLinetypeTableRecord
  2
STYLE_02
 70
     0
  3

 72
    65
 73
     6
 40
0.4999999999999999
 49
0.25
 74
     0
 49
-0.05
 74
     0
 49
0.05
 74
     0
 49
-0.05
 74
     0
 49
0.05
 74
     0
 49
-0.05
 74
     0
  0
LTYPE
  5
29
330
4
100
AcDbSymbolTableRecord
100
AcDbLinetypeTableRecord
  2
STYLE_03
 70
     0
  3

 72
    65
 73
     4
 40
0.3999999999999999
 49
0.25
 74
     0
 49
-0.05
 74
     0
 49
0.05
 74
     0
 49
-0.05
 74
     0
  0
LTYPE
  5
2A
330
4
100
AcDbSymbolTableRecord
100
AcDbLinetypeTableRecord
  2
STYLE_04
 70
     0
  3

 72
    65
 73
     4
 40
0.7999999999999998
 49
0.4999999999999999
 74
     0
 49
-0.1
 74
     0
 49
0.1
 74
     0
 49
-0.1
 74
     0
  0
LTYPE
  5
2B
330
4
100
AcDbSymbolTableRecord
100
AcDbLinetypeTableRecord
  2
STYLE_05
 70
     0
  3

 72
    65
 73
     2
 40
0.025
 49
0.0005
 74
     0
 49
-0.0245
 74
     0
  0
LTYPE
  5
2C
330
4
100
AcDbSymbolTableRecord
100
AcDbLinetypeTableRecord
  2
STYLE_06
 70
     0
  3

 72
    65
 73
     4
 40
1.04164
 49
0.625
 74
     0
 49
-0.20828
 74
     0
 49
0.06943
 74
     0
 49
-0.13893
 74
     0
  0
LTYPE
  5
2D
330
4
100
AcDbSymbolTableRecord
100
AcDbLinetypeTableRecord
  2
STYLE_07
 70
     0
  3

 72
    65
 73
     6
 40
1.875
 49
0.625
 74
     0
 49
-0.20828
 74
     0
 49
0.6250000000000001
 74
     0
 49
-0.2083599999999999
 74
     0
 49
0.06943
 74
     0
 49
-0.1389299999999999
 74
     0
  0
LTYPE
  5
2E
330
4
100
AcDbSymbolTableRecord
100
AcDbLinetypeTableRecord
  2
STYLE_08
 70
     0
  3

 72
    65
 73
     6
 40
1.25
 49
0.625
 74
     0
 49
-0.20828
 74
     0
 49
0.06943
 74
     0
 49
-0.13893
 74
     0
 49
0.0694299999999999
 74
     0
 49
-0.13893
 74
     0
  0
LTYPE
  5
2F
330
4
100
AcDbSymbolTableRecord
100
AcDbLinetypeTableRecord
  2
STYLE_09
 70
     0
  3

 72
    65
 73
     4
 40
5.0
 49
3.75
 74
     0
 49
-0.2777849999999998
 74
     0
 49
0.6944300000000003
 74
     0
 49
-0.2777849999999998
 74
     0
  0
LTYPE
  5
30
330
4
100
AcDbSymbolTableRecord
100
AcDbLinetypeTableRecord
  2
STYLE_10
 70
     0
  3

 72
    65
 73
     6
 40
5.9375
 49
3.75
 74
     0
 49
-0.2777849999999998
 74
     0
 49
0.6944300000000003
 74
     0
 49
-0.2777849999999998
 74
     0
 49
0.625
 74
     0
 49
-0.3125
 74
     0
  0
LTYPE
  5
31
330
4
100
AcDbSymbolTableRecord
100
AcDbLinetypeTableRecord
  2
STYLE_11
 70
     0
  3

 72
    65
 73
     2
 40
0.1875
 49
0.125
 74
     0
 49
-0.0625
 74
     0
  0
ENDTAB
  0
TABLE
  2
LAYER
  5
2
330
0
100
AcDbSymbolTable
 70
     6
  0
LAYER
  5
14
330
2
100
AcDbSymbolTableRecord
100
AcDbLayerTableRecord
  2
0
 70
     0
 62
     7
  6
Continuous
370
    15
390
1D
347
250
348
0
  0
LAYER
  5
32
330
2
100
AcDbSymbolTableRecord
100
AcDbLayerTableRecord
  2
Defpoints
 70
     0
 62
     7
  6
Continuous
290
     0
370
    -3
390
1D
347
250
348
0
  0
LAYER
  5
33
330
2
100
AcDbSymbolTableRecord
100
AcDbLayerTableRecord
  2
一般
 70
     0
 62
     7
  6
Continuous
370
     5
390
1D
347
250
348
0
  0
LAYER
  5
34
330
2
100
AcDbSymbolTableRecord
100
AcDbLayerTableRecord
  2
寸法
 70
     0
 62
     7
  6
Continuous
370
     5
390
1D
347
250
348
0
  0
LAYER
  5
35
330
2
100
AcDbSymbolTableRecord
100
AcDbLayerTableRecord
  2
レイヤー_1
 70
     0
 62
    19
  6
Continuous
370
    15
390
1D
347
250
348
0
  0
LAYER
  5
36
330
2
100
AcDbSymbolTableRecord
100
AcDbLayerTableRecord
  2
FORMAT
 70
     0
 62
     7
  6
Continuous
370
    15
390
1D
347
250
348
0
  0
ENDTAB
  0
TABLE
  2
STYLE
  5
3
330
0
100
AcDbSymbolTable
 70
     2
  0
STYLE
  5
17
330
3
100
AcDbSymbolTableRecord
100
AcDbTextStyleTableRecord
  2
Standard
 70
     0
 40
0.0
 41
1.0
 50
0.0
 71
     0
 42
2.5
  3
txt
  4
BIGFONT.SHX
  0
STYLE
  5
26
330
3
100
AcDbSymbolTableRecord
100
AcDbTextStyleTableRecord
  2
Arial
 70
     0
 40
0.0
 41
1.0
 50
0.0
 71
     0
 42
0.0
  3
Arial
  4

1001
ACAD
1000
Arial
1071
        0
  0
ENDTAB
  0
TABLE
  2
VIEW
  5
5
330
0
100
AcDbSymbolTable
 70
     0
  0
ENDTAB
  0
TABLE
  2
UCS
  5
6
330
0
100
AcDbSymbolTable
 70
     0
  0
ENDTAB
  0
TABLE
  2
APPID
  5
8
330
0
100
AcDbSymbolTable
 70
     2
  0
APPID
  5
16
330
8
100
AcDbSymbolTableRecord
100
AcDbRegAppTableRecord
  2
ACAD
 70
     0
  0
APPID
  5
26E
330
8
100
AcDbSymbolTableRecord
100
AcDbRegAppTableRecord
  2
PLOTTRANSPARENCY
 70
     0
  0
ENDTAB
  0
TABLE
  2
DIMSTYLE
  5
9
330
0
100
AcDbSymbolTable
 70
     1
100
AcDbDimStyleTable
  0
DIMSTYLE
105
18
330
9
100
AcDbSymbolTableRecord
100
AcDbDimStyleTableRecord
  2
Standard
 70
     0
178
     0
340
17
  0
ENDTAB
  0
TABLE
  2
BLOCK_RECORD
  5
1
330
0
100
AcDbSymbolTable
 70
     2
  0
BLOCK_RECORD
  5
A
330
1
100
AcDbSymbolTableRecord
100
AcDbBlockTableRecord
  2
*MODEL_SPACE
340
20
 70
     0
280
     1
281
     0
  0
BLOCK_RECORD
  5
B
330
1
100
AcDbSymbolTableRecord
100
AcDbBlockTableRecord
  2
*PAPER_SPACE
340
21
 70
     0
280
     1
281
     0
  0
BLOCK_RECORD
  5
24
330
1
100
AcDbSymbolTableRecord
100
AcDbBlockTableRecord
  2
*U0
340
0
102
{BLKREFS
331
20E
102
}
 70
     0
280
     1
281
     0
  0
BLOCK_RECORD
  5
25
330
1
100
AcDbSymbolTableRecord
100
AcDbBlockTableRecord
  2
*U1
340
0
102
{BLKREFS
331
211
102
}
 70
     0
280
     1
281
     0
  0
ENDTAB
  0
ENDSEC
  0
SECTION
  2
BLOCKS
  0
BLOCK
  5
D
330
A
100
AcDbEntity
  8
0
100
AcDbBlockBegin
  2
*MODEL_SPACE
 70
     0
 10
0.0
 20
0.0
 30
0.0
  3
*MODEL_SPACE
  1

  0
ENDBLK
  5
E
330
A
100
AcDbEntity
  8
0
100
AcDbBlockEnd
  0
BLOCK
  5
F
330
B
100
AcDbEntity
 67
     1
  8
0
100
AcDbBlockBegin
  2
*PAPER_SPACE
 70
     0
 10
0.0
 20
0.0
 30
0.0
  3
*PAPER_SPACE
  1

  0
ENDBLK
  5
10
330
B
100
AcDbEntity
 67
     1
  8
0
100
AcDbBlockEnd
  0
BLOCK
  5
37
330
24
100
AcDbEntity
  8
一般
100
AcDbBlockBegin
  2
*U0
 70
     1
 10
0.0
 20
0.0
 30
0.0
  3
*U0
  1

  0
LINE
  5
38
330
24
100
AcDbEntity
  8
0
  6
Continuous
 62
     7
370
    15
100
AcDbLine
 10
-92.59025139328959
 20
451.2207890303005
 30
0.0
 11
-68.64482649848959
 21
-432.2609733576996
 31
0.0
  0
LINE
  5
39
330
24
100
AcDbEntity
  8
0
  6
Continuous
 62
     7
370
    15
100
AcDbLine
 10
29.81298615991055
 20
-427.7200523434997
 30
0.0
 11
5.868116198109973
 21
455.7412354317003
 31
0.0
  0
LINE
  5
3A
330
24
100
AcDbEntity
  8
0
  6
Continuous
 62
     7
370
    15
100
AcDbLine
 10
-60.21762907748997
 20
334.3451502777004
 30
0.0
 11
-60.20494585508949
 21
334.1712362733003
 31
0.0
  0
SPLINE
  5
3B
330
24
100
AcDbEntity
  8
0
  6
Continuous
 62
     7
370
    15
100
AcDbSpline
210
0.0
220
0.0
230
1.0
 70
     8
 71
     2
 72
    14
 73
    11
 74
     0
 42
0.000000001
 43
0.000001
 40
0.0
 40
0.0
 40
0.0
 40
1.0
 40
1.0
 40
2.0
 40
3.0
 40
4.0
 40
5.0
 40
6.0
 40
6.0
 40
7.0
 40
7.0
 40
7.0
 10
-60.20496039042008
 20
334.1714398247495
 30
0.0
 10
-60.20462487483645
 20
334.1690393874901
 30
0.0
 10
-60.20428935925283
 20
334.1666389502307
 30
0.0
 10
-60.19444749300273
 20
334.0945111243068
 30
0.0
 10
-60.17196481115924
 20
333.9516913421121
 30
0.0
 10
-60.13776501598058
 20
333.8045922440506
 30
0.0
 10
-60.07129745352849
 20
333.62975665711
 30
0.0
 10
-59.96436422159731
 20
333.4802068983367
 30
0.0
 10
-59.91925981358726
 20
333.422957396619
 30
0.0
 10
-59.91853871799812
 20
333.4220307369749
 30
0.0
 10
-59.91781762240898
 20
333.4211040773307
 30
0.0
  0
LINE
  5
3C
330
24
100
AcDbEntity
  8
0
  6
Continuous
 62
     7
370
    15
100
AcDbLine
 10
-89.72967200088978
 20
456.3400299361003
 30
0.0
 11
-40.96674792589
 21
444.9818121603003
 31
0.0
  0
ARC
  5
3D
330
24
100
AcDbEntity
  8
0
  6
Continuous
 62
     7
370
    15
100
AcDbCircle
 10
-40.28618290128942
 20
447.9035977097003
 30
0.0
 40
3.000000000000121
100
AcDbArc
 50
256.8880407683
 51
290.2502952888912
  0
LINE
  5
3E
330
24
100
AcDbEntity
  8
0
  6
Continuous
 62
     7
370
    15
100
AcDbLine
 10
-39.2478150200899
 20
445.0890292033005
 30
0.0
 11
2.938004746710348
 21
460.6524467799004
 31
0.0
  0
LINE
  5
3F
330
24
100
AcDbEntity
  8
0
  6
Continuous
 62
     7
370
    15
100
AcDbLine
 10
0.9118465031102545
 20
527.9438282365004
 30
0.0
 11
-47.85107757168988
 21
539.3020460121004
 31
0.0
  0
ARC
  5
40
330
24
100
AcDbEntity
  8
0
  6
Continuous
 62
     7
370
    15
100
AcDbCircle
 10
-90.71746451028993
 20
520.8168393003004
 30
0.0
 40
2.999999999999873
100
AcDbArc
 50
110.2502952888927
 51
181.5525345763981
  0
LINE
  5
41
330
24
100
AcDbEntity
  8
0
  6
Continuous
 62
     7
370
    15
100
AcDbLine
 10
-93.71636236268968
 20
520.7355584089003
 30
0.0
 11
-92.04800741268936
 21
459.1805357683004
 31
0.0
  0
LINE
  5
42
330
24
100
AcDbEntity
  8
0
  6
Continuous
 62
     7
370
    15
100
AcDbLine
 10
-49.57001044748939
 20
539.1948278583004
 30
0.0
 11
-91.75583021428965
 21
523.6314102815004
 31
0.0
  0
ARC
  5
43
330
24
100
AcDbEntity
  8
0
  6
Continuous
 62
     7
370
    15
100
AcDbCircle
 10
0.2312841219105479
 20
525.0220393227003
 30
0.0
 40
2.999999999999822
100
AcDbArc
 50
1.552534576398124
 51
76.88804076829899
  0
LINE
  5
44
330
24
100
AcDbEntity
  8
0
  6
Continuous
 62
     7
370
    15
100
AcDbLine
 10
4.898536961510317
 20
463.5482962085005
 30
0.0
 11
3.23018201151045
 21
525.1033188489002
 31
0.0
  0
ARC
  5
45
330
24
100
AcDbEntity
  8
0
  6
Continuous
 62
     7
370
    15
100
AcDbCircle
 10
-89.04910954468995
 20
459.2618160837003
 30
0.0
 40
2.999999999999822
100
AcDbArc
 50
181.5525345763981
 51
256.8880407682988
  0
ARC
  5
46
330
24
100
AcDbEntity
  8
0
  6
Continuous
 62
     7
370
    15
100
AcDbCircle
 10
1.899639087710611
 20
463.4670161063004
 30
0.0
 40
2.999999999999873
100
AcDbArc
 50
290.2502952888927
 51
1.552534576398102
  0
ARC
  5
47
330
24
100
AcDbEntity
  8
0
  6
Continuous
 62
     7
370
    15
100
AcDbCircle
 10
-48.5316425212899
 20
536.3802576967003
 30
0.0
 40
2.9999999999999
100
AcDbArc
 50
76.88804076829899
 51
110.2502952888927
  0
SPLINE
  5
48
330
24
100
AcDbEntity
  8
0
  6
Continuous
 62
     7
370
    15
100
AcDbSpline
210
0.0
220
0.0
230
1.0
 70
     8
 71
     2
 72
    16
 73
    13
 74
     0
 42
0.000000001
 43
0.000001
 40
0.0
 40
0.0
 40
0.0
 40
1.0
 40
1.0
 40
2.0
 40
3.0
 40
4.0
 40
5.0
 40
6.0
 40
7.0
 40
8.0
 40
8.0
 40
9.0
 40
9.0
 40
9.0
 10
-92.64716608708967
 20
454.3910233586741
 30
0.0
 10
-92.6478223398998
 20
454.3906486259372
 30
0.0
 10
-92.64847859270994
 20
454.3902738932002
 30
0.0
 10
-92.68939157890908
 20
454.3672114664648
 30
0.0
 10
-92.79370931117445
 20
454.3046154949773
 30
0.0
 10
-92.90622451184244
 20
454.1988056390865
 30
0.0
 10
-92.97490456446612
 20
454.0961660190603
 30
0.0
 10
-93.01244770710981
 20
454.0122294244463
 30
0.0
 10
-93.02546926994673
 20
453.9462867588998
 30
0.0
 10
-93.03257856570862
 20
453.8845926063998
 30
0.0
 10
-93.03496830658777
 20
453.8427590678555
 30
0.0
 10
-93.03501160578811
 20
453.8420848423543
 30
0.0
 10
-93.03505490498846
 20
453.8414106168532
 30
0.0
  0
LINE
  5
49
330
24
100
AcDbEntity
  8
0
  6
Continuous
 62
     7
370
    15
100
AcDbLine
 10
-93.03559062168951
 20
453.8502136481004
 30
0.0
 11
-93.01447640008963
 21
451.4549170489004
 31
0.0
  0
LINE
  5
4A
330
24
100
AcDbEntity
  8
0
  6
Continuous
 62
     7
370
    15
100
AcDbLine
 10
-88.29023932348936
 20
456.0047465901005
 30
0.0
 11
-92.59749635928974
 21
454.4156903569003
 31
0.0
  0
SPLINE
  5
4B
330
24
100
AcDbEntity
  8
0
  6
Continuous
 62
     7
370
    15
100
AcDbSpline
210
0.0
220
0.0
230
1.0
 70
     8
 71
     2
 72
    16
 73
    13
 74
     0
 42
0.000000001
 43
0.000001
 40
0.0
 40
0.0
 40
0.0
 40
1.0
 40
1.0
 40
2.0
 40
3.0
 40
4.0
 40
5.0
 40
6.0
 40
7.0
 40
8.0
 40
8.0
 40
9.0
 40
9.0
 40
9.0
 10
6.169448343046142
 20
458.4080301575079
 30
0.0
 10
6.169310655463832
 20
458.4087531558419
 30
0.0
 10
6.169172967881522
 20
458.4094761541758
 30
0.0
 10
6.161159584246533
 20
458.4543972088848
 30
0.0
 10
6.144564175233072
 20
458.520198498037
 30
0.0
 10
6.114309324078576
 20
458.6064938004406
 30
0.0
 10
6.039432473604947
 20
458.7059518000913
 30
0.0
 10
5.964874347785198
 20
458.7801702865013
 30
0.0
 10
5.854267142150647
 20
458.8627899753631
 30
0.0
 10
5.728313676132174
 20
458.9206956487888
 30
0.0
 10
5.680433500024819
 20
458.9409157060431
 30
0.0
 10
5.679663792209894
 20
458.9412445031385
 30
0.0
 10
5.678894084394969
 20
458.9415733002338
 30
0.0
  0
LINE
  5
4C
330
24
100
AcDbEntity
  8
0
  6
Continuous
 62
     7
370
    15
100
AcDbLine
 10
6.27877190711034
 20
456.0076886721004
 30
0.0
 11
6.170110350310196
 21
458.4006128009003
 31
0.0
  0
LINE
  5
4D
330
24
100
AcDbEntity
  8
0
  6
Continuous
 62
     7
370
    15
100
AcDbLine
 10
5.626389520510301
 20
458.9618941121003
 30
0.0
 11
1.169539823510249
 21
460.0000162185004
 31
0.0
  0
ARC
  5
4E
330
24
100
AcDbEntity
  8
0
  6
Continuous
 62
     7
370
    15
100
AcDbCircle
 10
-15.9000693844895
 20
-443.7184751450995
 30
0.0
 40
0.8458722299540891
100
AcDbArc
 50
258.1510689178889
 51
287.1435335427747
  0
LINE
  5
4F
330
24
100
AcDbEntity
  8
0
  6
Continuous
 62
     7
370
    15
100
AcDbLine
 10
-16.07375396908937
 20
-444.5463238598995
 30
0.0
 11
-68.5411491880899
 21
-432.3252335062995
 31
0.0
  0
POLYLINE
  5
50
330
24
100
AcDbEntity
  8
0
  6
Continuous
 62
     7
370
    15
100
AcDb2dPolyline
 66
     1
 10
0.0
 20
0.0
 30
0.0
 75
     5
  0
VERTEX
  5
51
330
50
100
AcDbEntity
  8
0
  6
Continuous
 62
     7
370
    15
100
AcDbVertex
100
AcDb2dVertex
 10
-45.7993570738894
 20
-309.5996926800996
 30
0.0
  0
VERTEX
  5
52
330
50
100
AcDbEntity
  8
0
  6
Continuous
 62
     7
370
    15
100
AcDbVertex
100
AcDb2dVertex
 10
-44.07282944848966
 20
-309.8351021418997
 30
0.0
  0
VERTEX
  5
53
330
50
100
AcDbEntity
  8
0
  6
Continuous
 62
     7
370
    15
100
AcDbVertex
100
AcDb2dVertex
 10
-42.39586335968978
 20
-309.7294885554996
 30
0.0
  0
VERTEX
  5
54
330
50
100
AcDbEntity
  8
0
  6
Continuous
 62
     7
370
    15
100
AcDbVertex
100
AcDb2dVertex
 10
-40.80776564228962
 20
-309.2853402432996
 30
0.0
  0
VERTEX
  5
55
330
50
100
AcDbEntity
  8
0
  6
Continuous
 62
     7
370
    15
100
AcDbVertex
100
AcDb2dVertex
 10
-39.34576136888963
 20
-308.5129785562996
 30
0.0
  0
VERTEX
  5
56
330
50
100
AcDbEntity
  8
0
  6
Continuous
 62
     7
370
    15
100
AcDbVertex
100
AcDb2dVertex
 10
-38.04411937208978
 20
-307.4305354680997
 30
0.0
  0
VERTEX
  5
57
330
50
100
AcDbEntity
  8
0
  6
Continuous
 62
     7
370
    15
100
AcDbVertex
100
AcDb2dVertex
 10
-36.93334572388939
 20
-306.0634631454997
 30
0.0
  0
VERTEX
  5
58
330
50
100
AcDbEntity
  8
0
  6
Continuous
 62
     7
370
    15
100
AcDbVertex
100
AcDb2dVertex
 10
-36.0394795824899
 20
-304.4436805330997
 30
0.0
  0
VERTEX
  5
59
330
50
100
AcDbEntity
  8
0
  6
Continuous
 62
     7
370
    15
100
AcDbVertex
100
AcDb2dVertex
 10
-35.38346972868966
 20
-302.6092663812996
 30
0.0
  0
VERTEX
  5
5A
330
50
100
AcDbEntity
  8
0
  6
Continuous
 62
     7
370
    15
100
AcDbVertex
100
AcDb2dVertex
 10
-34.98069349028937
 20
-300.6031582010996
 30
0.0
  0
VERTEX
  5
5B
330
50
100
AcDbEntity
  8
0
  6
Continuous
 62
     7
370
    15
100
AcDbVertex
100
AcDb2dVertex
 10
-34.84059345208961
 20
-298.4723324980997
 30
0.0
  0
VERTEX
  5
5C
330
50
100
AcDbEntity
  8
0
  6
Continuous
 62
     7
370
    15
100
AcDbVertex
100
AcDb2dVertex
 10
-34.96644962368954
 20
-296.2668404090996
 30
0.0
  0
VERTEX
  5
5D
330
50
100
AcDbEntity
  8
0
  6
Continuous
 62
     7
370
    15
100
AcDbVertex
100
AcDb2dVertex
 10
-35.35531545008998
 20
-294.0382964550997
 30
0.0
  0
VERTEX
  5
5E
330
50
100
AcDbEntity
  8
0
  6
Continuous
 62
     7
370
    15
100
AcDbVertex
100
AcDb2dVertex
 10
-35.99807403128979
 20
-291.8390175870996
 30
0.0
  0
VERTEX
  5
5F
330
50
100
AcDbEntity
  8
0
  6
Continuous
 62
     7
370
    15
100
AcDbVertex
100
AcDb2dVertex
 10
-36.87966140508969
 20
-289.7204450256996
 30
0.0
  0
VERTEX
  5
60
330
50
100
AcDbEntity
  8
0
  6
Continuous
 62
     7
370
    15
100
AcDbVertex
100
AcDb2dVertex
 10
-37.97941187988944
 20
-287.7323290120996
 30
0.0
  0
VERTEX
  5
61
330
50
100
AcDbEntity
  8
0
  6
Continuous
 62
     7
370
    15
100
AcDbVertex
100
AcDb2dVertex
 10
-39.27155001468999
 20
-285.9212011104996
 30
0.0
  0
VERTEX
  5
62
330
50
100
AcDbEntity
  8
0
  6
Continuous
 62
     7
370
    15
100
AcDbVertex
100
AcDb2dVertex
 10
-40.7257901306897
 20
-284.3294997514997
 30
0.0
  0
VERTEX
  5
63
330
50
100
AcDbEntity
  8
0
  6
Continuous
 62
     7
370
    15
100
AcDbVertex
100
AcDb2dVertex
 10
-42.30804178728967
 20
-282.9946710956996
 30
0.0
  0
VERTEX
  5
64
330
50
100
AcDbEntity
  8
0
  6
Continuous
 62
     7
370
    15
100
AcDbVertex
100
AcDb2dVertex
 10
-43.98122268968963
 20
-281.9478492038996
 30
0.0
  0
VERTEX
  5
65
330
50
100
AcDbEntity
  8
0
  6
Continuous
 62
     7
370
    15
100
AcDbVertex
100
AcDb2dVertex
 10
-45.70611411868994
 20
-281.2136002586997
 30
0.0
  0
VERTEX
  5
66
330
50
100
AcDbEntity
  8
0
  6
Continuous
 62
     7
370
    15
100
AcDbVertex
100
AcDb2dVertex
 10
-47.4422841436898
 20
-280.8091988078996
 30
0.0
  0
VERTEX
  5
67
330
50
100
AcDbEntity
  8
0
  6
Continuous
 62
     7
370
    15
100
AcDbVertex
100
AcDb2dVertex
 10
-49.14903863928966
 20
-280.7441236254996
 30
0.0
  0
VERTEX
  5
68
330
50
100
AcDbEntity
  8
0
  6
Continuous
 62
     7
370
    15
100
AcDbVertex
100
AcDb2dVertex
 10
-50.78637427588946
 20
-281.0198357344996
 30
0.0
  0
VERTEX
  5
69
330
50
100
AcDbEntity
  8
0
  6
Continuous
 62
     7
370
    15
100
AcDbVertex
100
AcDb2dVertex
 10
-52.31591412008983
 20
-281.6298431000997
 30
0.0
  0
VERTEX
  5
6A
330
50
100
AcDbEntity
  8
0
  6
Continuous
 62
     7
370
    15
100
AcDbVertex
100
AcDb2dVertex
 10
-53.70180309568958
 20
-282.5600007688997
 30
0.0
  0
VERTEX
  5
6B
330
50
100
AcDbEntity
  8
0
  6
Continuous
 62
     7
370
    15
100
AcDbVertex
100
AcDb2dVertex
 10
-54.91156033028973
 20
-283.7883688588996
 30
0.0
  0
VERTEX
  5
6C
330
50
100
AcDbEntity
  8
0
  6
Continuous
 62
     7
370
    15
100
AcDbVertex
100
AcDb2dVertex
 10
-55.91683039308954
 20
-285.2861680558996
 30
0.0
  0
VERTEX
  5
6D
330
50
100
AcDbEntity
  8
0
  6
Continuous
 62
     7
370
    15
100
AcDbVertex
100
AcDb2dVertex
 10
-56.69404868668961
 20
-287.0183594398997
 30
0.0
  0
VERTEX
  5
6E
330
50
100
AcDbEntity
  8
0
  6
Continuous
 62
     7
370
    15
100
AcDbVertex
100
AcDb2dVertex
 10
-57.2250008732898
 20
-288.9442489910996
 30
0.0
  0
VERTEX
  5
6F
330
50
100
AcDbEntity
  8
0
  6
Continuous
 62
     7
370
    15
100
AcDbVertex
100
AcDb2dVertex
 10
-57.49723776788996
 20
-291.0188040524997
 30
0.0
  0
VERTEX
  5
70
330
50
100
AcDbEntity
  8
0
  6
Continuous
 62
     7
370
    15
100
AcDbVertex
100
AcDb2dVertex
 10
-57.50438058588988
 20
-293.1933170416996
 30
0.0
  0
VERTEX
  5
71
330
50
100
AcDbEntity
  8
0
  6
Continuous
 62
     7
370
    15
100
AcDbVertex
100
AcDb2dVertex
 10
-57.2462609738899
 20
-295.4168989850996
 30
0.0
  0
VERTEX
  5
72
330
50
100
AcDbEntity
  8
0
  6
Continuous
 62
     7
370
    15
100
AcDbVertex
100
AcDb2dVertex
 10
-56.72893097468967
 20
-297.6373250558996
 30
0.0
  0
VERTEX
  5
73
330
50
100
AcDbEntity
  8
0
  6
Continuous
 62
     7
370
    15
100
AcDbVertex
100
AcDb2dVertex
 10
-55.96451578688938
 20
-299.8025950220996
 30
0.0
  0
VERTEX
  5
74
330
50
100
AcDbEntity
  8
0
  6
Continuous
 62
     7
370
    15
100
AcDbVertex
100
AcDb2dVertex
 10
-54.97093042848964
 20
-301.8620166754997
 30
0.0
  0
VERTEX
  5
75
330
50
100
AcDbEntity
  8
0
  6
Continuous
 62
     7
370
    15
100
AcDbVertex
100
AcDb2dVertex
 10
-53.77146711328977
 20
-303.7672063288996
 30
0.0
  0
VERTEX
  5
76
330
50
100
AcDbEntity
  8
0
  6
Continuous
 62
     7
370
    15
100
AcDbVertex
100
AcDb2dVertex
 10
-52.39423708668973
 20
-305.4736319286997
 30
0.0
  0
VERTEX
  5
77
330
50
100
AcDbEntity
  8
0
  6
Continuous
 62
     7
370
    15
100
AcDbVertex
100
AcDb2dVertex
 10
-50.87152249608961
 20
-306.9412162154997
 30
0.0
  0
VERTEX
  5
78
330
50
100
AcDbEntity
  8
0
  6
Continuous
 62
     7
370
    15
100
AcDbVertex
100
AcDb2dVertex
 10
-49.23901673408945
 20
-308.1355311016997
 30
0.0
  0
VERTEX
  5
79
330
50
100
AcDbEntity
  8
0
  6
Continuous
 62
     7
370
    15
100
AcDbVertex
100
AcDb2dVertex
 10
-47.53498091728979
 20
-309.0286724394996
 30
0.0
  0
VERTEX
  5
7A
330
50
100
AcDbEntity
  8
0
  6
Continuous
 62
     7
370
    15
100
AcDbVertex
100
AcDb2dVertex
 10
-45.7993570738894
 20
-309.5996926800996
 30
0.0
  0
SEQEND
  5
7B
330
50
100
AcDbEntity
  8
0
  6
Continuous
 62
     7
370
    15
  0
POLYLINE
  5
7C
330
24
100
AcDbEntity
  8
0
  6
Continuous
 62
     7
370
    15
100
AcDb2dPolyline
 66
     1
 10
0.0
 20
0.0
 30
0.0
 75
     5
  0
VERTEX
  5
7D
330
7C
100
AcDbEntity
  8
0
  6
Continuous
 62
     7
370
    15
100
AcDbVertex
100
AcDb2dVertex
 10
-43.43262136688953
 20
-396.9219199002997
 30
0.0
  0
VERTEX
  5
7E
330
7C
100
AcDbEntity
  8
0
  6
Continuous
 62
     7
370
    15
100
AcDbVertex
100
AcDb2dVertex
 10
-42.30388614268976
 20
-397.0186524140996
 30
0.0
  0
VERTEX
  5
7F
330
7C
100
AcDbEntity
  8
0
  6
Continuous
 62
     7
370
    15
100
AcDbVertex
100
AcDb2dVertex
 10
-41.2450643236897
 20
-396.7757824968996
 30
0.0
  0
VERTEX
  5
80
330
7C
100
AcDbEntity
  8
0
  6
Continuous
 62
     7
370
    15
100
AcDbVertex
100
AcDb2dVertex
 10
-40.31323885388964
 20
-396.2063541882997
 30
0.0
  0
VERTEX
  5
81
330
7C
100
AcDbEntity
  8
0
  6
Continuous
 62
     7
370
    15
100
AcDbVertex
100
AcDb2dVertex
 10
-39.55864286668965
 20
-395.3411163958996
 30
0.0
  0
VERTEX
  5
82
330
7C
100
AcDbEntity
  8
0
  6
Continuous
 62
     7
370
    15
100
AcDbVertex
100
AcDb2dVertex
 10
-39.02195876208988
 20
-394.2266649554996
 30
0.0
  0
VERTEX
  5
83
330
7C
100
AcDbEntity
  8
0
  6
Continuous
 62
     7
370
    15
100
AcDbVertex
100
AcDb2dVertex
 10
-38.73211711248986
 20
-392.9231291228996
 30
0.0
  0
VERTEX
  5
84
330
7C
100
AcDbEntity
  8
0
  6
Continuous
 62
     7
370
    15
100
AcDbVertex
100
AcDb2dVertex
 10
-38.70474688048979
 20
-391.5006889224996
 30
0.0
  0
VERTEX
  5
85
330
7C
100
AcDbEntity
  8
0
  6
Continuous
 62
     7
370
    15
100
AcDbVertex
100
AcDb2dVertex
 10
-38.94132123348972
 20
-390.0361000464997
 30
0.0
  0
VERTEX
  5
86
330
7C
100
AcDbEntity
  8
0
  6
Continuous
 62
     7
370
    15
100
AcDbVertex
100
AcDb2dVertex
 10
-39.42908509548978
 20
-388.6083583770996
 30
0.0
  0
VERTEX
  5
87
330
7C
100
AcDbEntity
  8
0
  6
Continuous
 62
     7
370
    15
100
AcDbVertex
100
AcDb2dVertex
 10
-40.1417451834899
 20
-387.2943564754996
 30
0.0
  0
VERTEX
  5
88
330
7C
100
AcDbEntity
  8
0
  6
Continuous
 62
     7
370
    15
100
AcDbVertex
100
AcDb2dVertex
 10
-41.04088216488971
 20
-386.1649371126996
 30
0.0
  0
VERTEX
  5
89
330
7C
100
AcDbEntity
  8
0
  6
Continuous
 62
     7
370
    15
100
AcDbVertex
100
AcDb2dVertex
 10
-42.07802029708945
 20
-385.2810762724997
 30
0.0
  0
VERTEX
  5
8A
330
7C
100
AcDbEntity
  8
0
  6
Continuous
 62
     7
370
    15
100
AcDbVertex
100
AcDb2dVertex
 10
-43.19725157568963
 20
-384.6902761408996
 30
0.0
  0
VERTEX
  5
8B
330
7C
100
AcDbEntity
  8
0
  6
Continuous
 62
     7
370
    15
100
AcDbVertex
100
AcDb2dVertex
 10
-44.33823441729
 20
-384.4245100524997
 30
0.0
  0
VERTEX
  5
8C
330
7C
100
AcDbEntity
  8
0
  6
Continuous
 62
     7
370
    15
100
AcDbVertex
100
AcDb2dVertex
 10
-45.43945826768994
 20
-384.4981054962996
 30
0.0
  0
VERTEX
  5
8D
330
7C
100
AcDbEntity
  8
0
  6
Continuous
 62
     7
370
    15
100
AcDbVertex
100
AcDb2dVertex
 10
-46.44155900148998
 20
-384.9069718692996
 30
0.0
  0
VERTEX
  5
8E
330
7C
100
AcDbEntity
  8
0
  6
Continuous
 62
     7
370
    15
100
AcDbVertex
100
AcDb2dVertex
 10
-47.29050952728939
 20
-385.6292138740997
 30
0.0
  0
VERTEX
  5
8F
330
7C
100
AcDbEntity
  8
0
  6
Continuous
 62
     7
370
    15
100
AcDbVertex
100
AcDb2dVertex
 10
-47.94054446728968
 20
-386.6258068592996
 30
0.0
  0
VERTEX
  5
90
330
7C
100
AcDbEntity
  8
0
  6
Continuous
 62
     7
370
    15
100
AcDbVertex
100
AcDb2dVertex
 10
-48.35662088108974
 20
-387.8430194254996
 30
0.0
  0
VERTEX
  5
91
330
7C
100
AcDbEntity
  8
0
  6
Continuous
 62
     7
370
    15
100
AcDbVertex
100
AcDb2dVertex
 10
-48.51630598248938
 20
-389.2153086438996
 30
0.0
  0
VERTEX
  5
92
330
7C
100
AcDbEntity
  8
0
  6
Continuous
 62
     7
370
    15
100
AcDbVertex
100
AcDb2dVertex
 10
-48.41099195448977
 20
-390.6686546350996
 30
0.0
  0
VERTEX
  5
93
330
7C
100
AcDbEntity
  8
0
  6
Continuous
 62
     7
370
    15
100
AcDbVertex
100
AcDb2dVertex
 10
-48.04635780888965
 20
-392.1246357680997
 30
0.0
  0
VERTEX
  5
94
330
7C
100
AcDbEntity
  8
0
  6
Continuous
 62
     7
370
    15
100
AcDbVertex
100
AcDb2dVertex
 10
-47.44205951188941
 20
-393.5048531942996
 30
0.0
  0
VERTEX
  5
95
330
7C
100
AcDbEntity
  8
0
  6
Continuous
 62
     7
370
    15
100
AcDbVertex
100
AcDb2dVertex
 10
-46.63067537328961
 20
-394.7348505584997
 30
0.0
  0
VERTEX
  5
96
330
7C
100
AcDbEntity
  8
0
  6
Continuous
 62
     7
370
    15
100
AcDbVertex
100
AcDb2dVertex
 10
-45.65594658908994
 20
-395.7483674616996
 30
0.0
  0
VERTEX
  5
97
330
7C
100
AcDbEntity
  8
0
  6
Continuous
 62
     7
370
    15
100
AcDbVertex
100
AcDb2dVertex
 10
-44.57042197448972
 20
-396.4907142712996
 30
0.0
  0
VERTEX
  5
98
330
7C
100
AcDbEntity
  8
0
  6
Continuous
 62
     7
370
    15
100
AcDbVertex
100
AcDb2dVertex
 10
-43.43262136688953
 20
-396.9219199002997
 30
0.0
  0
SEQEND
  5
99
330
7C
100
AcDbEntity
  8
0
  6
Continuous
 62
     7
370
    15
  0
POLYLINE
  5
9A
330
24
100
AcDbEntity
  8
0
  6
Continuous
 62
     7
370
    15
100
AcDb2dPolyline
 66
     1
 10
0.0
 20
0.0
 30
0.0
 75
     5
  0
VERTEX
  5
9B
330
9A
100
AcDbEntity
  8
0
  6
Continuous
 62
     7
370
    15
100
AcDbVertex
100
AcDb2dVertex
 10
-65.78469836748936
 20
427.7722531299003
 30
0.0
  0
VERTEX
  5
9C
330
9A
100
AcDbEntity
  8
0
  6
Continuous
 62
     7
370
    15
100
AcDbVertex
100
AcDb2dVertex
 10
-65.30408124928944
 20
427.5411974505002
 30
0.0
  0
VERTEX
  5
9D
330
9A
100
AcDbEntity
  8
0
  6
Continuous
 62
     7
370
    15
100
AcDbVertex
100
AcDb2dVertex
 10
-64.89013621408994
 20
427.1055879841003
 30
0.0
  0
VERTEX
  5
9E
330
9A
100
AcDbEntity
  8
0
  6
Continuous
 62
     7
370
    15
100
AcDbVertex
100
AcDb2dVertex
 10
-64.6058827578894
 20
426.5317454987003
 30
0.0
  0
VERTEX
  5
9F
330
9A
100
AcDbEntity
  8
0
  6
Continuous
 62
     7
370
    15
100
AcDbVertex
100
AcDb2dVertex
 10
-64.49459582168983
 20
425.9070306807002
 30
0.0
  0
VERTEX
  5
A0
330
9A
100
AcDbEntity
  8
0
  6
Continuous
 62
     7
370
    15
100
AcDbVertex
100
AcDb2dVertex
 10
-64.57321779588973
 20
425.3265508383004
 30
0.0
  0
VERTEX
  5
A1
330
9A
100
AcDbEntity
  8
0
  6
Continuous
 62
     7
370
    15
100
AcDbVertex
100
AcDb2dVertex
 10
-64.82977924248952
 20
424.8786789249004
 30
0.0
  0
VERTEX
  5
A2
330
9A
100
AcDbEntity
  8
0
  6
Continuous
 62
     7
370
    15
100
AcDbVertex
100
AcDb2dVertex
 10
-65.22522099008974
 20
424.6315977621005
 30
0.0
  0
VERTEX
  5
A3
330
9A
100
AcDbEntity
  8
0
  6
Continuous
 62
     7
370
    15
100
AcDbVertex
100
AcDb2dVertex
 10
-65.69934067208978
 20
424.6229263777004
 30
0.0
  0
VERTEX
  5
A4
330
9A
100
AcDbEntity
  8
0
  6
Continuous
 62
     7
370
    15
100
AcDbVertex
100
AcDb2dVertex
 10
-66.17995779028969
 20
424.8539820571004
 30
0.0
  0
VERTEX
  5
A5
330
9A
100
AcDbEntity
  8
0
  6
Continuous
 62
     7
370
    15
100
AcDbVertex
100
AcDb2dVertex
 10
-66.59390282548965
 20
425.2895915233003
 30
0.0
  0
VERTEX
  5
A6
330
9A
100
AcDbEntity
  8
0
  6
Continuous
 62
     7
370
    15
100
AcDbVertex
100
AcDb2dVertex
 10
-66.87815628148964
 20
425.8634340089004
 30
0.0
  0
VERTEX
  5
A7
330
9A
100
AcDbEntity
  8
0
  6
Continuous
 62
     7
370
    15
100
AcDbVertex
100
AcDb2dVertex
 10
-66.98944321788976
 20
426.4881488269004
 30
0.0
  0
VERTEX
  5
A8
330
9A
100
AcDbEntity
  8
0
  6
Continuous
 62
     7
370
    15
100
AcDbVertex
100
AcDb2dVertex
 10
-66.91082124368985
 20
427.0686286691005
 30
0.0
  0
VERTEX
  5
A9
330
9A
100
AcDbEntity
  8
0
  6
Continuous
 62
     7
370
    15
100
AcDbVertex
100
AcDb2dVertex
 10
-66.65425979708961
 20
427.5165005827002
 30
0.0
  0
VERTEX
  5
AA
330
9A
100
AcDbEntity
  8
0
  6
Continuous
 62
     7
370
    15
100
AcDbVertex
100
AcDb2dVertex
 10
-66.25881804948985
 20
427.7635817455005
 30
0.0
  0
VERTEX
  5
AB
330
9A
100
AcDbEntity
  8
0
  6
Continuous
 62
     7
370
    15
100
AcDbVertex
100
AcDb2dVertex
 10
-65.78469836748936
 20
427.7722531299003
 30
0.0
  0
SEQEND
  5
AC
330
9A
100
AcDbEntity
  8
0
  6
Continuous
 62
     7
370
    15
  0
POLYLINE
  5
AD
330
24
100
AcDbEntity
  8
0
  6
Continuous
 62
     7
370
    15
100
AcDb2dPolyline
 66
     1
 10
0.0
 20
0.0
 30
0.0
 75
     5
  0
VERTEX
  5
AE
330
AD
100
AcDbEntity
  8
0
  6
Continuous
 62
     7
370
    15
100
AcDbVertex
100
AcDb2dVertex
 10
-63.08429112608964
 20
328.1390012947004
 30
0.0
  0
VERTEX
  5
AF
330
AD
100
AcDbEntity
  8
0
  6
Continuous
 62
     7
370
    15
100
AcDbVertex
100
AcDb2dVertex
 10
-62.11998870668994
 20
328.0814316673004
 30
0.0
  0
VERTEX
  5
B0
330
AD
100
AcDbEntity
  8
0
  6
Continuous
 62
     7
370
    15
100
AcDbVertex
100
AcDb2dVertex
 10
-61.23631655308999
 20
328.3643356537004
 30
0.0
  0
VERTEX
  5
B1
330
AD
100
AcDbEntity
  8
0
  6
Continuous
 62
     7
370
    15
100
AcDbVertex
100
AcDb2dVertex
 10
-60.49881198248967
 20
328.9667184943003
 30
0.0
  0
VERTEX
  5
B2
330
AD
100
AcDbEntity
  8
0
  6
Continuous
 62
     7
370
    15
100
AcDbVertex
100
AcDb2dVertex
 10
-59.96217319348979
 20
329.8439207003003
 30
0.0
  0
VERTEX
  5
B3
330
AD
100
AcDbEntity
  8
0
  6
Continuous
 62
     7
370
    15
100
AcDbVertex
100
AcDb2dVertex
 10
-59.66619945128959
 20
330.9308763889003
 30
0.0
  0
VERTEX
  5
B4
330
AD
100
AcDbEntity
  8
0
  6
Continuous
 62
     7
370
    15
100
AcDbVertex
100
AcDb2dVertex
 10
-59.63284268788938
 20
332.1469729453004
 30
0.0
  0
VERTEX
  5
B5
330
AD
100
AcDbEntity
  8
0
  6
Continuous
 62
     7
370
    15
100
AcDbVertex
100
AcDb2dVertex
 10
-59.86457579368961
 20
333.4020157803004
 30
0.0
  0
VERTEX
  5
B6
330
AD
100
AcDbEntity
  8
0
  6
Continuous
 62
     7
370
    15
100
AcDbVertex
100
AcDb2dVertex
 10
-60.34421280588994
 20
334.6029269425003
 30
0.0
  0
VERTEX
  5
B7
330
AD
100
AcDbEntity
  8
0
  6
Continuous
 62
     7
370
    15
100
AcDbVertex
100
AcDb2dVertex
 10
-61.03618112968969
 20
335.6606406387004
 30
0.0
  0
VERTEX
  5
B8
330
AD
100
AcDbEntity
  8
0
  6
Continuous
 62
     7
370
    15
100
AcDbVertex
100
AcDb2dVertex
 10
-61.88916064208969
 20
336.4967095053003
 30
0.0
  0
VERTEX
  5
B9
330
AD
100
AcDbEntity
  8
0
  6
Continuous
 62
     7
370
    15
100
AcDbVertex
100
AcDb2dVertex
 10
-62.83988985008945
 20
337.0491299569003
 30
0.0
  0
VERTEX
  5
BA
330
AD
100
AcDbEntity
  8
0
  6
Continuous
 62
     7
370
    15
100
AcDbVertex
100
AcDb2dVertex
 10
-63.81785732689004
 20
337.2769253115005
 30
0.0
  0
VERTEX
  5
BB
330
AD
100
AcDbEntity
  8
0
  6
Continuous
 62
     7
370
    15
100
AcDbVertex
100
AcDb2dVertex
 10
-64.7505316984897
 20
337.1632010297003
 30
0.0
  0
VERTEX
  5
BC
330
AD
100
AcDbEntity
  8
0
  6
Continuous
 62
     7
370
    15
100
AcDbVertex
100
AcDb2dVertex
 10
-65.56874091748968
 20
336.7163976945003
 30
0.0
  0
VERTEX
  5
BD
330
AD
100
AcDbEntity
  8
0
  6
Continuous
 62
     7
370
    15
100
AcDbVertex
100
AcDb2dVertex
 10
-66.21180203788971
 20
335.9696488441004
 30
0.0
  0
VERTEX
  5
BE
330
AD
100
AcDbEntity
  8
0
  6
Continuous
 62
     7
370
    15
100
AcDbVertex
100
AcDb2dVertex
 10
-66.63202224588976
 20
334.9783390229004
 30
0.0
  0
VERTEX
  5
BF
330
AD
100
AcDbEntity
  8
0
  6
Continuous
 62
     7
370
    15
100
AcDbVertex
100
AcDb2dVertex
 10
-66.7982356018896
 20
333.8159887953004
 30
0.0
  0
VERTEX
  5
C0
330
AD
100
AcDbEntity
  8
0
  6
Continuous
 62
     7
370
    15
100
AcDbVertex
100
AcDb2dVertex
 10
-66.69811529628977
 20
332.5688017813004
 30
0.0
  0
VERTEX
  5
C1
330
AD
100
AcDbEntity
  8
0
  6
Continuous
 62
     7
370
    15
100
AcDbVertex
100
AcDb2dVertex
 10
-66.33908587748955
 20
331.3292779543003
 30
0.0
  0
VERTEX
  5
C2
330
AD
100
AcDbEntity
  8
0
  6
Continuous
 62
     7
370
    15
100
AcDbVertex
100
AcDb2dVertex
 10
-65.74777573488963
 20
330.1893456137004
 30
0.0
  0
VERTEX
  5
C3
330
AD
100
AcDbEntity
  8
0
  6
Continuous
 62
     7
370
    15
100
AcDbVertex
100
AcDb2dVertex
 10
-64.96803927428972
 20
329.2335558687003
 30
0.0
  0
VERTEX
  5
C4
330
AD
100
AcDbEntity
  8
0
  6
Continuous
 62
     7
370
    15
100
AcDbVertex
100
AcDb2dVertex
 10
-64.05770595148978
 20
328.5327789741004
 30
0.0
  0
VERTEX
  5
C5
330
AD
100
AcDbEntity
  8
0
  6
Continuous
 62
     7
370
    15
100
AcDbVertex
100
AcDb2dVertex
 10
-63.08429112608964
 20
328.1390012947004
 30
0.0
  0
SEQEND
  5
C6
330
AD
100
AcDbEntity
  8
0
  6
Continuous
 62
     7
370
    15
  0
LINE
  5
C7
330
24
100
AcDbEntity
  8
0
  6
Continuous
 62
     7
370
    15
100
AcDbLine
 10
29.73990017191009
 20
-427.7810096748997
 30
0.0
 11
-15.65073462568979
 21
-444.5267647016997
 31
0.0
  0
LINE
  5
C8
330
24
100
AcDbEntity
  8
0
  6
Continuous
 62
     7
370
    15
100
AcDbLine
 10
-64.91448706668997
 20
424.9124787549003
 30
0.0
 11
-64.81538393108976
 21
424.8943549133003
 31
0.0
  0
ARC
  5
C9
330
24
100
AcDbEntity
  8
0
  6
Continuous
 62
     7
370
    15
100
AcDbCircle
 10
-64.3298901484899
 20
426.7115668317003
 30
0.0
 40
1.891684821748295
100
AcDbArc
 50
145.2294538026007
 51
251.998912097304
  0
POLYLINE
  5
CA
330
24
100
AcDbEntity
  8
0
  6
Continuous
 62
     7
370
    15
100
AcDb2dPolyline
 66
     1
 10
0.0
 20
0.0
 30
0.0
 75
     5
  0
VERTEX
  5
CB
330
CA
100
AcDbEntity
  8
0
  6
Continuous
 62
     7
370
    15
100
AcDbVertex
100
AcDb2dVertex
 10
-68.5411491880899
 20
-432.3252335062995
 30
0.0
  0
VERTEX
  5
CC
330
CA
100
AcDbEntity
  8
0
  6
Continuous
 62
     7
370
    15
100
AcDbVertex
100
AcDb2dVertex
 10
-68.58162795408988
 20
-432.3135363502997
 30
0.0
  0
VERTEX
  5
CD
330
CA
100
AcDbEntity
  8
0
  6
Continuous
 62
     7
370
    15
100
AcDbVertex
100
AcDb2dVertex
 10
-68.61300840828962
 20
-432.2995064014996
 30
0.0
  0
VERTEX
  5
CE
330
CA
100
AcDbEntity
  8
0
  6
Continuous
 62
     7
370
    15
100
AcDbVertex
100
AcDb2dVertex
 10
-68.63408831508958
 20
-432.2836832492996
 30
0.0
  0
VERTEX
  5
CF
330
CA
100
AcDbEntity
  8
0
  6
Continuous
 62
     7
370
    15
100
AcDbVertex
100
AcDb2dVertex
 10
-68.6440549386897
 20
-432.2666755966997
 30
0.0
  0
VERTEX
  5
D0
330
CA
100
AcDbEntity
  8
0
  6
Continuous
 62
     7
370
    15
100
AcDbVertex
100
AcDb2dVertex
 10
-68.64482649848959
 20
-432.2609733576996
 30
0.0
  0
SEQEND
  5
D1
330
CA
100
AcDbEntity
  8
0
  6
Continuous
 62
     7
370
    15
  0
POLYLINE
  5
D2
330
24
100
AcDbEntity
  8
0
  6
Continuous
 62
     7
370
    15
100
AcDb2dPolyline
 66
     1
 10
0.0
 20
0.0
 30
0.0
 75
     5
  0
VERTEX
  5
D3
330
D2
100
AcDbEntity
  8
0
  6
Continuous
 62
     7
370
    15
100
AcDbVertex
100
AcDb2dVertex
 10
29.81298615991055
 20
-427.7200523434997
 30
0.0
  0
VERTEX
  5
D4
330
D2
100
AcDbEntity
  8
0
  6
Continuous
 62
     7
370
    15
100
AcDbVertex
100
AcDb2dVertex
 10
29.81068793151063
 20
-427.7318891726997
 30
0.0
  0
VERTEX
  5
D5
330
D2
100
AcDbEntity
  8
0
  6
Continuous
 62
     7
370
    15
100
AcDbVertex
100
AcDb2dVertex
 10
29.79772395011024
 20
-427.7492864132996
 30
0.0
  0
VERTEX
  5
D6
330
D2
100
AcDbEntity
  8
0
  6
Continuous
 62
     7
370
    15
100
AcDbVertex
100
AcDb2dVertex
 10
29.77382313911004
 20
-427.7658724034997
 30
0.0
  0
VERTEX
  5
D7
330
D2
100
AcDbEntity
  8
0
  6
Continuous
 62
     7
370
    15
100
AcDbVertex
100
AcDb2dVertex
 10
29.73990017191009
 20
-427.7810096748997
 30
0.0
  0
SEQEND
  5
D8
330
D2
100
AcDbEntity
  8
0
  6
Continuous
 62
     7
370
    15
  0
POLYLINE
  5
D9
330
24
100
AcDbEntity
  8
0
  6
Continuous
 62
     7
370
    15
100
AcDb2dPolyline
 66
     1
 10
0.0
 20
0.0
 30
0.0
 75
     5
  0
VERTEX
  5
DA
330
D9
100
AcDbEntity
  8
0
  6
Continuous
 62
     7
370
    15
100
AcDbVertex
100
AcDb2dVertex
 10
-62.29943752068938
 20
328.4285536719003
 30
0.0
  0
VERTEX
  5
DB
330
D9
100
AcDbEntity
  8
0
  6
Continuous
 62
     7
370
    15
100
AcDbVertex
100
AcDb2dVertex
 10
-61.33513510128968
 20
328.3709840445003
 30
0.0
  0
VERTEX
  5
DC
330
D9
100
AcDbEntity
  8
0
  6
Continuous
 62
     7
370
    15
100
AcDbVertex
100
AcDb2dVertex
 10
-61.18309672788963
 20
328.3942421379004
 30
0.0
  0
SEQEND
  5
DD
330
D9
100
AcDbEntity
  8
0
  6
Continuous
 62
     7
370
    15
  0
POLYLINE
  5
DE
330
24
100
AcDbEntity
  8
0
  6
Continuous
 62
     7
370
    15
100
AcDb2dPolyline
 66
     1
 10
0.0
 20
0.0
 30
0.0
 75
     5
  0
VERTEX
  5
DF
330
DE
100
AcDbEntity
  8
0
  6
Continuous
 62
     7
370
    15
100
AcDbVertex
100
AcDb2dVertex
 10
-64.44635765788952
 20
337.2395620947004
 30
0.0
  0
VERTEX
  5
E0
330
DE
100
AcDbEntity
  8
0
  6
Continuous
 62
     7
370
    15
100
AcDbVertex
100
AcDb2dVertex
 10
-64.78388731208942
 20
337.0059500717005
 30
0.0
  0
VERTEX
  5
E1
330
DE
100
AcDbEntity
  8
0
  6
Continuous
 62
     7
370
    15
100
AcDbVertex
100
AcDb2dVertex
 10
-65.42694843248991
 20
336.2592012213004
 30
0.0
  0
VERTEX
  5
E2
330
DE
100
AcDbEntity
  8
0
  6
Continuous
 62
     7
370
    15
100
AcDbVertex
100
AcDb2dVertex
 10
-65.8471686404895
 20
335.2678914001003
 30
0.0
  0
VERTEX
  5
E3
330
DE
100
AcDbEntity
  8
0
  6
Continuous
 62
     7
370
    15
100
AcDbVertex
100
AcDb2dVertex
 10
-66.0133819964898
 20
334.1055411725004
 30
0.0
  0
VERTEX
  5
E4
330
DE
100
AcDbEntity
  8
0
  6
Continuous
 62
     7
370
    15
100
AcDbVertex
100
AcDb2dVertex
 10
-65.9132616910896
 20
332.8583541585003
 30
0.0
  0
VERTEX
  5
E5
330
DE
100
AcDbEntity
  8
0
  6
Continuous
 62
     7
370
    15
100
AcDbVertex
100
AcDb2dVertex
 10
-65.55423227208975
 20
331.6188303315002
 30
0.0
  0
VERTEX
  5
E6
330
DE
100
AcDbEntity
  8
0
  6
Continuous
 62
     7
370
    15
100
AcDbVertex
100
AcDb2dVertex
 10
-64.96292212948937
 20
330.4788979909004
 30
0.0
  0
VERTEX
  5
E7
330
DE
100
AcDbEntity
  8
0
  6
Continuous
 62
     7
370
    15
100
AcDbVertex
100
AcDb2dVertex
 10
-64.18318566888992
 20
329.5231082457003
 30
0.0
  0
VERTEX
  5
E8
330
DE
100
AcDbEntity
  8
0
  6
Continuous
 62
     7
370
    15
100
AcDbVertex
100
AcDb2dVertex
 10
-63.27285234608952
 20
328.8223313513004
 30
0.0
  0
VERTEX
  5
E9
330
DE
100
AcDbEntity
  8
0
  6
Continuous
 62
     7
370
    15
100
AcDbVertex
100
AcDb2dVertex
 10
-62.29943752068938
 20
328.4285536719003
 30
0.0
  0
SEQEND
  5
EA
330
DE
100
AcDbEntity
  8
0
  6
Continuous
 62
     7
370
    15
  0
LINE
  5
EB
330
24
100
AcDbEntity
  8
0
  6
Continuous
 62
     7
370
    15
100
AcDbLine
 10
-55.81111176768981
 20
-295.5966388370996
 30
0.0
 11
-55.70921973468957
 21
-296.1779766594996
 31
0.0
  0
SPLINE
  5
EC
330
24
100
AcDbEntity
  8
0
  6
Continuous
 62
     7
370
    15
100
AcDbSpline
210
0.0
220
0.0
230
1.0
 70
     8
 71
     2
 72
    10
 73
     7
 74
     0
 42
0.000000001
 43
0.000001
 40
0.0
 40
0.0
 40
0.0
 40
1.0
 40
1.0
 40
2.0
 40
2.0
 40
3.0
 40
3.0
 40
3.0
 10
-55.70922027522273
 20
-296.1779574912276
 30
0.0
 10
-55.70627948251162
 20
-296.2009978374624
 30
0.0
 10
-55.7033386898005
 20
-296.2240381836973
 30
0.0
 10
-55.49236592557681
 20
-297.8476709601573
 30
0.0
 10
-55.16775571489315
 20
-299.4458131910851
 30
0.0
 10
-55.16309318588527
 20
-299.4685102805688
 30
0.0
 10
-55.1584306568774
 20
-299.4912073700526
 30
0.0
  0
LINE
  5
ED
330
24
100
AcDbEntity
  8
0
  6
Continuous
 62
     7
370
    15
100
AcDbLine
 10
-55.15842999808991
 20
-299.4912013714996
 30
0.0
 11
-55.06433758648963
 21
-299.7847671720996
 31
0.0
  0
POLYLINE
  5
EE
330
24
100
AcDbEntity
  8
0
  6
Continuous
 62
     7
370
    15
100
AcDb2dPolyline
 66
     1
 10
0.0
 20
0.0
 30
0.0
 75
     5
  0
VERTEX
  5
EF
330
EE
100
AcDbEntity
  8
0
  6
Continuous
 62
     7
370
    15
100
AcDbVertex
100
AcDb2dVertex
 10
-55.06433758648963
 20
-299.7847671720996
 30
0.0
  0
VERTEX
  5
F0
330
EE
100
AcDbEntity
  8
0
  6
Continuous
 62
     7
370
    15
100
AcDbVertex
100
AcDb2dVertex
 10
-53.97813315468956
 20
-301.9393001558996
 30
0.0
  0
VERTEX
  5
F1
330
EE
100
AcDbEntity
  8
0
  6
Continuous
 62
     7
370
    15
100
AcDbVertex
100
AcDb2dVertex
 10
-52.66734466528978
 20
-303.9119656774997
 30
0.0
  0
VERTEX
  5
F2
330
EE
100
AcDbEntity
  8
0
  6
Continuous
 62
     7
370
    15
100
AcDbVertex
100
AcDb2dVertex
 10
-51.16630132168974
 20
-305.6510744196996
 30
0.0
  0
VERTEX
  5
F3
330
EE
100
AcDbEntity
  8
0
  6
Continuous
 62
     7
370
    15
100
AcDbVertex
100
AcDb2dVertex
 10
-49.51431121188979
 20
-307.1111254766997
 30
0.0
  0
VERTEX
  5
F4
330
EE
100
AcDbEntity
  8
0
  6
Continuous
 62
     7
370
    15
100
AcDbVertex
100
AcDb2dVertex
 10
-47.75463749028985
 20
-308.2538926898997
 30
0.0
  0
VERTEX
  5
F5
330
EE
100
AcDbEntity
  8
0
  6
Continuous
 62
     7
370
    15
100
AcDbVertex
100
AcDb2dVertex
 10
-45.93336472348973
 20
-309.0494235198996
 30
0.0
  0
VERTEX
  5
F6
330
EE
100
AcDbEntity
  8
0
  6
Continuous
 62
     7
370
    15
100
AcDbVertex
100
AcDb2dVertex
 10
-44.09818915468976
 20
-309.4768860678997
 30
0.0
  0
VERTEX
  5
F7
330
EE
100
AcDbEntity
  8
0
  6
Continuous
 62
     7
370
    15
100
AcDbVertex
100
AcDb2dVertex
 10
-42.29717166088939
 20
-309.5250856416997
 30
0.0
  0
VERTEX
  5
F8
330
EE
100
AcDbEntity
  8
0
  6
Continuous
 62
     7
370
    15
100
AcDbVertex
100
AcDb2dVertex
 10
-40.60701937888952
 20
-309.2019865536997
 30
0.0
  0
SEQEND
  5
F9
330
EE
100
AcDbEntity
  8
0
  6
Continuous
 62
     7
370
    15
  0
ARC
  5
FA
330
24
100
AcDbEntity
  8
0
  6
Continuous
 62
     7
370
    15
100
AcDbCircle
 10
-38.14101024068977
 20
-291.7529966262996
 30
0.0
 40
18.0833092497453
100
AcDbArc
 50
170.8331254572
 51
192.2719436956
  0
LINE
  5
FB
330
24
100
AcDbEntity
  8
0
  6
Continuous
 62
     7
370
    15
100
AcDbLine
 10
-55.92103056648956
 20
-288.3630805854996
 30
0.0
 11
-55.99336914148979
 21
-288.8721364948996
 31
0.0
  0
SPLINE
  5
FC
330
24
100
AcDbEntity
  8
0
  6
Continuous
 62
     7
370
    15
100
AcDbSpline
210
0.0
220
0.0
230
1.0
 70
     8
 71
     2
 72
    11
 73
     8
 74
     0
 42
0.000000001
 43
0.000001
 40
0.0
 40
0.0
 40
0.0
 40
1.0
 40
1.0
 40
2.0
 40
3.0
 40
3.0
 40
4.0
 40
4.0
 40
4.0
 10
-55.52853213372818
 20
-285.8360767263276
 30
0.0
 10
-55.53178949188363
 20
-285.8502913239863
 30
0.0
 10
-55.53504685003908
 20
-285.864505921645
 30
0.0
 10
-55.63170365256191
 20
-286.2938971297117
 30
0.0
 10
-55.83459050970613
 20
-287.4714025727623
 30
0.0
 10
-55.91779272643306
 20
-288.3287117892813
 30
0.0
 10
-55.91941175681758
 20
-288.3458925011336
 30
0.0
 10
-55.9210307872021
 20
-288.3630732129859
 30
0.0
  0
LINE
  5
FD
330
24
100
AcDbEntity
  8
0
  6
Continuous
 62
     7
370
    15
100
AcDbLine
 10
-55.44839378548967
 20
-285.6147681452996
 30
0.0
 11
-55.52853198188986
 21
-285.8360520324997
 31
0.0
  0
ARC
  5
FE
330
24
100
AcDbEntity
  8
0
  6
Continuous
 62
     7
370
    15
100
AcDbCircle
 10
-47.29146080328964
 20
-289.1768134882996
 30
0.0
 40
8.900770904859614
100
AcDbArc
 50
114.5019032934004
 51
156.4096212174005
  0
POLYLINE
  5
FF
330
24
100
AcDbEntity
  8
0
  6
Continuous
 62
     7
370
    15
100
AcDb2dPolyline
 66
     1
 10
0.0
 20
0.0
 30
0.0
 75
     5
  0
VERTEX
  5
100
330
FF
100
AcDbEntity
  8
0
  6
Continuous
 62
     7
370
    15
100
AcDbVertex
100
AcDb2dVertex
 10
-42.64776776148973
 20
-396.6323675230996
 30
0.0
  0
VERTEX
  5
101
330
FF
100
AcDbEntity
  8
0
  6
Continuous
 62
     7
370
    15
100
AcDbVertex
100
AcDb2dVertex
 10
-41.51903253728996
 20
-396.7291000368996
 30
0.0
  0
VERTEX
  5
102
330
FF
100
AcDbEntity
  8
0
  6
Continuous
 62
     7
370
    15
100
AcDbVertex
100
AcDb2dVertex
 10
-40.9676111732896
 20
-396.6475542186997
 30
0.0
  0
SEQEND
  5
103
330
FF
100
AcDbEntity
  8
0
  6
Continuous
 62
     7
370
    15
  0
POLYLINE
  5
104
330
24
100
AcDbEntity
  8
0
  6
Continuous
 62
     7
370
    15
100
AcDb2dPolyline
 66
     1
 10
0.0
 20
0.0
 30
0.0
 75
     5
  0
VERTEX
  5
105
330
104
100
AcDbEntity
  8
0
  6
Continuous
 62
     7
370
    15
100
AcDbVertex
100
AcDb2dVertex
 10
-45.44903457428963
 20
-384.5002892214997
 30
0.0
  0
VERTEX
  5
106
330
104
100
AcDbEntity
  8
0
  6
Continuous
 62
     7
370
    15
100
AcDbVertex
100
AcDb2dVertex
 10
-45.65670539608972
 20
-384.6174194920997
 30
0.0
  0
VERTEX
  5
107
330
104
100
AcDbEntity
  8
0
  6
Continuous
 62
     7
370
    15
100
AcDbVertex
100
AcDb2dVertex
 10
-46.50565592208967
 20
-385.3396614968996
 30
0.0
  0
VERTEX
  5
108
330
104
100
AcDbEntity
  8
0
  6
Continuous
 62
     7
370
    15
100
AcDbVertex
100
AcDb2dVertex
 10
-47.15569086188988
 20
-386.3362544820997
 30
0.0
  0
VERTEX
  5
109
330
104
100
AcDbEntity
  8
0
  6
Continuous
 62
     7
370
    15
100
AcDbVertex
100
AcDb2dVertex
 10
-47.57176727568948
 20
-387.5534670482996
 30
0.0
  0
VERTEX
  5
10A
330
104
100
AcDbEntity
  8
0
  6
Continuous
 62
     7
370
    15
100
AcDbVertex
100
AcDb2dVertex
 10
-47.73145237728967
 20
-388.9257562668997
 30
0.0
  0
VERTEX
  5
10B
330
104
100
AcDbEntity
  8
0
  6
Continuous
 62
     7
370
    15
100
AcDbVertex
100
AcDb2dVertex
 10
-47.6261383492896
 20
-390.3791022578997
 30
0.0
  0
VERTEX
  5
10C
330
104
100
AcDbEntity
  8
0
  6
Continuous
 62
     7
370
    15
100
AcDbVertex
100
AcDb2dVertex
 10
-47.26150420348985
 20
-391.8350833908996
 30
0.0
  0
VERTEX
  5
10D
330
104
100
AcDbEntity
  8
0
  6
Continuous
 62
     7
370
    15
100
AcDbVertex
100
AcDb2dVertex
 10
-46.65720590648961
 20
-393.2153008170997
 30
0.0
  0
VERTEX
  5
10E
330
104
100
AcDbEntity
  8
0
  6
Continuous
 62
     7
370
    15
100
AcDbVertex
100
AcDb2dVertex
 10
-45.8458217678898
 20
-394.4452981812996
 30
0.0
  0
VERTEX
  5
10F
330
104
100
AcDbEntity
  8
0
  6
Continuous
 62
     7
370
    15
100
AcDbVertex
100
AcDb2dVertex
 10
-44.87109298388977
 20
-395.4588150846997
 30
0.0
  0
VERTEX
  5
110
330
104
100
AcDbEntity
  8
0
  6
Continuous
 62
     7
370
    15
100
AcDbVertex
100
AcDb2dVertex
 10
-43.78556836908992
 20
-396.2011618940996
 30
0.0
  0
VERTEX
  5
111
330
104
100
AcDbEntity
  8
0
  6
Continuous
 62
     7
370
    15
100
AcDbVertex
100
AcDb2dVertex
 10
-42.64776776148973
 20
-396.6323675230996
 30
0.0
  0
SEQEND
  5
112
330
104
100
AcDbEntity
  8
0
  6
Continuous
 62
     7
370
    15
  0
LINE
  5
113
330
24
100
AcDbEntity
  8
0
  6
Continuous
 62
     7
370
    15
100
AcDbLine
 10
-90.79505996648949
 20
523.6798617557004
 30
0.0
 11
-42.03213589148972
 21
512.3216439801004
 31
0.0
  0
ARC
  5
114
330
24
100
AcDbEntity
  8
0
  6
Continuous
 62
     7
370
    15
100
AcDbCircle
 10
-40.17184892008972
 20
509.0557490161004
 30
0.0
 40
3.758555245197389
100
AcDbArc
 50
119.6662788243954
 51
184.8994542863973
  0
LINE
  5
115
330
24
100
AcDbEntity
  8
0
  6
Continuous
 62
     7
370
    15
100
AcDbLine
 10
-43.91667081688992
 20
508.7347404593003
 30
0.0
 11
-92.6795948916896
 21
520.0929582349004
 31
0.0
  0
ARC
  5
116
330
24
100
AcDbEntity
  8
0
  6
Continuous
 62
     7
370
    15
100
AcDbCircle
 10
-88.93477299508994
 20
520.4139667919003
 30
0.0
 40
3.75855524519858
100
AcDbArc
 50
119.666278824401
 51
184.8994542864007
  0
LINE
  5
117
330
24
100
AcDbEntity
  8
0
  6
Continuous
 62
     7
370
    15
100
AcDbLine
 10
-42.2483158668896
 20
447.1797178187003
 30
0.0
 11
-43.91667081688992
 21
508.7347404593003
 31
0.0
  0
LINE
  5
118
330
24
100
AcDbEntity
  8
0
  6
Continuous
 62
     7
370
    15
100
AcDbLine
 10
-91.01123994168974
 20
458.5379355943003
 30
0.0
 11
-42.2483158668896
 21
447.1797178187003
 31
0.0
  0
LINE
  5
119
330
24
100
AcDbEntity
  8
0
  6
Continuous
 62
     7
370
    15
100
AcDbLine
 10
-92.6795948916896
 20
520.0929582349004
 30
0.0
 11
-91.01123994168974
 21
458.5379355943003
 31
0.0
  0
LINE
  5
11A
330
24
100
AcDbEntity
  8
0
  6
Continuous
 62
     7
370
    15
100
AcDbLine
 10
0.1536838753105343
 20
527.8850615567003
 30
0.0
 11
-48.60924019948961
 21
539.2432793325004
 31
0.0
  0
LINE
  5
11B
330
24
100
AcDbEntity
  8
0
  6
Continuous
 62
     7
370
    15
100
AcDbLine
 10
-42.03213589148972
 20
512.3216439801004
 30
0.0
 11
0.1536838753105343
 21
527.8850615567003
 31
0.0
  0
LINE
  5
11C
330
24
100
AcDbEntity
  8
0
  6
Continuous
 62
     7
370
    15
100
AcDbLine
 10
-48.60924019948961
 20
539.2432793325004
 30
0.0
 11
-90.79505996648949
 21
523.6798617557004
 31
0.0
  0
ARC
  5
11D
330
24
100
AcDbEntity
  8
0
  6
Continuous
 62
     7
370
    15
100
AcDbCircle
 10
-43.24538858288942
 20
508.9756304301004
 30
0.0
 40
3.559183722266259
100
AcDbArc
 50
359.2707545889998
 51
70.06953429430217
  0
ARC
  5
11E
330
24
100
AcDbEntity
  8
0
  6
Continuous
 62
     7
370
    15
100
AcDbCircle
 10
-42.17983216168967
 20
517.0132123243004
 30
0.0
 40
8.458705866505172
100
AcDbArc
 50
258.1510953239007
 51
287.143507136798
  0
LINE
  5
11F
330
24
100
AcDbEntity
  8
0
  6
Continuous
 62
     7
370
    15
100
AcDbLine
 10
-39.68649314208996
 20
508.9303313115003
 30
0.0
 11
-38.01813819188955
 21
447.3753086709003
 31
0.0
  0
ARC
  5
120
330
24
100
AcDbEntity
  8
0
  6
Continuous
 62
     7
370
    15
100
AcDbCircle
 10
-40.51147721168981
 20
455.4581896837003
 30
0.0
 40
8.458705866503465
100
AcDbArc
 50
258.1510953239015
 51
287.1435071367982
  0
ARC
  5
121
330
24
100
AcDbEntity
  8
0
  6
Continuous
 62
     7
370
    15
100
AcDbCircle
 10
-1.059568816089623
 20
524.5390480069004
 30
0.0
 40
3.559183722267168
100
AcDbArc
 50
359.2707545889999
 51
70.06953429430342
  0
LINE
  5
122
330
24
100
AcDbEntity
  8
0
  6
Continuous
 62
     7
370
    15
100
AcDbLine
 10
2.499326624910381
 20
524.4937488881003
 30
0.0
 11
-39.68649314208996
 21
508.9303313115003
 31
0.0
  0
LINE
  5
123
330
24
100
AcDbEntity
  8
0
  6
Continuous
 62
     7
370
    15
100
AcDbLine
 10
4.167681574910247
 20
462.9387262475004
 30
0.0
 11
2.499326624910381
 21
524.4937488881003
 31
0.0
  0
LINE
  5
124
330
24
100
AcDbEntity
  8
0
  6
Continuous
 62
     7
370
    15
100
AcDbLine
 10
-38.01813819188955
 20
447.3753086709003
 30
0.0
 11
4.167681574910247
 21
462.9387262475004
 31
0.0
  0
ARC
  5
125
330
24
100
AcDbEntity
  8
0
  6
Continuous
 62
     7
370
    15
100
AcDbCircle
 10
-39.98652189568965
 20
444.1318554085003
 30
0.0
 40
2.696108742181795
100
AcDbArc
 50
258.1511373682004
 51
287.1434650925067
  0
ARC
  5
126
330
24
100
AcDbEntity
  8
0
  6
Continuous
 62
     7
370
    15
100
AcDbCircle
 10
-39.91769143108958
 20
441.5398681951003
 30
0.0
 40
0.6241721153759947
100
AcDbArc
 50
119.5847677881971
 51
184.2884866506916
  0
ARC
  5
127
330
24
100
AcDbEntity
  8
0
  6
Continuous
 62
     7
370
    15
100
AcDbCircle
 10
-39.96168640008945
 20
443.3418044741004
 30
0.0
 40
1.286552194575338
100
AcDbArc
 50
258.1512863270048
 51
287.1433161335895
  0
ARC
  5
128
330
24
100
AcDbEntity
  8
0
  6
Continuous
 62
     7
370
    15
100
AcDbCircle
 10
-39.78366464788941
 20
441.5558011967003
 30
0.0
 40
0.5918621510206706
100
AcDbArc
 50
359.9742930503076
 51
70.12591745182829
  0
ARC
  5
129
330
24
100
AcDbEntity
  8
0
  6
Continuous
 62
     7
370
    15
100
AcDbCircle
 10
-39.92492045868984
 20
441.8479606557003
 30
0.0
 40
2.81959226821259
100
AcDbArc
 50
258.1512011611985
 51
287.1434012995049
  0
LINE
  5
12A
330
24
100
AcDbEntity
  8
0
  6
Continuous
 62
     7
370
    15
100
AcDbLine
 10
-40.5038664350899
 20
439.0884458223004
 30
0.0
 11
-40.54011597688977
 21
441.4931936373005
 31
0.0
  0
LINE
  5
12B
330
24
100
AcDbEntity
  8
0
  6
Continuous
 62
     7
370
    15
100
AcDbLine
 10
-39.19180255648952
 20
441.5555356455004
 30
0.0
 11
-39.09380545908961
 21
439.1536428541003
 31
0.0
  0
LINE
  5
12C
330
24
100
AcDbEntity
  8
0
  6
Continuous
 62
     7
370
    15
100
AcDbLine
 10
-40.54011597688977
 20
441.4931936373005
 30
0.0
 11
-92.70510596308976
 21
453.6438455469004
 31
0.0
  0
ARC
  5
12D
330
24
100
AcDbEntity
  8
0
  6
Continuous
 62
     7
370
    15
100
AcDbCircle
 10
-92.08268141729003
 20
453.6905201049003
 30
0.0
 40
0.6241721153747547
100
AcDbArc
 50
119.5847677881657
 51
184.288486650805
  0
LINE
  5
12E
330
24
100
AcDbEntity
  8
0
  6
Continuous
 62
     7
370
    15
100
AcDbLine
 10
-92.39084186408981
 20
454.2333165385003
 30
0.0
 11
-40.22585187808944
 21
442.0826646289004
 31
0.0
  0
ARC
  5
12F
330
24
100
AcDbEntity
  8
0
  6
Continuous
 62
     7
370
    15
100
AcDbCircle
 10
-33.1882785824895
 20
482.5223268919003
 30
0.0
 40
33.15532166894619
100
AcDbArc
 50
285.1140280582997
 51
295.3865625194999
  0
ARC
  5
130
330
24
100
AcDbEntity
  8
0
  6
Continuous
 62
     7
370
    15
100
AcDbCircle
 10
-51.58672644828984
 20
493.5515337293004
 30
0.0
 40
45.26319299482266
100
AcDbArc
 50
249.4845103961004
 51
264.2085137705003
  0
POLYLINE
  5
131
330
24
100
AcDbEntity
  8
0
  6
Continuous
 62
     7
370
    15
100
AcDb2dPolyline
 66
     1
 10
0.0
 20
0.0
 30
0.0
 75
     5
  0
VERTEX
  5
132
330
131
100
AcDbEntity
  8
0
  6
Continuous
 62
     7
370
    15
100
AcDbVertex
100
AcDb2dVertex
 10
5.546559106310369
 20
458.7616510891003
 30
0.0
  0
VERTEX
  5
133
330
131
100
AcDbEntity
  8
0
  6
Continuous
 62
     7
370
    15
100
AcDbVertex
100
AcDb2dVertex
 10
5.59815203611025
 20
458.7846751559005
 30
0.0
  0
VERTEX
  5
134
330
131
100
AcDbEntity
  8
0
  6
Continuous
 62
     7
370
    15
100
AcDbVertex
100
AcDb2dVertex
 10
5.634505442310555
 20
458.8099012881003
 30
0.0
  0
VERTEX
  5
135
330
131
100
AcDbEntity
  8
0
  6
Continuous
 62
     7
370
    15
100
AcDbVertex
100
AcDb2dVertex
 10
5.654219864110573
 20
458.8363606135003
 30
0.0
  0
VERTEX
  5
136
330
131
100
AcDbEntity
  8
0
  6
Continuous
 62
     7
370
    15
100
AcDbVertex
100
AcDb2dVertex
 10
5.656544800110268
 20
458.8630372147004
 30
0.0
  0
VERTEX
  5
137
330
131
100
AcDbEntity
  8
0
  6
Continuous
 62
     7
370
    15
100
AcDbVertex
100
AcDb2dVertex
 10
5.641382912510025
 20
458.8889052771003
 30
0.0
  0
VERTEX
  5
138
330
131
100
AcDbEntity
  8
0
  6
Continuous
 62
     7
370
    15
100
AcDbVertex
100
AcDb2dVertex
 10
5.609324990110153
 20
458.9129708029004
 30
0.0
  0
VERTEX
  5
139
330
131
100
AcDbEntity
  8
0
  6
Continuous
 62
     7
370
    15
100
AcDbVertex
100
AcDb2dVertex
 10
5.561595612910068
 20
458.9343091971004
 30
0.0
  0
VERTEX
  5
13A
330
131
100
AcDbEntity
  8
0
  6
Continuous
 62
     7
370
    15
100
AcDbVertex
100
AcDb2dVertex
 10
5.500031091710397
 20
458.9521011993004
 30
0.0
  0
SEQEND
  5
13B
330
131
100
AcDbEntity
  8
0
  6
Continuous
 62
     7
370
    15
  0
LINE
  5
13C
330
24
100
AcDbEntity
  8
0
  6
Continuous
 62
     7
370
    15
100
AcDbLine
 10
-39.58245863508945
 20
442.1124132217003
 30
0.0
 11
5.546559106310369
 21
458.7616510891003
 31
0.0
  0
POLYLINE
  5
13D
330
24
100
AcDbEntity
  8
0
  6
Continuous
 62
     7
370
    15
100
AcDb2dPolyline
 66
     1
 10
0.0
 20
0.0
 30
0.0
 75
     5
  0
VERTEX
  5
13E
330
13D
100
AcDbEntity
  8
0
  6
Continuous
 62
     7
370
    15
100
AcDbVertex
100
AcDb2dVertex
 10
-92.43736987868978
 20
454.4237666487004
 30
0.0
  0
VERTEX
  5
13F
330
13D
100
AcDbEntity
  8
0
  6
Continuous
 62
     7
370
    15
100
AcDbVertex
100
AcDb2dVertex
 10
-92.48896280868975
 20
454.4007425819004
 30
0.0
  0
VERTEX
  5
140
330
13D
100
AcDbEntity
  8
0
  6
Continuous
 62
     7
370
    15
100
AcDbVertex
100
AcDb2dVertex
 10
-92.52531621468951
 20
454.3755164497004
 30
0.0
  0
VERTEX
  5
141
330
13D
100
AcDbEntity
  8
0
  6
Continuous
 62
     7
370
    15
100
AcDbVertex
100
AcDb2dVertex
 10
-92.54503063668962
 20
454.3490571243003
 30
0.0
  0
VERTEX
  5
142
330
13D
100
AcDbEntity
  8
0
  6
Continuous
 62
     7
370
    15
100
AcDbVertex
100
AcDb2dVertex
 10
-92.54735557248968
 20
454.3223805231003
 30
0.0
  0
VERTEX
  5
143
330
13D
100
AcDbEntity
  8
0
  6
Continuous
 62
     7
370
    15
100
AcDbVertex
100
AcDb2dVertex
 10
-92.53219368488989
 20
454.2965124609004
 30
0.0
  0
VERTEX
  5
144
330
13D
100
AcDbEntity
  8
0
  6
Continuous
 62
     7
370
    15
100
AcDbVertex
100
AcDb2dVertex
 10
-92.50013576268965
 20
454.2724469349002
 30
0.0
  0
VERTEX
  5
145
330
13D
100
AcDbEntity
  8
0
  6
Continuous
 62
     7
370
    15
100
AcDbVertex
100
AcDb2dVertex
 10
-92.45240638528993
 20
454.2511085409003
 30
0.0
  0
VERTEX
  5
146
330
13D
100
AcDbEntity
  8
0
  6
Continuous
 62
     7
370
    15
100
AcDbVertex
100
AcDb2dVertex
 10
-92.39084186408981
 20
454.2333165385003
 30
0.0
  0
SEQEND
  5
147
330
13D
100
AcDbEntity
  8
0
  6
Continuous
 62
     7
370
    15
  0
LINE
  5
148
330
24
100
AcDbEntity
  8
0
  6
Continuous
 62
     7
370
    15
100
AcDbLine
 10
5.937215184910301
 20
458.2047735129004
 30
0.0
 11
-39.19180255648952
 21
441.5555356455004
 31
0.0
  0
ARC
  5
149
330
24
100
AcDbEntity
  8
0
  6
Continuous
 62
     7
370
    15
100
AcDbCircle
 10
5.345353093510411
 20
458.2050390643003
 30
0.0
 40
0.5918621510211254
100
AcDbArc
 50
359.9742930503076
 51
70.12591745165707
  0
LINE
  5
14A
330
24
100
AcDbEntity
  8
0
  6
Continuous
 62
     7
370
    15
100
AcDbLine
 10
-92.66885642108936
 20
451.2390977319003
 30
0.0
 11
-40.5038664350899
 21
439.0884458223004
 31
0.0
  0
LINE
  5
14B
330
24
100
AcDbEntity
  8
0
  6
Continuous
 62
     7
370
    15
100
AcDbLine
 10
-92.70510596308976
 20
453.6438455469004
 30
0.0
 11
-92.66885642108936
 21
451.2390977319003
 31
0.0
  0
LINE
  5
14C
330
24
100
AcDbEntity
  8
0
  6
Continuous
 62
     7
370
    15
100
AcDbLine
 10
-39.09380545908961
 20
439.1536428541003
 30
0.0
 11
6.035212282310212
 21
455.8028807215003
 31
0.0
  0
LINE
  5
14D
330
24
100
AcDbEntity
  8
0
  6
Continuous
 62
     7
370
    15
100
AcDbLine
 10
6.035212282310212
 20
455.8028807215003
 30
0.0
 11
5.937215184910301
 21
458.2047735129004
 31
0.0
  0
SPLINE
  5
14E
330
24
100
AcDbEntity
  8
0
  6
Continuous
 62
     7
370
    15
100
AcDbSpline
210
0.0
220
0.0
230
1.0
 70
     8
 71
     2
 72
    14
 73
    11
 74
     0
 42
0.000000001
 43
0.000001
 40
0.0
 40
0.0
 40
0.0
 40
1.0
 40
1.0
 40
2.0
 40
3.0
 40
4.0
 40
5.0
 40
6.0
 40
6.0
 40
7.0
 40
7.0
 40
7.0
 10
-65.12288503753679
 20
427.3846898112777
 30
0.0
 10
-65.12354317446274
 20
427.3754221827443
 30
0.0
 10
-65.12420131138869
 20
427.3661545542109
 30
0.0
 10
-65.1352575532759
 20
427.1576649856536
 30
0.0
 10
-65.07963920367992
 20
426.782239445904
 30
0.0
 10
-64.97515760198111
 20
426.4468310849509
 30
0.0
 10
-64.82152880021694
 20
426.132134568958
 30
0.0
 10
-64.63084533620385
 20
425.8580708041738
 30
0.0
 10
-64.51173766196361
 20
425.7338399005598
 30
0.0
 10
-64.50510113122404
 20
425.7271741429468
 30
0.0
 10
-64.49846460048447
 20
425.7205083853337
 30
0.0
  0
LINE
  5
14F
330
24
100
AcDbEntity
  8
0
  6
Continuous
 62
     7
370
    15
100
AcDbLine
 10
-93.03504762208958
 20
453.8413590623004
 30
0.0
 11
-93.03559062168951
 21
453.8502136481004
 31
0.0
  0
POLYLINE
  5
150
330
24
100
AcDbEntity
  8
0
  6
Continuous
 62
     7
370
    15
100
AcDb2dPolyline
 66
     1
 10
0.0
 20
0.0
 30
0.0
 75
     5
  0
VERTEX
  5
151
330
150
100
AcDbEntity
  8
0
  6
Continuous
 62
     7
370
    15
100
AcDbVertex
100
AcDb2dVertex
 10
-92.59749635928974
 20
454.4156903569003
 30
0.0
  0
VERTEX
  5
152
330
150
100
AcDbEntity
  8
0
  6
Continuous
 62
     7
370
    15
100
AcDbVertex
100
AcDb2dVertex
 10
-92.64318397348997
 20
454.3935119753003
 30
0.0
  0
VERTEX
  5
153
330
150
100
AcDbEntity
  8
0
  6
Continuous
 62
     7
370
    15
100
AcDbVertex
100
AcDb2dVertex
 10
-92.64774930708963
 20
454.3906513869003
 30
0.0
  0
SEQEND
  5
154
330
150
100
AcDbEntity
  8
0
  6
Continuous
 62
     7
370
    15
  0
POLYLINE
  5
155
330
24
100
AcDbEntity
  8
0
  6
Continuous
 62
     7
370
    15
100
AcDb2dPolyline
 66
     1
 10
0.0
 20
0.0
 30
0.0
 75
     5
  0
VERTEX
  5
156
330
155
100
AcDbEntity
  8
0
  6
Continuous
 62
     7
370
    15
100
AcDbVertex
100
AcDb2dVertex
 10
-92.66885642108936
 20
451.2390977319003
 30
0.0
  0
VERTEX
  5
157
330
155
100
AcDbEntity
  8
0
  6
Continuous
 62
     7
370
    15
100
AcDbVertex
100
AcDb2dVertex
 10
-92.8037795762897
 20
451.2780887947004
 30
0.0
  0
VERTEX
  5
158
330
155
100
AcDbEntity
  8
0
  6
Continuous
 62
     7
370
    15
100
AcDbVertex
100
AcDb2dVertex
 10
-92.90838365328945
 20
451.3248549099003
 30
0.0
  0
VERTEX
  5
159
330
155
100
AcDbEntity
  8
0
  6
Continuous
 62
     7
370
    15
100
AcDbVertex
100
AcDb2dVertex
 10
-92.97864881769
 20
451.3775974957005
 30
0.0
  0
VERTEX
  5
15A
330
155
100
AcDbEntity
  8
0
  6
Continuous
 62
     7
370
    15
100
AcDbVertex
100
AcDb2dVertex
 10
-93.01187546348991
 20
451.4342902457004
 30
0.0
  0
VERTEX
  5
15B
330
155
100
AcDbEntity
  8
0
  6
Continuous
 62
     7
370
    15
100
AcDbVertex
100
AcDb2dVertex
 10
-93.01447640008963
 20
451.4549170489004
 30
0.0
  0
SEQEND
  5
15C
330
155
100
AcDbEntity
  8
0
  6
Continuous
 62
     7
370
    15
  0
LINE
  5
15D
330
24
100
AcDbEntity
  8
0
  6
Continuous
 62
     7
370
    15
100
AcDbLine
 10
5.626389520510301
 20
458.9618941121003
 30
0.0
 11
5.679283888509971
 21
458.9413552849003
 31
0.0
  0
LINE
  5
15E
330
24
100
AcDbEntity
  8
0
  6
Continuous
 62
     7
370
    15
100
AcDbLine
 10
6.169360123909982
 20
458.4086739329005
 30
0.0
 11
6.170110350310196
 21
458.4006128009003
 31
0.0
  0
POLYLINE
  5
15F
330
24
100
AcDbEntity
  8
0
  6
Continuous
 62
     7
370
    15
100
AcDb2dPolyline
 66
     1
 10
0.0
 20
0.0
 30
0.0
 75
     5
  0
VERTEX
  5
160
330
15F
100
AcDbEntity
  8
0
  6
Continuous
 62
     7
370
    15
100
AcDbVertex
100
AcDb2dVertex
 10
6.27877190711034
 20
456.0076886721004
 30
0.0
  0
VERTEX
  5
161
330
15F
100
AcDbEntity
  8
0
  6
Continuous
 62
     7
370
    15
100
AcDbVertex
100
AcDb2dVertex
 10
6.271167419910498
 20
455.9666142303004
 30
0.0
  0
VERTEX
  5
162
330
15F
100
AcDbEntity
  8
0
  6
Continuous
 62
     7
370
    15
100
AcDbVertex
100
AcDb2dVertex
 10
6.227954707710168
 20
455.9086247647003
 30
0.0
  0
VERTEX
  5
163
330
15F
100
AcDbEntity
  8
0
  6
Continuous
 62
     7
370
    15
100
AcDbVertex
100
AcDb2dVertex
 10
6.148282647710047
 20
455.8533382683004
 30
0.0
  0
VERTEX
  5
164
330
15F
100
AcDbEntity
  8
0
  6
Continuous
 62
     7
370
    15
100
AcDbVertex
100
AcDb2dVertex
 10
6.035212282310212
 20
455.8028807215003
 30
0.0
  0
SEQEND
  5
165
330
15F
100
AcDbEntity
  8
0
  6
Continuous
 62
     7
370
    15
  0
LINE
  5
166
330
24
100
AcDbEntity
  8
0
  6
Continuous
 62
     7
370
    15
100
AcDbLine
 10
-40.02180236148969
 20
439.0322341517003
 30
0.0
 11
-16.07375396908937
 21
-444.5463238598995
 31
0.0
  0
LINE
  5
167
330
24
100
AcDbEntity
  8
0
  6
Continuous
 62
     7
370
    15
100
AcDbLine
 10
-39.59867466348977
 20
439.0477954885005
 30
0.0
 11
-15.65073462568979
 21
-444.5267647016997
 31
0.0
  0
LINE
  5
168
330
24
100
AcDbEntity
  8
0
  6
Continuous
 62
     7
370
    15
100
AcDbLine
 10
-92.4876681282898
 20
451.1968943881004
 30
0.0
 11
-68.5411491880899
 21
-432.3252335062995
 31
0.0
  0
LINE
  5
169
330
24
100
AcDbEntity
  8
0
  6
Continuous
 62
     7
370
    15
100
AcDbLine
 10
5.79411798070997
 20
455.7139353907003
 30
0.0
 11
29.73990017191009
 21
-427.7810096748997
 31
0.0
  0
LINE
  5
16A
330
24
100
AcDbEntity
  8
0
  6
Continuous
 62
     7
370
    15
100
AcDbLine
 10
-40.12937281788972
 20
-284.9345591790997
 30
0.0
 11
-39.48779035388942
 21
-308.6061544174996
 31
0.0
  0
LINE
  5
16B
330
24
100
AcDbEntity
  8
0
  6
Continuous
 62
     7
370
    15
100
AcDbLine
 10
-39.9961967920898
 20
-285.0782540482996
 30
0.0
 11
-39.36076275488939
 21
-308.5229991534997
 31
0.0
  0
LINE
  5
16C
330
24
100
AcDbEntity
  8
0
  6
Continuous
 62
     7
370
    15
100
AcDbLine
 10
-38.58481741108962
 20
-286.8277298802996
 30
0.0
 11
-38.02688469268959
 21
-307.4130142674996
 31
0.0
  0
LINE
  5
16D
330
24
100
AcDbEntity
  8
0
  6
Continuous
 62
     7
370
    15
100
AcDbLine
 10
-38.45034324708958
 20
-287.0193203894996
 30
0.0
 11
-37.9011536902898
 21
-307.2820202466996
 31
0.0
  0
LINE
  5
16E
330
24
100
AcDbEntity
  8
0
  6
Continuous
 62
     7
370
    15
100
AcDbLine
 10
-35.01301830688989
 20
-295.8967044084997
 30
0.0
 11
-34.90442642328971
 21
-299.9032713916997
 31
0.0
  0
LINE
  5
16F
330
24
100
AcDbEntity
  8
0
  6
Continuous
 62
     7
370
    15
100
AcDbLine
 10
-34.92285691908945
 20
-296.6814246132997
 30
0.0
 11
-34.85592725548976
 21
-299.1508373466996
 31
0.0
  0
ARC
  5
170
330
24
100
AcDbEntity
  8
0
  6
Continuous
 62
     7
370
    15
100
AcDbCircle
 10
-59.87088962208999
 20
334.2242477979003
 30
0.0
 40
0.3382362909086881
100
AcDbArc
 50
189.0171016157092
 51
239.3773275996485
  0
ARC
  5
171
330
24
100
AcDbEntity
  8
0
  6
Continuous
 62
     7
370
    15
100
AcDbCircle
 10
-88.89063486048998
 20
458.3018456849004
 30
0.0
 40
2.133706717271632
100
AcDbArc
 50
173.6473414701994
 51
246.8443809553025
  0
ARC
  5
172
330
24
100
AcDbEntity
  8
0
  6
Continuous
 62
     7
370
    15
100
AcDbCircle
 10
-40.12771078568984
 20
446.9436279091003
 30
0.0
 40
2.133706717271632
100
AcDbArc
 50
173.6473414701994
 51
246.8443809553025
  0
ARC
  5
173
330
24
100
AcDbEntity
  8
0
  6
Continuous
 62
     7
370
    15
100
AcDbCircle
 10
-40.22927933269001
 20
447.0907413475004
 30
0.0
 40
2.22937742550582
100
AcDbArc
 50
296.1192865249077
 51
7.333486605301005
  0
ARC
  5
174
330
24
100
AcDbEntity
  8
0
  6
Continuous
 62
     7
370
    15
100
AcDbCircle
 10
1.956540434310327
 20
462.6541589243004
 30
0.0
 40
2.229377425506028
100
AcDbArc
 50
296.1192865248922
 51
7.333486605299527
  0
ARC
  5
175
330
24
100
AcDbEntity
  8
0
  6
Continuous
 62
     7
370
    15
100
AcDbCircle
 10
0.6281550061099637
 20
526.6837986415003
 30
0.0
 40
1.291570921561819
100
AcDbArc
 50
77.31161683828876
 51
111.5528761921885
  0
ARC
  5
176
330
24
100
AcDbEntity
  8
0
  6
Continuous
 62
     7
370
    15
100
AcDbCircle
 10
-48.13476906868972
 20
538.0420164173004
 30
0.0
 40
1.291570921485946
100
AcDbArc
 50
77.3116168373035
 51
111.5528761932153
  0
POLYLINE
  5
177
330
24
100
AcDbEntity
  8
0
  6
Continuous
 62
     7
370
    15
100
AcDb2dPolyline
 66
     1
 10
0.0
 20
0.0
 30
0.0
 75
     5
  0
VERTEX
  5
178
330
177
100
AcDbEntity
  8
0
  6
Continuous
 62
     7
370
    15
100
AcDbVertex
100
AcDb2dVertex
 10
-93.71636236268968
 20
520.7355584089003
 30
0.0
  0
VERTEX
  5
179
330
177
100
AcDbEntity
  8
0
  6
Continuous
 62
     7
370
    15
100
AcDbVertex
100
AcDb2dVertex
 10
-93.7086492024895
 20
520.6785351203005
 30
0.0
  0
VERTEX
  5
17A
330
177
100
AcDbEntity
  8
0
  6
Continuous
 62
     7
370
    15
100
AcDbVertex
100
AcDb2dVertex
 10
-93.60897451768996
 20
520.5084566271003
 30
0.0
  0
VERTEX
  5
17B
330
177
100
AcDbEntity
  8
0
  6
Continuous
 62
     7
370
    15
100
AcDbVertex
100
AcDb2dVertex
 10
-93.39818146128972
 20
520.3502279709003
 30
0.0
  0
VERTEX
  5
17C
330
177
100
AcDbEntity
  8
0
  6
Continuous
 62
     7
370
    15
100
AcDbVertex
100
AcDb2dVertex
 10
-93.08436717368967
 20
520.2099320793004
 30
0.0
  0
VERTEX
  5
17D
330
177
100
AcDbEntity
  8
0
  6
Continuous
 62
     7
370
    15
100
AcDbVertex
100
AcDb2dVertex
 10
-92.6795948916896
 20
520.0929582349004
 30
0.0
  0
SEQEND
  5
17E
330
177
100
AcDbEntity
  8
0
  6
Continuous
 62
     7
370
    15
  0
ARC
  5
17F
330
24
100
AcDbEntity
  8
0
  6
Continuous
 62
     7
370
    15
100
AcDbCircle
 10
-91.19620056148996
 20
522.0842537899005
 30
0.0
 40
1.645259419636349
100
AcDbArc
 50
75.88812531098888
 51
109.8858154261858
  0
POLYLINE
  5
180
330
24
100
AcDbEntity
  8
0
  6
Continuous
 62
     7
370
    15
100
AcDb2dPolyline
 66
     1
 10
0.0
 20
0.0
 30
0.0
 75
     5
  0
VERTEX
  5
181
330
180
100
AcDbEntity
  8
0
  6
Continuous
 62
     7
370
    15
100
AcDbVertex
100
AcDb2dVertex
 10
-92.04800741268936
 20
459.1805357683004
 30
0.0
  0
VERTEX
  5
182
330
180
100
AcDbEntity
  8
0
  6
Continuous
 62
     7
370
    15
100
AcDbVertex
100
AcDb2dVertex
 10
-92.04029425248963
 20
459.1235124797004
 30
0.0
  0
VERTEX
  5
183
330
180
100
AcDbEntity
  8
0
  6
Continuous
 62
     7
370
    15
100
AcDbVertex
100
AcDb2dVertex
 10
-91.94061956768964
 20
458.9534339865004
 30
0.0
  0
VERTEX
  5
184
330
180
100
AcDbEntity
  8
0
  6
Continuous
 62
     7
370
    15
100
AcDbVertex
100
AcDb2dVertex
 10
-91.72982651108977
 20
458.7952053303004
 30
0.0
  0
VERTEX
  5
185
330
180
100
AcDbEntity
  8
0
  6
Continuous
 62
     7
370
    15
100
AcDbVertex
100
AcDb2dVertex
 10
-91.4160122236898
 20
458.6549094387003
 30
0.0
  0
VERTEX
  5
186
330
180
100
AcDbEntity
  8
0
  6
Continuous
 62
     7
370
    15
100
AcDbVertex
100
AcDb2dVertex
 10
-91.01123994168974
 20
458.5379355943003
 30
0.0
  0
SEQEND
  5
187
330
180
100
AcDbEntity
  8
0
  6
Continuous
 62
     7
370
    15
  0
ARC
  5
188
330
24
100
AcDbEntity
  8
0
  6
Continuous
 62
     7
370
    15
100
AcDbCircle
 10
-49.01038079468971
 20
537.6476713665004
 30
0.0
 40
1.645259419639327
100
AcDbArc
 50
75.88812531099862
 51
109.8858154262009
  0
POLYLINE
  5
189
330
24
100
AcDbEntity
  8
0
  6
Continuous
 62
     7
370
    15
100
AcDb2dPolyline
 66
     1
 10
0.0
 20
0.0
 30
0.0
 75
     5
  0
VERTEX
  5
18A
330
189
100
AcDbEntity
  8
0
  6
Continuous
 62
     7
370
    15
100
AcDbVertex
100
AcDb2dVertex
 10
3.23018201151045
 20
525.1033188489002
 30
0.0
  0
VERTEX
  5
18B
330
189
100
AcDbEntity
  8
0
  6
Continuous
 62
     7
370
    15
100
AcDbVertex
100
AcDb2dVertex
 10
3.207194854310373
 20
524.9849487585004
 30
0.0
  0
VERTEX
  5
18C
330
189
100
AcDbEntity
  8
0
  6
Continuous
 62
     7
370
    15
100
AcDbVertex
100
AcDb2dVertex
 10
3.07755953411025
 20
524.8109797053003
 30
0.0
  0
VERTEX
  5
18D
330
189
100
AcDbEntity
  8
0
  6
Continuous
 62
     7
370
    15
100
AcDbVertex
100
AcDb2dVertex
 10
2.838540157910401
 20
524.6451224271004
 30
0.0
  0
VERTEX
  5
18E
330
189
100
AcDbEntity
  8
0
  6
Continuous
 62
     7
370
    15
100
AcDbVertex
100
AcDb2dVertex
 10
2.499326624910381
 20
524.4937488881003
 30
0.0
  0
SEQEND
  5
18F
330
189
100
AcDbEntity
  8
0
  6
Continuous
 62
     7
370
    15
  0
POLYLINE
  5
190
330
24
100
AcDbEntity
  8
0
  6
Continuous
 62
     7
370
    15
100
AcDb2dPolyline
 66
     1
 10
0.0
 20
0.0
 30
0.0
 75
     5
  0
VERTEX
  5
191
330
190
100
AcDbEntity
  8
0
  6
Continuous
 62
     7
370
    15
100
AcDbVertex
100
AcDb2dVertex
 10
4.167681574910247
 20
462.9387262475004
 30
0.0
  0
VERTEX
  5
192
330
190
100
AcDbEntity
  8
0
  6
Continuous
 62
     7
370
    15
100
AcDbVertex
100
AcDb2dVertex
 10
4.506895107910267
 20
463.0900997865003
 30
0.0
  0
VERTEX
  5
193
330
190
100
AcDbEntity
  8
0
  6
Continuous
 62
     7
370
    15
100
AcDbVertex
100
AcDb2dVertex
 10
4.745914484110116
 20
463.2559570647004
 30
0.0
  0
VERTEX
  5
194
330
190
100
AcDbEntity
  8
0
  6
Continuous
 62
     7
370
    15
100
AcDbVertex
100
AcDb2dVertex
 10
4.875549804310239
 20
463.4299261179003
 30
0.0
  0
VERTEX
  5
195
330
190
100
AcDbEntity
  8
0
  6
Continuous
 62
     7
370
    15
100
AcDbVertex
100
AcDb2dVertex
 10
4.898536961510317
 20
463.5482962085005
 30
0.0
  0
SEQEND
  5
196
330
190
100
AcDbEntity
  8
0
  6
Continuous
 62
     7
370
    15
  0
LINE
  5
197
330
24
100
AcDbEntity
  8
0
  6
Continuous
 62
     7
370
    15
100
AcDbLine
 10
5.500031091710397
 20
458.9521011993004
 30
0.0
 11
1.104365689510459
 21
459.9759718111004
 31
0.0
  0
LINE
  5
198
330
24
100
AcDbEntity
  8
0
  6
Continuous
 62
     7
370
    15
100
AcDbLine
 10
-88.20550311388969
 20
455.9850095013003
 30
0.0
 11
-92.43736987868978
 21
454.4237666487004
 31
0.0
  0
POLYLINE
  5
199
330
24
100
AcDbEntity
  8
0
  6
Continuous
 62
     7
370
    15
100
AcDb2dPolyline
 66
     1
 10
0.0
 20
0.0
 30
0.0
 75
     5
  0
VERTEX
  5
19A
330
199
100
AcDbEntity
  8
0
  6
Continuous
 62
     7
370
    15
100
AcDbVertex
100
AcDb2dVertex
 10
-92.70510596308976
 20
453.6438455469004
 30
0.0
  0
VERTEX
  5
19B
330
199
100
AcDbEntity
  8
0
  6
Continuous
 62
     7
370
    15
100
AcDbVertex
100
AcDb2dVertex
 10
-92.83412182469
 20
453.6811292297004
 30
0.0
  0
VERTEX
  5
19C
330
199
100
AcDbEntity
  8
0
  6
Continuous
 62
     7
370
    15
100
AcDbVertex
100
AcDb2dVertex
 10
-92.93414581948981
 20
453.7258474865005
 30
0.0
  0
VERTEX
  5
19D
330
199
100
AcDbEntity
  8
0
  6
Continuous
 62
     7
370
    15
100
AcDbVertex
100
AcDb2dVertex
 10
-93.00133133968974
 20
453.7762802113004
 30
0.0
  0
VERTEX
  5
19E
330
199
100
AcDbEntity
  8
0
  6
Continuous
 62
     7
370
    15
100
AcDbVertex
100
AcDb2dVertex
 10
-93.03310419248955
 20
453.8304904335002
 30
0.0
  0
VERTEX
  5
19F
330
199
100
AcDbEntity
  8
0
  6
Continuous
 62
     7
370
    15
100
AcDbVertex
100
AcDb2dVertex
 10
-93.03504762208958
 20
453.8413590623004
 30
0.0
  0
SEQEND
  5
1A0
330
199
100
AcDbEntity
  8
0
  6
Continuous
 62
     7
370
    15
  0
ARC
  5
1A1
330
24
100
AcDbEntity
  8
0
  6
Continuous
 62
     7
370
    15
100
AcDbCircle
 10
-92.50421841508968
 20
454.1577240967003
 30
0.0
 40
0.2743125338432229
100
AcDbArc
 50
75.89528678310842
 51
109.8794688418469
  0
ARC
  5
1A2
330
24
100
AcDbEntity
  8
0
  6
Continuous
 62
     7
370
    15
100
AcDbCircle
 10
5.579042721310188
 20
458.7527112367004
 30
0.0
 40
0.2144742287897917
100
AcDbArc
 50
77.24647022743738
 51
111.6167806039872
  0
POLYLINE
  5
1A3
330
24
100
AcDbEntity
  8
0
  6
Continuous
 62
     7
370
    15
100
AcDb2dPolyline
 66
     1
 10
0.0
 20
0.0
 30
0.0
 75
     5
  0
VERTEX
  5
1A4
330
1A3
100
AcDbEntity
  8
0
  6
Continuous
 62
     7
370
    15
100
AcDbVertex
100
AcDb2dVertex
 10
6.170110350310196
 20
458.4006128009003
 30
0.0
  0
VERTEX
  5
1A5
330
1A3
100
AcDbEntity
  8
0
  6
Continuous
 62
     7
370
    15
100
AcDbVertex
100
AcDb2dVertex
 10
6.162836757510021
 20
458.3613368305002
 30
0.0
  0
VERTEX
  5
1A6
330
1A3
100
AcDbEntity
  8
0
  6
Continuous
 62
     7
370
    15
100
AcDbVertex
100
AcDb2dVertex
 10
6.121518874510556
 20
458.3058872303004
 30
0.0
  0
VERTEX
  5
1A7
330
1A3
100
AcDbEntity
  8
0
  6
Continuous
 62
     7
370
    15
100
AcDbVertex
100
AcDb2dVertex
 10
6.045335149710453
 20
458.2530216521004
 30
0.0
  0
VERTEX
  5
1A8
330
1A3
100
AcDbEntity
  8
0
  6
Continuous
 62
     7
370
    15
100
AcDbVertex
100
AcDb2dVertex
 10
5.937215184910301
 20
458.2047735129004
 30
0.0
  0
SEQEND
  5
1A9
330
1A3
100
AcDbEntity
  8
0
  6
Continuous
 62
     7
370
    15
  0
SPLINE
  5
1AA
330
24
100
AcDbEntity
  8
0
  6
Continuous
 62
     7
370
    15
100
AcDbSpline
210
0.0
220
0.0
230
1.0
 70
     8
 71
     2
 72
    11
 73
     8
 74
     0
 42
0.000000001
 43
0.000001
 40
0.0
 40
0.0
 40
0.0
 40
1.0
 40
1.0
 40
2.0
 40
3.0
 40
3.0
 40
4.0
 40
4.0
 40
4.0
 10
-48.63260603937341
 20
505.0253850871017
 30
0.0
 10
-48.6211752834612
 20
504.8872952830419
 30
0.0
 10
-48.60974452754898
 20
504.749205478982
 30
0.0
 10
-46.99304899006565
 20
484.2978507912357
 30
0.0
 10
-43.07176751852002
 20
456.9671051651139
 30
0.0
 10
-41.90556521065072
 20
449.4418249890896
 30
0.0
 10
-41.90545910710274
 20
449.4411355654889
 30
0.0
 10
-41.90535300355477
 20
449.4404461418883
 30
0.0
  0
SPLINE
  5
1AB
330
24
100
AcDbEntity
  8
0
  6
Continuous
 62
     7
370
    15
100
AcDbSpline
210
0.0
220
0.0
230
1.0
 70
     8
 71
     2
 72
    17
 73
    14
 74
     0
 42
0.000000001
 43
0.000001
 40
0.0
 40
0.0
 40
0.0
 40
1.0
 40
1.0
 40
2.0
 40
3.0
 40
4.0
 40
5.0
 40
6.0
 40
7.0
 40
8.0
 40
9.0
 40
9.0
 40
10.0
 40
10.0
 40
10.0
 10
-22.48124373988084
 20
456.6064904119771
 30
0.0
 10
-22.48009842801311
 20
456.5962894319442
 30
0.0
 10
-22.47895311614538
 20
456.5860884519113
 30
0.0
 10
-22.43530224746736
 20
456.2803242917132
 30
0.0
 10
-22.4677460190609
 20
455.4309703710969
 30
0.0
 10
-23.51547942179094
 20
453.9421130236162
 30
0.0
 10
-26.60550767944586
 20
452.1834040856891
 30
0.0
 10
-30.21859409279649
 20
451.0786070691515
 30
0.0
 10
-33.29236603505377
 20
450.378788300166
 30
0.0
 10
-37.44939193761901
 20
449.7418553500609
 30
0.0
 10
-40.81124672465911
 20
449.5021518528338
 30
0.0
 10
-41.83702278293312
 20
449.4443838270165
 30
0.0
 10
-41.87119051968183
 20
449.4424148630137
 30
0.0
 10
-41.90535825643055
 20
449.4404458990109
 30
0.0
  0
SPLINE
  5
1AC
330
24
100
AcDbEntity
  8
0
  6
Continuous
 62
     7
370
    15
100
AcDbSpline
210
0.0
220
0.0
230
1.0
 70
     8
 71
     2
 72
    11
 73
     8
 74
     0
 42
0.000000001
 43
0.000001
 40
0.0
 40
0.0
 40
0.0
 40
1.0
 40
1.0
 40
2.0
 40
3.0
 40
3.0
 40
4.0
 40
4.0
 40
4.0
 10
-29.40911849360454
 20
508.9931691540771
 30
0.0
 10
-29.38389393250203
 20
508.8642081660259
 30
0.0
 10
-29.35866937139953
 20
508.7352471779747
 30
0.0
 10
-26.78453219371694
 20
495.8923279372383
 30
0.0
 10
-23.05756600921485
 20
469.9731406959852
 30
0.0
 10
-22.48129861054839
 20
456.6078175350817
 30
0.0
 10
-22.48127136514985
 20
456.6071547509783
 30
0.0
 10
-22.48124411975131
 20
456.606491966875
 30
0.0
  0
SPLINE
  5
1AD
330
24
100
AcDbEntity
  8
0
  6
Continuous
 62
     7
370
    15
100
AcDbSpline
210
0.0
220
0.0
230
1.0
 70
     8
 71
     2
 72
    11
 73
     8
 74
     0
 42
0.000000001
 43
0.000001
 40
0.0
 40
0.0
 40
0.0
 40
1.0
 40
1.0
 40
2.0
 40
3.0
 40
3.0
 40
4.0
 40
4.0
 40
4.0
 10
-38.95067012129165
 20
505.4730490489791
 30
0.0
 10
-38.90426664873134
 20
505.4906935586538
 30
0.0
 10
-38.85786317617102
 20
505.5083380683286
 30
0.0
 10
-35.4146827157514
 20
506.8270302185867
 30
0.0
 10
-30.85962390592375
 20
508.4752893355189
 30
0.0
 10
-29.49980309086449
 20
508.9607633302923
 30
0.0
 10
-29.45446079223451
 20
508.9769662421847
 30
0.0
 10
-29.40911849360454
 20
508.9931691540771
 30
0.0
  0
SPLINE
  5
1AE
330
24
100
AcDbEntity
  8
0
  6
Continuous
 62
     7
370
    15
100
AcDbSpline
210
0.0
220
0.0
230
1.0
 70
     8
 71
     2
 72
    12
 73
     9
 74
     0
 42
0.000000001
 43
0.000001
 40
0.0
 40
0.0
 40
0.0
 40
1.0
 40
1.0
 40
2.0
 40
3.0
 40
4.0
 40
4.0
 40
5.0
 40
5.0
 40
5.0
 10
-41.90535300355477
 20
449.4404461418883
 30
0.0
 10
-41.90528639298135
 20
449.441143551277
 30
0.0
 10
-41.90521978240794
 20
449.4418409606658
 30
0.0
 10
-41.34357249862514
 20
455.2683019485485
 30
0.0
 10
-39.28597347881022
 20
479.536395895984
 30
0.0
 10
-38.9790122260796
 20
501.5900547110495
 30
0.0
 10
-38.95284466479679
 20
505.195711848017
 30
0.0
 10
-38.95175739304422
 20
505.3343804484981
 30
0.0
 10
-38.95067012129165
 20
505.4730490489791
 30
0.0
  0
SPLINE
  5
1AF
330
24
100
AcDbEntity
  8
0
  6
Continuous
 62
     7
370
    15
100
AcDbSpline
210
0.0
220
0.0
230
1.0
 70
     8
 71
     2
 72
    16
 73
    13
 74
     0
 42
0.000000001
 43
0.000001
 40
0.0
 40
0.0
 40
0.0
 40
1.0
 40
1.0
 40
2.0
 40
3.0
 40
4.0
 40
5.0
 40
6.0
 40
7.0
 40
8.0
 40
8.0
 40
9.0
 40
9.0
 40
9.0
 10
-40.48408224222693
 20
507.5717185125608
 30
0.0
 10
-40.49517915209016
 20
507.5683969429827
 30
0.0
 10
-40.50627606195339
 20
507.5650753734046
 30
0.0
 10
-40.79346153350652
 20
507.4781410161769
 30
0.0
 10
-41.70342067511446
 20
507.2196292239623
 30
0.0
 10
-42.72525922788772
 20
507.0828956742343
 30
0.0
 10
-43.90721628159226
 20
506.9671047276483
 30
0.0
 10
-45.3422399211271
 20
506.9872572027525
 30
0.0
 10
-46.4394397918244
 20
507.0704884007052
 30
0.0
 10
-47.18127687119785
 20
507.208497528841
 30
0.0
 10
-47.38606845174799
 20
507.2492560249895
 30
0.0
 10
-47.39290955654441
 20
507.2506072845588
 30
0.0
 10
-47.39975066134083
 20
507.2519585441282
 30
0.0
  0
SPLINE
  5
1B0
330
24
100
AcDbEntity
  8
0
  6
Continuous
 62
     7
370
    15
100
AcDbSpline
210
0.0
220
0.0
230
1.0
 70
     8
 71
     2
 72
    16
 73
    13
 74
     0
 42
0.000000001
 43
0.000001
 40
0.0
 40
0.0
 40
0.0
 40
1.0
 40
1.0
 40
2.0
 40
3.0
 40
4.0
 40
5.0
 40
6.0
 40
7.0
 40
8.0
 40
8.0
 40
9.0
 40
9.0
 40
9.0
 10
-48.63260603937341
 20
505.0253850871017
 30
0.0
 10
-48.62230008838641
 20
505.0236344991366
 30
0.0
 10
-48.61199413739941
 20
505.0218839111714
 30
0.0
 10
-48.30401359166889
 20
504.9688252131245
 30
0.0
 10
-47.06709899998022
 20
504.7749011253538
 30
0.0
 10
-45.24931909111855
 20
504.6993279140344
 30
0.0
 10
-43.80607961089653
 20
504.7187473214494
 30
0.0
 10
-42.36410540859914
 20
504.8141768075456
 30
0.0
 10
-40.74435692182477
 20
505.0209175913771
 30
0.0
 10
-39.48418160336531
 20
505.3272483211539
 30
0.0
 10
-38.98417543626637
 20
505.4639975648351
 30
0.0
 10
-38.96742277877901
 20
505.4685233069071
 30
0.0
 10
-38.95067012129165
 20
505.4730490489791
 30
0.0
  0
ARC
  5
1B1
330
24
100
AcDbEntity
  8
0
  6
Continuous
 62
     7
370
    15
100
AcDbCircle
 10
-46.1599856463571
 20
505.1108965358018
 30
0.0
 40
2.474098586427311
100
AcDbArc
 50
120.0726472809947
 51
181.9806895034976
  0
SPLINE
  5
1B2
330
24
100
AcDbEntity
  8
0
  6
Continuous
 62
     7
370
    15
100
AcDbSpline
210
0.0
220
0.0
230
1.0
 70
     8
 71
     2
 72
    10
 73
     7
 74
     0
 42
0.000000001
 43
0.000001
 40
0.0
 40
0.0
 40
0.0
 40
1.0
 40
1.0
 40
2.0
 40
2.0
 40
3.0
 40
3.0
 40
3.0
 10
-47.39975066134083
 20
507.2519585441282
 30
0.0
 10
-47.45752638207308
 20
507.2650690049074
 30
0.0
 10
-47.51530210280534
 20
507.2781794656866
 30
0.0
 10
-52.95570312712825
 20
508.5074370968982
 30
0.0
 10
-58.26998604556856
 20
509.7832391874733
 30
0.0
 10
-58.32662176367525
 20
509.7967783323158
 30
0.0
 10
-58.38325748178194
 20
509.8103174771583
 30
0.0
  0
SPLINE
  5
1B3
330
24
100
AcDbEntity
  8
0
  6
Continuous
 62
     7
370
    15
100
AcDbSpline
210
0.0
220
0.0
230
1.0
 70
     8
 71
     2
 72
    10
 73
     7
 74
     0
 42
0.000000001
 43
0.000001
 40
0.0
 40
0.0
 40
0.0
 40
1.0
 40
1.0
 40
2.0
 40
2.0
 40
3.0
 40
3.0
 40
3.0
 10
-59.66176133725311
 20
507.5943767981636
 30
0.0
 10
-59.60484966276535
 20
507.5817226119622
 30
0.0
 10
-59.54793798827758
 20
507.5690684257608
 30
0.0
 10
-54.20713206843119
 20
506.3908898867634
 30
0.0
 10
-48.74855658997639
 20
505.053597146888
 30
0.0
 10
-48.6905813146749
 20
505.0394911169948
 30
0.0
 10
-48.63260603937341
 20
505.0253850871017
 30
0.0
  0
ARC
  5
1B4
330
24
100
AcDbEntity
  8
0
  6
Continuous
 62
     7
370
    15
100
AcDbCircle
 10
-41.30190812215677
 20
505.3646309638017
 30
0.0
 40
2.353736310158761
100
AcDbArc
 50
2.640099244601133
 51
69.66805082450401
  0
SPLINE
  5
1B5
330
24
100
AcDbEntity
  8
0
  6
Continuous
 62
     7
370
    15
100
AcDbSpline
210
0.0
220
0.0
230
1.0
 70
     8
 71
     2
 72
    10
 73
     7
 74
     0
 42
0.000000001
 43
0.000001
 40
0.0
 40
0.0
 40
0.0
 40
1.0
 40
1.0
 40
2.0
 40
2.0
 40
3.0
 40
3.0
 40
3.0
 10
-30.98202206174791
 20
511.0772692223731
 30
0.0
 10
-31.02708433834449
 20
511.060274271524
 30
0.0
 10
-31.07214661494108
 20
511.0432793206748
 30
0.0
 10
-35.66051029460677
 20
509.3076098695855
 30
0.0
 10
-40.39147467565944
 20
507.6051430025854
 30
0.0
 10
-40.43777845894319
 20
507.5884307575731
 30
0.0
 10
-40.48408224222693
 20
507.5717185125608
 30
0.0
  0
POLYLINE
  5
1B6
330
24
100
AcDbEntity
  8
0
  6
Continuous
 62
     7
370
    15
100
AcDb2dPolyline
 66
     1
 10
0.0
 20
0.0
 30
0.0
 75
     5
  0
VERTEX
  5
1B7
330
1B6
100
AcDbEntity
  8
0
  6
Continuous
 62
     7
370
    15
100
AcDbVertex
100
AcDb2dVertex
 10
-64.35783509315696
 20
454.670244344602
 30
0.0
  0
VERTEX
  5
1B8
330
1B6
100
AcDbEntity
  8
0
  6
Continuous
 62
     7
370
    15
100
AcDbVertex
100
AcDb2dVertex
 10
-64.37634539895716
 20
455.4875162496019
 30
0.0
  0
VERTEX
  5
1B9
330
1B6
100
AcDbEntity
  8
0
  6
Continuous
 62
     7
370
    15
100
AcDbVertex
100
AcDb2dVertex
 10
-63.73336132035674
 20
456.7138776606018
 30
0.0
  0
VERTEX
  5
1BA
330
1B6
100
AcDbEntity
  8
0
  6
Continuous
 62
     7
370
    15
100
AcDbVertex
100
AcDb2dVertex
 10
-62.30972772275699
 20
457.898907435402
 30
0.0
  0
VERTEX
  5
1BB
330
1B6
100
AcDbEntity
  8
0
  6
Continuous
 62
     7
370
    15
100
AcDbVertex
100
AcDb2dVertex
 10
-60.16015538195678
 20
458.9970661036018
 30
0.0
  0
VERTEX
  5
1BC
330
1B6
100
AcDbEntity
  8
0
  6
Continuous
 62
     7
370
    15
100
AcDbVertex
100
AcDb2dVertex
 10
-57.36725047895688
 20
459.9661518544019
 30
0.0
  0
VERTEX
  5
1BD
330
1B6
100
AcDbEntity
  8
0
  6
Continuous
 62
     7
370
    15
100
AcDbVertex
100
AcDb2dVertex
 10
-54.03834273775682
 20
460.7689232944019
 30
0.0
  0
VERTEX
  5
1BE
330
1B6
100
AcDbEntity
  8
0
  6
Continuous
 62
     7
370
    15
100
AcDbVertex
100
AcDb2dVertex
 10
-50.30136096415698
 20
461.3745303798019
 30
0.0
  0
VERTEX
  5
1BF
330
1B6
100
AcDbEntity
  8
0
  6
Continuous
 62
     7
370
    15
100
AcDbVertex
100
AcDb2dVertex
 10
-47.65376489235713
 20
461.6568989728019
 30
0.0
  0
VERTEX
  5
1C0
330
1B6
100
AcDbEntity
  8
0
  6
Continuous
 62
     7
370
    15
100
AcDbVertex
100
AcDb2dVertex
 10
-44.93372057655723
 20
461.8362888576019
 30
0.0
  0
SEQEND
  5
1C1
330
1B6
100
AcDbEntity
  8
0
  6
Continuous
 62
     7
370
    15
  0
POLYLINE
  5
1C2
330
24
100
AcDbEntity
  8
0
  6
Continuous
 62
     7
370
    15
100
AcDb2dPolyline
 66
     1
 10
0.0
 20
0.0
 30
0.0
 75
     5
  0
VERTEX
  5
1C3
330
1C2
100
AcDbEntity
  8
0
  6
Continuous
 62
     7
370
    15
100
AcDbVertex
100
AcDb2dVertex
 10
-44.93372057655723
 20
461.8362888576019
 30
0.0
  0
VERTEX
  5
1C4
330
1C2
100
AcDbEntity
  8
0
  6
Continuous
 62
     7
370
    15
100
AcDbVertex
100
AcDb2dVertex
 10
-42.18777595175688
 20
461.9096300676019
 30
0.0
  0
VERTEX
  5
1C5
330
1C2
100
AcDbEntity
  8
0
  6
Continuous
 62
     7
370
    15
100
AcDbVertex
100
AcDb2dVertex
 10
-38.1229732547571
 20
461.818559185602
 30
0.0
  0
VERTEX
  5
1C6
330
1C2
100
AcDbEntity
  8
0
  6
Continuous
 62
     7
370
    15
100
AcDbVertex
100
AcDb2dVertex
 10
-34.26171595875702
 20
461.4899867462018
 30
0.0
  0
VERTEX
  5
1C7
330
1C2
100
AcDbEntity
  8
0
  6
Continuous
 62
     7
370
    15
100
AcDbVertex
100
AcDb2dVertex
 10
-30.75238802835692
 20
460.9365400510019
 30
0.0
  0
VERTEX
  5
1C8
330
1C2
100
AcDbEntity
  8
0
  6
Continuous
 62
     7
370
    15
100
AcDbVertex
100
AcDb2dVertex
 10
-27.72985165815716
 20
460.1794875268019
 30
0.0
  0
VERTEX
  5
1C9
330
1C2
100
AcDbEntity
  8
0
  6
Continuous
 62
     7
370
    15
100
AcDbVertex
100
AcDb2dVertex
 10
-25.31026113475708
 20
459.2479222664019
 30
0.0
  0
VERTEX
  5
1CA
330
1C2
100
AcDbEntity
  8
0
  6
Continuous
 62
     7
370
    15
100
AcDbVertex
100
AcDb2dVertex
 10
-23.58659986095689
 20
458.177644025802
 30
0.0
  0
VERTEX
  5
1CB
330
1C2
100
AcDbEntity
  8
0
  6
Continuous
 62
     7
370
    15
100
AcDbVertex
100
AcDb2dVertex
 10
-22.858015192557
 20
457.407199744202
 30
0.0
  0
VERTEX
  5
1CC
330
1C2
100
AcDbEntity
  8
0
  6
Continuous
 62
     7
370
    15
100
AcDbVertex
100
AcDb2dVertex
 10
-22.48124373995724
 20
456.6064904120019
 30
0.0
  0
SEQEND
  5
1CD
330
1C2
100
AcDbEntity
  8
0
  6
Continuous
 62
     7
370
    15
  0
POLYLINE
  5
1CE
330
24
100
AcDbEntity
  8
0
  6
Continuous
 62
     7
370
    15
100
AcDb2dPolyline
 66
     1
 10
0.0
 20
0.0
 30
0.0
 75
     5
  0
VERTEX
  5
1CF
330
1CE
100
AcDbEntity
  8
0
  6
Continuous
 62
     7
370
    15
100
AcDbVertex
100
AcDb2dVertex
 10
-41.90535825635688
 20
449.4404458990018
 30
0.0
  0
VERTEX
  5
1D0
330
1CE
100
AcDbEntity
  8
0
  6
Continuous
 62
     7
370
    15
100
AcDbVertex
100
AcDb2dVertex
 10
-44.65130288115724
 20
449.367104689002
 30
0.0
  0
VERTEX
  5
1D1
330
1CE
100
AcDbEntity
  8
0
  6
Continuous
 62
     7
370
    15
100
AcDbVertex
100
AcDb2dVertex
 10
-48.7161055783571
 20
449.4581755710019
 30
0.0
  0
VERTEX
  5
1D2
330
1CE
100
AcDbEntity
  8
0
  6
Continuous
 62
     7
370
    15
100
AcDbVertex
100
AcDb2dVertex
 10
-52.57736287415709
 20
449.7867480104019
 30
0.0
  0
VERTEX
  5
1D3
330
1CE
100
AcDbEntity
  8
0
  6
Continuous
 62
     7
370
    15
100
AcDbVertex
100
AcDb2dVertex
 10
-56.08669080455674
 20
450.340194705602
 30
0.0
  0
VERTEX
  5
1D4
330
1CE
100
AcDbEntity
  8
0
  6
Continuous
 62
     7
370
    15
100
AcDbVertex
100
AcDb2dVertex
 10
-59.10922717475695
 20
451.097247229802
 30
0.0
  0
VERTEX
  5
1D5
330
1CE
100
AcDbEntity
  8
0
  6
Continuous
 62
     7
370
    15
100
AcDbVertex
100
AcDb2dVertex
 10
-61.52881769815703
 20
452.028812490202
 30
0.0
  0
VERTEX
  5
1D6
330
1CE
100
AcDbEntity
  8
0
  6
Continuous
 62
     7
370
    15
100
AcDbVertex
100
AcDb2dVertex
 10
-63.25247897195676
 20
453.0990907308019
 30
0.0
  0
VERTEX
  5
1D7
330
1CE
100
AcDbEntity
  8
0
  6
Continuous
 62
     7
370
    15
100
AcDbVertex
100
AcDb2dVertex
 10
-63.98106364035711
 20
453.8695350122018
 30
0.0
  0
VERTEX
  5
1D8
330
1CE
100
AcDbEntity
  8
0
  6
Continuous
 62
     7
370
    15
100
AcDbVertex
100
AcDb2dVertex
 10
-64.35783509315696
 20
454.670244344602
 30
0.0
  0
SEQEND
  5
1D9
330
1CE
100
AcDbEntity
  8
0
  6
Continuous
 62
     7
370
    15
  0
SPLINE
  5
1DA
330
24
100
AcDbEntity
  8
0
  6
Continuous
 62
     7
370
    15
100
AcDbSpline
210
0.0
220
0.0
230
1.0
 70
     8
 71
     2
 72
    18
 73
    15
 74
     0
 42
0.000000001
 43
0.000001
 40
0.0
 40
0.0
 40
0.0
 40
1.0
 40
1.0
 40
2.0
 40
3.0
 40
4.0
 40
5.0
 40
6.0
 40
7.0
 40
8.0
 40
9.0
 40
10.0
 40
10.0
 40
11.0
 40
11.0
 40
11.0
 10
-60.36192606462136
 20
510.4603157576466
 30
0.0
 10
-60.36779087036406
 20
510.4580336999333
 30
0.0
 10
-60.37365567610676
 20
510.45575164222
 30
0.0
 10
-60.55046073188068
 20
510.3874558978213
 30
0.0
 10
-60.89352646090391
 20
510.2488897960088
 30
0.0
 10
-61.56473095945547
 20
509.9227764119534
 30
0.0
 10
-61.98536132878998
 20
509.3988288299687
 30
0.0
 10
-61.98782677356566
 20
508.9082319598028
 30
0.0
 10
-61.67385262629968
 20
508.5038737410713
 30
0.0
 10
-61.27198037558345
 20
508.2168491899592
 30
0.0
 10
-60.71564321149607
 20
507.9563077298305
 30
0.0
 10
-60.03996770438597
 20
507.7181295432273
 30
0.0
 10
-59.68528874640823
 20
507.6021316974722
 30
0.0
 10
-59.67352504183067
 20
507.5982542478179
 30
0.0
 10
-59.66176133725311
 20
507.5943767981636
 30
0.0
  0
SPLINE
  5
1DB
330
24
100
AcDbEntity
  8
0
  6
Continuous
 62
     7
370
    15
100
AcDbSpline
210
0.0
220
0.0
230
1.0
 70
     8
 71
     2
 72
    11
 73
     8
 74
     0
 42
0.000000001
 43
0.000001
 40
0.0
 40
0.0
 40
0.0
 40
1.0
 40
1.0
 40
2.0
 40
3.0
 40
3.0
 40
4.0
 40
4.0
 40
4.0
 10
-60.36192606462136
 20
510.4603157576466
 30
0.0
 10
-60.38000478281937
 20
510.3256049294426
 30
0.0
 10
-60.39808350101738
 20
510.1908941012386
 30
0.0
 10
-62.26114639947481
 20
496.8014681760819
 30
0.0
 10
-64.53399582528245
 20
469.1348747273298
 30
0.0
 10
-64.35785492422418
 20
454.6716733470057
 30
0.0
 10
-64.35784481871828
 20
454.6709580683453
 30
0.0
 10
-64.35783471321237
 20
454.6702427896848
 30
0.0
  0
SPLINE
  5
1DC
330
24
100
AcDbEntity
  8
0
  6
Continuous
 62
     7
370
    15
100
AcDbSpline
210
0.0
220
0.0
230
1.0
 70
     8
 71
     2
 72
    11
 73
     8
 74
     0
 42
0.000000001
 43
0.000001
 40
0.0
 40
0.0
 40
0.0
 40
1.0
 40
1.0
 40
2.0
 40
3.0
 40
3.0
 40
4.0
 40
4.0
 40
4.0
 10
-64.35783471321237
 20
454.6702427896848
 30
0.0
 10
-64.35783232861958
 20
454.6709069434324
 30
0.0
 10
-64.35782994402679
 20
454.67157109718
 30
0.0
 10
-64.2504392688701
 20
468.0616827950716
 30
0.0
 10
-61.62788280569011
 20
494.2870312206769
 30
0.0
 10
-59.69972929615223
 20
507.3323660363296
 30
0.0
 10
-59.68074531670267
 20
507.4633714172466
 30
0.0
 10
-59.66176133725311
 20
507.5943767981636
 30
0.0
  0
ARC
  5
1DD
330
24
100
AcDbEntity
  8
0
  6
Continuous
 62
     7
370
    15
100
AcDbCircle
 10
-59.08766398935713
 20
510.5926902864018
 30
0.0
 40
1.281119374668466
100
AcDbArc
 50
80.82437539469885
 51
185.9308002246977
  0
ARC
  5
1DE
330
24
100
AcDbEntity
  8
0
  6
Continuous
 62
     7
370
    15
100
AcDbCircle
 10
-57.22282148595686
 20
507.664003480402
 30
0.0
 40
2.439933497701699
100
AcDbArc
 50
118.3985199090049
 51
181.6352317246011
  0
SPLINE
  5
1DF
330
24
100
AcDbEntity
  8
0
  6
Continuous
 62
     7
370
    15
100
AcDbSpline
210
0.0
220
0.0
230
1.0
 70
     8
 71
     2
 72
    18
 73
    15
 74
     0
 42
0.000000001
 43
0.000001
 40
0.0
 40
0.0
 40
0.0
 40
1.0
 40
1.0
 40
2.0
 40
3.0
 40
4.0
 40
5.0
 40
6.0
 40
7.0
 40
8.0
 40
9.0
 40
10.0
 40
10.0
 40
11.0
 40
11.0
 40
11.0
 10
-58.38325748178194
 20
509.8103174771583
 30
0.0
 10
-58.39042086628173
 20
509.8124537554403
 30
0.0
 10
-58.39758425078152
 20
509.8145900337224
 30
0.0
 10
-58.61370635941911
 20
509.878410486722
 30
0.0
 10
-59.0307062188016
 20
510.0094053270563
 30
0.0
 10
-59.56550072699555
 20
510.2194388213983
 30
0.0
 10
-59.98776147388743
 20
510.5671390093295
 30
0.0
 10
-60.0803467365953
 20
510.9530162805372
 30
0.0
 10
-59.91335062844509
 20
511.2410539455472
 30
0.0
 10
-59.63068476499383
 20
511.5123676364685
 30
0.0
 10
-59.20827772314159
 20
511.7174714752072
 30
0.0
 10
-58.99796805373661
 20
511.8089967123028
 30
0.0
 10
-58.89052214001084
 20
511.8543880170675
 30
0.0
 10
-58.88694863870764
 20
511.8559023616166
 30
0.0
 10
-58.88337513740443
 20
511.8574167061658
 30
0.0
  0
SPLINE
  5
1E0
330
24
100
AcDbEntity
  8
0
  6
Continuous
 62
     7
370
    15
100
AcDbSpline
210
0.0
220
0.0
230
1.0
 70
     8
 71
     2
 72
    11
 73
     8
 74
     0
 42
0.000000001
 43
0.000001
 40
0.0
 40
0.0
 40
0.0
 40
1.0
 40
1.0
 40
2.0
 40
3.0
 40
3.0
 40
4.0
 40
4.0
 40
4.0
 10
-22.48124411975131
 20
456.606491966875
 30
0.0
 10
-22.48128385511281
 20
456.6072058753297
 30
0.0
 10
-22.4813235904743
 20
456.6079197837844
 30
0.0
 10
-23.33090961561301
 20
471.0514233692572
 30
0.0
 10
-27.41548417547109
 20
498.406903052006
 30
0.0
 10
-30.05702331675174
 20
511.5937741852665
 30
0.0
 10
-30.08315326886226
 20
511.7264411494132
 30
0.0
 10
-30.10928322097278
 20
511.85910811356
 30
0.0
  0
SPLINE
  5
1E1
330
24
100
AcDbEntity
  8
0
  6
Continuous
 62
     7
370
    15
100
AcDbSpline
210
0.0
220
0.0
230
1.0
 70
     8
 71
     2
 72
    18
 73
    15
 74
     0
 42
0.000000001
 43
0.000001
 40
0.0
 40
0.0
 40
0.0
 40
1.0
 40
1.0
 40
2.0
 40
3.0
 40
4.0
 40
5.0
 40
6.0
 40
7.0
 40
8.0
 40
9.0
 40
10.0
 40
10.0
 40
11.0
 40
11.0
 40
11.0
 10
-29.40911849360454
 20
508.9931691540771
 30
0.0
 10
-29.40326514212246
 20
508.9958738240599
 30
0.0
 10
-29.39741179064039
 20
508.9985784940426
 30
0.0
 10
-29.22095183603541
 20
509.0796069667435
 30
0.0
 10
-28.87855824550196
 20
509.242972039495
 30
0.0
 10
-28.20869121375598
 20
509.6184321466075
 30
0.0
 10
-27.78903446881158
 20
510.1783061056528
 30
0.0
 10
-27.78678595969576
 20
510.6769044561497
 30
0.0
 10
-28.10037880049494
 20
511.067192812877
 30
0.0
 10
-28.50166178686176
 20
511.3324759913775
 30
0.0
 10
-29.057121940068
 20
511.5606595731571
 30
0.0
 10
-29.73169708116838
 20
511.758239052368
 30
0.0
 10
-30.08579436941308
 20
511.8527758214033
 30
0.0
 10
-30.09753879519293
 20
511.8559419674817
 30
0.0
 10
-30.10928322097278
 20
511.85910811356
 30
0.0
  0
SPLINE
  5
1E2
330
24
100
AcDbEntity
  8
0
  6
Continuous
 62
     7
370
    15
100
AcDbSpline
210
0.0
220
0.0
230
1.0
 70
     8
 71
     2
 72
    11
 73
     8
 74
     0
 42
0.000000001
 43
0.000001
 40
0.0
 40
0.0
 40
0.0
 40
1.0
 40
1.0
 40
2.0
 40
3.0
 40
3.0
 40
4.0
 40
4.0
 40
4.0
 10
-41.13843851885248
 20
514.4280998246218
 30
0.0
 10
-41.14272284460152
 20
514.3025175183312
 30
0.0
 10
-41.14700717035056
 20
514.1769352120407
 30
0.0
 10
-41.7200649010705
 20
495.6745657293984
 30
0.0
 10
-44.17455236432887
 20
469.3531109222522
 30
0.0
 10
-44.93358832287085
 20
461.8376658923385
 30
0.0
 10
-44.93365707613965
 20
461.8369772535051
 30
0.0
 10
-44.93372582940846
 20
461.8362886146717
 30
0.0
  0
SPLINE
  5
1E3
330
24
100
AcDbEntity
  8
0
  6
Continuous
 62
     7
370
    15
100
AcDbSpline
210
0.0
220
0.0
230
1.0
 70
     8
 71
     2
 72
    11
 73
     8
 74
     0
 42
0.000000001
 43
0.000001
 40
0.0
 40
0.0
 40
0.0
 40
1.0
 40
1.0
 40
2.0
 40
3.0
 40
3.0
 40
4.0
 40
4.0
 40
4.0
 10
-30.10928322097278
 20
511.85910811356
 30
0.0
 10
-30.16624460817128
 20
511.8735964820119
 30
0.0
 10
-30.22320599536978
 20
511.8880848504638
 30
0.0
 10
-33.7461674279697
 20
512.8054580881501
 30
0.0
 10
-39.05226096976311
 20
513.9882428210326
 30
0.0
 10
-41.02258737806086
 20
514.4035555533885
 30
0.0
 10
-41.08051294845667
 20
514.4158276890051
 30
0.0
 10
-41.13843851885248
 20
514.4280998246218
 30
0.0
  0
POLYLINE
  5
1E4
330
24
100
AcDbEntity
  8
0
  6
Continuous
 62
     7
370
    15
100
AcDb2dPolyline
 66
     1
 10
0.0
 20
0.0
 30
0.0
 75
     5
  0
VERTEX
  5
1E5
330
1E4
100
AcDbEntity
  8
0
  6
Continuous
 62
     7
370
    15
100
AcDbVertex
100
AcDb2dVertex
 10
-30.10928322095687
 20
511.8591081136018
 30
0.0
  0
VERTEX
  5
1E6
330
1E4
100
AcDbEntity
  8
0
  6
Continuous
 62
     7
370
    15
100
AcDbVertex
100
AcDb2dVertex
 10
-30.1629974449569
 20
512.1906886658019
 30
0.0
  0
VERTEX
  5
1E7
330
1E4
100
AcDbEntity
  8
0
  6
Continuous
 62
     7
370
    15
100
AcDbVertex
100
AcDb2dVertex
 10
-30.26011814375705
 20
512.4888787222019
 30
0.0
  0
VERTEX
  5
1E8
330
1E4
100
AcDbEntity
  8
0
  6
Continuous
 62
     7
370
    15
100
AcDbVertex
100
AcDb2dVertex
 10
-30.39731907215709
 20
512.7434660432018
 30
0.0
  0
VERTEX
  5
1E9
330
1E4
100
AcDbEntity
  8
0
  6
Continuous
 62
     7
370
    15
100
AcDbVertex
100
AcDb2dVertex
 10
-30.56990107375704
 20
512.945725331002
 30
0.0
  0
VERTEX
  5
1EA
330
1E4
100
AcDbEntity
  8
0
  6
Continuous
 62
     7
370
    15
100
AcDbVertex
100
AcDb2dVertex
 10
-30.77195389875705
 20
513.0887370446019
 30
0.0
  0
VERTEX
  5
1EB
330
1E4
100
AcDbEntity
  8
0
  6
Continuous
 62
     7
370
    15
100
AcDbVertex
100
AcDb2dVertex
 10
-30.99655790015676
 20
513.1676015186019
 30
0.0
  0
VERTEX
  5
1EC
330
1E4
100
AcDbEntity
  8
0
  6
Continuous
 62
     7
370
    15
100
AcDbVertex
100
AcDb2dVertex
 10
-31.23602015275709
 20
513.1796137780018
 30
0.0
  0
VERTEX
  5
1ED
330
1E4
100
AcDbEntity
  8
0
  6
Continuous
 62
     7
370
    15
100
AcDbVertex
100
AcDb2dVertex
 10
-31.48213971735676
 20
513.124368451402
 30
0.0
  0
SEQEND
  5
1EE
330
1E4
100
AcDbEntity
  8
0
  6
Continuous
 62
     7
370
    15
  0
ARC
  5
1EF
330
24
100
AcDbEntity
  8
0
  6
Continuous
 62
     7
370
    15
100
AcDbCircle
 10
-31.73855687955701
 20
508.8707025854018
 30
0.0
 40
2.332655408364367
100
AcDbArc
 50
3.009465077600423
 51
71.07540937109903
  0
SPLINE
  5
1F0
330
24
100
AcDbEntity
  8
0
  6
Continuous
 62
     7
370
    15
100
AcDbSpline
210
0.0
220
0.0
230
1.0
 70
     8
 71
     2
 72
    18
 73
    15
 74
     0
 42
0.000000001
 43
0.000001
 40
0.0
 40
0.0
 40
0.0
 40
1.0
 40
1.0
 40
2.0
 40
3.0
 40
4.0
 40
5.0
 40
6.0
 40
7.0
 40
8.0
 40
9.0
 40
10.0
 40
10.0
 40
11.0
 40
11.0
 40
11.0
 10
-31.4821397173704
 20
513.1243684513806
 30
0.0
 10
-31.47497633287084
 20
513.1222321730986
 30
0.0
 10
-31.46781294837128
 20
513.1200958948166
 30
0.0
 10
-31.25169083973368
 20
513.0562754418163
 30
0.0
 10
-30.83469098035074
 20
512.9252806014842
 30
0.0
 10
-30.2998964721577
 20
512.7152471071399
 30
0.0
 10
-29.87763572526536
 20
512.3675469192101
 30
0.0
 10
-29.78505046255795
 20
511.9816696480015
 30
0.0
 10
-29.95204657070771
 20
511.6936319829915
 30
0.0
 10
-30.23471243415942
 20
511.4223182920709
 30
0.0
 10
-30.6571194760112
 20
511.2172144533319
 30
0.0
 10
-30.86742914541573
 20
511.1256892162359
 30
0.0
 10
-30.97487505914195
 20
511.0802979114714
 30
0.0
 10
-30.97844856044493
 20
511.0787835669223
 30
0.0
 10
-30.98202206174791
 20
511.0772692223731
 30
0.0
  0
SPLINE
  5
1F1
330
24
100
AcDbEntity
  8
0
  6
Continuous
 62
     7
370
    15
100
AcDbSpline
210
0.0
220
0.0
230
1.0
 70
     8
 71
     2
 72
    11
 73
     8
 74
     0
 42
0.000000001
 43
0.000001
 40
0.0
 40
0.0
 40
0.0
 40
1.0
 40
1.0
 40
2.0
 40
3.0
 40
3.0
 40
4.0
 40
4.0
 40
4.0
 10
-50.82037443693379
 20
513.9804358627446
 30
0.0
 10
-50.86682379815046
 20
513.9644844443781
 30
0.0
 10
-50.91327315936714
 20
513.9485330260115
 30
0.0
 10
-54.36068473453351
 20
512.7859505597535
 30
0.0
 10
-58.91292801277577
 20
511.0338106047111
 30
0.0
 10
-60.27133323026409
 20
510.4961072324035
 30
0.0
 10
-60.31662964744272
 20
510.4782114950251
 30
0.0
 10
-60.36192606462136
 20
510.4603157576466
 30
0.0
  0
SPLINE
  5
1F2
330
24
100
AcDbEntity
  8
0
  6
Continuous
 62
     7
370
    15
100
AcDbSpline
210
0.0
220
0.0
230
1.0
 70
     8
 71
     2
 72
    11
 73
     8
 74
     0
 42
0.000000001
 43
0.000001
 40
0.0
 40
0.0
 40
0.0
 40
1.0
 40
1.0
 40
2.0
 40
3.0
 40
3.0
 40
4.0
 40
4.0
 40
4.0
 10
-44.93372582940846
 20
461.8362886146717
 30
0.0
 10
-44.93382979026127
 20
461.8369692677171
 30
0.0
 10
-44.93393375111408
 20
461.8376499207625
 30
0.0
 10
-46.36523797636973
 20
471.0069390616447
 30
0.0
 10
-49.75304526433719
 20
496.9542101243082
 30
0.0
 10
-50.80390703310276
 20
513.7304288430057
 30
0.0
 10
-50.81214073501827
 20
513.8554323528751
 30
0.0
 10
-50.82037443693379
 20
513.9804358627446
 30
0.0
  0
POLYLINE
  5
1F3
330
24
100
AcDbEntity
  8
0
  6
Continuous
 62
     7
370
    15
100
AcDb2dPolyline
 66
     1
 10
0.0
 20
0.0
 30
0.0
 75
     5
  0
VERTEX
  5
1F4
330
1F3
100
AcDbEntity
  8
0
  6
Continuous
 62
     7
370
    15
100
AcDbVertex
100
AcDb2dVertex
 10
-41.13843851875698
 20
514.428099824602
 30
0.0
  0
VERTEX
  5
1F5
330
1F3
100
AcDbEntity
  8
0
  6
Continuous
 62
     7
370
    15
100
AcDbVertex
100
AcDb2dVertex
 10
-41.19062767675713
 20
514.7593251472019
 30
0.0
  0
VERTEX
  5
1F6
330
1F3
100
AcDbEntity
  8
0
  6
Continuous
 62
     7
370
    15
100
AcDbVertex
100
AcDb2dVertex
 10
-41.28471162155701
 20
515.0568078608019
 30
0.0
  0
VERTEX
  5
1F7
330
1F3
100
AcDbEntity
  8
0
  6
Continuous
 62
     7
370
    15
100
AcDbVertex
100
AcDb2dVertex
 10
-41.41746901755722
 20
515.3103601614018
 30
0.0
  0
VERTEX
  5
1F8
330
1F3
100
AcDbEntity
  8
0
  6
Continuous
 62
     7
370
    15
100
AcDbVertex
100
AcDb2dVertex
 10
-41.584352792357
 20
515.511292176602
 30
0.0
  0
VERTEX
  5
1F9
330
1F3
100
AcDbEntity
  8
0
  6
Continuous
 62
     7
370
    15
100
AcDbVertex
100
AcDb2dVertex
 10
-41.77964702615681
 20
515.6527296296019
 30
0.0
  0
VERTEX
  5
1FA
330
1F3
100
AcDbEntity
  8
0
  6
Continuous
 62
     7
370
    15
100
AcDbVertex
100
AcDb2dVertex
 10
-41.99666442295701
 20
515.729826976002
 30
0.0
  0
VERTEX
  5
1FB
330
1F3
100
AcDbEntity
  8
0
  6
Continuous
 62
     7
370
    15
100
AcDbVertex
100
AcDb2dVertex
 10
-42.22797116355686
 20
515.739939593602
 30
0.0
  0
VERTEX
  5
1FC
330
1F3
100
AcDbEntity
  8
0
  6
Continuous
 62
     7
370
    15
100
AcDbVertex
100
AcDb2dVertex
 10
-42.46564653775694
 20
515.6827273844019
 30
0.0
  0
SEQEND
  5
1FD
330
1F3
100
AcDbEntity
  8
0
  6
Continuous
 62
     7
370
    15
  0
SPLINE
  5
1FE
330
24
100
AcDbEntity
  8
0
  6
Continuous
 62
     7
370
    15
100
AcDbSpline
210
0.0
220
0.0
230
1.0
 70
     8
 71
     2
 72
    10
 73
     7
 74
     0
 42
0.000000001
 43
0.000001
 40
0.0
 40
0.0
 40
0.0
 40
1.0
 40
1.0
 40
2.0
 40
2.0
 40
3.0
 40
3.0
 40
3.0
 10
-42.46564653781242
 20
515.6827273844108
 30
0.0
 10
-42.40787081707994
 20
515.6696169236316
 30
0.0
 10
-42.35009509634746
 20
515.6565064628523
 30
0.0
 10
-36.9096940720241
 20
514.4272488316415
 30
0.0
 10
-31.59541115358424
 20
513.1514467410657
 30
0.0
 10
-31.53877543547732
 20
513.1379075962232
 30
0.0
 10
-31.4821397173704
 20
513.1243684513806
 30
0.0
  0
ARC
  5
1FF
330
24
100
AcDbEntity
  8
0
  6
Continuous
 62
     7
370
    15
100
AcDbCircle
 10
-49.58232533735681
 20
514.1319814440019
 30
0.0
 40
1.247289716231599
100
AcDbArc
 50
80.72589856040086
 51
186.9786742276043
  0
SPLINE
  5
200
330
24
100
AcDbEntity
  8
0
  6
Continuous
 62
     7
370
    15
100
AcDbSpline
210
0.0
220
0.0
230
1.0
 70
     8
 71
     2
 72
    10
 73
     7
 74
     0
 42
0.000000001
 43
0.000001
 40
0.0
 40
0.0
 40
0.0
 40
1.0
 40
1.0
 40
2.0
 40
2.0
 40
3.0
 40
3.0
 40
3.0
 10
-58.88337513740443
 20
511.8574167061658
 30
0.0
 10
-58.8383128608083
 20
511.8744116570149
 30
0.0
 10
-58.79325058421217
 20
511.8914066078641
 30
0.0
 10
-54.20488690454603
 20
513.6270760589534
 30
0.0
 10
-49.4739225234929
 20
515.3295429259535
 30
0.0
 10
-49.42761874020961
 20
515.3462551709658
 30
0.0
 10
-49.38131495692632
 20
515.3629674159781
 30
0.0
  0
SPLINE
  5
201
330
24
100
AcDbEntity
  8
0
  6
Continuous
 62
     7
370
    15
100
AcDbSpline
210
0.0
220
0.0
230
1.0
 70
     8
 71
     2
 72
    16
 73
    13
 74
     0
 42
0.000000001
 43
0.000001
 40
0.0
 40
0.0
 40
0.0
 40
1.0
 40
1.0
 40
2.0
 40
3.0
 40
4.0
 40
5.0
 40
6.0
 40
7.0
 40
8.0
 40
8.0
 40
9.0
 40
9.0
 40
9.0
 10
-41.13843851885248
 20
514.4280998246218
 30
0.0
 10
-41.14875944848781
 20
514.430403059401
 30
0.0
 10
-41.15908037812314
 20
514.4327062941802
 30
0.0
 10
-41.46751357518396
 20
514.5024658524776
 30
0.0
 10
-42.70611595078925
 20
514.7586618070322
 30
0.0
 10
-44.52496385383655
 20
514.8736393467093
 30
0.0
 10
-45.96851951933185
 20
514.8658857971161
 30
0.0
 10
-47.41030186382149
 20
514.7633775945408
 30
0.0
 10
-49.02916824463263
 20
514.5240909471847
 30
0.0
 10
-50.28767709693501
 20
514.156274882976
 30
0.0
 10
-50.78691954343084
 20
513.9913476793181
 30
0.0
 10
-50.80364699018232
 20
513.9858917710313
 30
0.0
 10
-50.82037443693379
 20
513.9804358627446
 30
0.0
  0
SPLINE
  5
202
330
24
100
AcDbEntity
  8
0
  6
Continuous
 62
     7
370
    15
100
AcDbSpline
210
0.0
220
0.0
230
1.0
 70
     8
 71
     2
 72
    16
 73
    13
 74
     0
 42
0.000000001
 43
0.000001
 40
0.0
 40
0.0
 40
0.0
 40
1.0
 40
1.0
 40
2.0
 40
3.0
 40
4.0
 40
5.0
 40
6.0
 40
7.0
 40
8.0
 40
8.0
 40
9.0
 40
9.0
 40
9.0
 10
-49.38131495692632
 20
515.3629674159781
 30
0.0
 10
-49.37021804706286
 20
515.3662889855563
 30
0.0
 10
-49.35912113719941
 20
515.3696105551344
 30
0.0
 10
-49.07193566564582
 20
515.4565449123629
 30
0.0
 10
-48.16197652403834
 20
515.7150567045758
 30
0.0
 10
-47.14013797126553
 20
515.8517902543051
 30
0.0
 10
-45.95818091756054
 20
515.9675812008895
 30
0.0
 10
-44.52315727802524
 20
515.9474287257867
 30
0.0
 10
-43.42595740732885
 20
515.8641975278333
 30
0.0
 10
-42.68412032795494
 20
515.7261883996982
 30
0.0
 10
-42.47932874740435
 20
515.6854299035494
 30
0.0
 10
-42.47248764260839
 20
515.6840786439801
 30
0.0
 10
-42.46564653781242
 20
515.6827273844108
 30
0.0
  0
LINE
  5
203
330
24
100
AcDbEntity
  8
0
  6
Continuous
 62
     7
370
    15
100
AcDbLine
 10
-22.61331329575695
 20
455.3203765050018
 30
0.0
 11
-22.69024461835706
 21
460.4458840678019
 31
0.0
  0
SPLINE
  5
204
330
24
100
AcDbEntity
  8
0
  6
Continuous
 62
     7
370
    15
100
AcDbSpline
210
0.0
220
0.0
230
1.0
 70
     8
 71
     2
 72
    11
 73
     8
 74
     0
 42
0.000000001
 43
0.000001
 40
0.0
 40
0.0
 40
0.0
 40
1.0
 40
1.0
 40
2.0
 40
3.0
 40
3.0
 40
4.0
 40
4.0
 40
4.0
 10
-61.94267742662568
 20
509.2156845111094
 30
0.0
 10
-61.95364245685927
 20
509.109459041841
 30
0.0
 10
-61.96460748709286
 20
509.0032335725727
 30
0.0
 10
-62.59507169014923
 20
503.1122709550329
 30
0.0
 10
-64.37839717699025
 20
478.476316281316
 30
0.0
 10
-64.35755459069732
 20
459.2359146133699
 30
0.0
 10
-64.35768413707264
 20
459.0926175210881
 30
0.0
 10
-64.35781368344796
 20
458.9493204288062
 30
0.0
  0
SPLINE
  5
205
330
24
100
AcDbEntity
  8
0
  6
Continuous
 62
     7
370
    15
100
AcDbSpline
210
0.0
220
0.0
230
1.0
 70
     8
 71
     2
 72
    17
 73
    14
 74
     0
 42
0.000000001
 43
0.000001
 40
0.0
 40
0.0
 40
0.0
 40
1.0
 40
1.0
 40
2.0
 40
3.0
 40
4.0
 40
5.0
 40
6.0
 40
7.0
 40
8.0
 40
9.0
 40
9.0
 40
10.0
 40
10.0
 40
10.0
 10
-59.52504354193788
 20
511.8102073084708
 30
0.0
 10
-59.52655196369291
 20
511.8097300006232
 30
0.0
 10
-59.52806038544794
 20
511.8092526927757
 30
0.0
 10
-59.85103970341096
 20
511.7119305147393
 30
0.0
 10
-60.3489224929789
 20
511.4664301303578
 30
0.0
 10
-60.75651689011774
 20
511.1961242327902
 30
0.0
 10
-61.18378932531404
 20
510.8487313180644
 30
0.0
 10
-61.50550928410338
 20
510.4717197879526
 30
0.0
 10
-61.72320425767147
 20
510.1339379316361
 30
0.0
 10
-61.86170905182452
 20
509.7566290644738
 30
0.0
 10
-61.94098747128818
 20
509.4292653057127
 30
0.0
 10
-61.97585295312264
 20
509.2630008432638
 30
0.0
 10
-61.97703184658589
 20
509.2574677193787
 30
0.0
 10
-61.97821074004914
 20
509.2519345954935
 30
0.0
  0
SPLINE
  5
206
330
24
100
AcDbEntity
  8
0
  6
Continuous
 62
     7
370
    15
100
AcDbSpline
210
0.0
220
0.0
230
1.0
 70
     8
 71
     2
 72
    11
 73
     8
 74
     0
 42
0.000000001
 43
0.000001
 40
0.0
 40
0.0
 40
0.0
 40
1.0
 40
1.0
 40
2.0
 40
3.0
 40
3.0
 40
4.0
 40
4.0
 40
4.0
 10
-22.63643202353741
 20
459.6439069522444
 30
0.0
 10
-22.64044640933606
 20
459.7196302349844
 30
0.0
 10
-22.64446079513472
 20
459.7953535177244
 30
0.0
 10
-23.61436505938345
 20
478.5429678264786
 30
0.0
 10
-26.72006517567242
 20
503.5268288608281
 30
0.0
 10
-27.79847808110607
 20
510.2686127299316
 30
0.0
 10
-27.8188314357143
 20
510.3980948966729
 30
0.0
 10
-27.83918479032253
 20
510.5275770634143
 30
0.0
  0
SPLINE
  5
207
330
24
100
AcDbEntity
  8
0
  6
Continuous
 62
     7
370
    15
100
AcDbSpline
210
0.0
220
0.0
230
1.0
 70
     8
 71
     2
 72
    17
 73
    14
 74
     0
 42
0.000000001
 43
0.000001
 40
0.0
 40
0.0
 40
0.0
 40
1.0
 40
1.0
 40
2.0
 40
3.0
 40
4.0
 40
5.0
 40
6.0
 40
7.0
 40
8.0
 40
9.0
 40
9.0
 40
10.0
 40
10.0
 40
10.0
 10
-27.83021460154249
 20
510.530757919939
 30
0.0
 10
-27.83030086286307
 20
510.5328083316276
 30
0.0
 10
-27.83038712418364
 20
510.5348587433161
 30
0.0
 10
-27.83275936910822
 20
510.5964207828162
 30
0.0
 10
-27.84764431524799
 20
510.865485291536
 30
0.0
 10
-27.9948429621917
 20
511.2400888590277
 30
0.0
 10
-28.42474508946397
 20
511.9149042748192
 30
0.0
 10
-29.1805596424232
 20
512.4879609606053
 30
0.0
 10
-29.84609095159239
 20
512.8235738562171
 30
0.0
 10
-30.39172168324275
 20
512.9973885617819
 30
0.0
 10
-30.77496259444924
 20
513.0960673692473
 30
0.0
 10
-30.96932783993942
 20
513.1430167240637
 30
0.0
 10
-30.97579705869943
 20
513.1445900714409
 30
0.0
 10
-30.98226627745943
 20
513.1461634188181
 30
0.0
  0
LINE
  5
208
330
24
100
AcDbEntity
  8
0
  6
Continuous
 62
     7
370
    15
100
AcDbLine
 10
-64.36415011915723
 20
459.7889715404019
 30
0.0
 11
-64.19893231255709
 21
456.0144562154019
 31
0.0
  0
SPLINE
  5
209
330
24
100
AcDbEntity
  8
0
  6
Continuous
 62
     7
370
    15
100
AcDbSpline
210
0.0
220
0.0
230
1.0
 70
     8
 71
     2
 72
    10
 73
     7
 74
     0
 42
0.000000001
 43
0.000001
 40
0.0
 40
0.0
 40
0.0
 40
1.0
 40
1.0
 40
2.0
 40
2.0
 40
3.0
 40
3.0
 40
3.0
 10
-30.98451230702075
 20
513.1522662076002
 30
0.0
 10
-31.03966645011737
 20
513.1656436699984
 30
0.0
 10
-31.09482059321398
 20
513.1790211323967
 30
0.0
 10
-36.38698175612889
 20
514.4695926618438
 30
0.0
 10
-41.86808775435237
 20
515.6935781044419
 30
0.0
 10
-41.92756937403637
 20
515.7069414511852
 30
0.0
 10
-41.98705099372036
 20
515.7203047979285
 30
0.0
  0
SPLINE
  5
20A
330
24
100
AcDbEntity
  8
0
  6
Continuous
 62
     7
370
    15
100
AcDbSpline
210
0.0
220
0.0
230
1.0
 70
     8
 71
     2
 72
    11
 73
     8
 74
     0
 42
0.000000001
 43
0.000001
 40
0.0
 40
0.0
 40
0.0
 40
1.0
 40
1.0
 40
2.0
 40
3.0
 40
3.0
 40
4.0
 40
4.0
 40
4.0
 10
-49.98131431303445
 20
515.3307536752834
 30
0.0
 10
-50.02615862369738
 20
515.314766008944
 30
0.0
 10
-50.07100293436032
 20
515.2987783426047
 30
0.0
 10
-53.49080466968316
 20
514.0887880448524
 30
0.0
 10
-58.02640766145659
 20
512.3858569171507
 30
0.0
 10
-59.43193919291151
 20
511.8508138753679
 30
0.0
 10
-59.47881790955888
 20
511.8329857525584
 30
0.0
 10
-59.52569662620625
 20
511.8151576297489
 30
0.0
  0
SPLINE
  5
20B
330
24
100
AcDbEntity
  8
0
  6
Continuous
 62
     7
370
    15
100
AcDbSpline
210
0.0
220
0.0
230
1.0
 70
     8
 71
     2
 72
    15
 73
    12
 74
     0
 42
0.000000001
 43
0.000001
 40
0.0
 40
0.0
 40
0.0
 40
1.0
 40
1.0
 40
2.0
 40
3.0
 40
4.0
 40
5.0
 40
6.0
 40
7.0
 40
7.0
 40
8.0
 40
8.0
 40
8.0
 10
-41.98594438017371
 20
515.7168838864754
 30
0.0
 10
-41.98758180392691
 20
515.7173454349077
 30
0.0
 10
-41.98921922768012
 20
515.7178069833399
 30
0.0
 10
-42.39445714924786
 20
515.834920069592
 30
0.0
 10
-43.49783808772862
 20
515.9758160303836
 30
0.0
 10
-44.99794322889865
 20
516.0672816320573
 30
0.0
 10
-46.92276162985981
 20
515.9957807446497
 30
0.0
 10
-48.74731802672649
 20
515.7220031948489
 30
0.0
 10
-49.70510734649078
 20
515.426812772175
 30
0.0
 10
-49.97470701206966
 20
515.3375363052182
 30
0.0
 10
-49.98371601084672
 20
515.3345750331805
 30
0.0
 10
-49.99272500962378
 20
515.3316137611428
 30
0.0
  0
ENDBLK
  5
20C
330
24
100
AcDbEntity
  8
一般
100
AcDbBlockEnd
  0
BLOCK
  5
20D
330
25
100
AcDbEntity
  8
一般
100
AcDbBlockBegin
  2
*U1
 70
     1
 10
0.0
 20
0.0
 30
0.0
  3
*U1
  1

  0
INSERT
  5
20E
330
25
100
AcDbEntity
  8
一般
 62
     7
100
AcDbBlockReference
  2
*U0
 10
0.0
 20
0.0
 30
0.0
  0
ENDBLK
  5
20F
330
25
100
AcDbEntity
  8
一般
100
AcDbBlockEnd
  0
ENDSEC
  0
SECTION
  2
ENTITIES
  0
MTEXT
  5
210
330
A
100
AcDbEntity
  8
0
 62
     7
100
AcDbMText
 10
238.3931928942253
 20
105.1762233631724
 30
0.0
 40
3.275681268910827
 41
0.0
 46
3.331367850482311
 71
     1
 72
     1
  1
{HFD-D100P/B/E}
  7
Arial
 73
     1
 44
0.9673603504928809
  0
INSERT
  5
211
330
A
100
AcDbEntity
  8
一般
 62
     7
100
AcDbBlockReference
  2
*U1
 10
212.362179524072
 20
148.6319329760527
 30
0.0
 41
0.2
 42
0.2
 43
0.2
 50
358.4191757062284
  0
ENDSEC
  0
SECTION
  2
OBJECTS
  0
DICTIONARY
  5
19
330
0
100
AcDbDictionary
281
     1
  3
ACAD_DETAILVIEWSTYLE
350
25B
  3
ACAD_GROUP
350
1A
  3
ACAD_LAYOUT
350
1E
  3
ACAD_MATERIAL
350
24D
  3
ACAD_MLEADERSTYLE
350
253
  3
ACAD_MLINESTYLE
350
1B
  3
ACAD_PLOTSETTINGS
350
22
  3
ACAD_PLOTSTYLENAME
350
1F
  3
ACAD_SCALELIST
350
212
  3
ACAD_SECTIONVIEWSTYLE
350
25C
  3
ACAD_TABLESTYLE
350
251
  3
ACAD_VISUALSTYLE
350
234
  3
ACAD_WIPEOUT_VARS
350
23
  3
ACDB_RECOMPOSE_DATA
350
271
  3
AcDbVariableDictionary
350
256
  3
APPDATA
350
255
  0
SUN
  5
25D
330
15
100
AcDbSun
 90
        1
290
     0
 63
     7
421
 16777215
 40
1.0
291
     1
 91
  2455826
 92
 54000000
292
     0
 70
     2
 71
   256
280
     1
  0
DICTIONARY
  5
25B
102
{ACAD_REACTORS
330
19
102
}
330
19
100
AcDbDictionary
281
     1
  0
DICTIONARY
  5
1A
102
{ACAD_REACTORS
330
19
102
}
330
19
100
AcDbDictionary
281
     1
  0
DICTIONARY
  5
1E
102
{ACAD_REACTORS
330
19
102
}
330
19
100
AcDbDictionary
281
     1
  3
Layout1
350
21
  3
Model
350
20
  0
DICTIONARY
  5
24D
102
{ACAD_REACTORS
330
19
102
}
330
19
100
AcDbDictionary
281
     1
  3
ByBlock
350
24F
  3
ByLayer
350
24E
  3
Global
350
250
  0
DICTIONARY
  5
253
102
{ACAD_REACTORS
330
19
102
}
330
19
100
AcDbDictionary
281
     1
  3
Standard
350
254
  0
DICTIONARY
  5
1B
102
{ACAD_REACTORS
330
19
102
}
330
19
100
AcDbDictionary
281
     1
  3
Standard
350
1C
  0
DICTIONARY
  5
22
102
{ACAD_REACTORS
330
19
102
}
330
19
100
AcDbDictionary
281
     1
  0
ACDBDICTIONARYWDFLT
  5
1F
102
{ACAD_REACTORS
330
19
102
}
330
19
100
AcDbDictionary
281
     1
  3
Normal
350
1D
100
AcDbDictionaryWithDefault
340
1D
  0
DICTIONARY
  5
212
102
{ACAD_REACTORS
330
19
102
}
330
19
100
AcDbDictionary
281
     1
  3
A0
350
213
  3
A1
350
214
  3
A2
350
215
  3
A3
350
216
  3
A4
350
217
  3
A5
350
218
  3
A6
350
219
  3
A7
350
21A
  3
A8
350
21B
  3
A9
350
21C
  3
B0
350
21D
  3
B1
350
21E
  3
B2
350
21F
  3
B3
350
220
  3
B4
350
221
  3
B5
350
222
  3
B6
350
223
  3
B7
350
224
  3
B8
350
225
  3
B9
350
226
  3
C0
350
227
  3
C1
350
228
  3
C2
350
229
  3
C3
350
22A
  3
C4
350
22B
  3
C5
350
22C
  3
C6
350
22D
  3
C7
350
22E
  3
C8
350
22F
  3
C9
350
230
  3
D0
350
231
  3
D1
350
232
  3
D2
350
233
  0
DICTIONARY
  5
25C
102
{ACAD_REACTORS
330
19
102
}
330
19
100
AcDbDictionary
281
     1
  0
DICTIONARY
  5
251
102
{ACAD_REACTORS
330
19
102
}
330
19
100
AcDbDictionary
281
     1
  3
Standard
350
252
  0
DICTIONARY
  5
234
102
{ACAD_REACTORS
330
19
102
}
330
19
100
AcDbDictionary
281
     1
  3
2dWireframe
350
239
  3
Basic
350
23C
  3
Brighten
350
240
  3
ColorChange
350
244
  3
Conceptual
350
23E
  3
Dim
350
23F
  3
EdgeColorOff
350
247
  3
Facepattern
350
243
  3
Flat
350
235
  3
FlatWithEdges
350
236
  3
Gouraud
350
237
  3
GouraudWithEdges
350
238
  3
Hidden
350
23B
  3
JitterOff
350
245
  3
Linepattern
350
242
  3
OverhangOff
350
246
  3
Realistic
350
23D
  3
Shaded
350
24C
  3
Shaded with edges
350
24B
  3
Shades of Gray
350
248
  3
Sketchy
350
249
  3
Thicken
350
241
  3
Wireframe
350
23A
  3
X-Ray
350
24A
  0
WIPEOUTVARIABLES
  5
23
330
19
100
AcDbWipeoutVariables
 70
     1
  0
XRECORD
  5
271
102
{ACAD_REACTORS
330
19
102
}
330
19
100
AcDbXrecord
280
     1
 90
        1
330
252
  0
DICTIONARY
  5
256
102
{ACAD_REACTORS
330
19
102
}
330
19
100
AcDbDictionary
281
     1
  3
CANNOSCALE
350
257
  3
CMLEADERSTYLE
350
259
  3
CTABLESTYLE
350
258
  3
MSLTSCALE
350
25A
  0
DICTIONARY
  5
255
102
{ACAD_REACTORS
330
19
102
}
330
19
100
AcDbDictionary
281
     1
  0
LAYOUT
  5
21
102
{ACAD_REACTORS
330
1E
102
}
330
1E
100
AcDbPlotSettings
  1

  2

  4

  6

 40
0.0
 41
0.0
 42
0.0
 43
0.0
 44
0.0
 45
0.0
 46
0.0
 47
0.0
 48
0.0
 49
0.0
140
0.0
141
0.0
142
1.0
143
1.0
 70
     0
 72
     0
 73
     0
 74
     0
  7

 75
     0
 76
     0
 77
     2
 78
   300
147
1.0
148
0.0
149
0.0
100
AcDbLayout
  1
Layout1
 70
     0
 71
     0
 10
0.0
 20
0.0
 11
0.0
 21
0.0
 12
0.0
 22
0.0
 32
0.0
 14
0.0
 24
0.0
 34
0.0
 15
0.0
 25
0.0
 35
0.0
146
0.0
 13
0.0
 23
0.0
 33
0.0
 16
0.0
 26
0.0
 36
0.0
 17
0.0
 27
0.0
 37
0.0
 76
     0
330
B
  0
LAYOUT
  5
20
102
{ACAD_REACTORS
330
1E
102
}
330
1E
100
AcDbPlotSettings
  1

  2

  4

  6

 40
0.0
 41
0.0
 42
0.0
 43
0.0
 44
0.0
 45
0.0
 46
0.0
 47
0.0
 48
0.0
 49
0.0
140
0.0
141
0.0
142
1.0
143
1.0
 70
  1024
 72
     0
 73
     0
 74
     0
  7

 75
     0
 76
     0
 77
     2
 78
   300
147
1.0
148
0.0
149
0.0
100
AcDbLayout
  1
Model
 70
     0
 71
     1
 10
0.0
 20
0.0
 11
0.0
 21
0.0
 12
0.0
 22
0.0
 32
0.0
 14
191.1729731293983
 24
59.58841269976057
 34
0.0
 15
271.3203410093169
 25
256.9840057017913
 35
0.0
146
0.0
 13
0.0
 23
0.0
 33
0.0
 16
0.0
 26
0.0
 36
0.0
 17
0.0
 27
0.0
 37
0.0
 76
     0
330
A
331
15
  0
MATERIAL
  5
24F
102
{ACAD_REACTORS
330
24D
102
}
330
24D
100
AcDbMaterial
  1
ByBlock
 72
     1
 94
      127
  0
MATERIAL
  5
24E
102
{ACAD_REACTORS
330
24D
102
}
330
24D
100
AcDbMaterial
  1
ByLayer
 72
     1
 94
      127
  0
MATERIAL
  5
250
102
{ACAD_REACTORS
330
24D
102
}
330
24D
100
AcDbMaterial
  1
Global
 72
     1
 94
      127
  0
MLEADERSTYLE
  5
254
102
{ACAD_REACTORS
330
253
102
}
330
253
100
AcDbMLeaderStyle
179
     2
170
     2
171
     1
172
     0
 90
        2
 40
0.0
 41
0.0
173
     1
 91
-1056964608
340
11
 92
       -2
290
     1
 42
2.0
291
     1
 43
8.0
  3
Standard
341
0
 44
4.0
300

342
17
174
     1
178
     1
175
     1
176
     0
 93
-1056964608
 45
4.0
292
     0
297
     0
 46
4.0
343
0
 94
-1056964608
 47
1.0
 49
1.0
140
1.0
293
     1
141
0.0
294
     1
177
     0
142
1.0
295
     0
296
     0
143
3.75
271
     0
272
     9
273
     9
298
     0
  0
MLINESTYLE
  5
1C
102
{ACAD_REACTORS
330
1B
102
}
330
1B
100
AcDbMlineStyle
  2
Standard
 70
     0
  3

 62
     0
 51
90.0
 52
90.0
 71
     2
 49
0.5
 62
   256
  6
BYLAYER
 49
-0.5
 62
   256
  6
BYLAYER
  0
ACDBPLACEHOLDER
  5
1D
102
{ACAD_REACTORS
330
1F
102
}
330
1F
  0
SCALE
  5
213
102
{ACAD_REACTORS
330
212
102
}
330
212
100
AcDbScale
 70
     0
300
1:1
140
1.0
141
1.0
290
     1
  0
SCALE
  5
214
102
{ACAD_REACTORS
330
212
102
}
330
212
100
AcDbScale
 70
     0
300
1:2
140
1.0
141
2.0
290
     0
  0
SCALE
  5
215
102
{ACAD_REACTORS
330
212
102
}
330
212
100
AcDbScale
 70
     0
300
1:4
140
1.0
141
4.0
290
     0
  0
SCALE
  5
216
102
{ACAD_REACTORS
330
212
102
}
330
212
100
AcDbScale
 70
     0
300
1:5
140
1.0
141
5.0
290
     0
  0
SCALE
  5
217
102
{ACAD_REACTORS
330
212
102
}
330
212
100
AcDbScale
 70
     0
300
1:8
140
1.0
141
8.0
290
     0
  0
SCALE
  5
218
102
{ACAD_REACTORS
330
212
102
}
330
212
100
AcDbScale
 70
     0
300
1:10
140
1.0
141
10.0
290
     0
  0
SCALE
  5
219
102
{ACAD_REACTORS
330
212
102
}
330
212
100
AcDbScale
 70
     0
300
1:16
140
1.0
141
16.0
290
     0
  0
SCALE
  5
21A
102
{ACAD_REACTORS
330
212
102
}
330
212
100
AcDbScale
 70
     0
300
1:20
140
1.0
141
20.0
290
     0
  0
SCALE
  5
21B
102
{ACAD_REACTORS
330
212
102
}
330
212
100
AcDbScale
 70
     0
300
1:30
140
1.0
141
30.0
290
     0
  0
SCALE
  5
21C
102
{ACAD_REACTORS
330
212
102
}
330
212
100
AcDbScale
 70
     0
300
1:40
140
1.0
141
40.0
290
     0
  0
SCALE
  5
21D
102
{ACAD_REACTORS
330
212
102
}
330
212
100
AcDbScale
 70
     0
300
1:50
140
1.0
141
50.0
290
     0
  0
SCALE
  5
21E
102
{ACAD_REACTORS
330
212
102
}
330
212
100
AcDbScale
 70
     0
300
1:100
140
1.0
141
100.0
290
     0
  0
SCALE
  5
21F
102
{ACAD_REACTORS
330
212
102
}
330
212
100
AcDbScale
 70
     0
300
2:1
140
2.0
141
1.0
290
     0
  0
SCALE
  5
220
102
{ACAD_REACTORS
330
212
102
}
330
212
100
AcDbScale
 70
     0
300
4:1
140
4.0
141
1.0
290
     0
  0
SCALE
  5
221
102
{ACAD_REACTORS
330
212
102
}
330
212
100
AcDbScale
 70
     0
300
8:1
140
8.0
141
1.0
290
     0
  0
SCALE
  5
222
102
{ACAD_REACTORS
330
212
102
}
330
212
100
AcDbScale
 70
     0
300
10:1
140
10.0
141
1.0
290
     0
  0
SCALE
  5
223
102
{ACAD_REACTORS
330
212
102
}
330
212
100
AcDbScale
 70
     0
300
100:1
140
100.0
141
1.0
290
     0
  0
SCALE
  5
224
102
{ACAD_REACTORS
330
212
102
}
330
212
100
AcDbScale
 70
     0
300
1/128" = 1'-0"
140
0.0078125
141
12.0
290
     0
  0
SCALE
  5
225
102
{ACAD_REACTORS
330
212
102
}
330
212
100
AcDbScale
 70
     0
300
1/64" = 1'-0"
140
0.015625
141
12.0
290
     0
  0
SCALE
  5
226
102
{ACAD_REACTORS
330
212
102
}
330
212
100
AcDbScale
 70
     0
300
1/32" = 1'-0"
140
0.03125
141
12.0
290
     0
  0
SCALE
  5
227
102
{ACAD_REACTORS
330
212
102
}
330
212
100
AcDbScale
 70
     0
300
1/16" = 1'-0"
140
0.0625
141
12.0
290
     0
  0
SCALE
  5
228
102
{ACAD_REACTORS
330
212
102
}
330
212
100
AcDbScale
 70
     0
300
3/32" = 1'-0"
140
0.09375
141
12.0
290
     0
  0
SCALE
  5
229
102
{ACAD_REACTORS
330
212
102
}
330
212
100
AcDbScale
 70
     0
300
1/8" = 1'-0"
140
0.125
141
12.0
290
     0
  0
SCALE
  5
22A
102
{ACAD_REACTORS
330
212
102
}
330
212
100
AcDbScale
 70
     0
300
3/16" = 1'-0"
140
0.1875
141
12.0
290
     0
  0
SCALE
  5
22B
102
{ACAD_REACTORS
330
212
102
}
330
212
100
AcDbScale
 70
     0
300
1/4" = 1'-0"
140
0.25
141
12.0
290
     0
  0
SCALE
  5
22C
102
{ACAD_REACTORS
330
212
102
}
330
212
100
AcDbScale
 70
     0
300
3/8" = 1'-0"
140
0.375
141
12.0
290
     0
  0
SCALE
  5
22D
102
{ACAD_REACTORS
330
212
102
}
330
212
100
AcDbScale
 70
     0
300
1/2" = 1'-0"
140
0.5
141
12.0
290
     0
  0
SCALE
  5
22E
102
{ACAD_REACTORS
330
212
102
}
330
212
100
AcDbScale
 70
     0
300
3/4" = 1'-0"
140
0.75
141
12.0
290
     0
  0
SCALE
  5
22F
102
{ACAD_REACTORS
330
212
102
}
330
212
100
AcDbScale
 70
     0
300
1" = 1'-0"
140
1.0
141
12.0
290
     0
  0
SCALE
  5
230
102
{ACAD_REACTORS
330
212
102
}
330
212
100
AcDbScale
 70
     0
300
1-1/2" = 1'-0"
140
1.5
141
12.0
290
     0
  0
SCALE
  5
231
102
{ACAD_REACTORS
330
212
102
}
330
212
100
AcDbScale
 70
     0
300
3" = 1'-0"
140
3.0
141
12.0
290
     0
  0
SCALE
  5
232
102
{ACAD_REACTORS
330
212
102
}
330
212
100
AcDbScale
 70
     0
300
6" = 1'-0"
140
6.0
141
12.0
290
     0
  0
SCALE
  5
233
102
{ACAD_REACTORS
330
212
102
}
330
212
100
AcDbScale
 70
     0
300
1'-0" = 1'-0"
140
12.0
141
12.0
290
     0
  0
TABLESTYLE
  5
252
102
{ACAD_REACTORS
330
251
102
}
102
{ACAD_XDICTIONARY
360
26F
102
}
330
251
100
AcDbTableStyle
  3
Standard
 70
     0
 71
     0
 40
1.5
 41
1.5
280
     0
281
     0
  7
Standard
140
4.5
170
     2
 62
     0
 63
   257
283
     0
 90
        4
 91
        0
  1

274
    -2
284
     1
 64
     0
275
    -2
285
     1
 65
     0
276
    -2
286
     1
 66
     0
277
    -2
287
     1
 67
     0
278
    -2
288
     1
 68
     0
279
    -2
289
     1
 69
     0
  7
Standard
140
6.0
170
     5
 62
     0
 63
   257
283
     0
 90
        4
 91
        0
  1

274
    -2
284
     1
 64
     0
275
    -2
285
     1
 65
     0
276
    -2
286
     1
 66
     0
277
    -2
287
     1
 67
     0
278
    -2
288
     1
 68
     0
279
    -2
289
     1
 69
     0
  7
Standard
140
4.5
170
     5
 62
     0
 63
   257
283
     0
 90
        4
 91
        0
  1

274
    -2
284
     1
 64
     0
275
    -2
285
     1
 65
     0
276
    -2
286
     1
 66
     0
277
    -2
287
     1
 67
     0
278
    -2
288
     1
 68
     0
279
    -2
289
     1
 69
     0
  0
VISUALSTYLE
  5
239
102
{ACAD_REACTORS
330
234
102
}
330
234
100
AcDbVisualStyle
  2
2dWireframe
 70
     4
177
     3
291
     0
 70
    58
 90
        0
176
     1
 90
        2
176
     1
 90
        0
176
     1
 90
        0
176
     1
 40
0.6
176
     1
 40
30.0
176
     1
 62
     7
420
 16777215
176
     1
 90
        1
176
     1
 90
        4
176
     1
 62
     7
176
     1
 62
   257
176
     1
 90
        1
176
     1
 90
        1
176
     1
 40
1.0
176
     1
 90
        0
176
     1
 62
   257
176
     1
 40
1.0
176
     1
 90
        1
176
     1
 90
        6
176
     1
 90
        2
176
     1
 62
     7
176
     1
 90
        5
176
     1
 90
        0
176
     1
 90
        0
176
     1
290
     0
176
     1
 90
        1
176
     1
 40
0.0
176
     1
 90
        0
176
     1
290
     1
176
     1
290
     1
176
     1
290
     0
176
     1
290
     0
176
     1
290
     0
176
     1
290
     0
176
     1
290
     0
176
     1
290
     0
176
     1
290
     0
176
     1
 90
       50
176
     1
 40
0.0
176
     1
 40
1.0
176
     1
 90
        0
176
     1
 62
    18
420
        0
176
     1
 90
       50
176
     1
 90
        3
176
     1
 62
     5
420
      255
176
     1
290
     0
176
     1
 90
       50
176
     1
 90
       50
176
     1
 90
       50
176
     1
290
     0
176
     1
 90
       50
176
     1
 62
   256
176
     0
 40
1.0
176
     0
 90
        2
176
     1
  1
strokes_ogs.tif
176
     1
290
     0
176
     1
 40
1.0
176
     1
 40
1.0
176
     1
  0
VISUALSTYLE
  5
23C
102
{ACAD_REACTORS
330
234
102
}
330
234
100
AcDbVisualStyle
  2
Basic
 70
     7
177
     3
291
     1
 70
    58
 90
        1
176
     1
 90
        0
176
     1
 90
        1
176
     1
 90
        0
176
     1
 40
0.6
176
     1
 40
30.0
176
     1
 62
     7
420
 16777215
176
     1
 90
        0
176
     1
 90
        4
176
     1
 62
     7
176
     1
 62
   257
176
     1
 90
        1
176
     1
 90
        1
176
     1
 40
1.0
176
     1
 90
        8
176
     1
 62
     7
176
     1
 40
1.0
176
     1
 90
        1
176
     1
 90
        6
176
     1
 90
        2
176
     1
 62
     7
176
     1
 90
        5
176
     1
 90
        0
176
     1
 90
        0
176
     1
290
     0
176
     1
 90
        1
176
     1
 40
0.0
176
     1
 90
        0
176
     1
290
     0
176
     1
290
     1
176
     1
290
     1
176
     1
290
     0
176
     1
290
     0
176
     1
290
     0
176
     1
290
     0
176
     1
290
     0
176
     1
290
     0
176
     1
 90
       50
176
     1
 40
0.0
176
     1
 40
1.0
176
     1
 90
        0
176
     1
 62
    18
420
        0
176
     1
 90
       50
176
     1
 90
        3
176
     1
 62
     5
420
      255
176
     1
290
     0
176
     1
 90
       50
176
     1
 90
       50
176
     1
 90
       50
176
     1
290
     0
176
     1
 90
       50
176
     1
 62
   256
176
     0
 40
1.0
176
     0
 90
        2
176
     1
  1
strokes_ogs.tif
176
     1
290
     0
176
     1
 40
1.0
176
     1
 40
1.0
176
     1
  0
VISUALSTYLE
  5
240
102
{ACAD_REACTORS
330
234
102
}
330
234
100
AcDbVisualStyle
  2
Brighten
 70
    12
177
     3
291
     1
 70
    58
 90
        2
176
     1
 90
        2
176
     1
 90
        0
176
     1
 90
        0
176
     1
 40
0.6
176
     1
 40
30.0
176
     1
 62
     7
420
 16777215
176
     1
 90
        1
176
     1
 90
        4
176
     1
 62
     7
176
     1
 62
   257
176
     1
 90
        1
176
     1
 90
        1
176
     1
 40
1.0
176
     1
 90
        8
176
     1
 62
     7
176
     1
 40
1.0
176
     1
 90
        1
176
     1
 90
        6
176
     1
 90
        2
176
     1
 62
     7
176
     1
 90
        5
176
     1
 90
        0
176
     1
 90
        0
176
     1
290
     0
176
     1
 90
        1
176
     1
 40
50.0
176
     1
 90
        0
176
     1
290
     0
176
     1
290
     1
176
     1
290
     1
176
     1
290
     0
176
     1
290
     0
176
     1
290
     0
176
     1
290
     0
176
     1
290
     0
176
     1
290
     0
176
     1
 90
       50
176
     1
 40
0.0
176
     1
 40
1.0
176
     1
 90
        0
176
     1
 62
    18
420
        0
176
     1
 90
       50
176
     1
 90
        3
176
     1
 62
     5
420
      255
176
     1
290
     0
176
     1
 90
       50
176
     1
 90
       50
176
     1
 90
       50
176
     1
290
     0
176
     1
 90
       50
176
     1
 62
   256
176
     0
 40
1.0
176
     0
 90
        2
176
     1
  1
strokes_ogs.tif
176
     1
290
     0
176
     1
 40
1.0
176
     1
 40
1.0
176
     1
  0
VISUALSTYLE
  5
244
102
{ACAD_REACTORS
330
234
102
}
330
234
100
AcDbVisualStyle
  2
ColorChange
 70
    16
177
     3
291
     1
 70
    58
 90
        2
176
     1
 90
        2
176
     1
 90
        3
176
     1
 90
        0
176
     1
 40
0.6
176
     1
 40
30.0
176
     1
 62
     8
420
  8421504
176
     1
 90
        1
176
     1
 90
        4
176
     1
 62
     7
176
     1
 62
   257
176
     1
 90
        1
176
     1
 90
        1
176
     1
 40
1.0
176
     1
 90
        8
176
     1
 62
     8
420
  8421504
176
     1
 40
1.0
176
     1
 90
        1
176
     1
 90
        6
176
     1
 90
        2
176
     1
 62
     7
176
     1
 90
        5
176
     1
 90
        0
176
     1
 90
        0
176
     1
290
     0
176
     1
 90
        1
176
     1
 40
0.0
176
     1
 90
        0
176
     1
290
     0
176
     1
290
     1
176
     1
290
     1
176
     1
290
     0
176
     1
290
     0
176
     1
290
     0
176
     1
290
     0
176
     1
290
     0
176
     1
290
     0
176
     1
 90
       50
176
     1
 40
0.0
176
     1
 40
1.0
176
     1
 90
        0
176
     1
 62
    18
420
        0
176
     1
 90
       50
176
     1
 90
        3
176
     1
 62
     5
420
      255
176
     1
290
     0
176
     1
 90
       50
176
     1
 90
       50
176
     1
 90
       50
176
     1
290
     0
176
     1
 90
       50
176
     1
 62
   256
176
     0
 40
1.0
176
     0
 90
        2
176
     1
  1
strokes_ogs.tif
176
     1
290
     0
176
     1
 40
1.0
176
     1
 40
1.0
176
     1
  0
VISUALSTYLE
  5
23E
102
{ACAD_REACTORS
330
234
102
}
330
234
100
AcDbVisualStyle
  2
Conceptual
 70
     9
177
     3
291
     0
 70
    58
 90
        3
176
     1
 90
        2
176
     1
 90
        0
176
     1
 90
        0
176
     1
 40
0.6
176
     1
 40
30.0
176
     1
 62
     7
420
 16777215
176
     1
 90
        2
176
     1
 90
        2
176
     1
 62
     7
176
     1
 62
   257
176
     1
 90
        1
176
     1
 90
        1
176
     1
 40
179.0
176
     1
 90
        8
176
     1
 62
     7
176
     1
 40
1.0
176
     1
 90
        1
176
     1
 90
        6
176
     1
 90
        2
176
     1
 62
     7
176
     1
 90
        3
176
     1
 90
        0
176
     1
 90
        0
176
     1
290
     0
176
     1
 90
        1
176
     1
 40
0.0
176
     1
 90
        0
176
     1
290
     0
176
     1
290
     1
176
     1
290
     1
176
     1
290
     0
176
     1
290
     0
176
     1
290
     0
176
     1
290
     0
176
     1
290
     0
176
     1
290
     0
176
     1
 90
       50
176
     1
 40
0.0
176
     1
 40
1.0
176
     1
 90
        0
176
     1
 62
    18
420
        0
176
     1
 90
       50
176
     1
 90
        3
176
     1
 62
     5
420
      255
176
     1
290
     0
176
     1
 90
       50
176
     1
 90
       50
176
     1
 90
       50
176
     1
290
     0
176
     1
 90
       50
176
     1
 62
   256
176
     0
 40
1.0
176
     0
 90
        2
176
     1
  1
strokes_ogs.tif
176
     1
290
     0
176
     1
 40
1.0
176
     1
 40
1.0
176
     1
  0
VISUALSTYLE
  5
23F
102
{ACAD_REACTORS
330
234
102
}
330
234
100
AcDbVisualStyle
  2
Dim
 70
    11
177
     3
291
     1
 70
    58
 90
        2
176
     1
 90
        2
176
     1
 90
        0
176
     1
 90
        0
176
     1
 40
0.6
176
     1
 40
30.0
176
     1
 62
     7
420
 16777215
176
     1
 90
        1
176
     1
 90
        4
176
     1
 62
     7
176
     1
 62
   257
176
     1
 90
        1
176
     1
 90
        1
176
     1
 40
1.0
176
     1
 90
        8
176
     1
 62
     7
176
     1
 40
1.0
176
     1
 90
        1
176
     1
 90
        6
176
     1
 90
        2
176
     1
 62
     7
176
     1
 90
        5
176
     1
 90
        0
176
     1
 90
        0
176
     1
290
     0
176
     1
 90
        1
176
     1
 40
-50.0
176
     1
 90
        0
176
     1
290
     0
176
     1
290
     1
176
     1
290
     1
176
     1
290
     0
176
     1
290
     0
176
     1
290
     0
176
     1
290
     0
176
     1
290
     0
176
     1
290
     0
176
     1
 90
       50
176
     1
 40
0.0
176
     1
 40
1.0
176
     1
 90
        0
176
     1
 62
    18
420
        0
176
     1
 90
       50
176
     1
 90
        3
176
     1
 62
     5
420
      255
176
     1
290
     0
176
     1
 90
       50
176
     1
 90
       50
176
     1
 90
       50
176
     1
290
     0
176
     1
 90
       50
176
     1
 62
   256
176
     0
 40
1.0
176
     0
 90
        2
176
     1
  1
strokes_ogs.tif
176
     1
290
     0
176
     1
 40
1.0
176
     1
 40
1.0
176
     1
  0
VISUALSTYLE
  5
247
102
{ACAD_REACTORS
330
234
102
}
330
234
100
AcDbVisualStyle
  2
EdgeColorOff
 70
    22
177
     3
291
     1
 70
    58
 90
        2
176
     0
 90
        2
176
     0
 90
        0
176
     0
 90
        0
176
     0
 40
0.6
176
     0
 40
30.0
176
     0
 62
     7
420
 16777215
176
     0
 90
        1
176
     0
 90
        4
176
     0
 62
     7
176
     0
 62
   257
176
     0
 90
        1
176
     0
 90
        1
176
     0
 40
1.0
176
     0
 90
        8
176
     2
 62
     7
176
     0
 40
1.0
176
     0
 90
        1
176
     0
 90
        6
176
     0
 90
        2
176
     0
 62
     7
176
     0
 90
        5
176
     0
 90
        0
176
     0
 90
        0
176
     0
290
     0
176
     0
 90
        1
176
     0
 40
0.0
176
     0
 90
        0
176
     0
290
     0
176
     0
290
     1
176
     0
290
     1
176
     0
290
     0
176
     0
290
     0
176
     0
290
     0
176
     0
290
     0
176
     0
290
     0
176
     0
290
     0
176
     0
 90
       50
176
     0
 40
0.0
176
     0
 40
1.0
176
     0
 90
        0
176
     0
 62
    18
420
        0
176
     0
 90
       50
176
     0
 90
        3
176
     0
 62
     5
420
      255
176
     0
290
     0
176
     0
 90
       50
176
     0
 90
       50
176
     0
 90
       50
176
     0
290
     0
176
     0
 90
       50
176
     0
 62
   256
176
     0
 40
1.0
176
     0
 90
        2
176
     0
  1
strokes_ogs.tif
176
     0
290
     0
176
     0
 40
1.0
176
     0
 40
1.0
176
     0
  0
VISUALSTYLE
  5
243
102
{ACAD_REACTORS
330
234
102
}
330
234
100
AcDbVisualStyle
  2
Facepattern
 70
    15
177
     3
291
     1
 70
    58
 90
        2
176
     1
 90
        2
176
     1
 90
        0
176
     1
 90
        0
176
     1
 40
0.6
176
     1
 40
30.0
176
     1
 62
     7
420
 16777215
176
     1
 90
        1
176
     1
 90
        4
176
     1
 62
     7
176
     1
 62
   257
176
     1
 90
        1
176
     1
 90
        1
176
     1
 40
1.0
176
     1
 90
        8
176
     1
 62
     7
176
     1
 40
1.0
176
     1
 90
        1
176
     1
 90
        6
176
     1
 90
        2
176
     1
 62
     7
176
     1
 90
        5
176
     1
 90
        0
176
     1
 90
        0
176
     1
290
     0
176
     1
 90
        1
176
     1
 40
0.0
176
     1
 90
        0
176
     1
290
     0
176
     1
290
     1
176
     1
290
     1
176
     1
290
     0
176
     1
290
     0
176
     1
290
     0
176
     1
290
     0
176
     1
290
     0
176
     1
290
     0
176
     1
 90
       50
176
     1
 40
0.0
176
     1
 40
1.0
176
     1
 90
        0
176
     1
 62
    18
420
        0
176
     1
 90
       50
176
     1
 90
        3
176
     1
 62
     5
420
      255
176
     1
290
     0
176
     1
 90
       50
176
     1
 90
       50
176
     1
 90
       50
176
     1
290
     0
176
     1
 90
       50
176
     1
 62
   256
176
     0
 40
1.0
176
     0
 90
        2
176
     1
  1
strokes_ogs.tif
176
     1
290
     0
176
     1
 40
1.0
176
     1
 40
1.0
176
     1
  0
VISUALSTYLE
  5
235
102
{ACAD_REACTORS
330
234
102
}
330
234
100
AcDbVisualStyle
  2
Flat
 70
     0
177
     3
291
     1
 70
    58
 90
        2
176
     1
 90
        1
176
     1
 90
        1
176
     1
 90
        2
176
     1
 40
0.6
176
     1
 40
30.0
176
     1
 62
     7
420
 16777215
176
     1
 90
        0
176
     1
 90
        0
176
     1
 62
     7
176
     1
 62
   257
176
     1
 90
        1
176
     1
 90
        1
176
     1
 40
1.0
176
     1
 90
        8
176
     1
 62
     7
176
     1
 40
1.0
176
     1
 90
        1
176
     1
 90
        6
176
     1
 90
        2
176
     1
 62
     7
176
     1
 90
        5
176
     1
 90
        0
176
     1
 90
        0
176
     1
290
     0
176
     1
 90
       13
176
     1
 40
0.0
176
     1
 90
        0
176
     1
290
     0
176
     1
290
     1
176
     1
290
     1
176
     1
290
     0
176
     1
290
     0
176
     1
290
     0
176
     1
290
     0
176
     1
290
     0
176
     1
290
     0
176
     1
 90
       50
176
     1
 40
0.0
176
     1
 40
1.0
176
     1
 90
        0
176
     1
 62
    18
420
        0
176
     1
 90
       50
176
     1
 90
        3
176
     1
 62
     5
420
      255
176
     1
290
     0
176
     1
 90
       50
176
     1
 90
       50
176
     1
 90
       50
176
     1
290
     0
176
     1
 90
       50
176
     1
 62
   256
176
     0
 40
1.0
176
     0
 90
        2
176
     1
  1
strokes_ogs.tif
176
     1
290
     0
176
     1
 40
1.0
176
     1
 40
1.0
176
     1
  0
VISUALSTYLE
  5
236
102
{ACAD_REACTORS
330
234
102
}
330
234
100
AcDbVisualStyle
  2
FlatWithEdges
 70
     1
177
     3
291
     1
 70
    58
 90
        2
176
     1
 90
        1
176
     1
 90
        1
176
     1
 90
        2
176
     1
 40
0.6
176
     1
 40
30.0
176
     1
 62
     7
420
 16777215
176
     1
 90
        1
176
     1
 90
        0
176
     1
 62
     7
176
     1
 62
   257
176
     1
 90
        1
176
     1
 90
        1
176
     1
 40
1.0
176
     1
 90
        0
176
     1
 62
   257
176
     1
 40
1.0
176
     1
 90
        1
176
     1
 90
        6
176
     1
 90
        2
176
     1
 62
     7
176
     1
 90
        5
176
     1
 90
        0
176
     1
 90
        0
176
     1
290
     0
176
     1
 90
       13
176
     1
 40
0.0
176
     1
 90
        0
176
     1
290
     0
176
     1
290
     1
176
     1
290
     1
176
     1
290
     0
176
     1
290
     0
176
     1
290
     0
176
     1
290
     0
176
     1
290
     0
176
     1
290
     0
176
     1
 90
       50
176
     1
 40
0.0
176
     1
 40
1.0
176
     1
 90
        0
176
     1
 62
    18
420
        0
176
     1
 90
       50
176
     1
 90
        3
176
     1
 62
     5
420
      255
176
     1
290
     0
176
     1
 90
       50
176
     1
 90
       50
176
     1
 90
       50
176
     1
290
     0
176
     1
 90
       50
176
     1
 62
   256
176
     0
 40
1.0
176
     0
 90
        2
176
     1
  1
strokes_ogs.tif
176
     1
290
     0
176
     1
 40
1.0
176
     1
 40
1.0
176
     1
  0
VISUALSTYLE
  5
237
102
{ACAD_REACTORS
330
234
102
}
330
234
100
AcDbVisualStyle
  2
Gouraud
 70
     2
177
     3
291
     1
 70
    58
 90
        2
176
     1
 90
        2
176
     1
 90
        1
176
     1
 90
        2
176
     1
 40
0.6
176
     1
 40
30.0
176
     1
 62
     7
420
 16777215
176
     1
 90
        0
176
     1
 90
        0
176
     1
 62
     7
176
     1
 62
   257
176
     1
 90
        1
176
     1
 90
        1
176
     1
 40
1.0
176
     1
 90
        0
176
     1
 62
     7
176
     1
 40
1.0
176
     1
 90
        1
176
     1
 90
        6
176
     1
 90
        2
176
     1
 62
     7
176
     1
 90
        5
176
     1
 90
        0
176
     1
 90
        0
176
     1
290
     0
176
     1
 90
       13
176
     1
 40
0.0
176
     1
 90
        0
176
     1
290
     0
176
     1
290
     1
176
     1
290
     1
176
     1
290
     0
176
     1
290
     0
176
     1
290
     0
176
     1
290
     0
176
     1
290
     0
176
     1
290
     0
176
     1
 90
       50
176
     1
 40
0.0
176
     1
 40
1.0
176
     1
 90
        0
176
     1
 62
    18
420
        0
176
     1
 90
       50
176
     1
 90
        3
176
     1
 62
     5
420
      255
176
     1
290
     0
176
     1
 90
       50
176
     1
 90
       50
176
     1
 90
       50
176
     1
290
     0
176
     1
 90
       50
176
     1
 62
   256
176
     0
 40
1.0
176
     0
 90
        2
176
     1
  1
strokes_ogs.tif
176
     1
290
     0
176
     1
 40
1.0
176
     1
 40
1.0
176
     1
  0
VISUALSTYLE
  5
238
102
{ACAD_REACTORS
330
234
102
}
330
234
100
AcDbVisualStyle
  2
GouraudWithEdges
 70
     3
177
     3
291
     1
 70
    58
 90
        2
176
     1
 90
        2
176
     1
 90
        1
176
     1
 90
        2
176
     1
 40
0.6
176
     1
 40
30.0
176
     1
 62
     7
420
 16777215
176
     1
 90
        1
176
     1
 90
        0
176
     1
 62
     7
176
     1
 62
   257
176
     1
 90
        1
176
     1
 90
        1
176
     1
 40
1.0
176
     1
 90
        0
176
     1
 62
   257
176
     1
 40
1.0
176
     1
 90
        1
176
     1
 90
        6
176
     1
 90
        2
176
     1
 62
     7
176
     1
 90
        5
176
     1
 90
        0
176
     1
 90
        0
176
     1
290
     0
176
     1
 90
       13
176
     1
 40
0.0
176
     1
 90
        0
176
     1
290
     0
176
     1
290
     1
176
     1
290
     1
176
     1
290
     0
176
     1
290
     0
176
     1
290
     0
176
     1
290
     0
176
     1
290
     0
176
     1
290
     0
176
     1
 90
       50
176
     1
 40
0.0
176
     1
 40
1.0
176
     1
 90
        0
176
     1
 62
    18
420
        0
176
     1
 90
       50
176
     1
 90
        3
176
     1
 62
     5
420
      255
176
     1
290
     0
176
     1
 90
       50
176
     1
 90
       50
176
     1
 90
       50
176
     1
290
     0
176
     1
 90
       50
176
     1
 62
   256
176
     0
 40
1.0
176
     0
 90
        2
176
     1
  1
strokes_ogs.tif
176
     1
290
     0
176
     1
 40
1.0
176
     1
 40
1.0
176
     1
  0
VISUALSTYLE
  5
23B
102
{ACAD_REACTORS
330
234
102
}
330
234
100
AcDbVisualStyle
  2
Hidden
 70
     6
177
     3
291
     0
 70
    58
 90
        1
176
     1
 90
        2
176
     1
 90
        2
176
     1
 90
        0
176
     1
 40
0.6
176
     1
 40
30.0
176
     1
 62
     7
420
 16777215
176
     1
 90
        2
176
     1
 90
        2
176
     1
 62
     7
176
     1
 62
   257
176
     1
 90
        2
176
     1
 90
        1
176
     1
 40
40.0
176
     1
 90
        0
176
     1
 62
   257
176
     1
 40
1.0
176
     1
 90
        1
176
     1
 90
        6
176
     1
 90
        2
176
     1
 62
     7
176
     1
 90
        3
176
     1
 90
        0
176
     1
 90
        0
176
     1
290
     0
176
     1
 90
        1
176
     1
 40
0.0
176
     1
 90
        0
176
     1
290
     0
176
     1
290
     1
176
     1
290
     1
176
     1
290
     0
176
     1
290
     0
176
     1
290
     0
176
     1
290
     0
176
     1
290
     0
176
     1
290
     0
176
     1
 90
       50
176
     1
 40
0.0
176
     1
 40
1.0
176
     1
 90
        0
176
     1
 62
    18
420
        0
176
     1
 90
       50
176
     1
 90
        3
176
     1
 62
     5
420
      255
176
     1
290
     0
176
     1
 90
       50
176
     1
 90
       50
176
     1
 90
       50
176
     1
290
     0
176
     1
 90
       50
176
     1
 62
   256
176
     0
 40
1.0
176
     0
 90
        2
176
     1
  1
strokes_ogs.tif
176
     1
290
     0
176
     1
 40
1.0
176
     1
 40
1.0
176
     1
  0
VISUALSTYLE
  5
245
102
{ACAD_REACTORS
330
234
102
}
330
234
100
AcDbVisualStyle
  2
JitterOff
 70
    20
177
     3
291
     1
 70
    58
 90
        2
176
     0
 90
        2
176
     0
 90
        0
176
     0
 90
        0
176
     0
 40
0.6
176
     0
 40
30.0
176
     0
 62
     7
420
 16777215
176
     0
 90
        1
176
     0
 90
        4
176
     0
 62
     7
176
     0
 62
   257
176
     0
 90
        1
176
     0
 90
        1
176
     0
 40
1.0
176
     0
 90
       10
176
     2
 62
     7
176
     0
 40
1.0
176
     0
 90
        1
176
     0
 90
        6
176
     0
 90
        2
176
     0
 62
     7
176
     0
 90
        5
176
     0
 90
        0
176
     0
 90
        0
176
     0
290
     0
176
     0
 90
        1
176
     0
 40
0.0
176
     0
 90
        0
176
     0
290
     0
176
     0
290
     1
176
     0
290
     1
176
     0
290
     0
176
     0
290
     0
176
     0
290
     0
176
     0
290
     0
176
     0
290
     0
176
     0
290
     0
176
     0
 90
       50
176
     0
 40
0.0
176
     0
 40
1.0
176
     0
 90
        0
176
     0
 62
    18
420
        0
176
     0
 90
       50
176
     0
 90
        3
176
     0
 62
     5
420
      255
176
     0
290
     0
176
     0
 90
       50
176
     0
 90
       50
176
     0
 90
       50
176
     0
290
     0
176
     0
 90
       50
176
     0
 62
   256
176
     0
 40
1.0
176
     0
 90
        2
176
     0
  1
strokes_ogs.tif
176
     0
290
     0
176
     0
 40
1.0
176
     0
 40
1.0
176
     0
  0
VISUALSTYLE
  5
242
102
{ACAD_REACTORS
330
234
102
}
330
234
100
AcDbVisualStyle
  2
Linepattern
 70
    14
177
     3
291
     1
 70
    58
 90
        2
176
     1
 90
        2
176
     1
 90
        0
176
     1
 90
        0
176
     1
 40
0.6
176
     1
 40
30.0
176
     1
 62
     7
420
 16777215
176
     1
 90
        1
176
     1
 90
        4
176
     1
 62
     7
176
     1
 62
   257
176
     1
 90
        7
176
     1
 90
        7
176
     1
 40
1.0
176
     1
 90
        8
176
     1
 62
     7
176
     1
 40
1.0
176
     1
 90
        1
176
     1
 90
        6
176
     1
 90
        2
176
     1
 62
     7
176
     1
 90
        5
176
     1
 90
        0
176
     1
 90
        0
176
     1
290
     0
176
     1
 90
        1
176
     1
 40
0.0
176
     1
 90
        0
176
     1
290
     0
176
     1
290
     1
176
     1
290
     1
176
     1
290
     0
176
     1
290
     0
176
     1
290
     0
176
     1
290
     0
176
     1
290
     0
176
     1
290
     0
176
     1
 90
       50
176
     1
 40
0.0
176
     1
 40
1.0
176
     1
 90
        0
176
     1
 62
    18
420
        0
176
     1
 90
       50
176
     1
 90
        3
176
     1
 62
     5
420
      255
176
     1
290
     0
176
     1
 90
       50
176
     1
 90
       50
176
     1
 90
       50
176
     1
290
     0
176
     1
 90
       50
176
     1
 62
   256
176
     0
 40
1.0
176
     0
 90
        2
176
     1
  1
strokes_ogs.tif
176
     1
290
     0
176
     1
 40
1.0
176
     1
 40
1.0
176
     1
  0
VISUALSTYLE
  5
246
102
{ACAD_REACTORS
330
234
102
}
330
234
100
AcDbVisualStyle
  2
OverhangOff
 70
    21
177
     3
291
     1
 70
    58
 90
        2
176
     0
 90
        2
176
     0
 90
        0
176
     0
 90
        0
176
     0
 40
0.6
176
     0
 40
30.0
176
     0
 62
     7
420
 16777215
176
     0
 90
        1
176
     0
 90
        4
176
     0
 62
     7
176
     0
 62
   257
176
     0
 90
        1
176
     0
 90
        1
176
     0
 40
1.0
176
     0
 90
        9
176
     2
 62
     7
176
     0
 40
1.0
176
     0
 90
        1
176
     0
 90
        6
176
     0
 90
        2
176
     0
 62
     7
176
     0
 90
        5
176
     0
 90
        0
176
     0
 90
        0
176
     0
290
     0
176
     0
 90
        1
176
     0
 40
0.0
176
     0
 90
        0
176
     0
290
     0
176
     0
290
     1
176
     0
290
     1
176
     0
290
     0
176
     0
290
     0
176
     0
290
     0
176
     0
290
     0
176
     0
290
     0
176
     0
290
     0
176
     0
 90
       50
176
     0
 40
0.0
176
     0
 40
1.0
176
     0
 90
        0
176
     0
 62
    18
420
        0
176
     0
 90
       50
176
     0
 90
        3
176
     0
 62
     5
420
      255
176
     0
290
     0
176
     0
 90
       50
176
     0
 90
       50
176
     0
 90
       50
176
     0
290
     0
176
     0
 90
       50
176
     0
 62
   256
176
     0
 40
1.0
176
     0
 90
        2
176
     0
  1
strokes_ogs.tif
176
     0
290
     0
176
     0
 40
1.0
176
     0
 40
1.0
176
     0
  0
VISUALSTYLE
  5
23D
102
{ACAD_REACTORS
330
234
102
}
330
234
100
AcDbVisualStyle
  2
Realistic
 70
     8
177
     3
291
     0
 70
    58
 90
        2
176
     1
 90
        3
176
     1
 90
        0
176
     1
 90
        2
176
     1
 40
0.6
176
     1
 40
30.0
176
     1
 62
     7
420
 16777215
176
     1
 90
        0
176
     1
 90
        0
176
     1
 62
     7
176
     1
 62
   257
176
     1
 90
        1
176
     1
 90
        1
176
     1
 40
1.0
176
     1
 90
        8
176
     1
 62
   257
176
     1
 40
1.0
176
     1
 90
        1
176
     1
 90
        6
176
     1
 90
        2
176
     1
 62
     7
176
     1
 90
        3
176
     1
 90
        0
176
     1
 90
        0
176
     1
290
     0
176
     1
 90
       13
176
     1
 40
0.0
176
     1
 90
        0
176
     1
290
     0
176
     1
290
     1
176
     1
290
     1
176
     1
290
     0
176
     1
290
     0
176
     1
290
     0
176
     1
290
     0
176
     1
290
     0
176
     1
290
     0
176
     1
 90
       50
176
     1
 40
0.0
176
     1
 40
1.0
176
     1
 90
        0
176
     1
 62
    18
420
        0
176
     1
 90
       50
176
     1
 90
        3
176
     1
 62
     5
420
      255
176
     1
290
     0
176
     1
 90
       50
176
     1
 90
       50
176
     1
 90
       50
176
     1
290
     0
176
     1
 90
       50
176
     1
 62
   256
176
     0
 40
1.0
176
     0
 90
        2
176
     1
  1
strokes_ogs.tif
176
     1
290
     0
176
     1
 40
1.0
176
     1
 40
1.0
176
     1
  0
VISUALSTYLE
  5
24C
102
{ACAD_REACTORS
330
234
102
}
330
234
100
AcDbVisualStyle
  2
Shaded
 70
    27
177
     3
291
     0
 70
    58
 90
        2
176
     1
 90
        2
176
     1
 90
        1
176
     1
 90
        2
176
     1
 40
0.6
176
     1
 40
30.0
176
     1
 62
     7
420
 16777215
176
     1
 90
        0
176
     1
 90
        4
176
     1
 62
     7
176
     1
 62
   257
176
     1
 90
        1
176
     1
 90
        1
176
     1
 40
1.0
176
     1
 90
        8
176
     1
 62
   257
176
     1
 40
1.0
176
     1
 90
        1
176
     1
 90
        6
176
     1
 90
        2
176
     1
 62
     8
420
  7895160
176
     1
 90
        3
176
     1
 90
        0
176
     1
 90
        0
176
     1
290
     0
176
     1
 90
        5
176
     1
 40
0.0
176
     1
 90
        0
176
     1
290
     0
176
     1
290
     1
176
     1
290
     1
176
     1
290
     0
176
     1
290
     0
176
     1
290
     0
176
     1
290
     0
176
     1
290
     0
176
     1
290
     0
176
     1
 90
       50
176
     1
 40
0.0
176
     1
 40
1.0
176
     1
 90
        0
176
     1
 62
    18
420
        0
176
     1
 90
       50
176
     1
 90
        3
176
     1
 62
     5
420
      255
176
     1
290
     0
176
     1
 90
       50
176
     1
 90
       50
176
     1
 90
       50
176
     1
290
     0
176
     1
 90
       50
176
     1
 62
   256
176
     0
 40
1.0
176
     0
 90
        2
176
     1
  1
strokes_ogs.tif
176
     1
290
     0
176
     1
 40
1.0
176
     1
 40
1.0
176
     1
  0
VISUALSTYLE
  5
24B
102
{ACAD_REACTORS
330
234
102
}
330
234
100
AcDbVisualStyle
  2
Shaded with edges
 70
    26
177
     3
291
     0
 70
    58
 90
        2
176
     1
 90
        2
176
     1
 90
        1
176
     1
 90
        2
176
     1
 40
0.6
176
     1
 40
30.0
176
     1
 62
     7
420
 16777215
176
     1
 90
        1
176
     1
 90
       10
176
     1
 62
     7
176
     1
 62
   257
176
     1
 90
        2
176
     1
 90
        1
176
     1
 40
1.0
176
     1
 90
        8
176
     1
 62
   257
176
     1
 40
1.0
176
     1
 90
        1
176
     1
 90
        6
176
     1
 90
        2
176
     1
 62
     7
176
     1
 90
        3
176
     1
 90
        0
176
     1
 90
        0
176
     1
290
     0
176
     1
 90
        5
176
     1
 40
0.0
176
     1
 90
        0
176
     1
290
     0
176
     1
290
     1
176
     1
290
     1
176
     1
290
     0
176
     1
290
     0
176
     1
290
     0
176
     1
290
     0
176
     1
290
     0
176
     1
290
     0
176
     1
 90
       50
176
     1
 40
0.0
176
     1
 40
1.0
176
     1
 90
        0
176
     1
 62
    18
420
        0
176
     1
 90
       50
176
     1
 90
        3
176
     1
 62
     5
420
      255
176
     1
290
     0
176
     1
 90
       50
176
     1
 90
       50
176
     1
 90
       50
176
     1
290
     0
176
     1
 90
       50
176
     1
 62
   256
176
     0
 40
1.0
176
     0
 90
        2
176
     1
  1
strokes_ogs.tif
176
     1
290
     0
176
     1
 40
1.0
176
     1
 40
1.0
176
     1
  0
VISUALSTYLE
  5
248
102
{ACAD_REACTORS
330
234
102
}
330
234
100
AcDbVisualStyle
  2
Shades of Gray
 70
    23
177
     3
291
     0
 70
    58
 90
        2
176
     1
 90
        2
176
     1
 90
        3
176
     1
 90
        0
176
     1
 40
0.6
176
     1
 40
30.0
176
     1
 62
     7
420
 16777215
176
     1
 90
        2
176
     1
 90
        2
176
     1
 62
     7
176
     1
 62
     7
176
     1
 90
        1
176
     1
 90
        1
176
     1
 40
40.0
176
     1
 90
        8
176
     1
 62
     7
176
     1
 40
1.0
176
     1
 90
        1
176
     1
 90
        6
176
     1
 90
        2
176
     1
 62
     7
176
     1
 90
        3
176
     1
 90
        0
176
     1
 90
        0
176
     1
290
     0
176
     1
 90
        1
176
     1
 40
0.0
176
     1
 90
        0
176
     1
290
     0
176
     1
290
     1
176
     1
290
     1
176
     1
290
     0
176
     1
290
     0
176
     1
290
     0
176
     1
290
     0
176
     1
290
     0
176
     1
290
     0
176
     1
 90
       50
176
     1
 40
0.0
176
     1
 40
1.0
176
     1
 90
        0
176
     1
 62
    18
420
        0
176
     1
 90
       50
176
     1
 90
        3
176
     1
 62
     5
420
      255
176
     1
290
     0
176
     1
 90
       50
176
     1
 90
       50
176
     1
 90
       50
176
     1
290
     0
176
     1
 90
       50
176
     1
 62
   256
176
     0
 40
1.0
176
     0
 90
        2
176
     1
  1
strokes_ogs.tif
176
     1
290
     0
176
     1
 40
1.0
176
     1
 40
1.0
176
     1
  0
VISUALSTYLE
  5
249
102
{ACAD_REACTORS
330
234
102
}
330
234
100
AcDbVisualStyle
  2
Sketchy
 70
    24
177
     3
291
     0
 70
    58
 90
        1
176
     1
 90
        2
176
     1
 90
        2
176
     1
 90
        0
176
     1
 40
0.6
176
     1
 40
30.0
176
     1
 62
     7
420
 16777215
176
     1
 90
        2
176
     1
 90
        2
176
     1
 62
     7
176
     1
 62
     7
176
     1
 90
        1
176
     1
 90
        1
176
     1
 40
40.0
176
     1
 90
       11
176
     1
 62
     7
176
     1
 40
1.0
176
     1
 90
        1
176
     1
 90
        6
176
     1
 90
        2
176
     1
 62
     7
176
     1
 90
        6
176
     1
 90
        0
176
     1
 90
        0
176
     1
290
     0
176
     1
 90
        1
176
     1
 40
0.0
176
     1
 90
        0
176
     1
290
     0
176
     1
290
     1
176
     1
290
     1
176
     1
290
     0
176
     1
290
     0
176
     1
290
     0
176
     1
290
     0
176
     1
290
     0
176
     1
290
     0
176
     1
 90
       50
176
     1
 40
0.0
176
     1
 40
1.0
176
     1
 90
        0
176
     1
 62
    18
420
        0
176
     1
 90
       50
176
     1
 90
        3
176
     1
 62
     5
420
      255
176
     1
290
     0
176
     1
 90
       50
176
     1
 90
       50
176
     1
 90
       50
176
     1
290
     0
176
     1
 90
       50
176
     1
 62
   256
176
     0
 40
1.0
176
     0
 90
        2
176
     1
  1
strokes_ogs.tif
176
     1
290
     0
176
     1
 40
1.0
176
     1
 40
1.0
176
     1
  0
VISUALSTYLE
  5
241
102
{ACAD_REACTORS
330
234
102
}
330
234
100
AcDbVisualStyle
  2
Thicken
 70
    13
177
     3
291
     1
 70
    58
 90
        2
176
     1
 90
        2
176
     1
 90
        0
176
     1
 90
        0
176
     1
 40
0.6
176
     1
 40
30.0
176
     1
 62
     7
420
 16777215
176
     1
 90
        1
176
     1
 90
        4
176
     1
 62
     7
176
     1
 62
   257
176
     1
 90
        1
176
     1
 90
        1
176
     1
 40
1.0
176
     1
 90
       12
176
     1
 62
     7
176
     1
 40
1.0
176
     1
 90
        1
176
     1
 90
        6
176
     1
 90
        2
176
     1
 62
     7
176
     1
 90
        5
176
     1
 90
        0
176
     1
 90
        0
176
     1
290
     0
176
     1
 90
        1
176
     1
 40
0.0
176
     1
 90
        0
176
     1
290
     0
176
     1
290
     1
176
     1
290
     1
176
     1
290
     0
176
     1
290
     0
176
     1
290
     0
176
     1
290
     0
176
     1
290
     0
176
     1
290
     0
176
     1
 90
       50
176
     1
 40
0.0
176
     1
 40
1.0
176
     1
 90
        0
176
     1
 62
    18
420
        0
176
     1
 90
       50
176
     1
 90
        3
176
     1
 62
     5
420
      255
176
     1
290
     0
176
     1
 90
       50
176
     1
 90
       50
176
     1
 90
       50
176
     1
290
     0
176
     1
 90
       50
176
     1
 62
   256
176
     0
 40
1.0
176
     0
 90
        2
176
     1
  1
strokes_ogs.tif
176
     1
290
     0
176
     1
 40
1.0
176
     1
 40
1.0
176
     1
  0
VISUALSTYLE
  5
23A
102
{ACAD_REACTORS
330
234
102
}
330
234
100
AcDbVisualStyle
  2
Wireframe
 70
     5
177
     3
291
     0
 70
    58
 90
        0
176
     1
 90
        2
176
     1
 90
        0
176
     1
 90
        0
176
     1
 40
0.6
176
     1
 40
30.0
176
     1
 62
     7
420
 16777215
176
     1
 90
        1
176
     1
 90
        4
176
     1
 62
     7
176
     1
 62
   257
176
     1
 90
        1
176
     1
 90
        1
176
     1
 40
1.0
176
     1
 90
        0
176
     1
 62
   257
176
     1
 40
1.0
176
     1
 90
        1
176
     1
 90
        6
176
     1
 90
        2
176
     1
 62
     7
176
     1
 90
        3
176
     1
 90
        0
176
     1
 90
        0
176
     1
290
     0
176
     1
 90
        1
176
     1
 40
0.0
176
     1
 90
        0
176
     1
290
     0
176
     1
290
     1
176
     1
290
     1
176
     1
290
     0
176
     1
290
     0
176
     1
290
     0
176
     1
290
     0
176
     1
290
     0
176
     1
290
     0
176
     1
 90
       50
176
     1
 40
0.0
176
     1
 40
1.0
176
     1
 90
        0
176
     1
 62
    18
420
        0
176
     1
 90
       50
176
     1
 90
        3
176
     1
 62
     5
420
      255
176
     1
290
     0
176
     1
 90
       50
176
     1
 90
       50
176
     1
 90
       50
176
     1
290
     0
176
     1
 90
       50
176
     1
 62
   256
176
     0
 40
1.0
176
     0
 90
        2
176
     1
  1
strokes_ogs.tif
176
     1
290
     0
176
     1
 40
1.0
176
     1
 40
1.0
176
     1
  0
VISUALSTYLE
  5
24A
102
{ACAD_REACTORS
330
234
102
}
330
234
100
AcDbVisualStyle
  2
X-Ray
 70
    25
177
     3
291
     0
 70
    58
 90
        2
176
     1
 90
        2
176
     1
 90
        1
176
     1
 90
        1
176
     1
 40
0.5
176
     1
 40
30.0
176
     1
 62
     7
420
 16777215
176
     1
 90
        1
176
     1
 90
        0
176
     1
 62
     7
176
     1
 62
   257
176
     1
 90
        1
176
     1
 90
        1
176
     1
 40
1.0
176
     1
 90
        8
176
     1
 62
     7
176
     1
 40
1.0
176
     1
 90
        1
176
     1
 90
        6
176
     1
 90
        2
176
     1
 62
     7
176
     1
 90
        3
176
     1
 90
        0
176
     1
 90
        0
176
     1
290
     0
176
     1
 90
       13
176
     1
 40
0.0
176
     1
 90
        0
176
     1
290
     0
176
     1
290
     1
176
     1
290
     1
176
     1
290
     0
176
     1
290
     0
176
     1
290
     0
176
     1
290
     0
176
     1
290
     0
176
     1
290
     0
176
     1
 90
       50
176
     1
 40
0.0
176
     1
 40
1.0
176
     1
 90
        0
176
     1
 62
    18
420
        0
176
     1
 90
       50
176
     1
 90
        3
176
     1
 62
     5
420
      255
176
     1
290
     0
176
     1
 90
       50
176
     1
 90
       50
176
     1
 90
       50
176
     1
290
     0
176
     1
 90
       50
176
     1
 62
   256
176
     0
 40
1.0
176
     0
 90
        2
176
     1
  1
strokes_ogs.tif
176
     1
290
     0
176
     1
 40
1.0
176
     1
 40
1.0
176
     1
  0
DICTIONARYVAR
  5
257
102
{ACAD_REACTORS
330
256
102
}
330
256
100
DictionaryVariables
280
     0
  1
1:1
  0
DICTIONARYVAR
  5
259
102
{ACAD_REACTORS
330
256
102
}
330
256
100
DictionaryVariables
280
     0
  1
Standard
  0
DICTIONARYVAR
  5
258
102
{ACAD_REACTORS
330
256
102
}
330
256
100
DictionaryVariables
280
     0
  1
Standard
  0
DICTIONARYVAR
  5
25A
102
{ACAD_REACTORS
330
256
102
}
330
256
100
DictionaryVariables
280
     0
  1
0
  0
DICTIONARY
  5
26F
330
252
100
AcDbDictionary
280
     1
281
     1
  3
ACAD_ROUNDTRIP_2008_TABLESTYLE_CELLSTYLEMAP
360
270
  0
CELLSTYLEMAP
  5
270
102
{ACAD_REACTORS
330
26F
102
}
330
26F
100
AcDbCellStyleMap
 90
        3
300
CELLSTYLE
  1
TABLEFORMAT_BEGIN
 90
        5
170
     1
 91
        0
 92
    32768
 62
   257
 93
        1
300
CONTENTFORMAT
  1
CONTENTFORMAT_BEGIN
 90
        0
 91
        0
 92
        4
 93
        0
300

 40
0.0
140
1.0
 94
        5
 62
     0
340
17
144
6.0
309
CONTENTFORMAT_END
171
     1
301
MARGIN
  1
CELLMARGIN_BEGIN
 40
1.5
 40
1.5
 40
1.5
 40
1.5
 40
1.5
 40
1.5
309
CELLMARGIN_END
 94
        6
 95
        1
302
GRIDFORMAT
  1
GRIDFORMAT_BEGIN
 90
        0
 91
        1
 62
     0
 92
       -2
340
11
 93
        0
 40
0.045
309
GRIDFORMAT_END
 95
        2
302
GRIDFORMAT
  1
GRIDFORMAT_BEGIN
 90
        0
 91
        1
 62
     0
 92
       -2
340
11
 93
        0
 40
0.045
309
GRIDFORMAT_END
 95
        4
302
GRIDFORMAT
  1
GRIDFORMAT_BEGIN
 90
        0
 91
        1
 62
     0
 92
       -2
340
11
 93
        0
 40
0.045
309
GRIDFORMAT_END
 95
        8
302
GRIDFORMAT
  1
GRIDFORMAT_BEGIN
 90
        0
 91
        1
 62
     0
 92
       -2
340
11
 93
        0
 40
0.045
309
GRIDFORMAT_END
 95
       16
302
GRIDFORMAT
  1
GRIDFORMAT_BEGIN
 90
        0
 91
        1
 62
     0
 92
       -2
340
11
 93
        0
 40
0.045
309
GRIDFORMAT_END
 95
       32
302
GRIDFORMAT
  1
GRIDFORMAT_BEGIN
 90
        0
 91
        1
 62
     0
 92
       -2
340
11
 93
        0
 40
0.045
309
GRIDFORMAT_END
309
TABLEFORMAT_END
  1
CELLSTYLE_BEGIN
 90
        1
 91
        1
300
_TITLE
309
CELLSTYLE_END
300
CELLSTYLE
  1
TABLEFORMAT_BEGIN
 90
        5
170
     1
 91
        0
 92
        0
 62
   257
 93
        1
300
CONTENTFORMAT
  1
CONTENTFORMAT_BEGIN
 90
        0
 91
        0
 92
        4
 93
        0
300

 40
0.0
140
1.0
 94
        5
 62
     0
340
17
144
4.5
309
CONTENTFORMAT_END
171
     1
301
MARGIN
  1
CELLMARGIN_BEGIN
 40
1.5
 40
1.5
 40
1.5
 40
1.5
 40
1.5
 40
1.5
309
CELLMARGIN_END
 94
        6
 95
        1
302
GRIDFORMAT
  1
GRIDFORMAT_BEGIN
 90
        0
 91
        1
 62
     0
 92
       -2
340
11
 93
        0
 40
0.045
309
GRIDFORMAT_END
 95
        2
302
GRIDFORMAT
  1
GRIDFORMAT_BEGIN
 90
        0
 91
        1
 62
     0
 92
       -2
340
11
 93
        0
 40
0.045
309
GRIDFORMAT_END
 95
        4
302
GRIDFORMAT
  1
GRIDFORMAT_BEGIN
 90
        0
 91
        1
 62
     0
 92
       -2
340
11
 93
        0
 40
0.045
309
GRIDFORMAT_END
 95
        8
302
GRIDFORMAT
  1
GRIDFORMAT_BEGIN
 90
        0
 91
        1
 62
     0
 92
       -2
340
11
 93
        0
 40
0.045
309
GRIDFORMAT_END
 95
       16
302
GRIDFORMAT
  1
GRIDFORMAT_BEGIN
 90
        0
 91
        1
 62
     0
 92
       -2
340
11
 93
        0
 40
0.045
309
GRIDFORMAT_END
 95
       32
302
GRIDFORMAT
  1
GRIDFORMAT_BEGIN
 90
        0
 91
        1
 62
     0
 92
       -2
340
11
 93
        0
 40
0.045
309
GRIDFORMAT_END
309
TABLEFORMAT_END
  1
CELLSTYLE_BEGIN
 90
        2
 91
        1
300
_HEADER
309
CELLSTYLE_END
300
CELLSTYLE
  1
TABLEFORMAT_BEGIN
 90
        5
170
     1
 91
        0
 92
        0
 62
   257
 93
        1
300
CONTENTFORMAT
  1
CONTENTFORMAT_BEGIN
 90
        0
 91
        0
 92
        4
 93
        0
300

 40
0.0
140
1.0
 94
        2
 62
     0
340
17
144
4.5
309
CONTENTFORMAT_END
171
     1
301
MARGIN
  1
CELLMARGIN_BEGIN
 40
1.5
 40
1.5
 40
1.5
 40
1.5
 40
1.5
 40
1.5
309
CELLMARGIN_END
 94
        6
 95
        1
302
GRIDFORMAT
  1
GRIDFORMAT_BEGIN
 90
        0
 91
        1
 62
     0
 92
       -2
340
11
 93
        0
 40
0.045
309
GRIDFORMAT_END
 95
        2
302
GRIDFORMAT
  1
GRIDFORMAT_BEGIN
 90
        0
 91
        1
 62
     0
 92
       -2
340
11
 93
        0
 40
0.045
309
GRIDFORMAT_END
 95
        4
302
GRIDFORMAT
  1
GRIDFORMAT_BEGIN
 90
        0
 91
        1
 62
     0
 92
       -2
340
11
 93
        0
 40
0.045
309
GRIDFORMAT_END
 95
        8
302
GRIDFORMAT
  1
GRIDFORMAT_BEGIN
 90
        0
 91
        1
 62
     0
 92
       -2
340
11
 93
        0
 40
0.045
309
GRIDFORMAT_END
 95
       16
302
GRIDFORMAT
  1
GRIDFORMAT_BEGIN
 90
        0
 91
        1
 62
     0
 92
       -2
340
11
 93
        0
 40
0.045
309
GRIDFORMAT_END
 95
       32
302
GRIDFORMAT
  1
GRIDFORMAT_BEGIN
 90
        0
 91
        1
 62
     0
 92
       -2
340
11
 93
        0
 40
0.045
309
GRIDFORMAT_END
309
TABLEFORMAT_END
  1
CELLSTYLE_BEGIN
 90
        3
 91
        2
300
_DATA
309
CELLSTYLE_END
  0
ENDSEC
  0
EOF
