  0
SECTION
  2
HEADER
  9
$ACADVER
  1
AC1015
  9
$ACADMAINTVER
 70
               6
  9
$DWGCODEPAGE
  3
ANSI_932
  9
$INSBASE
 10
0.0
 20
0.0
 30
0.0
  9
$EXTMIN
 10
261.04670212314932
 20
52.459315170797083
 30
0.0
  9
$EXTMAX
 10
293.78102021126421
 20
66.299999999999997
 30
0.0
  9
$LIMMIN
 10
0.0
 20
0.0
  9
$LIMMAX
 10
0.0
 20
0.0
  9
$ORTHOMODE
 70
               0
  9
$REGENMODE
 70
               1
  9
$FILLMODE
 70
               1
  9
$QTEXTMODE
 70
               0
  9
$MIRRTEXT
 70
               1
  9
$LTSCALE
 40
5.0800000000000001
  9
$ATTMODE
 70
               1
  9
$TEXTSIZE
 40
0.2
  9
$TRACEWID
 40
1.0
  9
$TEXTSTYLE
  7
Standard
  9
$CLAYER
  8
0
  9
$CELTYPE
  6
Continuous
  9
$CECOLOR
 62
             256
  9
$CELTSCALE
 40
1.0
  9
$DISPSILH
 70
               0
  9
$DIMSCALE
 40
1.0
  9
$DIMASZ
 40
0.18
  9
$DIMEXO
 40
0.0625
  9
$DIMDLI
 40
0.38
  9
$DIMRND
 40
0.0
  9
$DIMDLE
 40
0.0
  9
$DIMEXE
 40
0.18
  9
$DIMTP
 40
0.0
  9
$DIMTM
 40
0.0
  9
$DIMTXT
 40
0.18
  9
$DIMCEN
 40
0.09
  9
$DIMTSZ
 40
0.0
  9
$DIMTOL
 70
               0
  9
$DIMLIM
 70
               0
  9
$DIMTIH
 70
               1
  9
$DIMTOH
 70
               1
  9
$DIMSE1
 70
               0
  9
$DIMSE2
 70
               0
  9
$DIMTAD
 70
               0
  9
$DIMZIN
 70
               0
  9
$DIMBLK
  1

  9
$DIMASO
 70
               1
  9
$DIMSHO
 70
               1
  9
$DIMPOST
  1

  9
$DIMAPOST
  1

  9
$DIMALT
 70
               0
  9
$DIMALTD
 70
               2
  9
$DIMALTF
 40
25.399999999999999
  9
$DIMLFAC
 40
1.0
  9
$DIMTOFL
 70
               0
  9
$DIMTVP
 40
0.0
  9
$DIMTIX
 70
               0
  9
$DIMSOXD
 70
               0
  9
$DIMSAH
 70
               0
  9
$DIMBLK1
  1

  9
$DIMBLK2
  1

  9
$DIMSTYLE
  2
Standard
  9
$DIMCLRD
 70
               0
  9
$DIMCLRE
 70
               0
  9
$DIMCLRT
 70
               0
  9
$DIMTFAC
 40
1.0
  9
$DIMGAP
 40
0.09
  9
$DIMJUST
 70
               0
  9
$DIMSD1
 70
               0
  9
$DIMSD2
 70
               0
  9
$DIMTOLJ
 70
               1
  9
$DIMTZIN
 70
               0
  9
$DIMALTZ
 70
               0
  9
$DIMALTTZ
 70
               0
  9
$DIMUPT
 70
               0
  9
$DIMDEC
 70
               4
  9
$DIMTDEC
 70
               4
  9
$DIMALTU
 70
               2
  9
$DIMALTTD
 70
               2
  9
$DIMTXSTY
  7
Standard
  9
$DIMAUNIT
 70
               0
  9
$DIMADEC
 70
               0
  9
$DIMALTRND
 40
0.0
  9
$DIMAZIN
 70
               0
  9
$DIMDSEP
 70
               0
  9
$DIMATFIT
 70
               3
  9
$DIMFRAC
 70
               0
  9
$DIMLDRBLK
  1

  9
$DIMLUNIT
 70
               2
  9
$DIMLWD
 70
               0
  9
$DIMLWE
 70
               0
  9
$DIMTMOVE
 70
               0
  9
$LUNITS
 70
               2
  9
$LUPREC
 70
               4
  9
$SKETCHINC
 40
0.1
  9
$FILLETRAD
 40
0.0
  9
$AUNITS
 70
               0
  9
$AUPREC
 70
               0
  9
$MENU
  1
acad
  9
$ELEVATION
 40
0.0
  9
$PELEVATION
 40
0.0
  9
$THICKNESS
 40
0.0
  9
$LIMCHECK
 70
               0
  9
$CHAMFERA
 40
0.0
  9
$CHAMFERB
 40
0.0
  9
$CHAMFERC
 40
0.0
  9
$CHAMFERD
 40
0.0
  9
$SKPOLY
 70
               0
  9
$TDCREATE
 40
2458068.663310185
  9
$TDUCREATE
 40
0.000000000
  9
$TDUPDATE
 40
2458068.663310185
  9
$TDUUPDATE
 40
0.000000000
  9
$TDINDWG
 40
0.0000000000
  9
$TDUSRTIMER
 40
0.0000000000
  9
$USRTIMER
 70
               1
  9
$ANGBASE
 50
0.0
  9
$ANGDIR
 70
               0
  9
$PDMODE
 70
               1
  9
$PDSIZE
 40
-2.0
  9
$PLINEWID
 40
0.0
  9
$SPLFRAME
 70
               0
  9
$SPLINETYPE
 70
               6
  9
$SPLINESEGS
 70
               8
  9
$HANDSEED
  5
1EF
  9
$SURFTAB1
 70
               6
  9
$SURFTAB2
 70
               6
  9
$SURFTYPE
 70
               6
  9
$SURFU
 70
               6
  9
$SURFV
 70
               6
  9
$UCSBASE
  2

  9
$UCSNAME
  2

  9
$UCSORG
 10
0.0
 20
0.0
 30
0.0
  9
$UCSXDIR
 10
1.0
 20
0.0
 30
0.0
  9
$UCSYDIR
 10
0.0
 20
1.0
 30
0.0
  9
$UCSORTHOREF
  2

  9
$UCSORTHOVIEW
 70
               0
  9
$UCSORGTOP
 10
0.0
 20
0.0
 30
0.0
  9
$UCSORGBOTTOM
 10
0.0
 20
0.0
 30
0.0
  9
$UCSORGLEFT
 10
0.0
 20
0.0
 30
0.0
  9
$UCSORGRIGHT
 10
0.0
 20
0.0
 30
0.0
  9
$UCSORGFRONT
 10
0.0
 20
0.0
 30
0.0
  9
$UCSORGBACK
 10
0.0
 20
0.0
 30
0.0
  9
$PUCSBASE
  2

  9
$PUCSNAME
  2

  9
$PUCSORG
 10
0.0
 20
0.0
 30
0.0
  9
$PUCSXDIR
 10
1.0
 20
0.0
 30
0.0
  9
$PUCSYDIR
 10
0.0
 20
1.0
 30
0.0
  9
$PUCSORTHOREF
  2

  9
$PUCSORTHOVIEW
 70
               0
  9
$PUCSORGTOP
 10
0.0
 20
0.0
 30
0.0
  9
$PUCSORGBOTTOM
 10
0.0
 20
0.0
 30
0.0
  9
$PUCSORGLEFT
 10
0.0
 20
0.0
 30
0.0
  9
$PUCSORGRIGHT
 10
0.0
 20
0.0
 30
0.0
  9
$PUCSORGFRONT
 10
0.0
 20
0.0
 30
0.0
  9
$PUCSORGBACK
 10
0.0
 20
0.0
 30
0.0
  9
$USERI1
 70
               0
  9
$USERI2
 70
               0
  9
$USERI3
 70
               0
  9
$USERI4
 70
               0
  9
$USERI5
 70
               0
  9
$USERR1
 40
0.0
  9
$USERR2
 40
0.0
  9
$USERR3
 40
0.0
  9
$USERR4
 40
0.0
  9
$USERR5
 40
0.0
  9
$WORLDVIEW
 70
               1
  9
$SHADEDGE
 70
               3
  9
$SHADEDIF
 70
              70
  9
$TILEMODE
 70
               1
  9
$MAXACTVP
 70
              16
  9
$PINSBASE
 10
0.0
 20
0.0
 30
0.0
  9
$PLIMCHECK
 70
               0
  9
$PEXTMIN
 10
1.0000000000000000E+20
 20
1.0000000000000000E+20
 30
1.0000000000000000E+20
  9
$PEXTMAX
 10
-1.0000000000000000E+20
 20
-1.0000000000000000E+20
 30
-1.0000000000000000E+20
  9
$PLIMMIN
 10
0.0
 20
0.0
  9
$PLIMMAX
 10
12.0
 20
9.0
  9
$UNITMODE
 70
               0
  9
$VISRETAIN
 70
               0
  9
$PLINEGEN
 70
               1
  9
$PSLTSCALE
 70
               0
  9
$TREEDEPTH
 70
            3020
  9
$CMLSTYLE
  2
Standard
  9
$CMLJUST
 70
               0
  9
$CMLSCALE
 40
1.0
  9
$PROXYGRAPHICS
 70
               0
  9
$MEASUREMENT
 70
               1
  9
$CELWEIGHT
370
               0
  9
$ENDCAPS
280
               0
  9
$JOINSTYLE
280
               0
  9
$LWDISPLAY
290
               1
  9
$INSUNITS
 70
               4
  9
$HYPERLINKBASE
  1

  9
$STYLESHEET
  1

  9
$XEDIT
290
               1
  9
$CEPSNTYPE
380
               0
  9
$PSTYLEMODE
290
               1
  9
$FINGERPRINTGUID
  2

  9
$VERSIONGUID
  2

  9
$EXTNAMES
290
               1
  9
$PSVPSCALE
 40
0.0
  0
ENDSEC
  0
SECTION
  2
CLASSES
  0
CLASS
  1
LWPOLYLINE
  2
AcDbPolyline
  3
AutoCAD 2000
 90
    32768
280
               0
281
               1
  0
CLASS
  1
IMAGE
  2
AcDbRasterImage
  3
ISM
 90
    32895
280
               0
281
               1
  0
CLASS
  1
OLE2FRAME
  2
AcDbOle2Frame
  3
AutoCAD 2000
 90
    32768
280
               0
281
               1
  0
CLASS
  1
HATCH
  2
AcDbHatch
  3
AutoCAD 2000
 90
    32768
280
               0
281
               1
  0
CLASS
  1
DICTIONARYVAR
  2
AcDbDictionaryVar
  3
AutoCAD 2000
 90
    32768
280
               0
281
               0
  0
CLASS
  1
RASTERVARIABLES
  2
AcDbRasterVariables
  3
ISM
 90
    32768
280
               0
281
               0
  0
CLASS
  1
IMAGEDEF
  2
AcDbRasterImageDef
  3
ISM
 90
    32768
280
               0
281
               0
  0
CLASS
  1
IMAGEDEF_REACTOR
  2
AcDbRasterImageDefReactor
  3
ISM
 90
    32769
280
               0
281
               0
  0
CLASS
  1
IDBUFFER
  2
AcDbIdBuffer
  3
AutoCAD 2000
 90
    32768
280
               0
281
               0
  0
CLASS
  1
SPATIAL_FILTER
  2
AcDbSpatialFilter
  3
AutoCAD 2000
 90
    32768
280
               0
281
               0
  0
CLASS
  1
XRECORD
  2
AcDbXrecord
  3
AutoCAD 2000
 90
    32768
280
               0
281
               0
  0
CLASS
  1
SORTENTSTABLE
  2
AcDbSortentsTable
  3
AutoCAD 2000
 90
    32768
280
               0
281
               0
  0
CLASS
  1
LAYER_INDEX
  2
AcDbLayerIndex
  3
AutoCAD 2000
 90
    32768
280
               0
281
               0
  0
CLASS
  1
SPATIAL_INDEX
  2
AcDbSpatialIndex
  3
AutoCAD 2000
 90
    32768
280
               0
281
               0
  0
CLASS
  1
OBJECT_PTR
  2
CAseDLPNTableRecord
  3
"ASE-LPNTableRecord"
 90
    32769
280
               0
281
               0
  0
CLASS
  1
LAYOUT
  2
AcDbLayout
  3
AutoCAD 2000
 90
        0
280
               0
281
               0
  0
CLASS
  1
PLOTSETTINGS
  2
AcDbPlotSettings
  3
AutoCAD 2000
 90
    32768
280
               0
281
               0
  0
CLASS
  1
ACDBDICTIONARYWDFLT
  2
AcDbDictionaryWithDefault
  3
AutoCAD 2000
 90
        0
280
               0
281
               0
  0
CLASS
  1
ACDBPLACEHOLDER
  2
AcDbPlaceHolder
  3
AutoCAD 2000
 90
        0
280
               0
281
               0
  0
CLASS
  1
VBA_PROJECT
  2
AcDbVbaProject
  3
acadvba
 90
    32768
280
               0
281
               0
  0
CLASS
  1
WIPEOUT
  2
AcDbWipeout
  3
WipeOut|AutoCAD Express Tool|expresstools@autodesk.com
 90
    32895
280
               0
281
               1
  0
CLASS
  1
WIPEOUTVARIABLES
  2
AcDbWipeoutVariables
  3
WipeOut|AutoCAD Express Tool|expresstools@autodesk.com
 90
        0
280
               0
281
               0
  0
CLASS
  1
RTEXT
  2
RText
  3
RText|AutoCAD Express Tool|expresstools@autodesk.com
 90
    32768
280
               0
281
               1
  0
CLASS
  1
ARCALIGNEDTEXT
  2
AcDbArcAlignedText
  3
ATEXT|AutoCAD Express Tool|expresstools@autodesk.com
 90
    32768
280
               0
281
               1
  0
ENDSEC
  0
SECTION
  2
TABLES
  0
TABLE
  2
VPORT
  5
7
100
AcDbSymbolTable
 70
               1
  0
VPORT
  5
15
100
AcDbSymbolTableRecord
100
AcDbViewportTableRecord
  2
*ACTIVE
 70
               0
 10
0.0
 20
0.0
 11
1.0
 21
1.0
 12
277.41386116720673
 22
59.37965758539854
 13
0.0
 23
0.0
 14
1.0
 24
1.0
 15
0.0
 25
0.0
 16
0.0
 26
0.0
 36
1.0
 17
0.0
 27
0.0
 37
0.0
 40
13.840684829202914
 41
0.688564
 42
50.0
 43
0.0
 44
0.0
 50
0.0
 51
0.0
 71
               0
 72
             100
 73
               1
 74
               1
 75
               0
 76
               0
 77
               0
 78
               0
281
               0
 65
               0
110
0.0
120
0.0
130
0.0
111
1.0
121
0.0
131
0.0
112
0.0
122
1.0
132
0.0
345
0
346
0
 79
               0
146
0.0
  0
ENDTAB
  0
TABLE
  2
LTYPE
  5
4
100
AcDbSymbolTable
 70
              14
  0
LTYPE
  5
11
100
AcDbSymbolTableRecord
100
AcDbLinetypeTableRecord
  2
ByBlock
 70
              64
  3

 72
              65
 73
               0
 40
0.0
  0
LTYPE
  5
12
100
AcDbSymbolTableRecord
100
AcDbLinetypeTableRecord
  2
ByLayer
 70
              64
  3

 72
              65
 73
               0
 40
0.0
  0
LTYPE
  5
13
100
AcDbSymbolTableRecord
100
AcDbLinetypeTableRecord
  2
Continuous
 70
              64
  3
Solid line
 72
              65
 73
               0
 40
0.0
  0
LTYPE
  5
2A
100
AcDbSymbolTableRecord
100
AcDbLinetypeTableRecord
  2
STYLE_01
 70
               0
  3

 72
              65
 73
               2
 40
0.075
 49
0.05
 74
               0
 49
-0.025
 74
               0
  0
LTYPE
  5
2B
100
AcDbSymbolTableRecord
100
AcDbLinetypeTableRecord
  2
STYLE_02
 70
               0
  3

 72
              65
 73
               6
 40
0.4999999999999999
 49
0.25
 74
               0
 49
-0.05
 74
               0
 49
0.05
 74
               0
 49
-0.05
 74
               0
 49
0.05
 74
               0
 49
-0.05
 74
               0
  0
LTYPE
  5
2C
100
AcDbSymbolTableRecord
100
AcDbLinetypeTableRecord
  2
STYLE_03
 70
               0
  3

 72
              65
 73
               4
 40
0.3999999999999999
 49
0.25
 74
               0
 49
-0.05
 74
               0
 49
0.05
 74
               0
 49
-0.05
 74
               0
  0
LTYPE
  5
2D
100
AcDbSymbolTableRecord
100
AcDbLinetypeTableRecord
  2
STYLE_04
 70
               0
  3

 72
              65
 73
               4
 40
0.7999999999999998
 49
0.4999999999999999
 74
               0
 49
-0.1
 74
               0
 49
0.1
 74
               0
 49
-0.1
 74
               0
  0
LTYPE
  5
2E
100
AcDbSymbolTableRecord
100
AcDbLinetypeTableRecord
  2
STYLE_05
 70
               0
  3

 72
              65
 73
               2
 40
0.025
 49
0.0005
 74
               0
 49
-0.0245
 74
               0
  0
LTYPE
  5
2F
100
AcDbSymbolTableRecord
100
AcDbLinetypeTableRecord
  2
STYLE_06
 70
               0
  3

 72
              65
 73
               4
 40
1.0416400000000001
 49
0.625
 74
               0
 49
-0.20828
 74
               0
 49
0.06943
 74
               0
 49
-0.13893
 74
               0
  0
LTYPE
  5
30
100
AcDbSymbolTableRecord
100
AcDbLinetypeTableRecord
  2
STYLE_07
 70
               0
  3

 72
              65
 73
               6
 40
1.875
 49
0.625
 74
               0
 49
-0.20828
 74
               0
 49
0.6250000000000001
 74
               0
 49
-0.2083599999999999
 74
               0
 49
0.06943
 74
               0
 49
-0.1389299999999999
 74
               0
  0
LTYPE
  5
31
100
AcDbSymbolTableRecord
100
AcDbLinetypeTableRecord
  2
STYLE_08
 70
               0
  3

 72
              65
 73
               6
 40
1.25
 49
0.625
 74
               0
 49
-0.20828
 74
               0
 49
0.06943
 74
               0
 49
-0.13893
 74
               0
 49
0.0694299999999999
 74
               0
 49
-0.13893
 74
               0
  0
LTYPE
  5
32
100
AcDbSymbolTableRecord
100
AcDbLinetypeTableRecord
  2
STYLE_09
 70
               0
  3

 72
              65
 73
               4
 40
5.0
 49
3.75
 74
               0
 49
-0.2777849999999998
 74
               0
 49
0.6944300000000003
 74
               0
 49
-0.2777849999999998
 74
               0
  0
LTYPE
  5
33
100
AcDbSymbolTableRecord
100
AcDbLinetypeTableRecord
  2
STYLE_10
 70
               0
  3

 72
              65
 73
               6
 40
5.9375
 49
3.75
 74
               0
 49
-0.2777849999999998
 74
               0
 49
0.6944300000000003
 74
               0
 49
-0.2777849999999998
 74
               0
 49
0.625
 74
               0
 49
-0.3125
 74
               0
  0
LTYPE
  5
34
100
AcDbSymbolTableRecord
100
AcDbLinetypeTableRecord
  2
STYLE_11
 70
               0
  3

 72
              65
 73
               2
 40
0.1875
 49
0.125
 74
               0
 49
-0.0625
 74
               0
  0
ENDTAB
  0
TABLE
  2
LAYER
  5
2
100
AcDbSymbolTable
 70
               6
  0
LAYER
  5
14
100
AcDbSymbolTableRecord
100
AcDbLayerTableRecord
  2
0
 70
               0
 62
               7
  6
Continuous
290
               1
370
              15
390
1D
  0
LAYER
  5
35
100
AcDbSymbolTableRecord
100
AcDbLayerTableRecord
  2
Defpoints
 70
               0
 62
               7
  6
Continuous
290
               0
370
              -3
390
1D
  0
LAYER
  5
36
100
AcDbSymbolTableRecord
100
AcDbLayerTableRecord
  2
一般
 70
               0
 62
               7
  6
Continuous
290
               1
370
               5
390
1D
  0
LAYER
  5
37
100
AcDbSymbolTableRecord
100
AcDbLayerTableRecord
  2
寸法
 70
               0
 62
               7
  6
Continuous
290
               1
370
               5
390
1D
  0
LAYER
  5
38
100
AcDbSymbolTableRecord
100
AcDbLayerTableRecord
  2
レイヤー_1
 70
               0
 62
              19
  6
Continuous
290
               1
370
              15
390
1D
  0
LAYER
  5
39
100
AcDbSymbolTableRecord
100
AcDbLayerTableRecord
  2
FORMAT
 70
               0
 62
               7
  6
Continuous
290
               1
370
              15
390
1D
  0
ENDTAB
  0
TABLE
  2
STYLE
  5
3
100
AcDbSymbolTable
 70
               2
  0
STYLE
  5
17
100
AcDbSymbolTableRecord
100
AcDbTextStyleTableRecord
  2
Standard
 70
               0
 40
0.0
 41
1.0
 50
0.0
 71
               0
 42
0.0
  3
txt
  4
BIGFONT.SHX
  0
STYLE
  5
29
100
AcDbSymbolTableRecord
100
AcDbTextStyleTableRecord
  2
@ＭＳ Ｐゴシック
 70
               0
 40
0.0
 41
1.0
 50
0.0
 71
               0
 42
0.0
  3
@ＭＳ Ｐゴシック
  4

1001
ACAD
1000
@ＭＳ Ｐゴシック
1071
        0
  0
ENDTAB
  0
TABLE
  2
VIEW
  5
5
100
AcDbSymbolTable
 70
               0
  0
ENDTAB
  0
TABLE
  2
UCS
  5
6
100
AcDbSymbolTable
 70
               0
  0
ENDTAB
  0
TABLE
  2
APPID
  5
8
100
AcDbSymbolTable
 70
               1
  0
APPID
  5
16
100
AcDbSymbolTableRecord
100
AcDbRegAppTableRecord
  2
ACAD
 70
               0
  0
ENDTAB
  0
TABLE
  2
DIMSTYLE
  5
9
100
AcDbSymbolTable
 70
               1
100
AcDbDimStyleTable
 71
               0
  0
DIMSTYLE
105
18
100
AcDbSymbolTableRecord
100
AcDbDimStyleTableRecord
  2
Standard
 70
               0
  3

  4

 40
1.0
 41
0.18
 42
0.0625
 43
0.38
 44
0.18
 45
0.0
 46
0.0
 47
0.0
 48
0.0
 71
               0
 72
               0
 73
               1
 74
               1
 75
               0
 76
               0
 77
               0
 78
               0
 79
               0
140
0.18
141
0.09
142
0.0
143
25.399999999999999
144
1.0
145
0.0
146
1.0
147
0.09
148
0.0
170
               0
171
               2
172
               0
173
               0
174
               0
175
               0
176
               0
177
               0
178
               0
179
               0
271
               4
272
               4
273
               2
274
               2
275
               0
276
               0
277
               2
278
              46
279
               0
280
               0
281
               0
282
               0
283
               1
284
               0
285
               0
286
               0
288
               0
340
17
341
0
342
0
343
0
344
0
371
              -2
372
              -2
  0
ENDTAB
  0
TABLE
  2
BLOCK_RECORD
  5
1
100
AcDbSymbolTable
 70
               5
  0
BLOCK_RECORD
  5
A
100
AcDbSymbolTableRecord
100
AcDbBlockTableRecord
  2
*MODEL_SPACE
340
20
  0
BLOCK_RECORD
  5
B
100
AcDbSymbolTableRecord
100
AcDbBlockTableRecord
  2
*PAPER_SPACE
340
21
  0
BLOCK_RECORD
  5
24
100
AcDbSymbolTableRecord
100
AcDbBlockTableRecord
  2
*U0
340
0
102
{BLKREFS
331
1E2
102
}
  0
BLOCK_RECORD
  5
25
100
AcDbSymbolTableRecord
100
AcDbBlockTableRecord
  2
*U1
340
0
102
{BLKREFS
331
1E5
102
}
  0
BLOCK_RECORD
  5
26
100
AcDbSymbolTableRecord
100
AcDbBlockTableRecord
  2
*U2
340
0
102
{BLKREFS
331
1E8
102
}
  0
BLOCK_RECORD
  5
27
100
AcDbSymbolTableRecord
100
AcDbBlockTableRecord
  2
*U3
340
0
102
{BLKREFS
331
1EB
102
}
  0
BLOCK_RECORD
  5
28
100
AcDbSymbolTableRecord
100
AcDbBlockTableRecord
  2
*U4
340
0
102
{BLKREFS
331
1EE
102
}
  0
ENDTAB
  0
ENDSEC
  0
SECTION
  2
BLOCKS
  0
BLOCK
  5
D
100
AcDbEntity
  8
0
100
AcDbBlockBegin
  2
*MODEL_SPACE
 70
               0
 10
0.0
 20
0.0
 30
0.0
  3
*MODEL_SPACE
  1

  0
ENDBLK
  5
E
100
AcDbEntity
  8
0
100
AcDbBlockEnd
  0
BLOCK
  5
F
100
AcDbEntity
 67
               1
  8
0
100
AcDbBlockBegin
  2
*PAPER_SPACE
 70
               0
 10
0.0
 20
0.0
 30
0.0
  3
*PAPER_SPACE
  1

  0
ENDBLK
  5
10
100
AcDbEntity
 67
               1
  8
0
100
AcDbBlockEnd
  0
BLOCK
  5
3A
100
AcDbEntity
  8
一般
100
AcDbBlockBegin
  2
*U0
 70
               1
 10
0.0
 20
0.0
 30
0.0
  3
*U0
  1

  0
LINE
  5
3B
100
AcDbEntity
  8
0
370
              15
  6
Continuous
 62
               7
100
AcDbLine
 10
-52.180749621928946
 20
414.34053133360032
 30
0.0
 11
-28.235324727128948
 21
-469.14123105439973
 31
0.0
  0
LINE
  5
3C
100
AcDbEntity
  8
0
370
              15
  6
Continuous
 62
               7
100
AcDbLine
 10
70.222487931271189
 20
-464.60031004019982
 30
0.0
 11
46.277617969470619
 21
418.86097773500012
 31
0.0
  0
LINE
  5
3D
100
AcDbEntity
  8
0
370
              15
  6
Continuous
 62
               7
100
AcDbLine
 10
-49.320170229529133
 20
419.45977223940019
 30
0.0
 11
-0.5572461545293592
 21
408.10155446360011
 31
0.0
  0
ARC
  5
3E
100
AcDbEntity
  8
0
370
              15
  6
Continuous
 62
               7
100
AcDbCircle
 10
0.1233188700712233
 20
411.02334001300017
 30
0.0
 40
3.0000000000001212
100
AcDbArc
 50
256.88804076829996
 51
290.25029528889115
  0
LINE
  5
3F
100
AcDbEntity
  8
0
370
              15
  6
Continuous
 62
               7
100
AcDbLine
 10
1.1616867512707429
 20
408.20877150660033
 30
0.0
 11
43.347506518070993
 21
423.77218908320026
 31
0.0
  0
LINE
  5
40
100
AcDbEntity
  8
0
370
              15
  6
Continuous
 62
               7
100
AcDbLine
 10
41.3213482744709
 20
491.06357053980025
 30
0.0
 11
-7.4415758003292396
 21
502.42178831540025
 31
0.0
  0
ARC
  5
41
100
AcDbEntity
  8
0
370
              15
  6
Continuous
 62
               7
100
AcDbCircle
 10
-50.307962738929284
 20
483.9365816036003
 30
0.0
 40
2.9999999999998725
100
AcDbArc
 50
110.25029528889272
 51
181.5525345763981
  0
LINE
  5
42
100
AcDbEntity
  8
0
370
              15
  6
Continuous
 62
               7
100
AcDbLine
 10
-53.306860591329034
 20
483.85530071220012
 30
0.0
 11
-51.638505641328713
 21
422.30027807160025
 31
0.0
  0
LINE
  5
43
100
AcDbEntity
  8
0
370
              15
  6
Continuous
 62
               7
100
AcDbLine
 10
-9.1605086761287495
 20
502.31457016160027
 30
0.0
 11
-51.346328442929
 21
486.75115258480025
 31
0.0
  0
ARC
  5
44
100
AcDbEntity
  8
0
370
              15
  6
Continuous
 62
               7
100
AcDbCircle
 10
40.640785893271193
 20
488.14178162600012
 30
0.0
 40
2.9999999999998219
100
AcDbArc
 50
1.5525345763981246
 51
76.888040768298495
  0
LINE
  5
45
100
AcDbEntity
  8
0
370
              15
  6
Continuous
 62
               7
100
AcDbLine
 10
45.308038732870962
 20
426.66803851180032
 30
0.0
 11
43.639683782871096
 21
488.2230611522001
 31
0.0
  0
ARC
  5
46
100
AcDbEntity
  8
0
370
              15
  6
Continuous
 62
               7
100
AcDbCircle
 10
-48.63960777332931
 20
422.38155838700015
 30
0.0
 40
2.9999999999998219
100
AcDbArc
 50
181.5525345763981
 51
256.88804076829848
  0
ARC
  5
47
100
AcDbEntity
  8
0
370
              15
  6
Continuous
 62
               7
100
AcDbCircle
 10
42.309140859071256
 20
426.58675840960029
 30
0.0
 40
2.9999999999998725
100
AcDbArc
 50
290.25029528889274
 51
1.5525345763981024
  0
ARC
  5
48
100
AcDbEntity
  8
0
370
              15
  6
Continuous
 62
               7
100
AcDbCircle
 10
-8.1221407499292511
 20
499.50000000000011
 30
0.0
 40
2.9999999999998996
100
AcDbArc
 50
76.888040768298993
 51
110.25029528889272
  0
SPLINE
  5
49
100
AcDbEntity
  8
0
370
              15
  6
Continuous
 62
               7
100
AcDbSpline
210
0.0
220
0.0
230
1.0
 70
               8
 71
               2
 72
              16
 73
              13
 74
               0
 42
0.000001
 43
0.000001
 40
0.0
 40
0.0
 40
0.0
 40
1.0
 40
1.0
 40
2.0
 40
3.0
 40
4.0
 40
5.0
 40
6.0
 40
7.0
 40
8.0
 40
8.0
 40
9.0
 40
9.0
 40
9.0
 10
-52.237664315729027
 20
417.51076566197401
 30
0.0
 10
-52.238320568539159
 20
417.51039092923702
 30
0.0
 10
-52.23897682134929
 20
417.51001619650003
 30
0.0
 10
-52.279889807548436
 20
417.48695376976468
 30
0.0
 10
-52.384207539813808
 20
417.42435779827713
 30
0.0
 10
-52.496722740481793
 20
417.31854794238632
 30
0.0
 10
-52.56540279310547
 20
417.21590832236018
 30
0.0
 10
-52.602945935749169
 20
417.13197172774619
 30
0.0
 10
-52.61596749858608
 20
417.06602906219962
 30
0.0
 10
-52.623076794347973
 20
417.00433490969965
 30
0.0
 10
-52.625466535227126
 20
416.96250137115533
 30
0.0
 10
-52.625509834427469
 20
416.96182714565418
 30
0.0
 10
-52.625553133627811
 20
416.96115292015304
 30
0.0
  0
LINE
  5
4A
100
AcDbEntity
  8
0
370
              15
  6
Continuous
 62
               7
100
AcDbLine
 10
-52.626088850328863
 20
416.96995595140027
 30
0.0
 11
-52.604974628728989
 21
414.57465935220023
 31
0.0
  0
LINE
  5
4B
100
AcDbEntity
  8
0
370
              15
  6
Continuous
 62
               7
100
AcDbLine
 10
-47.880737552128714
 20
419.12448889340033
 30
0.0
 11
-52.18799458792909
 21
417.53543266020017
 31
0.0
  0
SPLINE
  5
4C
100
AcDbEntity
  8
0
370
              15
  6
Continuous
 62
               7
100
AcDbSpline
210
0.0
220
0.0
230
1.0
 70
               8
 71
               2
 72
              16
 73
              13
 74
               0
 42
0.000001
 43
0.000001
 40
0.0
 40
0.0
 40
0.0
 40
1.0
 40
1.0
 40
2.0
 40
3.0
 40
4.0
 40
5.0
 40
6.0
 40
7.0
 40
8.0
 40
8.0
 40
9.0
 40
9.0
 40
9.0
 10
46.578950114406787
 20
421.5277724608078
 30
0.0
 10
46.578812426824477
 20
421.52849545914171
 30
0.0
 10
46.578674739242167
 20
421.52921845747562
 30
0.0
 10
46.570661355607179
 20
421.57413951218462
 30
0.0
 10
46.554065946593717
 20
421.63994080133682
 30
0.0
 10
46.523811095439221
 20
421.72623610374046
 30
0.0
 10
46.448934244965592
 20
421.82569410339113
 30
0.0
 10
46.374376119145843
 20
421.89991258980115
 30
0.0
 10
46.263768913511292
 20
421.98253227866292
 30
0.0
 10
46.137815447492819
 20
422.04043795208861
 30
0.0
 10
46.089935271385464
 20
422.060658009343
 30
0.0
 10
46.089165563570539
 20
422.06098680643834
 30
0.0
 10
46.088395855755614
 20
422.06131560353367
 30
0.0
  0
LINE
  5
4D
100
AcDbEntity
  8
0
370
              15
  6
Continuous
 62
               7
100
AcDbLine
 10
46.688273678470985
 20
419.12743097540022
 30
0.0
 11
46.579612121670841
 21
421.52035510420012
 31
0.0
  0
LINE
  5
4E
100
AcDbEntity
  8
0
370
              15
  6
Continuous
 62
               7
100
AcDbLine
 10
46.035891291870946
 20
422.08163641540011
 30
0.0
 11
41.579041594870894
 21
423.11975852180024
 31
0.0
  0
ARC
  5
4F
100
AcDbEntity
  8
0
370
              15
  6
Continuous
 62
               7
100
AcDbCircle
 10
24.509432386871147
 20
-480.59873284179969
 30
0.0
 40
0.8458722299540891
100
AcDbArc
 50
258.15106891788889
 51
287.14353354277466
  0
LINE
  5
50
100
AcDbEntity
  8
0
370
              15
  6
Continuous
 62
               7
100
AcDbLine
 10
24.335747802271278
 20
-481.42658155659967
 30
0.0
 11
-28.131647416729258
 21
-469.20549120299967
 31
0.0
  0
POLYLINE
  5
51
100
AcDbEntity
  8
0
370
              15
  6
Continuous
 62
               7
100
AcDb2dPolyline
 66
               1
 10
0.0
 20
0.0
 30
0.0
 75
               5
  0
VERTEX
  5
52
100
AcDbEntity
  8
0
370
              15
  6
Continuous
 62
               7
100
AcDbVertex
100
AcDb2dVertex
 10
-5.3898553025287512
 20
-346.47995037679976
 30
0.0
  0
VERTEX
  5
53
100
AcDbEntity
  8
0
370
              15
  6
Continuous
 62
               7
100
AcDbVertex
100
AcDb2dVertex
 10
-3.6633276771290113
 20
-346.7153598385998
 30
0.0
  0
VERTEX
  5
54
100
AcDbEntity
  8
0
370
              15
  6
Continuous
 62
               7
100
AcDbVertex
100
AcDb2dVertex
 10
-1.9863615883291388
 20
-346.60974625219978
 30
0.0
  0
VERTEX
  5
55
100
AcDbEntity
  8
0
370
              15
  6
Continuous
 62
               7
100
AcDbVertex
100
AcDb2dVertex
 10
-0.3982638709289788
 20
-346.16559793999977
 30
0.0
  0
VERTEX
  5
56
100
AcDbEntity
  8
0
370
              15
  6
Continuous
 62
               7
100
AcDbVertex
100
AcDb2dVertex
 10
1.0637404024710193
 20
-345.39323625299977
 30
0.0
  0
VERTEX
  5
57
100
AcDbEntity
  8
0
370
              15
  6
Continuous
 62
               7
100
AcDbVertex
100
AcDb2dVertex
 10
2.3653823992708638
 20
-344.3107931647998
 30
0.0
  0
VERTEX
  5
58
100
AcDbEntity
  8
0
370
              15
  6
Continuous
 62
               7
100
AcDbVertex
100
AcDb2dVertex
 10
3.4761560474712567
 20
-342.94372084219981
 30
0.0
  0
VERTEX
  5
59
100
AcDbEntity
  8
0
370
              15
  6
Continuous
 62
               7
100
AcDbVertex
100
AcDb2dVertex
 10
4.3700221888707418
 20
-341.32393822979981
 30
0.0
  0
VERTEX
  5
5A
100
AcDbEntity
  8
0
370
              15
  6
Continuous
 62
               7
100
AcDbVertex
100
AcDb2dVertex
 10
5.0260320426709839
 20
-339.48952407799976
 30
0.0
  0
VERTEX
  5
5B
100
AcDbEntity
  8
0
370
              15
  6
Continuous
 62
               7
100
AcDbVertex
100
AcDb2dVertex
 10
5.4288082810712766
 20
-337.48341589779977
 30
0.0
  0
VERTEX
  5
5C
100
AcDbEntity
  8
0
370
              15
  6
Continuous
 62
               7
100
AcDbVertex
100
AcDb2dVertex
 10
5.5689083192710385
 20
-335.3525901947998
 30
0.0
  0
VERTEX
  5
5D
100
AcDbEntity
  8
0
370
              15
  6
Continuous
 62
               7
100
AcDbVertex
100
AcDb2dVertex
 10
5.4430521476711036
 20
-333.14709810579978
 30
0.0
  0
VERTEX
  5
5E
100
AcDbEntity
  8
0
370
              15
  6
Continuous
 62
               7
100
AcDbVertex
100
AcDb2dVertex
 10
5.0541863212706701
 20
-330.91855415179981
 30
0.0
  0
VERTEX
  5
5F
100
AcDbEntity
  8
0
370
              15
  6
Continuous
 62
               7
100
AcDbVertex
100
AcDb2dVertex
 10
4.4114277400708559
 20
-328.71927528379979
 30
0.0
  0
VERTEX
  5
60
100
AcDbEntity
  8
0
370
              15
  6
Continuous
 62
               7
100
AcDbVertex
100
AcDb2dVertex
 10
3.5298403662709532
 20
-326.60070272239977
 30
0.0
  0
VERTEX
  5
61
100
AcDbEntity
  8
0
370
              15
  6
Continuous
 62
               7
100
AcDbVertex
100
AcDb2dVertex
 10
2.430089891471205
 20
-324.61258670879977
 30
0.0
  0
VERTEX
  5
62
100
AcDbEntity
  8
0
370
              15
  6
Continuous
 62
               7
100
AcDbVertex
100
AcDb2dVertex
 10
1.1379517566706525
 20
-322.80145880719977
 30
0.0
  0
VERTEX
  5
63
100
AcDbEntity
  8
0
370
              15
  6
Continuous
 62
               7
100
AcDbVertex
100
AcDb2dVertex
 10
-0.3162883593290573
 20
-321.20975744819981
 30
0.0
  0
VERTEX
  5
64
100
AcDbEntity
  8
0
370
              15
  6
Continuous
 62
               7
100
AcDbVertex
100
AcDb2dVertex
 10
-1.8985400159290222
 20
-319.87492879239977
 30
0.0
  0
VERTEX
  5
65
100
AcDbEntity
  8
0
370
              15
  6
Continuous
 62
               7
100
AcDbVertex
100
AcDb2dVertex
 10
-3.5717209183289853
 20
-318.82810690059978
 30
0.0
  0
VERTEX
  5
66
100
AcDbEntity
  8
0
370
              15
  6
Continuous
 62
               7
100
AcDbVertex
100
AcDb2dVertex
 10
-5.2966123473292939
 20
-318.09385795539981
 30
0.0
  0
VERTEX
  5
67
100
AcDbEntity
  8
0
370
              15
  6
Continuous
 62
               7
100
AcDbVertex
100
AcDb2dVertex
 10
-7.0327823723291587
 20
-317.68945650459978
 30
0.0
  0
VERTEX
  5
68
100
AcDbEntity
  8
0
370
              15
  6
Continuous
 62
               7
100
AcDbVertex
100
AcDb2dVertex
 10
-8.7395368679290115
 20
-317.62438132219978
 30
0.0
  0
VERTEX
  5
69
100
AcDbEntity
  8
0
370
              15
  6
Continuous
 62
               7
100
AcDbVertex
100
AcDb2dVertex
 10
-10.376872504528812
 20
-317.90009343119976
 30
0.0
  0
VERTEX
  5
6A
100
AcDbEntity
  8
0
370
              15
  6
Continuous
 62
               7
100
AcDbVertex
100
AcDb2dVertex
 10
-11.906412348729184
 20
-318.5101007967998
 30
0.0
  0
VERTEX
  5
6B
100
AcDbEntity
  8
0
370
              15
  6
Continuous
 62
               7
100
AcDbVertex
100
AcDb2dVertex
 10
-13.292301324328939
 20
-319.44025846559981
 30
0.0
  0
VERTEX
  5
6C
100
AcDbEntity
  8
0
370
              15
  6
Continuous
 62
               7
100
AcDbVertex
100
AcDb2dVertex
 10
-14.502058558929086
 20
-320.66862655559976
 30
0.0
  0
VERTEX
  5
6D
100
AcDbEntity
  8
0
370
              15
  6
Continuous
 62
               7
100
AcDbVertex
100
AcDb2dVertex
 10
-15.507328621728895
 20
-322.16642575259976
 30
0.0
  0
VERTEX
  5
6E
100
AcDbEntity
  8
0
370
              15
  6
Continuous
 62
               7
100
AcDbVertex
100
AcDb2dVertex
 10
-16.284546915328967
 20
-323.8986171365998
 30
0.0
  0
VERTEX
  5
6F
100
AcDbEntity
  8
0
370
              15
  6
Continuous
 62
               7
100
AcDbVertex
100
AcDb2dVertex
 10
-16.815499101929156
 20
-325.82450668779978
 30
0.0
  0
VERTEX
  5
70
100
AcDbEntity
  8
0
370
              15
  6
Continuous
 62
               7
100
AcDbVertex
100
AcDb2dVertex
 10
-17.087735996529311
 20
-327.8990617491998
 30
0.0
  0
VERTEX
  5
71
100
AcDbEntity
  8
0
370
              15
  6
Continuous
 62
               7
100
AcDbVertex
100
AcDb2dVertex
 10
-17.094878814529231
 20
-330.07357473839977
 30
0.0
  0
VERTEX
  5
72
100
AcDbEntity
  8
0
370
              15
  6
Continuous
 62
               7
100
AcDbVertex
100
AcDb2dVertex
 10
-16.836759202529258
 20
-332.29715668179978
 30
0.0
  0
VERTEX
  5
73
100
AcDbEntity
  8
0
370
              15
  6
Continuous
 62
               7
100
AcDbVertex
100
AcDb2dVertex
 10
-16.31942920332903
 20
-334.51758275259976
 30
0.0
  0
VERTEX
  5
74
100
AcDbEntity
  8
0
370
              15
  6
Continuous
 62
               7
100
AcDbVertex
100
AcDb2dVertex
 10
-15.555014015528734
 20
-336.68285271879978
 30
0.0
  0
VERTEX
  5
75
100
AcDbEntity
  8
0
370
              15
  6
Continuous
 62
               7
100
AcDbVertex
100
AcDb2dVertex
 10
-14.561428657128992
 20
-338.7422743721998
 30
0.0
  0
VERTEX
  5
76
100
AcDbEntity
  8
0
370
              15
  6
Continuous
 62
               7
100
AcDbVertex
100
AcDb2dVertex
 10
-13.361965341929128
 20
-340.64746402559979
 30
0.0
  0
VERTEX
  5
77
100
AcDbEntity
  8
0
370
              15
  6
Continuous
 62
               7
100
AcDbVertex
100
AcDb2dVertex
 10
-11.984735315329083
 20
-342.3538896253998
 30
0.0
  0
VERTEX
  5
78
100
AcDbEntity
  8
0
370
              15
  6
Continuous
 62
               7
100
AcDbVertex
100
AcDb2dVertex
 10
-10.462020724728966
 20
-343.82147391219979
 30
0.0
  0
VERTEX
  5
79
100
AcDbEntity
  8
0
370
              15
  6
Continuous
 62
               7
100
AcDbVertex
100
AcDb2dVertex
 10
-8.8295149627288012
 20
-345.0157887983998
 30
0.0
  0
VERTEX
  5
7A
100
AcDbEntity
  8
0
370
              15
  6
Continuous
 62
               7
100
AcDbVertex
100
AcDb2dVertex
 10
-7.1254791459291411
 20
-345.90893013619979
 30
0.0
  0
VERTEX
  5
7B
100
AcDbEntity
  8
0
370
              15
  6
Continuous
 62
               7
100
AcDbVertex
100
AcDb2dVertex
 10
-5.3898553025287512
 20
-346.47995037679976
 30
0.0
  0
SEQEND
  5
7C
100
AcDbEntity
  8
0
370
              15
  6
Continuous
 62
               7
  0
POLYLINE
  5
7D
100
AcDbEntity
  8
0
370
              15
  6
Continuous
 62
               7
100
AcDb2dPolyline
 66
               1
 10
0.0
 20
0.0
 30
0.0
 75
               5
  0
VERTEX
  5
7E
100
AcDbEntity
  8
0
370
              15
  6
Continuous
 62
               7
100
AcDbVertex
100
AcDb2dVertex
 10
-3.0231195955288896
 20
-433.8021775969998
 30
0.0
  0
VERTEX
  5
7F
100
AcDbEntity
  8
0
370
              15
  6
Continuous
 62
               7
100
AcDbVertex
100
AcDb2dVertex
 10
-1.8943843713291173
 20
-433.89891011079976
 30
0.0
  0
VERTEX
  5
80
100
AcDbEntity
  8
0
370
              15
  6
Continuous
 62
               7
100
AcDbVertex
100
AcDb2dVertex
 10
-0.8355625523290584
 20
-433.65604019359978
 30
0.0
  0
VERTEX
  5
81
100
AcDbEntity
  8
0
370
              15
  6
Continuous
 62
               7
100
AcDbVertex
100
AcDb2dVertex
 10
0.0962629174710017
 20
-433.0866118849998
 30
0.0
  0
VERTEX
  5
82
100
AcDbEntity
  8
0
370
              15
  6
Continuous
 62
               7
100
AcDbVertex
100
AcDb2dVertex
 10
0.8508589046709929
 20
-432.22137409259977
 30
0.0
  0
VERTEX
  5
83
100
AcDbEntity
  8
0
370
              15
  6
Continuous
 62
               7
100
AcDbVertex
100
AcDb2dVertex
 10
1.3875430092707646
 20
-431.10692265219978
 30
0.0
  0
VERTEX
  5
84
100
AcDbEntity
  8
0
370
              15
  6
Continuous
 62
               7
100
AcDbVertex
100
AcDb2dVertex
 10
1.6773846588707855
 20
-429.80338681959978
 30
0.0
  0
VERTEX
  5
85
100
AcDbEntity
  8
0
370
              15
  6
Continuous
 62
               7
100
AcDbVertex
100
AcDb2dVertex
 10
1.7047548908708521
 20
-428.38094661919979
 30
0.0
  0
VERTEX
  5
86
100
AcDbEntity
  8
0
370
              15
  6
Continuous
 62
               7
100
AcDbVertex
100
AcDb2dVertex
 10
1.4681805378709285
 20
-426.9163577431998
 30
0.0
  0
VERTEX
  5
87
100
AcDbEntity
  8
0
370
              15
  6
Continuous
 62
               7
100
AcDbVertex
100
AcDb2dVertex
 10
0.9804166758708632
 20
-425.48861607379979
 30
0.0
  0
VERTEX
  5
88
100
AcDbEntity
  8
0
370
              15
  6
Continuous
 62
               7
100
AcDbVertex
100
AcDb2dVertex
 10
0.2677565878707426
 20
-424.17461417219977
 30
0.0
  0
VERTEX
  5
89
100
AcDbEntity
  8
0
370
              15
  6
Continuous
 62
               7
100
AcDbVertex
100
AcDb2dVertex
 10
-0.6313803935290636
 20
-423.04519480939979
 30
0.0
  0
VERTEX
  5
8A
100
AcDbEntity
  8
0
370
              15
  6
Continuous
 62
               7
100
AcDbVertex
100
AcDb2dVertex
 10
-1.6685185257288069
 20
-422.1613339691998
 30
0.0
  0
VERTEX
  5
8B
100
AcDbEntity
  8
0
370
              15
  6
Continuous
 62
               7
100
AcDbVertex
100
AcDb2dVertex
 10
-2.787749804328989
 20
-421.57053383759978
 30
0.0
  0
VERTEX
  5
8C
100
AcDbEntity
  8
0
370
              15
  6
Continuous
 62
               7
100
AcDbVertex
100
AcDb2dVertex
 10
-3.928732645929351
 20
-421.30476774919981
 30
0.0
  0
VERTEX
  5
8D
100
AcDbEntity
  8
0
370
              15
  6
Continuous
 62
               7
100
AcDbVertex
100
AcDb2dVertex
 10
-5.029956496329298
 20
-421.37836319299976
 30
0.0
  0
VERTEX
  5
8E
100
AcDbEntity
  8
0
370
              15
  6
Continuous
 62
               7
100
AcDbVertex
100
AcDb2dVertex
 10
-6.0320572301293325
 20
-421.78722956599978
 30
0.0
  0
VERTEX
  5
8F
100
AcDbEntity
  8
0
370
              15
  6
Continuous
 62
               7
100
AcDbVertex
100
AcDb2dVertex
 10
-6.8810077559287421
 20
-422.5094715707998
 30
0.0
  0
VERTEX
  5
90
100
AcDbEntity
  8
0
370
              15
  6
Continuous
 62
               7
100
AcDbVertex
100
AcDb2dVertex
 10
-7.5310426959290382
 20
-423.50606455599979
 30
0.0
  0
VERTEX
  5
91
100
AcDbEntity
  8
0
370
              15
  6
Continuous
 62
               7
100
AcDbVertex
100
AcDb2dVertex
 10
-7.9471191097290941
 20
-424.72327712219976
 30
0.0
  0
VERTEX
  5
92
100
AcDbEntity
  8
0
370
              15
  6
Continuous
 62
               7
100
AcDbVertex
100
AcDb2dVertex
 10
-8.1068042111287397
 20
-426.09556634059976
 30
0.0
  0
VERTEX
  5
93
100
AcDbEntity
  8
0
370
              15
  6
Continuous
 62
               7
100
AcDbVertex
100
AcDb2dVertex
 10
-8.0014901831291283
 20
-427.54891233179978
 30
0.0
  0
VERTEX
  5
94
100
AcDbEntity
  8
0
370
              15
  6
Continuous
 62
               7
100
AcDbVertex
100
AcDb2dVertex
 10
-7.6368560375290073
 20
-429.00489346479981
 30
0.0
  0
VERTEX
  5
95
100
AcDbEntity
  8
0
370
              15
  6
Continuous
 62
               7
100
AcDbVertex
100
AcDb2dVertex
 10
-7.032557740528766
 20
-430.38511089099978
 30
0.0
  0
VERTEX
  5
96
100
AcDbEntity
  8
0
370
              15
  6
Continuous
 62
               7
100
AcDbVertex
100
AcDb2dVertex
 10
-6.2211736019289603
 20
-431.6151082551998
 30
0.0
  0
VERTEX
  5
97
100
AcDbEntity
  8
0
370
              15
  6
Continuous
 62
               7
100
AcDbVertex
100
AcDb2dVertex
 10
-5.2464448177292908
 20
-432.62862515839976
 30
0.0
  0
VERTEX
  5
98
100
AcDbEntity
  8
0
370
              15
  6
Continuous
 62
               7
100
AcDbVertex
100
AcDb2dVertex
 10
-4.1609202031290735
 20
-433.37097196799976
 30
0.0
  0
VERTEX
  5
99
100
AcDbEntity
  8
0
370
              15
  6
Continuous
 62
               7
100
AcDbVertex
100
AcDb2dVertex
 10
-3.0231195955288896
 20
-433.8021775969998
 30
0.0
  0
SEQEND
  5
9A
100
AcDbEntity
  8
0
370
              15
  6
Continuous
 62
               7
  0
POLYLINE
  5
9B
100
AcDbEntity
  8
0
370
              15
  6
Continuous
 62
               7
100
AcDb2dPolyline
 66
               1
 10
0.0
 20
0.0
 30
0.0
 75
               5
  0
VERTEX
  5
9C
100
AcDbEntity
  8
0
370
              15
  6
Continuous
 62
               7
100
AcDbVertex
100
AcDb2dVertex
 10
-25.37519659612871
 20
390.89199543320012
 30
0.0
  0
VERTEX
  5
9D
100
AcDbEntity
  8
0
370
              15
  6
Continuous
 62
               7
100
AcDbVertex
100
AcDb2dVertex
 10
-24.894579477928794
 20
390.66093975380011
 30
0.0
  0
VERTEX
  5
9E
100
AcDbEntity
  8
0
370
              15
  6
Continuous
 62
               7
100
AcDbVertex
100
AcDb2dVertex
 10
-24.48063444272929
 20
390.2253302874002
 30
0.0
  0
VERTEX
  5
9F
100
AcDbEntity
  8
0
370
              15
  6
Continuous
 62
               7
100
AcDbVertex
100
AcDb2dVertex
 10
-24.196380986528759
 20
389.65148780200013
 30
0.0
  0
VERTEX
  5
A0
100
AcDbEntity
  8
0
370
              15
  6
Continuous
 62
               7
100
AcDbVertex
100
AcDb2dVertex
 10
-24.085094050329182
 20
389.0267729840001
 30
0.0
  0
VERTEX
  5
A1
100
AcDbEntity
  8
0
370
              15
  6
Continuous
 62
               7
100
AcDbVertex
100
AcDb2dVertex
 10
-24.163716024529087
 20
388.44629314160022
 30
0.0
  0
VERTEX
  5
A2
100
AcDbEntity
  8
0
370
              15
  6
Continuous
 62
               7
100
AcDbVertex
100
AcDb2dVertex
 10
-24.420277471128877
 20
387.9984212282003
 30
0.0
  0
VERTEX
  5
A3
100
AcDbEntity
  8
0
370
              15
  6
Continuous
 62
               7
100
AcDbVertex
100
AcDb2dVertex
 10
-24.815719218729093
 20
387.75134006540031
 30
0.0
  0
VERTEX
  5
A4
100
AcDbEntity
  8
0
370
              15
  6
Continuous
 62
               7
100
AcDbVertex
100
AcDb2dVertex
 10
-25.28983890072913
 20
387.74266868100028
 30
0.0
  0
VERTEX
  5
A5
100
AcDbEntity
  8
0
370
              15
  6
Continuous
 62
               7
100
AcDbVertex
100
AcDb2dVertex
 10
-25.770456018929046
 20
387.9737243604003
 30
0.0
  0
VERTEX
  5
A6
100
AcDbEntity
  8
0
370
              15
  6
Continuous
 62
               7
100
AcDbVertex
100
AcDb2dVertex
 10
-26.184401054129005
 20
388.40933382660012
 30
0.0
  0
VERTEX
  5
A7
100
AcDbEntity
  8
0
370
              15
  6
Continuous
 62
               7
100
AcDbVertex
100
AcDb2dVertex
 10
-26.468654510128992
 20
388.98317631220027
 30
0.0
  0
VERTEX
  5
A8
100
AcDbEntity
  8
0
370
              15
  6
Continuous
 62
               7
100
AcDbVertex
100
AcDb2dVertex
 10
-26.579941446529112
 20
389.6078911302003
 30
0.0
  0
VERTEX
  5
A9
100
AcDbEntity
  8
0
370
              15
  6
Continuous
 62
               7
100
AcDbVertex
100
AcDb2dVertex
 10
-26.501319472329207
 20
390.18837097240032
 30
0.0
  0
VERTEX
  5
AA
100
AcDbEntity
  8
0
370
              15
  6
Continuous
 62
               7
100
AcDbVertex
100
AcDb2dVertex
 10
-26.244758025728963
 20
390.6362428860001
 30
0.0
  0
VERTEX
  5
AB
100
AcDbEntity
  8
0
370
              15
  6
Continuous
 62
               7
100
AcDbVertex
100
AcDb2dVertex
 10
-25.849316278129201
 20
390.88332404880032
 30
0.0
  0
VERTEX
  5
AC
100
AcDbEntity
  8
0
370
              15
  6
Continuous
 62
               7
100
AcDbVertex
100
AcDb2dVertex
 10
-25.37519659612871
 20
390.89199543320012
 30
0.0
  0
SEQEND
  5
AD
100
AcDbEntity
  8
0
370
              15
  6
Continuous
 62
               7
  0
LINE
  5
AE
100
AcDbEntity
  8
0
370
              15
  6
Continuous
 62
               7
100
AcDbLine
 10
70.149401943270732
 20
-464.66126737159982
 30
0.0
 11
24.758767145670852
 21
-481.40702239839982
 31
0.0
  0
LINE
  5
AF
100
AcDbEntity
  8
0
370
              15
  6
Continuous
 62
               7
100
AcDbLine
 10
-24.504985295329327
 20
388.03222105820021
 30
0.0
 11
-24.40588215972911
 21
388.01409721660013
 31
0.0
  0
ARC
  5
B0
100
AcDbEntity
  8
0
370
              15
  6
Continuous
 62
               7
100
AcDbCircle
 10
-23.92038837712925
 20
389.8313091350002
 30
0.0
 40
1.8916848217482953
100
AcDbArc
 50
145.22945380260066
 51
251.9989120973045
  0
POLYLINE
  5
B1
100
AcDbEntity
  8
0
370
              15
  6
Continuous
 62
               7
100
AcDb2dPolyline
 66
               1
 10
0.0
 20
0.0
 30
0.0
 75
               5
  0
VERTEX
  5
B2
100
AcDbEntity
  8
0
370
              15
  6
Continuous
 62
               7
100
AcDbVertex
100
AcDb2dVertex
 10
-28.131647416729258
 20
-469.20549120299967
 30
0.0
  0
VERTEX
  5
B3
100
AcDbEntity
  8
0
370
              15
  6
Continuous
 62
               7
100
AcDbVertex
100
AcDb2dVertex
 10
-28.172126182729237
 20
-469.19379404699981
 30
0.0
  0
VERTEX
  5
B4
100
AcDbEntity
  8
0
370
              15
  6
Continuous
 62
               7
100
AcDbVertex
100
AcDb2dVertex
 10
-28.203506636928971
 20
-469.17976409819977
 30
0.0
  0
VERTEX
  5
B5
100
AcDbEntity
  8
0
370
              15
  6
Continuous
 62
               7
100
AcDbVertex
100
AcDb2dVertex
 10
-28.22458654372894
 20
-469.16394094599974
 30
0.0
  0
VERTEX
  5
B6
100
AcDbEntity
  8
0
370
              15
  6
Continuous
 62
               7
100
AcDbVertex
100
AcDb2dVertex
 10
-28.234553167329061
 20
-469.14693329339985
 30
0.0
  0
VERTEX
  5
B7
100
AcDbEntity
  8
0
370
              15
  6
Continuous
 62
               7
100
AcDbVertex
100
AcDb2dVertex
 10
-28.235324727128948
 20
-469.14123105439973
 30
0.0
  0
SEQEND
  5
B8
100
AcDbEntity
  8
0
370
              15
  6
Continuous
 62
               7
  0
POLYLINE
  5
B9
100
AcDbEntity
  8
0
370
              15
  6
Continuous
 62
               7
100
AcDb2dPolyline
 66
               1
 10
0.0
 20
0.0
 30
0.0
 75
               5
  0
VERTEX
  5
BA
100
AcDbEntity
  8
0
370
              15
  6
Continuous
 62
               7
100
AcDbVertex
100
AcDb2dVertex
 10
70.222487931271189
 20
-464.60031004019982
 30
0.0
  0
VERTEX
  5
BB
100
AcDbEntity
  8
0
370
              15
  6
Continuous
 62
               7
100
AcDbVertex
100
AcDb2dVertex
 10
70.220189702871266
 20
-464.61214686939979
 30
0.0
  0
VERTEX
  5
BC
100
AcDbEntity
  8
0
370
              15
  6
Continuous
 62
               7
100
AcDbVertex
100
AcDb2dVertex
 10
70.207225721470877
 20
-464.62954410999976
 30
0.0
  0
VERTEX
  5
BD
100
AcDbEntity
  8
0
370
              15
  6
Continuous
 62
               7
100
AcDbVertex
100
AcDb2dVertex
 10
70.183324910470674
 20
-464.6461301001998
 30
0.0
  0
VERTEX
  5
BE
100
AcDbEntity
  8
0
370
              15
  6
Continuous
 62
               7
100
AcDbVertex
100
AcDb2dVertex
 10
70.149401943270732
 20
-464.66126737159982
 30
0.0
  0
SEQEND
  5
BF
100
AcDbEntity
  8
0
370
              15
  6
Continuous
 62
               7
  0
LINE
  5
C0
100
AcDbEntity
  8
0
370
              15
  6
Continuous
 62
               7
100
AcDbLine
 10
-15.401609996329164
 20
-332.47689653379979
 30
0.0
 11
-15.299717963328924
 21
-333.05823435619976
 31
0.0
  0
SPLINE
  5
C1
100
AcDbEntity
  8
0
370
              15
  6
Continuous
 62
               7
100
AcDbSpline
210
0.0
220
0.0
230
1.0
 70
               8
 71
               2
 72
              10
 73
               7
 74
               0
 42
0.000001
 43
0.000001
 40
0.0
 40
0.0
 40
0.0
 40
1.0
 40
1.0
 40
2.0
 40
2.0
 40
3.0
 40
3.0
 40
3.0
 10
-15.299718503862088
 20
-333.05821518792771
 30
0.0
 10
-15.296777711150973
 20
-333.08125553416255
 30
0.0
 10
-15.293836918439858
 20
-333.10429588039744
 30
0.0
 10
-15.082864154216161
 20
-334.72792865685744
 30
0.0
 10
-14.758253943532502
 20
-336.32607088778519
 30
0.0
 10
-14.753591414524628
 20
-336.34876797726895
 30
0.0
 10
-14.748928885516754
 20
-336.37146506675276
 30
0.0
  0
LINE
  5
C2
100
AcDbEntity
  8
0
370
              15
  6
Continuous
 62
               7
100
AcDbLine
 10
-14.748928226729269
 20
-336.37145906819978
 30
0.0
 11
-14.654835815128983
 21
-336.66502486879978
 31
0.0
  0
POLYLINE
  5
C3
100
AcDbEntity
  8
0
370
              15
  6
Continuous
 62
               7
100
AcDb2dPolyline
 66
               1
 10
0.0
 20
0.0
 30
0.0
 75
               5
  0
VERTEX
  5
C4
100
AcDbEntity
  8
0
370
              15
  6
Continuous
 62
               7
100
AcDbVertex
100
AcDb2dVertex
 10
-14.654835815128983
 20
-336.66502486879978
 30
0.0
  0
VERTEX
  5
C5
100
AcDbEntity
  8
0
370
              15
  6
Continuous
 62
               7
100
AcDbVertex
100
AcDb2dVertex
 10
-13.568631383328913
 20
-338.81955785259976
 30
0.0
  0
VERTEX
  5
C6
100
AcDbEntity
  8
0
370
              15
  6
Continuous
 62
               7
100
AcDbVertex
100
AcDb2dVertex
 10
-12.25784289392913
 20
-340.79222337419981
 30
0.0
  0
VERTEX
  5
C7
100
AcDbEntity
  8
0
370
              15
  6
Continuous
 62
               7
100
AcDbVertex
100
AcDb2dVertex
 10
-10.756799550329099
 20
-342.53133211639977
 30
0.0
  0
VERTEX
  5
C8
100
AcDbEntity
  8
0
370
              15
  6
Continuous
 62
               7
100
AcDbVertex
100
AcDb2dVertex
 10
-9.1048094405291451
 20
-343.99138317339981
 30
0.0
  0
VERTEX
  5
C9
100
AcDbEntity
  8
0
370
              15
  6
Continuous
 62
               7
100
AcDbVertex
100
AcDb2dVertex
 10
-7.3451357189292068
 20
-345.1341503865998
 30
0.0
  0
VERTEX
  5
CA
100
AcDbEntity
  8
0
370
              15
  6
Continuous
 62
               7
100
AcDbVertex
100
AcDb2dVertex
 10
-5.5238629521290861
 20
-345.92968121659976
 30
0.0
  0
VERTEX
  5
CB
100
AcDbEntity
  8
0
370
              15
  6
Continuous
 62
               7
100
AcDbVertex
100
AcDb2dVertex
 10
-3.6886873833291176
 20
-346.35714376459981
 30
0.0
  0
VERTEX
  5
CC
100
AcDbEntity
  8
0
370
              15
  6
Continuous
 62
               7
100
AcDbVertex
100
AcDb2dVertex
 10
-1.8876698895287447
 20
-346.4053433383998
 30
0.0
  0
VERTEX
  5
CD
100
AcDbEntity
  8
0
370
              15
  6
Continuous
 62
               7
100
AcDbVertex
100
AcDb2dVertex
 10
-0.1975176075288729
 20
-346.08224425039981
 30
0.0
  0
SEQEND
  5
CE
100
AcDbEntity
  8
0
370
              15
  6
Continuous
 62
               7
  0
ARC
  5
CF
100
AcDbEntity
  8
0
370
              15
  6
Continuous
 62
               7
100
AcDbCircle
 10
2.2684915306708788
 20
-328.63325432299979
 30
0.0
 40
18.083309249745302
100
AcDbArc
 50
170.8331254572
 51
192.27194369559999
  0
LINE
  5
D0
100
AcDbEntity
  8
0
370
              15
  6
Continuous
 62
               7
100
AcDbLine
 10
-15.511528795128918
 20
-325.24333828219977
 30
0.0
 11
-15.583867370129148
 21
-325.75239419159976
 31
0.0
  0
SPLINE
  5
D1
100
AcDbEntity
  8
0
370
              15
  6
Continuous
 62
               7
100
AcDbSpline
210
0.0
220
0.0
230
1.0
 70
               8
 71
               2
 72
              11
 73
               8
 74
               0
 42
0.000001
 43
0.000001
 40
0.0
 40
0.0
 40
0.0
 40
1.0
 40
1.0
 40
2.0
 40
3.0
 40
3.0
 40
4.0
 40
4.0
 40
4.0
 10
-15.119030362367532
 20
-322.71633442302777
 30
0.0
 10
-15.122287720522984
 20
-322.73054902068645
 30
0.0
 10
-15.125545078678435
 20
-322.74476361834513
 30
0.0
 10
-15.222201881201265
 20
-323.17415482641184
 30
0.0
 10
-15.425088738345487
 20
-324.3516602694624
 30
0.0
 10
-15.508290955072418
 20
-325.20896948598147
 30
0.0
 10
-15.509909985456936
 20
-325.2261501978337
 30
0.0
 10
-15.511529015841454
 20
-325.24333090968599
 30
0.0
  0
LINE
  5
D2
100
AcDbEntity
  8
0
370
              15
  6
Continuous
 62
               7
100
AcDbLine
 10
-15.038892014129026
 20
-322.49502584199979
 30
0.0
 11
-15.11903021052921
 21
-322.71630972919979
 31
0.0
  0
ARC
  5
D3
100
AcDbEntity
  8
0
370
              15
  6
Continuous
 62
               7
100
AcDbCircle
 10
-6.8819590319289929
 20
-326.05707118499976
 30
0.0
 40
8.9007709048596144
100
AcDbArc
 50
114.50190329340035
 51
156.40962121740051
  0
POLYLINE
  5
D4
100
AcDbEntity
  8
0
370
              15
  6
Continuous
 62
               7
100
AcDb2dPolyline
 66
               1
 10
0.0
 20
0.0
 30
0.0
 75
               5
  0
VERTEX
  5
D5
100
AcDbEntity
  8
0
370
              15
  6
Continuous
 62
               7
100
AcDbVertex
100
AcDb2dVertex
 10
-2.2382659901290864
 20
-433.51262521979976
 30
0.0
  0
VERTEX
  5
D6
100
AcDbEntity
  8
0
370
              15
  6
Continuous
 62
               7
100
AcDbVertex
100
AcDb2dVertex
 10
-1.1095307659293141
 20
-433.60935773359978
 30
0.0
  0
VERTEX
  5
D7
100
AcDbEntity
  8
0
370
              15
  6
Continuous
 62
               7
100
AcDbVertex
100
AcDb2dVertex
 10
-0.5581094019289523
 20
-433.52781191539981
 30
0.0
  0
SEQEND
  5
D8
100
AcDbEntity
  8
0
370
              15
  6
Continuous
 62
               7
  0
POLYLINE
  5
D9
100
AcDbEntity
  8
0
370
              15
  6
Continuous
 62
               7
100
AcDb2dPolyline
 66
               1
 10
0.0
 20
0.0
 30
0.0
 75
               5
  0
VERTEX
  5
DA
100
AcDbEntity
  8
0
370
              15
  6
Continuous
 62
               7
100
AcDbVertex
100
AcDb2dVertex
 10
-5.0395328029289814
 20
-421.3805469181998
 30
0.0
  0
VERTEX
  5
DB
100
AcDbEntity
  8
0
370
              15
  6
Continuous
 62
               7
100
AcDbVertex
100
AcDb2dVertex
 10
-5.2472036247290745
 20
-421.4976771887998
 30
0.0
  0
VERTEX
  5
DC
100
AcDbEntity
  8
0
370
              15
  6
Continuous
 62
               7
100
AcDbVertex
100
AcDb2dVertex
 10
-6.0961541507290278
 20
-422.21991919359976
 30
0.0
  0
VERTEX
  5
DD
100
AcDbEntity
  8
0
370
              15
  6
Continuous
 62
               7
100
AcDbVertex
100
AcDb2dVertex
 10
-6.746189090529235
 20
-423.2165121787998
 30
0.0
  0
VERTEX
  5
DE
100
AcDbEntity
  8
0
370
              15
  6
Continuous
 62
               7
100
AcDbVertex
100
AcDb2dVertex
 10
-7.1622655043288361
 20
-424.43372474499978
 30
0.0
  0
VERTEX
  5
DF
100
AcDbEntity
  8
0
370
              15
  6
Continuous
 62
               7
100
AcDbVertex
100
AcDb2dVertex
 10
-7.3219506059290254
 20
-425.80601396359981
 30
0.0
  0
VERTEX
  5
E0
100
AcDbEntity
  8
0
370
              15
  6
Continuous
 62
               7
100
AcDbVertex
100
AcDb2dVertex
 10
-7.2166365779289592
 20
-427.2593599545998
 30
0.0
  0
VERTEX
  5
E1
100
AcDbEntity
  8
0
370
              15
  6
Continuous
 62
               7
100
AcDbVertex
100
AcDb2dVertex
 10
-6.8520024321292041
 20
-428.71534108759977
 30
0.0
  0
VERTEX
  5
E2
100
AcDbEntity
  8
0
370
              15
  6
Continuous
 62
               7
100
AcDbVertex
100
AcDb2dVertex
 10
-6.2477041351289628
 20
-430.0955585137998
 30
0.0
  0
VERTEX
  5
E3
100
AcDbEntity
  8
0
370
              15
  6
Continuous
 62
               7
100
AcDbVertex
100
AcDb2dVertex
 10
-5.4363199965291571
 20
-431.32555587799976
 30
0.0
  0
VERTEX
  5
E4
100
AcDbEntity
  8
0
370
              15
  6
Continuous
 62
               7
100
AcDbVertex
100
AcDb2dVertex
 10
-4.4615912125291217
 20
-432.33907278139981
 30
0.0
  0
VERTEX
  5
E5
100
AcDbEntity
  8
0
370
              15
  6
Continuous
 62
               7
100
AcDbVertex
100
AcDb2dVertex
 10
-3.3760665977292703
 20
-433.08141959079978
 30
0.0
  0
VERTEX
  5
E6
100
AcDbEntity
  8
0
370
              15
  6
Continuous
 62
               7
100
AcDbVertex
100
AcDb2dVertex
 10
-2.2382659901290864
 20
-433.51262521979976
 30
0.0
  0
SEQEND
  5
E7
100
AcDbEntity
  8
0
370
              15
  6
Continuous
 62
               7
  0
LINE
  5
E8
100
AcDbEntity
  8
0
370
              15
  6
Continuous
 62
               7
100
AcDbLine
 10
-50.385558195128844
 20
486.79960405900022
 30
0.0
 11
-1.6226341201290708
 21
475.44138628340022
 31
0.0
  0
ARC
  5
E9
100
AcDbEntity
  8
0
370
              15
  6
Continuous
 62
               7
100
AcDbCircle
 10
0.2376528512709299
 20
472.17549131940029
 30
0.0
 40
3.7585552451973396
100
AcDbArc
 50
119.66627882439582
 51
184.89945428639729
  0
LINE
  5
EA
100
AcDbEntity
  8
0
370
              15
  6
Continuous
 62
               7
100
AcDbLine
 10
-3.5071690455292739
 20
471.85448276260024
 30
0.0
 11
-52.270093120328958
 21
483.21270053820024
 31
0.0
  0
ARC
  5
EB
100
AcDbEntity
  8
0
370
              15
  6
Continuous
 62
               7
100
AcDbCircle
 10
-48.525271223729298
 20
483.53370909520015
 30
0.0
 40
3.75855524519858
100
AcDbArc
 50
119.666278824401
 51
184.89945428640067
  0
LINE
  5
EC
100
AcDbEntity
  8
0
370
              15
  6
Continuous
 62
               7
100
AcDbLine
 10
-1.8388140955289529
 20
410.29946012200014
 30
0.0
 11
-3.5071690455292739
 21
471.85448276260024
 31
0.0
  0
LINE
  5
ED
100
AcDbEntity
  8
0
370
              15
  6
Continuous
 62
               7
100
AcDbLine
 10
-50.601738170329092
 20
421.65767789760014
 30
0.0
 11
-1.8388140955289529
 21
410.29946012200014
 31
0.0
  0
LINE
  5
EE
100
AcDbEntity
  8
0
370
              15
  6
Continuous
 62
               7
100
AcDbLine
 10
-52.270093120328958
 20
483.21270053820024
 30
0.0
 11
-50.601738170329092
 21
421.65767789760014
 31
0.0
  0
LINE
  5
EF
100
AcDbEntity
  8
0
370
              15
  6
Continuous
 62
               7
100
AcDbLine
 10
40.56318564667118
 20
491.00480386000015
 30
0.0
 11
-8.1997384281289598
 21
502.36302163580024
 31
0.0
  0
LINE
  5
F0
100
AcDbEntity
  8
0
370
              15
  6
Continuous
 62
               7
100
AcDbLine
 10
-1.6226341201290708
 20
475.44138628340022
 30
0.0
 11
40.56318564667118
 21
491.00480386000015
 31
0.0
  0
LINE
  5
F1
100
AcDbEntity
  8
0
370
              15
  6
Continuous
 62
               7
100
AcDbLine
 10
-8.1997384281289598
 20
502.36302163580024
 30
0.0
 11
-50.385558195128844
 21
486.79960405900022
 31
0.0
  0
ARC
  5
F2
100
AcDbEntity
  8
0
370
              15
  6
Continuous
 62
               7
100
AcDbCircle
 10
-2.8358868115287734
 20
472.09537273340027
 30
0.0
 40
3.5591837222662588
100
AcDbArc
 50
359.27075458899969
 51
70.069534294301207
  0
ARC
  5
F3
100
AcDbEntity
  8
0
370
              15
  6
Continuous
 62
               7
100
AcDbCircle
 10
-1.7703303903290291
 20
480.13295462760027
 30
0.0
 40
8.4587058665051149
100
AcDbArc
 50
258.15109532390062
 51
287.14350713679795
  0
LINE
  5
F4
100
AcDbEntity
  8
0
370
              15
  6
Continuous
 62
               7
100
AcDbLine
 10
0.7230086292706872
 20
472.05007361480023
 30
0.0
 11
2.391363579471097
 21
410.49505097420013
 31
0.0
  0
ARC
  5
F5
100
AcDbEntity
  8
0
370
              15
  6
Continuous
 62
               7
100
AcDbCircle
 10
-0.1019754403291628
 20
418.57793198700017
 30
0.0
 40
8.4587058665034647
100
AcDbArc
 50
258.15109532390142
 51
287.14350713679818
  0
ARC
  5
F6
100
AcDbEntity
  8
0
370
              15
  6
Continuous
 62
               7
100
AcDbCircle
 10
39.349932955271022
 20
487.65879031020029
 30
0.0
 40
3.5591837222671683
100
AcDbArc
 50
359.27075458899992
 51
70.069534294302798
  0
LINE
  5
F7
100
AcDbEntity
  8
0
370
              15
  6
Continuous
 62
               7
100
AcDbLine
 10
42.908828396271026
 20
487.61349119140016
 30
0.0
 11
0.7230086292706872
 21
472.05007361480023
 31
0.0
  0
LINE
  5
F8
100
AcDbEntity
  8
0
370
              15
  6
Continuous
 62
               7
100
AcDbLine
 10
44.577183346270893
 20
426.05846855080028
 30
0.0
 11
42.908828396271026
 21
487.61349119140016
 31
0.0
  0
LINE
  5
F9
100
AcDbEntity
  8
0
370
              15
  6
Continuous
 62
               7
100
AcDbLine
 10
2.391363579471097
 20
410.49505097420013
 30
0.0
 11
44.577183346270893
 21
426.05846855080028
 31
0.0
  0
ARC
  5
FA
100
AcDbEntity
  8
0
370
              15
  6
Continuous
 62
               7
100
AcDbCircle
 10
0.4229798756709968
 20
407.25159771180017
 30
0.0
 40
2.6961087421817953
100
AcDbArc
 50
258.1511373682003
 51
287.14346509250709
  0
ARC
  5
FB
100
AcDbEntity
  8
0
370
              15
  6
Continuous
 62
               7
100
AcDbCircle
 10
0.4918103402710656
 20
404.65961049840018
 30
0.0
 40
0.6241721153759947
100
AcDbArc
 50
119.58476778819711
 51
184.2884866506916
  0
ARC
  5
FC
100
AcDbEntity
  8
0
370
              15
  6
Continuous
 62
               7
100
AcDbCircle
 10
0.4478153712711972
 20
406.46154677740026
 30
0.0
 40
1.2865521945753382
100
AcDbArc
 50
258.15128632700475
 51
287.14331613359025
  0
ARC
  5
FD
100
AcDbEntity
  8
0
370
              15
  6
Continuous
 62
               7
100
AcDbCircle
 10
0.6258371234712357
 20
404.67554350000012
 30
0.0
 40
0.5918621510206706
100
AcDbArc
 50
359.97429305030761
 51
70.125917451830162
  0
ARC
  5
FE
100
AcDbEntity
  8
0
370
              15
  6
Continuous
 62
               7
100
AcDbCircle
 10
0.4845813126708052
 20
404.96770295900012
 30
0.0
 40
2.8195922682125905
100
AcDbArc
 50
258.15120116119846
 51
287.14340129950449
  0
LINE
  5
FF
100
AcDbEntity
  8
0
370
              15
  6
Continuous
 62
               7
100
AcDbLine
 10
-0.0943646637292588
 20
402.20818812560026
 30
0.0
 11
-0.1306142055291204
 21
404.61293594060032
 31
0.0
  0
LINE
  5
100
100
AcDbEntity
  8
0
370
              15
  6
Continuous
 62
               7
100
AcDbLine
 10
1.217699214871125
 20
404.67527794880027
 30
0.0
 11
1.3156963122710366
 21
402.27338515740018
 31
0.0
  0
LINE
  5
101
100
AcDbEntity
  8
0
370
              15
  6
Continuous
 62
               7
100
AcDbLine
 10
-0.1306142055291204
 20
404.61293594060032
 30
0.0
 11
-52.295604191729119
 21
416.76358785020022
 31
0.0
  0
ARC
  5
102
100
AcDbEntity
  8
0
370
              15
  6
Continuous
 62
               7
100
AcDbCircle
 10
-51.673179645929388
 20
416.81026240820017
 30
0.0
 40
0.6241721153747547
100
AcDbArc
 50
119.58476778816573
 51
184.28848665080503
  0
LINE
  5
103
100
AcDbEntity
  8
0
370
              15
  6
Continuous
 62
               7
100
AcDbLine
 10
-51.981340092729162
 20
417.35305884180013
 30
0.0
 11
0.1836498932712019
 21
405.20240693220023
 31
0.0
  0
ARC
  5
104
100
AcDbEntity
  8
0
370
              15
  6
Continuous
 62
               7
100
AcDbCircle
 10
7.2212231888711429
 20
445.64206919520018
 30
0.0
 40
33.15532166894625
100
AcDbArc
 50
285.11402805829965
 51
295.38656251949993
  0
ARC
  5
105
100
AcDbEntity
  8
0
370
              15
  6
Continuous
 62
               7
100
AcDbCircle
 10
-11.177224676929193
 20
456.6712760326003
 30
0.0
 40
45.263192994822717
100
AcDbArc
 50
249.4845103961004
 51
264.2085137705003
  0
POLYLINE
  5
106
100
AcDbEntity
  8
0
370
              15
  6
Continuous
 62
               7
100
AcDb2dPolyline
 66
               1
 10
0.0
 20
0.0
 30
0.0
 75
               5
  0
VERTEX
  5
107
100
AcDbEntity
  8
0
370
              15
  6
Continuous
 62
               7
100
AcDbVertex
100
AcDb2dVertex
 10
45.956060877671014
 20
421.88139339240013
 30
0.0
  0
VERTEX
  5
108
100
AcDbEntity
  8
0
370
              15
  6
Continuous
 62
               7
100
AcDbVertex
100
AcDb2dVertex
 10
46.007653807470895
 20
421.90441745920032
 30
0.0
  0
VERTEX
  5
109
100
AcDbEntity
  8
0
370
              15
  6
Continuous
 62
               7
100
AcDbVertex
100
AcDb2dVertex
 10
46.0440072136712
 20
421.92964359140012
 30
0.0
  0
VERTEX
  5
10A
100
AcDbEntity
  8
0
370
              15
  6
Continuous
 62
               7
100
AcDbVertex
100
AcDb2dVertex
 10
46.063721635471218
 20
421.95610291680021
 30
0.0
  0
VERTEX
  5
10B
100
AcDbEntity
  8
0
370
              15
  6
Continuous
 62
               7
100
AcDbVertex
100
AcDb2dVertex
 10
46.066046571470913
 20
421.98277951800026
 30
0.0
  0
VERTEX
  5
10C
100
AcDbEntity
  8
0
370
              15
  6
Continuous
 62
               7
100
AcDbVertex
100
AcDb2dVertex
 10
46.05088468387067
 20
422.00864758040018
 30
0.0
  0
VERTEX
  5
10D
100
AcDbEntity
  8
0
370
              15
  6
Continuous
 62
               7
100
AcDbVertex
100
AcDb2dVertex
 10
46.018826761470798
 20
422.03271310620028
 30
0.0
  0
VERTEX
  5
10E
100
AcDbEntity
  8
0
370
              15
  6
Continuous
 62
               7
100
AcDbVertex
100
AcDb2dVertex
 10
45.971097384270713
 20
422.05405150040031
 30
0.0
  0
VERTEX
  5
10F
100
AcDbEntity
  8
0
370
              15
  6
Continuous
 62
               7
100
AcDbVertex
100
AcDb2dVertex
 10
45.909532863071043
 20
422.07184350260025
 30
0.0
  0
SEQEND
  5
110
100
AcDbEntity
  8
0
370
              15
  6
Continuous
 62
               7
  0
LINE
  5
111
100
AcDbEntity
  8
0
370
              15
  6
Continuous
 62
               7
100
AcDbLine
 10
0.8270431362711932
 20
405.23215552500017
 30
0.0
 11
45.956060877671014
 21
421.88139339240013
 31
0.0
  0
POLYLINE
  5
112
100
AcDbEntity
  8
0
370
              15
  6
Continuous
 62
               7
100
AcDb2dPolyline
 66
               1
 10
0.0
 20
0.0
 30
0.0
 75
               5
  0
VERTEX
  5
113
100
AcDbEntity
  8
0
370
              15
  6
Continuous
 62
               7
100
AcDbVertex
100
AcDb2dVertex
 10
-52.027868107329134
 20
417.54350895200025
 30
0.0
  0
VERTEX
  5
114
100
AcDbEntity
  8
0
370
              15
  6
Continuous
 62
               7
100
AcDbVertex
100
AcDb2dVertex
 10
-52.079461037329104
 20
417.52048488520029
 30
0.0
  0
VERTEX
  5
115
100
AcDbEntity
  8
0
370
              15
  6
Continuous
 62
               7
100
AcDbVertex
100
AcDb2dVertex
 10
-52.115814443328865
 20
417.49525875300026
 30
0.0
  0
VERTEX
  5
116
100
AcDbEntity
  8
0
370
              15
  6
Continuous
 62
               7
100
AcDbVertex
100
AcDb2dVertex
 10
-52.135528865328972
 20
417.46879942760017
 30
0.0
  0
VERTEX
  5
117
100
AcDbEntity
  8
0
370
              15
  6
Continuous
 62
               7
100
AcDbVertex
100
AcDb2dVertex
 10
-52.137853801129033
 20
417.44212282640012
 30
0.0
  0
VERTEX
  5
118
100
AcDbEntity
  8
0
370
              15
  6
Continuous
 62
               7
100
AcDbVertex
100
AcDb2dVertex
 10
-52.122691913529245
 20
417.41625476420029
 30
0.0
  0
VERTEX
  5
119
100
AcDbEntity
  8
0
370
              15
  6
Continuous
 62
               7
100
AcDbVertex
100
AcDb2dVertex
 10
-52.090633991329007
 20
417.3921892382001
 30
0.0
  0
VERTEX
  5
11A
100
AcDbEntity
  8
0
370
              15
  6
Continuous
 62
               7
100
AcDbVertex
100
AcDb2dVertex
 10
-52.042904613929288
 20
417.37085084420016
 30
0.0
  0
VERTEX
  5
11B
100
AcDbEntity
  8
0
370
              15
  6
Continuous
 62
               7
100
AcDbVertex
100
AcDb2dVertex
 10
-51.981340092729162
 20
417.35305884180013
 30
0.0
  0
SEQEND
  5
11C
100
AcDbEntity
  8
0
370
              15
  6
Continuous
 62
               7
  0
LINE
  5
11D
100
AcDbEntity
  8
0
370
              15
  6
Continuous
 62
               7
100
AcDbLine
 10
46.346716956270946
 20
421.32451581620023
 30
0.0
 11
1.217699214871125
 21
404.67527794880027
 31
0.0
  0
ARC
  5
11E
100
AcDbEntity
  8
0
370
              15
  6
Continuous
 62
               7
100
AcDbCircle
 10
45.754854864871056
 20
421.32478136760017
 30
0.0
 40
0.5918621510211254
100
AcDbArc
 50
359.97429305030761
 51
70.125917451657074
  0
LINE
  5
11F
100
AcDbEntity
  8
0
370
              15
  6
Continuous
 62
               7
100
AcDbLine
 10
-52.259354649728714
 20
414.35884003520016
 30
0.0
 11
-0.0943646637292588
 21
402.20818812560026
 31
0.0
  0
LINE
  5
120
100
AcDbEntity
  8
0
370
              15
  6
Continuous
 62
               7
100
AcDbLine
 10
-52.295604191729119
 20
416.76358785020022
 30
0.0
 11
-52.259354649728714
 21
414.35884003520016
 31
0.0
  0
LINE
  5
121
100
AcDbEntity
  8
0
370
              15
  6
Continuous
 62
               7
100
AcDbLine
 10
1.3156963122710366
 20
402.27338515740018
 30
0.0
 11
46.444714053670857
 21
418.92262302480015
 31
0.0
  0
LINE
  5
122
100
AcDbEntity
  8
0
370
              15
  6
Continuous
 62
               7
100
AcDbLine
 10
46.444714053670857
 20
418.92262302480015
 30
0.0
 11
46.346716956270946
 21
421.32451581620023
 31
0.0
  0
SPLINE
  5
123
100
AcDbEntity
  8
0
370
              15
  6
Continuous
 62
               7
100
AcDbSpline
210
0.0
220
0.0
230
1.0
 70
               8
 71
               2
 72
              14
 73
              11
 74
               0
 42
0.000001
 43
0.000001
 40
0.0
 40
0.0
 40
0.0
 40
1.0
 40
1.0
 40
2.0
 40
3.0
 40
4.0
 40
5.0
 40
6.0
 40
6.0
 40
7.0
 40
7.0
 40
7.0
 10
-24.713383266176145
 20
390.50443211457753
 30
0.0
 10
-24.714041403102094
 20
390.49516448604413
 30
0.0
 10
-24.714699540028043
 20
390.48589685751074
 30
0.0
 10
-24.725755781915261
 20
390.27740728895344
 30
0.0
 10
-24.670137432319272
 20
389.90198174920386
 30
0.0
 10
-24.565655830620464
 20
389.56657338825073
 30
0.0
 10
-24.412027028856293
 20
389.25187687225787
 30
0.0
 10
-24.221343564843203
 20
388.97781310747371
 30
0.0
 10
-24.102235890602962
 20
388.85358220385967
 30
0.0
 10
-24.095599359863392
 20
388.84691644624661
 30
0.0
 10
-24.088962829123822
 20
388.84025068863355
 30
0.0
  0
LINE
  5
124
100
AcDbEntity
  8
0
370
              15
  6
Continuous
 62
               7
100
AcDbLine
 10
-52.625545850728933
 20
416.96110136560026
 30
0.0
 11
-52.626088850328863
 21
416.96995595140027
 31
0.0
  0
POLYLINE
  5
125
100
AcDbEntity
  8
0
370
              15
  6
Continuous
 62
               7
100
AcDb2dPolyline
 66
               1
 10
0.0
 20
0.0
 30
0.0
 75
               5
  0
VERTEX
  5
126
100
AcDbEntity
  8
0
370
              15
  6
Continuous
 62
               7
100
AcDbVertex
100
AcDb2dVertex
 10
-52.18799458792909
 20
417.53543266020017
 30
0.0
  0
VERTEX
  5
127
100
AcDbEntity
  8
0
370
              15
  6
Continuous
 62
               7
100
AcDbVertex
100
AcDb2dVertex
 10
-52.233682202129323
 20
417.51325427860013
 30
0.0
  0
VERTEX
  5
128
100
AcDbEntity
  8
0
370
              15
  6
Continuous
 62
               7
100
AcDbVertex
100
AcDb2dVertex
 10
-52.238247535728981
 20
417.5103936902002
 30
0.0
  0
SEQEND
  5
129
100
AcDbEntity
  8
0
370
              15
  6
Continuous
 62
               7
  0
POLYLINE
  5
12A
100
AcDbEntity
  8
0
370
              15
  6
Continuous
 62
               7
100
AcDb2dPolyline
 66
               1
 10
0.0
 20
0.0
 30
0.0
 75
               5
  0
VERTEX
  5
12B
100
AcDbEntity
  8
0
370
              15
  6
Continuous
 62
               7
100
AcDbVertex
100
AcDb2dVertex
 10
-52.259354649728714
 20
414.35884003520016
 30
0.0
  0
VERTEX
  5
12C
100
AcDbEntity
  8
0
370
              15
  6
Continuous
 62
               7
100
AcDbVertex
100
AcDb2dVertex
 10
-52.394277804929054
 20
414.39783109800021
 30
0.0
  0
VERTEX
  5
12D
100
AcDbEntity
  8
0
370
              15
  6
Continuous
 62
               7
100
AcDbVertex
100
AcDb2dVertex
 10
-52.498881881928803
 20
414.44459721320015
 30
0.0
  0
VERTEX
  5
12E
100
AcDbEntity
  8
0
370
              15
  6
Continuous
 62
               7
100
AcDbVertex
100
AcDb2dVertex
 10
-52.569147046329356
 20
414.49733979900031
 30
0.0
  0
VERTEX
  5
12F
100
AcDbEntity
  8
0
370
              15
  6
Continuous
 62
               7
100
AcDbVertex
100
AcDb2dVertex
 10
-52.60237369212927
 20
414.55403254900023
 30
0.0
  0
VERTEX
  5
130
100
AcDbEntity
  8
0
370
              15
  6
Continuous
 62
               7
100
AcDbVertex
100
AcDb2dVertex
 10
-52.604974628728989
 20
414.57465935220023
 30
0.0
  0
SEQEND
  5
131
100
AcDbEntity
  8
0
370
              15
  6
Continuous
 62
               7
  0
LINE
  5
132
100
AcDbEntity
  8
0
370
              15
  6
Continuous
 62
               7
100
AcDbLine
 10
46.035891291870946
 20
422.08163641540011
 30
0.0
 11
46.088785659870616
 21
422.06109758820014
 31
0.0
  0
LINE
  5
133
100
AcDbEntity
  8
0
370
              15
  6
Continuous
 62
               7
100
AcDbLine
 10
46.578861895270627
 20
421.52841623620031
 30
0.0
 11
46.579612121670841
 21
421.52035510420012
 31
0.0
  0
POLYLINE
  5
134
100
AcDbEntity
  8
0
370
              15
  6
Continuous
 62
               7
100
AcDb2dPolyline
 66
               1
 10
0.0
 20
0.0
 30
0.0
 75
               5
  0
VERTEX
  5
135
100
AcDbEntity
  8
0
370
              15
  6
Continuous
 62
               7
100
AcDbVertex
100
AcDb2dVertex
 10
46.688273678470985
 20
419.12743097540022
 30
0.0
  0
VERTEX
  5
136
100
AcDbEntity
  8
0
370
              15
  6
Continuous
 62
               7
100
AcDbVertex
100
AcDb2dVertex
 10
46.680669191271143
 20
419.08635653360022
 30
0.0
  0
VERTEX
  5
137
100
AcDbEntity
  8
0
370
              15
  6
Continuous
 62
               7
100
AcDbVertex
100
AcDb2dVertex
 10
46.637456479070813
 20
419.02836706800019
 30
0.0
  0
VERTEX
  5
138
100
AcDbEntity
  8
0
370
              15
  6
Continuous
 62
               7
100
AcDbVertex
100
AcDb2dVertex
 10
46.557784419070693
 20
418.97308057160024
 30
0.0
  0
VERTEX
  5
139
100
AcDbEntity
  8
0
370
              15
  6
Continuous
 62
               7
100
AcDbVertex
100
AcDb2dVertex
 10
46.444714053670857
 20
418.92262302480015
 30
0.0
  0
SEQEND
  5
13A
100
AcDbEntity
  8
0
370
              15
  6
Continuous
 62
               7
  0
LINE
  5
13B
100
AcDbEntity
  8
0
370
              15
  6
Continuous
 62
               7
100
AcDbLine
 10
0.3876994098709545
 20
402.15197645500018
 30
0.0
 11
24.335747802271278
 21
-481.42658155659967
 31
0.0
  0
LINE
  5
13C
100
AcDbEntity
  8
0
370
              15
  6
Continuous
 62
               7
100
AcDbLine
 10
0.8108271078708711
 20
402.16753779180033
 30
0.0
 11
24.758767145670852
 21
-481.40702239839982
 31
0.0
  0
LINE
  5
13D
100
AcDbEntity
  8
0
370
              15
  6
Continuous
 62
               7
100
AcDbLine
 10
-52.078166356929152
 20
414.31663669140028
 30
0.0
 11
-28.131647416729258
 21
-469.20549120299967
 31
0.0
  0
LINE
  5
13E
100
AcDbEntity
  8
0
370
              15
  6
Continuous
 62
               7
100
AcDbLine
 10
46.203619752070615
 20
418.83367769400013
 30
0.0
 11
70.149401943270732
 21
-464.66126737159982
 31
0.0
  0
LINE
  5
13F
100
AcDbEntity
  8
0
370
              15
  6
Continuous
 62
               7
100
AcDbLine
 10
0.2801289534709284
 20
-321.81481687579981
 30
0.0
 11
0.9217114174712222
 21
-345.48641211419977
 31
0.0
  0
LINE
  5
140
100
AcDbEntity
  8
0
370
              15
  6
Continuous
 62
               7
100
AcDbLine
 10
0.4133049792708405
 20
-321.95851174499978
 30
0.0
 11
1.0487390164712522
 21
-345.4032568501998
 31
0.0
  0
LINE
  5
141
100
AcDbEntity
  8
0
370
              15
  6
Continuous
 62
               7
100
AcDbLine
 10
1.8246843602710285
 20
-323.70798757699976
 30
0.0
 11
2.3826170786710534
 21
-344.29327196419979
 31
0.0
  0
LINE
  5
142
100
AcDbEntity
  8
0
370
              15
  6
Continuous
 62
               7
100
AcDbLine
 10
1.9591585242710678
 20
-323.89957808619977
 30
0.0
 11
2.5083480810708423
 21
-344.16227794339977
 31
0.0
  0
LINE
  5
143
100
AcDbEntity
  8
0
370
              15
  6
Continuous
 62
               7
100
AcDbLine
 10
5.3964834644707551
 20
-332.7769621051998
 30
0.0
 11
5.5050753480709389
 21
-336.7835290883998
 31
0.0
  0
LINE
  5
144
100
AcDbEntity
  8
0
370
              15
  6
Continuous
 62
               7
100
AcDbLine
 10
5.4866448522711906
 20
-333.56168230999981
 30
0.0
 11
5.5535745158708849
 21
-336.03109504339977
 31
0.0
  0
ARC
  5
145
100
AcDbEntity
  8
0
370
              15
  6
Continuous
 62
               7
100
AcDbCircle
 10
-48.481133089129337
 20
421.42158798820026
 30
0.0
 40
2.1337067172716315
100
AcDbArc
 50
173.64734147019945
 51
246.84438095530308
  0
ARC
  5
146
100
AcDbEntity
  8
0
370
              15
  6
Continuous
 62
               7
100
AcDbCircle
 10
0.2817909856708027
 20
410.06337021240017
 30
0.0
 40
2.1337067172716315
100
AcDbArc
 50
173.64734147019945
 51
246.84438095530308
  0
ARC
  5
147
100
AcDbEntity
  8
0
370
              15
  6
Continuous
 62
               7
100
AcDbCircle
 10
0.1802224386706328
 20
410.21048365080026
 30
0.0
 40
2.2293774255058199
100
AcDbArc
 50
296.11928652490781
 51
7.3334866053010046
  0
ARC
  5
148
100
AcDbEntity
  8
0
370
              15
  6
Continuous
 62
               7
100
AcDbCircle
 10
42.366042205670972
 20
425.77390122760028
 30
0.0
 40
2.2293774255060277
100
AcDbArc
 50
296.11928652489217
 51
7.3334866052995267
  0
ARC
  5
149
100
AcDbEntity
  8
0
370
              15
  6
Continuous
 62
               7
100
AcDbCircle
 10
41.037656777470609
 20
489.80354094480015
 30
0.0
 40
1.2915709215618194
100
AcDbArc
 50
77.311616838288757
 51
111.55287619219037
  0
ARC
  5
14A
100
AcDbEntity
  8
0
370
              15
  6
Continuous
 62
               7
100
AcDbCircle
 10
-7.7252672973290757
 20
501.16175872060023
 30
0.0
 40
1.2915709214859463
100
AcDbArc
 50
77.311616837303504
 51
111.55287619321534
  0
POLYLINE
  5
14B
100
AcDbEntity
  8
0
370
              15
  6
Continuous
 62
               7
100
AcDb2dPolyline
 66
               1
 10
0.0
 20
0.0
 30
0.0
 75
               5
  0
VERTEX
  5
14C
100
AcDbEntity
  8
0
370
              15
  6
Continuous
 62
               7
100
AcDbVertex
100
AcDb2dVertex
 10
-53.306860591329034
 20
483.85530071220012
 30
0.0
  0
VERTEX
  5
14D
100
AcDbEntity
  8
0
370
              15
  6
Continuous
 62
               7
100
AcDbVertex
100
AcDb2dVertex
 10
-53.299147431128851
 20
483.79827742360033
 30
0.0
  0
VERTEX
  5
14E
100
AcDbEntity
  8
0
370
              15
  6
Continuous
 62
               7
100
AcDbVertex
100
AcDb2dVertex
 10
-53.199472746329313
 20
483.62819893040012
 30
0.0
  0
VERTEX
  5
14F
100
AcDbEntity
  8
0
370
              15
  6
Continuous
 62
               7
100
AcDbVertex
100
AcDb2dVertex
 10
-52.988679689929079
 20
483.46997027420014
 30
0.0
  0
VERTEX
  5
150
100
AcDbEntity
  8
0
370
              15
  6
Continuous
 62
               7
100
AcDbVertex
100
AcDb2dVertex
 10
-52.674865402329026
 20
483.32967438260027
 30
0.0
  0
VERTEX
  5
151
100
AcDbEntity
  8
0
370
              15
  6
Continuous
 62
               7
100
AcDbVertex
100
AcDb2dVertex
 10
-52.270093120328958
 20
483.21270053820024
 30
0.0
  0
SEQEND
  5
152
100
AcDbEntity
  8
0
370
              15
  6
Continuous
 62
               7
  0
ARC
  5
153
100
AcDbEntity
  8
0
370
              15
  6
Continuous
 62
               7
100
AcDbCircle
 10
-50.786698790129314
 20
485.20399609320032
 30
0.0
 40
1.6452594196363495
100
AcDbArc
 50
75.888125310988883
 51
109.88581542618715
  0
POLYLINE
  5
154
100
AcDbEntity
  8
0
370
              15
  6
Continuous
 62
               7
100
AcDb2dPolyline
 66
               1
 10
0.0
 20
0.0
 30
0.0
 75
               5
  0
VERTEX
  5
155
100
AcDbEntity
  8
0
370
              15
  6
Continuous
 62
               7
100
AcDbVertex
100
AcDb2dVertex
 10
-51.638505641328713
 20
422.30027807160025
 30
0.0
  0
VERTEX
  5
156
100
AcDbEntity
  8
0
370
              15
  6
Continuous
 62
               7
100
AcDbVertex
100
AcDb2dVertex
 10
-51.630792481128985
 20
422.24325478300022
 30
0.0
  0
VERTEX
  5
157
100
AcDbEntity
  8
0
370
              15
  6
Continuous
 62
               7
100
AcDbVertex
100
AcDb2dVertex
 10
-51.531117796328992
 20
422.07317628980024
 30
0.0
  0
VERTEX
  5
158
100
AcDbEntity
  8
0
370
              15
  6
Continuous
 62
               7
100
AcDbVertex
100
AcDb2dVertex
 10
-51.320324739729124
 20
421.91494763360026
 30
0.0
  0
VERTEX
  5
159
100
AcDbEntity
  8
0
370
              15
  6
Continuous
 62
               7
100
AcDbVertex
100
AcDb2dVertex
 10
-51.006510452329159
 20
421.77465174200017
 30
0.0
  0
VERTEX
  5
15A
100
AcDbEntity
  8
0
370
              15
  6
Continuous
 62
               7
100
AcDbVertex
100
AcDb2dVertex
 10
-50.601738170329092
 20
421.65767789760014
 30
0.0
  0
SEQEND
  5
15B
100
AcDbEntity
  8
0
370
              15
  6
Continuous
 62
               7
  0
ARC
  5
15C
100
AcDbEntity
  8
0
370
              15
  6
Continuous
 62
               7
100
AcDbCircle
 10
-8.600879023329064
 20
500.76741366980025
 30
0.0
 40
1.6452594196393269
100
AcDbArc
 50
75.888125310998618
 51
109.88581542619953
  0
POLYLINE
  5
15D
100
AcDbEntity
  8
0
370
              15
  6
Continuous
 62
               7
100
AcDb2dPolyline
 66
               1
 10
0.0
 20
0.0
 30
0.0
 75
               5
  0
VERTEX
  5
15E
100
AcDbEntity
  8
0
370
              15
  6
Continuous
 62
               7
100
AcDbVertex
100
AcDb2dVertex
 10
43.639683782871096
 20
488.2230611522001
 30
0.0
  0
VERTEX
  5
15F
100
AcDbEntity
  8
0
370
              15
  6
Continuous
 62
               7
100
AcDbVertex
100
AcDb2dVertex
 10
43.616696625671018
 20
488.10469106180028
 30
0.0
  0
VERTEX
  5
160
100
AcDbEntity
  8
0
370
              15
  6
Continuous
 62
               7
100
AcDbVertex
100
AcDb2dVertex
 10
43.487061305470895
 20
487.93072200860013
 30
0.0
  0
VERTEX
  5
161
100
AcDbEntity
  8
0
370
              15
  6
Continuous
 62
               7
100
AcDbVertex
100
AcDb2dVertex
 10
43.248041929271047
 20
487.76486473040029
 30
0.0
  0
VERTEX
  5
162
100
AcDbEntity
  8
0
370
              15
  6
Continuous
 62
               7
100
AcDbVertex
100
AcDb2dVertex
 10
42.908828396271026
 20
487.61349119140016
 30
0.0
  0
SEQEND
  5
163
100
AcDbEntity
  8
0
370
              15
  6
Continuous
 62
               7
  0
POLYLINE
  5
164
100
AcDbEntity
  8
0
370
              15
  6
Continuous
 62
               7
100
AcDb2dPolyline
 66
               1
 10
0.0
 20
0.0
 30
0.0
 75
               5
  0
VERTEX
  5
165
100
AcDbEntity
  8
0
370
              15
  6
Continuous
 62
               7
100
AcDbVertex
100
AcDb2dVertex
 10
44.577183346270893
 20
426.05846855080028
 30
0.0
  0
VERTEX
  5
166
100
AcDbEntity
  8
0
370
              15
  6
Continuous
 62
               7
100
AcDbVertex
100
AcDb2dVertex
 10
44.916396879270913
 20
426.20984208980019
 30
0.0
  0
VERTEX
  5
167
100
AcDbEntity
  8
0
370
              15
  6
Continuous
 62
               7
100
AcDbVertex
100
AcDb2dVertex
 10
45.155416255470762
 20
426.37569936800026
 30
0.0
  0
VERTEX
  5
168
100
AcDbEntity
  8
0
370
              15
  6
Continuous
 62
               7
100
AcDbVertex
100
AcDb2dVertex
 10
45.285051575670884
 20
426.54966842120018
 30
0.0
  0
VERTEX
  5
169
100
AcDbEntity
  8
0
370
              15
  6
Continuous
 62
               7
100
AcDbVertex
100
AcDb2dVertex
 10
45.308038732870962
 20
426.66803851180032
 30
0.0
  0
SEQEND
  5
16A
100
AcDbEntity
  8
0
370
              15
  6
Continuous
 62
               7
  0
LINE
  5
16B
100
AcDbEntity
  8
0
370
              15
  6
Continuous
 62
               7
100
AcDbLine
 10
45.909532863071043
 20
422.07184350260025
 30
0.0
 11
41.513867460871104
 21
423.09571411440027
 31
0.0
  0
LINE
  5
16C
100
AcDbEntity
  8
0
370
              15
  6
Continuous
 62
               7
100
AcDbLine
 10
-47.796001342529046
 20
419.10475180460014
 30
0.0
 11
-52.027868107329134
 21
417.54350895200025
 31
0.0
  0
POLYLINE
  5
16D
100
AcDbEntity
  8
0
370
              15
  6
Continuous
 62
               7
100
AcDb2dPolyline
 66
               1
 10
0.0
 20
0.0
 30
0.0
 75
               5
  0
VERTEX
  5
16E
100
AcDbEntity
  8
0
370
              15
  6
Continuous
 62
               7
100
AcDbVertex
100
AcDb2dVertex
 10
-52.295604191729119
 20
416.76358785020022
 30
0.0
  0
VERTEX
  5
16F
100
AcDbEntity
  8
0
370
              15
  6
Continuous
 62
               7
100
AcDbVertex
100
AcDb2dVertex
 10
-52.424620053329356
 20
416.8008715330003
 30
0.0
  0
VERTEX
  5
170
100
AcDbEntity
  8
0
370
              15
  6
Continuous
 62
               7
100
AcDbVertex
100
AcDb2dVertex
 10
-52.524644048129169
 20
416.84558978980033
 30
0.0
  0
VERTEX
  5
171
100
AcDbEntity
  8
0
370
              15
  6
Continuous
 62
               7
100
AcDbVertex
100
AcDb2dVertex
 10
-52.591829568329096
 20
416.8960225146003
 30
0.0
  0
VERTEX
  5
172
100
AcDbEntity
  8
0
370
              15
  6
Continuous
 62
               7
100
AcDbVertex
100
AcDb2dVertex
 10
-52.623602421128901
 20
416.9502327368001
 30
0.0
  0
VERTEX
  5
173
100
AcDbEntity
  8
0
370
              15
  6
Continuous
 62
               7
100
AcDbVertex
100
AcDb2dVertex
 10
-52.625545850728933
 20
416.96110136560026
 30
0.0
  0
SEQEND
  5
174
100
AcDbEntity
  8
0
370
              15
  6
Continuous
 62
               7
  0
ARC
  5
175
100
AcDbEntity
  8
0
370
              15
  6
Continuous
 62
               7
100
AcDbCircle
 10
-52.094716643729036
 20
417.27746640000021
 30
0.0
 40
0.2743125338432229
100
AcDbArc
 50
75.895286783108432
 51
109.87946884185099
  0
ARC
  5
176
100
AcDbEntity
  8
0
370
              15
  6
Continuous
 62
               7
100
AcDbCircle
 10
45.988544492670833
 20
421.87245354000027
 30
0.0
 40
0.2144742287897917
100
AcDbArc
 50
77.246470227437385
 51
111.61678060398714
  0
POLYLINE
  5
177
100
AcDbEntity
  8
0
370
              15
  6
Continuous
 62
               7
100
AcDb2dPolyline
 66
               1
 10
0.0
 20
0.0
 30
0.0
 75
               5
  0
VERTEX
  5
178
100
AcDbEntity
  8
0
370
              15
  6
Continuous
 62
               7
100
AcDbVertex
100
AcDb2dVertex
 10
46.579612121670841
 20
421.52035510420012
 30
0.0
  0
VERTEX
  5
179
100
AcDbEntity
  8
0
370
              15
  6
Continuous
 62
               7
100
AcDbVertex
100
AcDb2dVertex
 10
46.572338528870667
 20
421.48107913380011
 30
0.0
  0
VERTEX
  5
17A
100
AcDbEntity
  8
0
370
              15
  6
Continuous
 62
               7
100
AcDbVertex
100
AcDb2dVertex
 10
46.531020645871202
 20
421.42562953360027
 30
0.0
  0
VERTEX
  5
17B
100
AcDbEntity
  8
0
370
              15
  6
Continuous
 62
               7
100
AcDbVertex
100
AcDb2dVertex
 10
46.454836921071099
 20
421.37276395540027
 30
0.0
  0
VERTEX
  5
17C
100
AcDbEntity
  8
0
370
              15
  6
Continuous
 62
               7
100
AcDbVertex
100
AcDb2dVertex
 10
46.346716956270946
 20
421.32451581620023
 30
0.0
  0
SEQEND
  5
17D
100
AcDbEntity
  8
0
370
              15
  6
Continuous
 62
               7
  0
SPLINE
  5
17E
100
AcDbEntity
  8
0
370
              15
  6
Continuous
 62
               7
100
AcDbSpline
210
0.0
220
0.0
230
1.0
 70
               8
 71
               2
 72
              11
 73
               8
 74
               0
 42
0.000001
 43
0.000001
 40
0.0
 40
0.0
 40
0.0
 40
1.0
 40
1.0
 40
2.0
 40
3.0
 40
3.0
 40
4.0
 40
4.0
 40
4.0
 10
-8.2231042680127686
 20
468.14512739040163
 30
0.0
 10
-8.2116735121005533
 20
468.00703758634177
 30
0.0
 10
-8.200242756188338
 20
467.86894778228191
 30
0.0
 10
-6.5835472187050001
 20
447.41759309453562
 30
0.0
 10
-2.662265747159374
 20
420.08684746841379
 30
0.0
 10
-1.4960634392900758
 20
412.56156729238944
 30
0.0
 10
-1.4959573357420979
 20
412.56087786878879
 30
0.0
 10
-1.49585123219412
 20
412.56018844518815
 30
0.0
  0
SPLINE
  5
17F
100
AcDbEntity
  8
0
370
              15
  6
Continuous
 62
               7
100
AcDbSpline
210
0.0
220
0.0
230
1.0
 70
               8
 71
               2
 72
              17
 73
              14
 74
               0
 42
0.000001
 43
0.000001
 40
0.0
 40
0.0
 40
0.0
 40
1.0
 40
1.0
 40
2.0
 40
3.0
 40
4.0
 40
5.0
 40
6.0
 40
7.0
 40
8.0
 40
9.0
 40
9.0
 40
10.0
 40
10.0
 40
10.0
 10
17.928258031479807
 20
419.72623271527698
 30
0.0
 10
17.929403343347538
 20
419.71603173524409
 30
0.0
 10
17.930548655215269
 20
419.7058307552112
 30
0.0
 10
17.974199523893283
 20
419.40006659501307
 30
0.0
 10
17.941755752299748
 20
418.55071267439678
 30
0.0
 10
16.894022349569703
 20
417.06185532691609
 30
0.0
 10
13.803994091914781
 20
415.30314638898892
 30
0.0
 10
10.190907678564152
 20
414.19834937245139
 30
0.0
 10
7.1171357363068708
 20
413.49853060346584
 30
0.0
 10
2.9601098337416332
 20
412.86159765336072
 30
0.0
 10
-0.4017449532984685
 20
412.62189415613364
 30
0.0
 10
-1.4275210115724732
 20
412.56412613031637
 30
0.0
 10
-1.4616887483211869
 20
412.56215716631357
 30
0.0
 10
-1.4958564850699005
 20
412.56018820231077
 30
0.0
  0
SPLINE
  5
180
100
AcDbEntity
  8
0
370
              15
  6
Continuous
 62
               7
100
AcDbSpline
210
0.0
220
0.0
230
1.0
 70
               8
 71
               2
 72
              11
 73
               8
 74
               0
 42
0.000001
 43
0.000001
 40
0.0
 40
0.0
 40
0.0
 40
1.0
 40
1.0
 40
2.0
 40
3.0
 40
3.0
 40
4.0
 40
4.0
 40
4.0
 10
11.000383277756107
 20
472.11291145737698
 30
0.0
 10
11.025607838858612
 20
471.9839504693258
 30
0.0
 10
11.050832399961116
 20
471.85498948127463
 30
0.0
 10
13.624969577643704
 20
459.01207024053826
 30
0.0
 10
17.351935762145793
 20
433.09288299928505
 30
0.0
 10
17.928203160812252
 20
419.72755983838158
 30
0.0
 10
17.928230406210794
 20
419.7268970542782
 30
0.0
 10
17.928257651609336
 20
419.72623427017481
 30
0.0
  0
SPLINE
  5
181
100
AcDbEntity
  8
0
370
              15
  6
Continuous
 62
               7
100
AcDbSpline
210
0.0
220
0.0
230
1.0
 70
               8
 71
               2
 72
              11
 73
               8
 74
               0
 42
0.000001
 43
0.000001
 40
0.0
 40
0.0
 40
0.0
 40
1.0
 40
1.0
 40
2.0
 40
3.0
 40
3.0
 40
4.0
 40
4.0
 40
4.0
 10
1.4588316500689942
 20
468.59279135227905
 30
0.0
 10
1.5052351226293084
 20
468.61043586195376
 30
0.0
 10
1.5516385951896225
 20
468.62808037162847
 30
0.0
 10
4.9948190556092484
 20
469.9467725218866
 30
0.0
 10
9.5498778654368905
 20
471.5950316388188
 30
0.0
 10
10.909698680496156
 20
472.08050563359222
 30
0.0
 10
10.955040979126132
 20
472.0967085454846
 30
0.0
 10
11.000383277756107
 20
472.11291145737698
 30
0.0
  0
SPLINE
  5
182
100
AcDbEntity
  8
0
370
              15
  6
Continuous
 62
               7
100
AcDbSpline
210
0.0
220
0.0
230
1.0
 70
               8
 71
               2
 72
              12
 73
               9
 74
               0
 42
0.000001
 43
0.000001
 40
0.0
 40
0.0
 40
0.0
 40
1.0
 40
1.0
 40
2.0
 40
3.0
 40
4.0
 40
4.0
 40
5.0
 40
5.0
 40
5.0
 10
-1.49585123219412
 20
412.56018844518815
 30
0.0
 10
-1.4957846216207074
 20
412.5608858545769
 30
0.0
 10
-1.4957180110472947
 20
412.56158326396564
 30
0.0
 10
-0.9340707272644906
 20
418.38804425184833
 30
0.0
 10
1.1235282925504251
 20
442.65613819928387
 30
0.0
 10
1.4304895452810413
 20
464.70979701434942
 30
0.0
 10
1.4566571065638598
 20
468.31545415131689
 30
0.0
 10
1.457744378316427
 20
468.45412275179797
 30
0.0
 10
1.4588316500689942
 20
468.59279135227905
 30
0.0
  0
SPLINE
  5
183
100
AcDbEntity
  8
0
370
              15
  6
Continuous
 62
               7
100
AcDbSpline
210
0.0
220
0.0
230
1.0
 70
               8
 71
               2
 72
              16
 73
              13
 74
               0
 42
0.000001
 43
0.000001
 40
0.0
 40
0.0
 40
0.0
 40
1.0
 40
1.0
 40
2.0
 40
3.0
 40
4.0
 40
5.0
 40
6.0
 40
7.0
 40
8.0
 40
8.0
 40
9.0
 40
9.0
 40
9.0
 10
-0.0745804708662874
 20
470.69146081586075
 30
0.0
 10
-0.0856773807295141
 20
470.68813924628262
 30
0.0
 10
-0.0967742905927409
 20
470.68481767670448
 30
0.0
 10
-0.3839597621458708
 20
470.59788331947686
 30
0.0
 10
-1.2939189037538128
 20
470.33937152726219
 30
0.0
 10
-2.3157574565270735
 20
470.20263797753421
 30
0.0
 10
-3.4977145102316101
 20
470.08684703094821
 30
0.0
 10
-4.9327381497664575
 20
470.10699950605238
 30
0.0
 10
-6.0299380204637529
 20
470.1902307040051
 30
0.0
 10
-6.7717750998372068
 20
470.32823983214087
 30
0.0
 10
-6.976566680387343
 20
470.36899832828942
 30
0.0
 10
-6.9834077851837648
 20
470.37034958785875
 30
0.0
 10
-6.9902488899801867
 20
470.37170084742809
 30
0.0
  0
SPLINE
  5
184
100
AcDbEntity
  8
0
370
              15
  6
Continuous
 62
               7
100
AcDbSpline
210
0.0
220
0.0
230
1.0
 70
               8
 71
               2
 72
              16
 73
              13
 74
               0
 42
0.000001
 43
0.000001
 40
0.0
 40
0.0
 40
0.0
 40
1.0
 40
1.0
 40
2.0
 40
3.0
 40
4.0
 40
5.0
 40
6.0
 40
7.0
 40
8.0
 40
8.0
 40
9.0
 40
9.0
 40
9.0
 10
-8.2231042680127686
 20
468.14512739040163
 30
0.0
 10
-8.212798317025765
 20
468.14337680243648
 30
0.0
 10
-8.2024923660387614
 20
468.14162621447133
 30
0.0
 10
-7.8945118203082458
 20
468.0885675164244
 30
0.0
 10
-6.6575972286195721
 20
467.89464342865369
 30
0.0
 10
-4.8398173197579055
 20
467.81907021733434
 30
0.0
 10
-3.3965778395358868
 20
467.83848962474929
 30
0.0
 10
-1.9546036372384989
 20
467.93391911084552
 30
0.0
 10
-0.3348551504641293
 20
468.14065989467701
 30
0.0
 10
0.9253201679953307
 20
468.44699062445386
 30
0.0
 10
1.425326335094276
 20
468.58373986813501
 30
0.0
 10
1.4420789925816351
 20
468.58826561020703
 30
0.0
 10
1.4588316500689942
 20
468.59279135227905
 30
0.0
  0
ARC
  5
185
100
AcDbEntity
  8
0
370
              15
  6
Continuous
 62
               7
100
AcDbCircle
 10
-5.7504838749964549
 20
468.23063883910174
 30
0.0
 40
2.4740985864273113
100
AcDbArc
 50
120.07264728099473
 51
181.98068950349756
  0
SPLINE
  5
186
100
AcDbEntity
  8
0
370
              15
  6
Continuous
 62
               7
100
AcDbSpline
210
0.0
220
0.0
230
1.0
 70
               8
 71
               2
 72
              10
 73
               7
 74
               0
 42
0.000001
 43
0.000001
 40
0.0
 40
0.0
 40
0.0
 40
1.0
 40
1.0
 40
2.0
 40
2.0
 40
3.0
 40
3.0
 40
3.0
 10
-6.9902488899801867
 20
470.37170084742809
 30
0.0
 10
-7.0480246107124387
 20
470.3848113082073
 30
0.0
 10
-7.1058003314446907
 20
470.39792176898652
 30
0.0
 10
-12.5462013557676
 20
471.62717940019809
 30
0.0
 10
-17.860484274207913
 20
472.90298149077319
 30
0.0
 10
-17.917119992314603
 20
472.91652063561571
 30
0.0
 10
-17.973755710421294
 20
472.93005978045824
 30
0.0
  0
SPLINE
  5
187
100
AcDbEntity
  8
0
370
              15
  6
Continuous
 62
               7
100
AcDbSpline
210
0.0
220
0.0
230
1.0
 70
               8
 71
               2
 72
              10
 73
               7
 74
               0
 42
0.000001
 43
0.000001
 40
0.0
 40
0.0
 40
0.0
 40
1.0
 40
1.0
 40
2.0
 40
2.0
 40
3.0
 40
3.0
 40
3.0
 10
-19.252259565892466
 20
470.71411910146355
 30
0.0
 10
-19.195347891404701
 20
470.70146491526214
 30
0.0
 10
-19.138436216916936
 20
470.68881072906072
 30
0.0
 10
-13.797630297070548
 20
469.51063219006335
 30
0.0
 10
-8.3390548186157432
 20
468.17333945018788
 30
0.0
 10
-8.2810795433142559
 20
468.15923342029475
 30
0.0
 10
-8.2231042680127686
 20
468.14512739040163
 30
0.0
  0
ARC
  5
188
100
AcDbEntity
  8
0
370
              15
  6
Continuous
 62
               7
100
AcDbCircle
 10
-0.8924063507961293
 20
468.48437326710166
 30
0.0
 40
2.3537363101587609
100
AcDbArc
 50
2.6400992446011329
 51
69.668050824503055
  0
SPLINE
  5
189
100
AcDbEntity
  8
0
370
              15
  6
Continuous
 62
               7
100
AcDbSpline
210
0.0
220
0.0
230
1.0
 70
               8
 71
               2
 72
              10
 73
               7
 74
               0
 42
0.000001
 43
0.000001
 40
0.0
 40
0.0
 40
0.0
 40
1.0
 40
1.0
 40
2.0
 40
2.0
 40
3.0
 40
3.0
 40
3.0
 10
9.427479709612733
 20
474.19701152567302
 30
0.0
 10
9.3824174330161512
 20
474.18001657482387
 30
0.0
 10
9.3373551564195694
 20
474.16302162397471
 30
0.0
 10
4.7489914767538792
 20
472.42735217288543
 30
0.0
 10
0.018027095701207
 20
470.72488530588532
 30
0.0
 10
-0.0282766875825402
 20
470.70817306087304
 30
0.0
 10
-0.0745804708662874
 20
470.69146081586075
 30
0.0
  0
POLYLINE
  5
18A
100
AcDbEntity
  8
0
370
              15
  6
Continuous
 62
               7
100
AcDb2dPolyline
 66
               1
 10
0.0
 20
0.0
 30
0.0
 75
               5
  0
VERTEX
  5
18B
100
AcDbEntity
  8
0
370
              15
  6
Continuous
 62
               7
100
AcDbVertex
100
AcDb2dVertex
 10
-23.948333321796319
 20
417.78998664790186
 30
0.0
  0
VERTEX
  5
18C
100
AcDbEntity
  8
0
370
              15
  6
Continuous
 62
               7
100
AcDbVertex
100
AcDb2dVertex
 10
-23.966843627596511
 20
418.60725855290173
 30
0.0
  0
VERTEX
  5
18D
100
AcDbEntity
  8
0
370
              15
  6
Continuous
 62
               7
100
AcDbVertex
100
AcDb2dVertex
 10
-23.32385954899609
 20
419.8336199639017
 30
0.0
  0
VERTEX
  5
18E
100
AcDbEntity
  8
0
370
              15
  6
Continuous
 62
               7
100
AcDbVertex
100
AcDb2dVertex
 10
-21.900225951396344
 20
421.01864973870181
 30
0.0
  0
VERTEX
  5
18F
100
AcDbEntity
  8
0
370
              15
  6
Continuous
 62
               7
100
AcDbVertex
100
AcDb2dVertex
 10
-19.750653610596139
 20
422.11680840690167
 30
0.0
  0
VERTEX
  5
190
100
AcDbEntity
  8
0
370
              15
  6
Continuous
 62
               7
100
AcDbVertex
100
AcDb2dVertex
 10
-16.957748707596231
 20
423.08589415770177
 30
0.0
  0
VERTEX
  5
191
100
AcDbEntity
  8
0
370
              15
  6
Continuous
 62
               7
100
AcDbVertex
100
AcDb2dVertex
 10
-13.628840966396176
 20
423.88866559770179
 30
0.0
  0
VERTEX
  5
192
100
AcDbEntity
  8
0
370
              15
  6
Continuous
 62
               7
100
AcDbVertex
100
AcDb2dVertex
 10
-9.8918591927963391
 20
424.49427268310171
 30
0.0
  0
VERTEX
  5
193
100
AcDbEntity
  8
0
370
              15
  6
Continuous
 62
               7
100
AcDbVertex
100
AcDb2dVertex
 10
-7.2442631209964858
 20
424.77664127610171
 30
0.0
  0
VERTEX
  5
194
100
AcDbEntity
  8
0
370
              15
  6
Continuous
 62
               7
100
AcDbVertex
100
AcDb2dVertex
 10
-4.5242188051965897
 20
424.95603116090172
 30
0.0
  0
SEQEND
  5
195
100
AcDbEntity
  8
0
370
              15
  6
Continuous
 62
               7
  0
POLYLINE
  5
196
100
AcDbEntity
  8
0
370
              15
  6
Continuous
 62
               7
100
AcDb2dPolyline
 66
               1
 10
0.0
 20
0.0
 30
0.0
 75
               5
  0
VERTEX
  5
197
100
AcDbEntity
  8
0
370
              15
  6
Continuous
 62
               7
100
AcDbVertex
100
AcDb2dVertex
 10
-4.5242188051965897
 20
424.95603116090172
 30
0.0
  0
VERTEX
  5
198
100
AcDbEntity
  8
0
370
              15
  6
Continuous
 62
               7
100
AcDbVertex
100
AcDb2dVertex
 10
-1.778274180396231
 20
425.0293723709018
 30
0.0
  0
VERTEX
  5
199
100
AcDbEntity
  8
0
370
              15
  6
Continuous
 62
               7
100
AcDbVertex
100
AcDb2dVertex
 10
2.2865285166035463
 20
424.93830148890186
 30
0.0
  0
VERTEX
  5
19A
100
AcDbEntity
  8
0
370
              15
  6
Continuous
 62
               7
100
AcDbVertex
100
AcDb2dVertex
 10
6.1477858126036224
 20
424.60972904950165
 30
0.0
  0
VERTEX
  5
19B
100
AcDbEntity
  8
0
370
              15
  6
Continuous
 62
               7
100
AcDbVertex
100
AcDb2dVertex
 10
9.6571137430037268
 20
424.05628235430174
 30
0.0
  0
VERTEX
  5
19C
100
AcDbEntity
  8
0
370
              15
  6
Continuous
 62
               7
100
AcDbVertex
100
AcDb2dVertex
 10
12.679650113203486
 20
423.29922983010181
 30
0.0
  0
VERTEX
  5
19D
100
AcDbEntity
  8
0
370
              15
  6
Continuous
 62
               7
100
AcDbVertex
100
AcDb2dVertex
 10
15.099240636603561
 20
422.36766456970179
 30
0.0
  0
VERTEX
  5
19E
100
AcDbEntity
  8
0
370
              15
  6
Continuous
 62
               7
100
AcDbVertex
100
AcDb2dVertex
 10
16.82290191040375
 20
421.29738632910187
 30
0.0
  0
VERTEX
  5
19F
100
AcDbEntity
  8
0
370
              15
  6
Continuous
 62
               7
100
AcDbVertex
100
AcDb2dVertex
 10
17.55148657880364
 20
420.52694204750185
 30
0.0
  0
VERTEX
  5
1A0
100
AcDbEntity
  8
0
370
              15
  6
Continuous
 62
               7
100
AcDbVertex
100
AcDb2dVertex
 10
17.928258031403409
 20
419.72623271530176
 30
0.0
  0
SEQEND
  5
1A1
100
AcDbEntity
  8
0
370
              15
  6
Continuous
 62
               7
  0
POLYLINE
  5
1A2
100
AcDbEntity
  8
0
370
              15
  6
Continuous
 62
               7
100
AcDb2dPolyline
 66
               1
 10
0.0
 20
0.0
 30
0.0
 75
               5
  0
VERTEX
  5
1A3
100
AcDbEntity
  8
0
370
              15
  6
Continuous
 62
               7
100
AcDbVertex
100
AcDb2dVertex
 10
-1.4958564849962315
 20
412.56018820230167
 30
0.0
  0
VERTEX
  5
1A4
100
AcDbEntity
  8
0
370
              15
  6
Continuous
 62
               7
100
AcDbVertex
100
AcDb2dVertex
 10
-4.2418011097965902
 20
412.48684699230182
 30
0.0
  0
VERTEX
  5
1A5
100
AcDbEntity
  8
0
370
              15
  6
Continuous
 62
               7
100
AcDbVertex
100
AcDb2dVertex
 10
-8.3066038069964563
 20
412.57791787430176
 30
0.0
  0
VERTEX
  5
1A6
100
AcDbEntity
  8
0
370
              15
  6
Continuous
 62
               7
100
AcDbVertex
100
AcDb2dVertex
 10
-12.167861102796444
 20
412.90649031370174
 30
0.0
  0
VERTEX
  5
1A7
100
AcDbEntity
  8
0
370
              15
  6
Continuous
 62
               7
100
AcDbVertex
100
AcDb2dVertex
 10
-15.677189033196093
 20
413.45993700890187
 30
0.0
  0
VERTEX
  5
1A8
100
AcDbEntity
  8
0
370
              15
  6
Continuous
 62
               7
100
AcDbVertex
100
AcDb2dVertex
 10
-18.699725403396307
 20
414.21698953310181
 30
0.0
  0
VERTEX
  5
1A9
100
AcDbEntity
  8
0
370
              15
  6
Continuous
 62
               7
100
AcDbVertex
100
AcDb2dVertex
 10
-21.119315926796382
 20
415.14855479350183
 30
0.0
  0
VERTEX
  5
1AA
100
AcDbEntity
  8
0
370
              15
  6
Continuous
 62
               7
100
AcDbVertex
100
AcDb2dVertex
 10
-22.842977200596117
 20
416.21883303410175
 30
0.0
  0
VERTEX
  5
1AB
100
AcDbEntity
  8
0
370
              15
  6
Continuous
 62
               7
100
AcDbVertex
100
AcDb2dVertex
 10
-23.571561868996461
 20
416.98927731550168
 30
0.0
  0
VERTEX
  5
1AC
100
AcDbEntity
  8
0
370
              15
  6
Continuous
 62
               7
100
AcDbVertex
100
AcDb2dVertex
 10
-23.948333321796319
 20
417.78998664790186
 30
0.0
  0
SEQEND
  5
1AD
100
AcDbEntity
  8
0
370
              15
  6
Continuous
 62
               7
  0
SPLINE
  5
1AE
100
AcDbEntity
  8
0
370
              15
  6
Continuous
 62
               7
100
AcDbSpline
210
0.0
220
0.0
230
1.0
 70
               8
 71
               2
 72
              18
 73
              15
 74
               0
 42
0.000001
 43
0.000001
 40
0.0
 40
0.0
 40
0.0
 40
1.0
 40
1.0
 40
2.0
 40
3.0
 40
4.0
 40
5.0
 40
6.0
 40
7.0
 40
8.0
 40
9.0
 40
10.0
 40
10.0
 40
11.0
 40
11.0
 40
11.0
 10
-19.952424293260712
 20
473.5800580609465
 30
0.0
 10
-19.958289099003416
 20
473.57777600323323
 30
0.0
 10
-19.964153904746119
 20
473.57549394551995
 30
0.0
 10
-20.140958960520031
 20
473.50719820112124
 30
0.0
 10
-20.484024689543268
 20
473.36863209930868
 30
0.0
 10
-21.155229188094829
 20
473.04251871525332
 30
0.0
 10
-21.575859557429332
 20
472.51857113326867
 30
0.0
 10
-21.578325002205013
 20
472.02797426310269
 30
0.0
 10
-21.264350854939032
 20
471.62361604437126
 30
0.0
 10
-20.862478604222808
 20
471.33659149325911
 30
0.0
 10
-20.306141440135427
 20
471.0760500331304
 30
0.0
 10
-19.630465933025327
 20
470.83787184652726
 30
0.0
 10
-19.275786975047588
 20
470.72187400077212
 30
0.0
 10
-19.264023270470027
 20
470.71799655111784
 30
0.0
 10
-19.252259565892466
 20
470.71411910146355
 30
0.0
  0
SPLINE
  5
1AF
100
AcDbEntity
  8
0
370
              15
  6
Continuous
 62
               7
100
AcDbSpline
210
0.0
220
0.0
230
1.0
 70
               8
 71
               2
 72
              11
 73
               8
 74
               0
 42
0.000001
 43
0.000001
 40
0.0
 40
0.0
 40
0.0
 40
1.0
 40
1.0
 40
2.0
 40
3.0
 40
3.0
 40
4.0
 40
4.0
 40
4.0
 10
-19.952424293260712
 20
473.5800580609465
 30
0.0
 10
-19.970503011458725
 20
473.44534723274251
 30
0.0
 10
-19.988581729656737
 20
473.31063640453851
 30
0.0
 10
-21.851644628114165
 20
459.92121047938178
 30
0.0
 10
-24.124494053921801
 20
432.25461703062967
 30
0.0
 10
-23.94835315286354
 20
417.79141565030557
 30
0.0
 10
-23.948343047357632
 20
417.79070037164513
 30
0.0
 10
-23.948332941851724
 20
417.78998509298469
 30
0.0
  0
SPLINE
  5
1B0
100
AcDbEntity
  8
0
370
              15
  6
Continuous
 62
               7
100
AcDbSpline
210
0.0
220
0.0
230
1.0
 70
               8
 71
               2
 72
              11
 73
               8
 74
               0
 42
0.000001
 43
0.000001
 40
0.0
 40
0.0
 40
0.0
 40
1.0
 40
1.0
 40
2.0
 40
3.0
 40
3.0
 40
4.0
 40
4.0
 40
4.0
 10
-23.948332941851724
 20
417.78998509298469
 30
0.0
 10
-23.948330557258934
 20
417.7906492467323
 30
0.0
 10
-23.948328172666145
 20
417.79131340047991
 30
0.0
 10
-23.840937497509451
 20
431.18142509837151
 30
0.0
 10
-21.218381034329461
 20
457.40677352397677
 30
0.0
 10
-19.290227524791582
 20
470.45210833962949
 30
0.0
 10
-19.271243545342024
 20
470.58311372054652
 30
0.0
 10
-19.252259565892466
 20
470.71411910146355
 30
0.0
  0
ARC
  5
1B1
100
AcDbEntity
  8
0
370
              15
  6
Continuous
 62
               7
100
AcDbCircle
 10
-18.67816221799648
 20
473.71243258970173
 30
0.0
 40
1.2811193746684661
100
AcDbArc
 50
80.824375394698862
 51
185.93080022469766
  0
ARC
  5
1B2
100
AcDbEntity
  8
0
370
              15
  6
Continuous
 62
               7
100
AcDbCircle
 10
-16.813319714596211
 20
470.78374578370187
 30
0.0
 40
2.4399334977016993
100
AcDbArc
 50
118.39851990900486
 51
181.63523172460114
  0
SPLINE
  5
1B3
100
AcDbEntity
  8
0
370
              15
  6
Continuous
 62
               7
100
AcDbSpline
210
0.0
220
0.0
230
1.0
 70
               8
 71
               2
 72
              18
 73
              15
 74
               0
 42
0.000001
 43
0.000001
 40
0.0
 40
0.0
 40
0.0
 40
1.0
 40
1.0
 40
2.0
 40
3.0
 40
4.0
 40
5.0
 40
6.0
 40
7.0
 40
8.0
 40
9.0
 40
10.0
 40
10.0
 40
11.0
 40
11.0
 40
11.0
 10
-17.973755710421294
 20
472.93005978045824
 30
0.0
 10
-17.980919094921084
 20
472.93219605874026
 30
0.0
 10
-17.988082479420875
 20
472.93433233702228
 30
0.0
 10
-18.204204588058467
 20
472.99815279002189
 30
0.0
 10
-18.621204447440952
 20
473.12914763035621
 30
0.0
 10
-19.155998955634907
 20
473.33918112469826
 30
0.0
 10
-19.578259702526786
 20
473.68688131262945
 30
0.0
 10
-19.670844965234657
 20
474.07275858383707
 30
0.0
 10
-19.503848857084442
 20
474.36079624884712
 30
0.0
 10
-19.221182993633185
 20
474.63210993976838
 30
0.0
 10
-18.798775951780947
 20
474.83721377850713
 30
0.0
 10
-18.588466282375968
 20
474.92873901560267
 30
0.0
 10
-18.481020368650199
 20
474.97413032036741
 30
0.0
 10
-18.477446867346991
 20
474.97564466491656
 30
0.0
 10
-18.473873366043783
 20
474.97715900946571
 30
0.0
  0
SPLINE
  5
1B4
100
AcDbEntity
  8
0
370
              15
  6
Continuous
 62
               7
100
AcDbSpline
210
0.0
220
0.0
230
1.0
 70
               8
 71
               2
 72
              11
 73
               8
 74
               0
 42
0.000001
 43
0.000001
 40
0.0
 40
0.0
 40
0.0
 40
1.0
 40
1.0
 40
2.0
 40
3.0
 40
3.0
 40
4.0
 40
4.0
 40
4.0
 10
17.928257651609336
 20
419.72623427017481
 30
0.0
 10
17.928217916247839
 20
419.72694817862953
 30
0.0
 10
17.928178180886341
 20
419.72766208708424
 30
0.0
 10
17.078592155747636
 20
434.17116567255709
 30
0.0
 10
12.994017595889552
 20
461.52664535530596
 30
0.0
 10
10.352478454608907
 20
474.71351648856637
 30
0.0
 10
10.326348502498384
 20
474.84618345271315
 30
0.0
 10
10.300218550387861
 20
474.97885041685993
 30
0.0
  0
SPLINE
  5
1B5
100
AcDbEntity
  8
0
370
              15
  6
Continuous
 62
               7
100
AcDbSpline
210
0.0
220
0.0
230
1.0
 70
               8
 71
               2
 72
              18
 73
              15
 74
               0
 42
0.000001
 43
0.000001
 40
0.0
 40
0.0
 40
0.0
 40
1.0
 40
1.0
 40
2.0
 40
3.0
 40
4.0
 40
5.0
 40
6.0
 40
7.0
 40
8.0
 40
9.0
 40
10.0
 40
10.0
 40
11.0
 40
11.0
 40
11.0
 10
11.000383277756107
 20
472.11291145737698
 30
0.0
 10
11.006236629238181
 20
472.11561612735977
 30
0.0
 10
11.012089980720255
 20
472.11832079734256
 30
0.0
 10
11.188549935325234
 20
472.1993492700434
 30
0.0
 10
11.530943525858682
 20
472.3627143427949
 30
0.0
 10
12.200810557604662
 20
472.73817444990743
 30
0.0
 10
12.620467302549066
 20
473.2980484089527
 30
0.0
 10
12.622715811664882
 20
473.79664675944957
 30
0.0
 10
12.309122970865708
 20
474.18693511617687
 30
0.0
 10
11.907839984498885
 20
474.45221829467744
 30
0.0
 10
11.352379831292644
 20
474.68040187645704
 30
0.0
 10
10.677804690192268
 20
474.87798135566788
 30
0.0
 10
10.323707401947566
 20
474.97251812470324
 30
0.0
 10
10.311962976167713
 20
474.97568427078158
 30
0.0
 10
10.300218550387861
 20
474.97885041685993
 30
0.0
  0
SPLINE
  5
1B6
100
AcDbEntity
  8
0
370
              15
  6
Continuous
 62
               7
100
AcDbSpline
210
0.0
220
0.0
230
1.0
 70
               8
 71
               2
 72
              11
 73
               8
 74
               0
 42
0.000001
 43
0.000001
 40
0.0
 40
0.0
 40
0.0
 40
1.0
 40
1.0
 40
2.0
 40
3.0
 40
3.0
 40
4.0
 40
4.0
 40
4.0
 10
-0.7289367474918365
 20
477.54784212792163
 30
0.0
 10
-0.7332210732408768
 20
477.42225982163109
 30
0.0
 10
-0.7375053989899172
 20
477.29667751534055
 30
0.0
 10
-1.3105631297098554
 20
458.79430803269827
 30
0.0
 10
-3.7650505929682296
 20
432.47285322555206
 30
0.0
 10
-4.5240865515102016
 20
424.95740819563832
 30
0.0
 10
-4.5241553047790077
 20
424.95671955680496
 30
0.0
 10
-4.5242240580478139
 20
424.95603091797159
 30
0.0
  0
SPLINE
  5
1B7
100
AcDbEntity
  8
0
370
              15
  6
Continuous
 62
               7
100
AcDbSpline
210
0.0
220
0.0
230
1.0
 70
               8
 71
               2
 72
              11
 73
               8
 74
               0
 42
0.000001
 43
0.000001
 40
0.0
 40
0.0
 40
0.0
 40
1.0
 40
1.0
 40
2.0
 40
3.0
 40
3.0
 40
4.0
 40
4.0
 40
4.0
 10
10.300218550387861
 20
474.97885041685993
 30
0.0
 10
10.243257163189362
 20
474.99333878531183
 30
0.0
 10
10.186295775990864
 20
475.00782715376374
 30
0.0
 10
6.6633343433909502
 20
475.92520039144995
 30
0.0
 10
1.3572408015975341
 20
477.10798512433246
 30
0.0
 10
-0.6130856067002171
 20
477.52329785668837
 30
0.0
 10
-0.6710111770960268
 20
477.535569992305
 30
0.0
 10
-0.7289367474918365
 20
477.54784212792163
 30
0.0
  0
POLYLINE
  5
1B8
100
AcDbEntity
  8
0
370
              15
  6
Continuous
 62
               7
100
AcDb2dPolyline
 66
               1
 10
0.0
 20
0.0
 30
0.0
 75
               5
  0
VERTEX
  5
1B9
100
AcDbEntity
  8
0
370
              15
  6
Continuous
 62
               7
100
AcDbVertex
100
AcDb2dVertex
 10
10.300218550403777
 20
474.97885041690176
 30
0.0
  0
VERTEX
  5
1BA
100
AcDbEntity
  8
0
370
              15
  6
Continuous
 62
               7
100
AcDbVertex
100
AcDb2dVertex
 10
10.246504326403745
 20
475.31043096910173
 30
0.0
  0
VERTEX
  5
1BB
100
AcDbEntity
  8
0
370
              15
  6
Continuous
 62
               7
100
AcDbVertex
100
AcDb2dVertex
 10
10.149383627603591
 20
475.60862102550175
 30
0.0
  0
VERTEX
  5
1BC
100
AcDbEntity
  8
0
370
              15
  6
Continuous
 62
               7
100
AcDbVertex
100
AcDb2dVertex
 10
10.012182699203557
 20
475.86320834650166
 30
0.0
  0
VERTEX
  5
1BD
100
AcDbEntity
  8
0
370
              15
  6
Continuous
 62
               7
100
AcDbVertex
100
AcDb2dVertex
 10
9.8396006976036077
 20
476.06546763430185
 30
0.0
  0
VERTEX
  5
1BE
100
AcDbEntity
  8
0
370
              15
  6
Continuous
 62
               7
100
AcDbVertex
100
AcDb2dVertex
 10
9.6375478726035979
 20
476.20847934790174
 30
0.0
  0
VERTEX
  5
1BF
100
AcDbEntity
  8
0
370
              15
  6
Continuous
 62
               7
100
AcDbVertex
100
AcDb2dVertex
 10
9.4129438712038862
 20
476.2873438219018
 30
0.0
  0
VERTEX
  5
1C0
100
AcDbEntity
  8
0
370
              15
  6
Continuous
 62
               7
100
AcDbVertex
100
AcDb2dVertex
 10
9.173481618603553
 20
476.29935608130165
 30
0.0
  0
VERTEX
  5
1C1
100
AcDbEntity
  8
0
370
              15
  6
Continuous
 62
               7
100
AcDbVertex
100
AcDb2dVertex
 10
8.9273620540038863
 20
476.24411075470186
 30
0.0
  0
SEQEND
  5
1C2
100
AcDbEntity
  8
0
370
              15
  6
Continuous
 62
               7
  0
ARC
  5
1C3
100
AcDbEntity
  8
0
370
              15
  6
Continuous
 62
               7
100
AcDbCircle
 10
8.6709448918036358
 20
471.99044488870175
 30
0.0
 40
2.3326554083643671
100
AcDbArc
 50
3.0094650776004226
 51
71.075409371098118
  0
SPLINE
  5
1C4
100
AcDbEntity
  8
0
370
              15
  6
Continuous
 62
               7
100
AcDbSpline
210
0.0
220
0.0
230
1.0
 70
               8
 71
               2
 72
              18
 73
              15
 74
               0
 42
0.000001
 43
0.000001
 40
0.0
 40
0.0
 40
0.0
 40
1.0
 40
1.0
 40
2.0
 40
3.0
 40
4.0
 40
5.0
 40
6.0
 40
7.0
 40
8.0
 40
9.0
 40
10.0
 40
10.0
 40
11.0
 40
11.0
 40
11.0
 10
8.9273620539902439
 20
476.24411075468049
 30
0.0
 10
8.934525438489807
 20
476.24197447639847
 30
0.0
 10
8.9416888229893701
 20
476.23983819811644
 30
0.0
 10
9.1578109316269618
 20
476.17601774511616
 30
0.0
 10
9.5748107910099023
 20
476.0450229047841
 30
0.0
 10
10.109605299202947
 20
475.83498941043979
 30
0.0
 10
10.531866046095281
 20
475.48728922250996
 30
0.0
 10
10.624451308802698
 20
475.10141195130143
 30
0.0
 10
10.457455200652937
 20
474.81337428629138
 30
0.0
 10
10.174789337201226
 20
474.5420605953708
 30
0.0
 10
9.7523822953494417
 20
474.33695675663182
 30
0.0
 10
9.5420726259449182
 20
474.24543151953583
 30
0.0
 10
9.4346267122186944
 20
474.20004021477132
 30
0.0
 10
9.4310532109157137
 20
474.19852587022217
 30
0.0
 10
9.427479709612733
 20
474.19701152567302
 30
0.0
  0
SPLINE
  5
1C5
100
AcDbEntity
  8
0
370
              15
  6
Continuous
 62
               7
100
AcDbSpline
210
0.0
220
0.0
230
1.0
 70
               8
 71
               2
 72
              11
 73
               8
 74
               0
 42
0.000001
 43
0.000001
 40
0.0
 40
0.0
 40
0.0
 40
1.0
 40
1.0
 40
2.0
 40
3.0
 40
3.0
 40
4.0
 40
4.0
 40
4.0
 10
-10.410872665573145
 20
477.10017816604443
 30
0.0
 10
-10.457322026789818
 20
477.08422674767792
 30
0.0
 10
-10.503771388006491
 20
477.0682753293114
 30
0.0
 10
-13.951182963172862
 20
475.90569286305333
 30
0.0
 10
-18.50342624141512
 20
474.15355290801097
 30
0.0
 10
-19.861831458903445
 20
473.61584953570343
 30
0.0
 10
-19.907127876082079
 20
473.59795379832497
 30
0.0
 10
-19.952424293260712
 20
473.5800580609465
 30
0.0
  0
SPLINE
  5
1C6
100
AcDbEntity
  8
0
370
              15
  6
Continuous
 62
               7
100
AcDbSpline
210
0.0
220
0.0
230
1.0
 70
               8
 71
               2
 72
              11
 73
               8
 74
               0
 42
0.000001
 43
0.000001
 40
0.0
 40
0.0
 40
0.0
 40
1.0
 40
1.0
 40
2.0
 40
3.0
 40
3.0
 40
4.0
 40
4.0
 40
4.0
 10
-4.5242240580478139
 20
424.95603091797159
 30
0.0
 10
-4.5243280189006256
 20
424.95671157101697
 30
0.0
 10
-4.5244319797534374
 20
424.95739222406235
 30
0.0
 10
-5.9557362050090816
 20
434.1266813649446
 30
0.0
 10
-9.3435434929765435
 20
460.07395242760811
 30
0.0
 10
-10.394405261742115
 20
476.85017114630557
 30
0.0
 10
-10.40263896365763
 20
476.975174656175
 30
0.0
 10
-10.410872665573145
 20
477.10017816604443
 30
0.0
  0
POLYLINE
  5
1C7
100
AcDbEntity
  8
0
370
              15
  6
Continuous
 62
               7
100
AcDb2dPolyline
 66
               1
 10
0.0
 20
0.0
 30
0.0
 75
               5
  0
VERTEX
  5
1C8
100
AcDbEntity
  8
0
370
              15
  6
Continuous
 62
               7
100
AcDbVertex
100
AcDb2dVertex
 10
-0.7289367473963395
 20
477.54784212790184
 30
0.0
  0
VERTEX
  5
1C9
100
AcDbEntity
  8
0
370
              15
  6
Continuous
 62
               7
100
AcDbVertex
100
AcDb2dVertex
 10
-0.7811259053964861
 20
477.87906745050179
 30
0.0
  0
VERTEX
  5
1CA
100
AcDbEntity
  8
0
370
              15
  6
Continuous
 62
               7
100
AcDbVertex
100
AcDb2dVertex
 10
-0.875209850196363
 20
478.17655016410174
 30
0.0
  0
VERTEX
  5
1CB
100
AcDbEntity
  8
0
370
              15
  6
Continuous
 62
               7
100
AcDbVertex
100
AcDb2dVertex
 10
-1.0079672461965785
 20
478.43010246470169
 30
0.0
  0
VERTEX
  5
1CC
100
AcDbEntity
  8
0
370
              15
  6
Continuous
 62
               7
100
AcDbVertex
100
AcDb2dVertex
 10
-1.1748510209963499
 20
478.63103447990181
 30
0.0
  0
VERTEX
  5
1CD
100
AcDbEntity
  8
0
370
              15
  6
Continuous
 62
               7
100
AcDbVertex
100
AcDb2dVertex
 10
-1.3701452547961637
 20
478.77247193290179
 30
0.0
  0
VERTEX
  5
1CE
100
AcDbEntity
  8
0
370
              15
  6
Continuous
 62
               7
100
AcDbVertex
100
AcDb2dVertex
 10
-1.5871626515963655
 20
478.84956927930182
 30
0.0
  0
VERTEX
  5
1CF
100
AcDbEntity
  8
0
370
              15
  6
Continuous
 62
               7
100
AcDbVertex
100
AcDb2dVertex
 10
-1.8184693921962136
 20
478.85968189690186
 30
0.0
  0
VERTEX
  5
1D0
100
AcDbEntity
  8
0
370
              15
  6
Continuous
 62
               7
100
AcDbVertex
100
AcDb2dVertex
 10
-2.0561447663962937
 20
478.80246968770177
 30
0.0
  0
SEQEND
  5
1D1
100
AcDbEntity
  8
0
370
              15
  6
Continuous
 62
               7
  0
SPLINE
  5
1D2
100
AcDbEntity
  8
0
370
              15
  6
Continuous
 62
               7
100
AcDbSpline
210
0.0
220
0.0
230
1.0
 70
               8
 71
               2
 72
              10
 73
               7
 74
               0
 42
0.000001
 43
0.000001
 40
0.0
 40
0.0
 40
0.0
 40
1.0
 40
1.0
 40
2.0
 40
2.0
 40
3.0
 40
3.0
 40
3.0
 10
-2.0561447664517729
 20
478.80246968771064
 30
0.0
 10
-1.9983690457192935
 20
478.78935922693142
 30
0.0
 10
-1.9405933249868141
 20
478.77624876615221
 30
0.0
 10
3.4998076993365501
 20
477.54699113494132
 30
0.0
 10
8.814090617776408
 20
476.27118904436554
 30
0.0
 10
8.8707263358833259
 20
476.25764989952302
 30
0.0
 10
8.9273620539902439
 20
476.24411075468049
 30
0.0
  0
ARC
  5
1D3
100
AcDbEntity
  8
0
370
              15
  6
Continuous
 62
               7
100
AcDbCircle
 10
-9.1728235659961612
 20
477.25172374730175
 30
0.0
 40
1.247289716231599
100
AcDbArc
 50
80.725898560400864
 51
186.97867422760433
  0
SPLINE
  5
1D4
100
AcDbEntity
  8
0
370
              15
  6
Continuous
 62
               7
100
AcDbSpline
210
0.0
220
0.0
230
1.0
 70
               8
 71
               2
 72
              10
 73
               7
 74
               0
 42
0.000001
 43
0.000001
 40
0.0
 40
0.0
 40
0.0
 40
1.0
 40
1.0
 40
2.0
 40
2.0
 40
3.0
 40
3.0
 40
3.0
 10
-18.473873366043783
 20
474.97715900946571
 30
0.0
 10
-18.428811089447656
 20
474.99415396031486
 30
0.0
 10
-18.383748812851529
 20
475.01114891116401
 30
0.0
 10
-13.795385133185384
 20
476.74681836225329
 30
0.0
 10
-9.0644207521322571
 20
478.44928522925341
 30
0.0
 10
-9.0181169688489646
 20
478.46599747426569
 30
0.0
 10
-8.9718131855656722
 20
478.48270971927798
 30
0.0
  0
SPLINE
  5
1D5
100
AcDbEntity
  8
0
370
              15
  6
Continuous
 62
               7
100
AcDbSpline
210
0.0
220
0.0
230
1.0
 70
               8
 71
               2
 72
              16
 73
              13
 74
               0
 42
0.000001
 43
0.000001
 40
0.0
 40
0.0
 40
0.0
 40
1.0
 40
1.0
 40
2.0
 40
3.0
 40
4.0
 40
5.0
 40
6.0
 40
7.0
 40
8.0
 40
8.0
 40
9.0
 40
9.0
 40
9.0
 10
-0.7289367474918365
 20
477.54784212792163
 30
0.0
 10
-0.7392576771271635
 20
477.55014536270085
 30
0.0
 10
-0.7495786067624906
 20
477.55244859748007
 30
0.0
 10
-1.0580118038233124
 20
477.62220815577746
 30
0.0
 10
-2.2966141794286088
 20
477.8784041103321
 30
0.0
 10
-4.1154620824759078
 20
477.99338165000916
 30
0.0
 10
-5.559017747971204
 20
477.98562810041597
 30
0.0
 10
-7.0008000924608424
 20
477.88311989784063
 30
0.0
 10
-8.6196664732719839
 20
477.64383325048459
 30
0.0
 10
-9.8781753255743681
 20
477.27601718627591
 30
0.0
 10
-10.377417772070196
 20
477.11108998261795
 30
0.0
 10
-10.39414521882167
 20
477.10563407433119
 30
0.0
 10
-10.410872665573145
 20
477.10017816604443
 30
0.0
  0
SPLINE
  5
1D6
100
AcDbEntity
  8
0
370
              15
  6
Continuous
 62
               7
100
AcDbSpline
210
0.0
220
0.0
230
1.0
 70
               8
 71
               2
 72
              16
 73
              13
 74
               0
 42
0.000001
 43
0.000001
 40
0.0
 40
0.0
 40
0.0
 40
1.0
 40
1.0
 40
2.0
 40
3.0
 40
4.0
 40
5.0
 40
6.0
 40
7.0
 40
8.0
 40
8.0
 40
9.0
 40
9.0
 40
9.0
 10
-8.9718131855656722
 20
478.48270971927798
 30
0.0
 10
-8.9607162757022181
 20
478.48603128885611
 30
0.0
 10
-8.9496193658387639
 20
478.48935285843424
 30
0.0
 10
-8.6624338942851793
 20
478.57628721566277
 30
0.0
 10
-7.752474752677692
 20
478.83479900787563
 30
0.0
 10
-6.730636199904886
 20
478.97153255760497
 30
0.0
 10
-5.5486791461998948
 20
479.08732350418938
 30
0.0
 10
-4.1136555066645926
 20
479.06717102908658
 30
0.0
 10
-3.0164556359682066
 20
478.98393983113317
 30
0.0
 10
-2.274618556594298
 20
478.84593070299809
 30
0.0
 10
-2.0698269760437071
 20
478.80517220684931
 30
0.0
 10
-2.06298587124774
 20
478.80382094727997
 30
0.0
 10
-2.0561447664517729
 20
478.80246968771064
 30
0.0
  0
LINE
  5
1D7
100
AcDbEntity
  8
0
370
              15
  6
Continuous
 62
               7
100
AcDbLine
 10
17.796188475603692
 20
418.44011880830169
 30
0.0
 11
17.719257153003589
 21
423.56562637110176
 31
0.0
  0
SPLINE
  5
1D8
100
AcDbEntity
  8
0
370
              15
  6
Continuous
 62
               7
100
AcDbSpline
210
0.0
220
0.0
230
1.0
 70
               8
 71
               2
 72
              11
 73
               8
 74
               0
 42
0.000001
 43
0.000001
 40
0.0
 40
0.0
 40
0.0
 40
1.0
 40
1.0
 40
2.0
 40
3.0
 40
3.0
 40
4.0
 40
4.0
 40
4.0
 10
-21.533175655265033
 20
472.33542681440929
 30
0.0
 10
-21.544140685498625
 20
472.22920134514095
 30
0.0
 10
-21.555105715732218
 20
472.12297587587261
 30
0.0
 10
-22.18556991878858
 20
466.23201325833281
 30
0.0
 10
-23.968895405629603
 20
441.59605858461589
 30
0.0
 10
-23.948052819336674
 20
422.35565691666977
 30
0.0
 10
-23.948182365711993
 20
422.21235982438793
 30
0.0
 10
-23.948311912087313
 20
422.06906273210609
 30
0.0
  0
SPLINE
  5
1D9
100
AcDbEntity
  8
0
370
              15
  6
Continuous
 62
               7
100
AcDbSpline
210
0.0
220
0.0
230
1.0
 70
               8
 71
               2
 72
              17
 73
              14
 74
               0
 42
0.000001
 43
0.000001
 40
0.0
 40
0.0
 40
0.0
 40
1.0
 40
1.0
 40
2.0
 40
3.0
 40
4.0
 40
5.0
 40
6.0
 40
7.0
 40
8.0
 40
9.0
 40
9.0
 40
10.0
 40
10.0
 40
10.0
 10
-19.115541770577231
 20
474.92994961177067
 30
0.0
 10
-19.117050192332265
 20
474.92947230392315
 30
0.0
 10
-19.118558614087299
 20
474.92899499607563
 30
0.0
 10
-19.441537932050316
 20
474.83167281803924
 30
0.0
 10
-19.939420721618255
 20
474.58617243365768
 30
0.0
 10
-20.347015118757092
 20
474.31586653609008
 30
0.0
 10
-20.774287553953393
 20
473.9684736213643
 30
0.0
 10
-21.096007512742737
 20
473.59146209125254
 30
0.0
 10
-21.313702486310824
 20
473.25368023493604
 30
0.0
 10
-21.452207280463874
 20
472.87637136777369
 30
0.0
 10
-21.531485699927536
 20
472.54900760901262
 30
0.0
 10
-21.566351181761995
 20
472.38274314656371
 30
0.0
 10
-21.567530075225243
 20
472.37721002267858
 30
0.0
 10
-21.56870896868849
 20
472.37167689879345
 30
0.0
  0
SPLINE
  5
1DA
100
AcDbEntity
  8
0
370
              15
  6
Continuous
 62
               7
100
AcDbSpline
210
0.0
220
0.0
230
1.0
 70
               8
 71
               2
 72
              11
 73
               8
 74
               0
 42
0.000001
 43
0.000001
 40
0.0
 40
0.0
 40
0.0
 40
1.0
 40
1.0
 40
2.0
 40
3.0
 40
3.0
 40
4.0
 40
4.0
 40
4.0
 10
17.773069747823236
 20
422.76364925554424
 30
0.0
 10
17.769055362024581
 20
422.83937253828424
 30
0.0
 10
17.765040976225926
 20
422.91509582102424
 30
0.0
 10
16.7951367119772
 20
441.66271012977847
 30
0.0
 10
13.689436595688228
 20
466.64657116412798
 30
0.0
 10
12.611023690254576
 20
473.38835503323151
 30
0.0
 10
12.590670335646344
 20
473.51783719997286
 30
0.0
 10
12.570316981038111
 20
473.64731936671421
 30
0.0
  0
SPLINE
  5
1DB
100
AcDbEntity
  8
0
370
              15
  6
Continuous
 62
               7
100
AcDbSpline
210
0.0
220
0.0
230
1.0
 70
               8
 71
               2
 72
              17
 73
              14
 74
               0
 42
0.000001
 43
0.000001
 40
0.0
 40
0.0
 40
0.0
 40
1.0
 40
1.0
 40
2.0
 40
3.0
 40
4.0
 40
5.0
 40
6.0
 40
7.0
 40
8.0
 40
9.0
 40
9.0
 40
10.0
 40
10.0
 40
10.0
 10
12.579287169818151
 20
473.65050022323896
 30
0.0
 10
12.579200908497576
 20
473.65255063492748
 30
0.0
 10
12.579114647177001
 20
473.65460104661599
 30
0.0
 10
12.576742402252428
 20
473.71616308611613
 30
0.0
 10
12.561857456112655
 20
473.98522759483592
 30
0.0
 10
12.414658809168948
 20
474.35983116232762
 30
0.0
 10
11.984756681896677
 20
475.03464657811912
 30
0.0
 10
11.22894212893744
 20
475.60770326390514
 30
0.0
 10
10.563410819768258
 20
475.94331615951694
 30
0.0
 10
10.017780088117895
 20
476.11713086508178
 30
0.0
 10
9.6345391769114102
 20
476.21580967254715
 30
0.0
 10
9.4401739314212207
 20
476.26275902736359
 30
0.0
 10
9.4337047126612177
 20
476.26433237474077
 30
0.0
 10
9.4272354939012146
 20
476.26590572211796
 30
0.0
  0
LINE
  5
1DC
100
AcDbEntity
  8
0
370
              15
  6
Continuous
 62
               7
100
AcDbLine
 10
-23.954648347796585
 20
422.90871384370178
 30
0.0
 11
-23.789430541196445
 21
419.13419851870174
 31
0.0
  0
SPLINE
  5
1DD
100
AcDbEntity
  8
0
370
              15
  6
Continuous
 62
               7
100
AcDbSpline
210
0.0
220
0.0
230
1.0
 70
               8
 71
               2
 72
              10
 73
               7
 74
               0
 42
0.000001
 43
0.000001
 40
0.0
 40
0.0
 40
0.0
 40
1.0
 40
1.0
 40
2.0
 40
2.0
 40
3.0
 40
3.0
 40
3.0
 10
9.4249894643398946
 20
476.27200851090004
 30
0.0
 10
9.3698353212432792
 20
476.28538597329828
 30
0.0
 10
9.3146811781466639
 20
476.29876343569651
 30
0.0
 10
4.0225200152317555
 20
477.58933496514362
 30
0.0
 10
-1.4585859829917283
 20
478.8133204077418
 30
0.0
 10
-1.5180676026757212
 20
478.82668375448509
 30
0.0
 10
-1.5775492223597141
 20
478.84004710122838
 30
0.0
  0
SPLINE
  5
1DE
100
AcDbEntity
  8
0
370
              15
  6
Continuous
 62
               7
100
AcDbSpline
210
0.0
220
0.0
230
1.0
 70
               8
 71
               2
 72
              11
 73
               8
 74
               0
 42
0.000001
 43
0.000001
 40
0.0
 40
0.0
 40
0.0
 40
1.0
 40
1.0
 40
2.0
 40
3.0
 40
3.0
 40
4.0
 40
4.0
 40
4.0
 10
-9.5718125416738005
 20
478.45049597858326
 30
0.0
 10
-9.6166568523367388
 20
478.43450831224391
 30
0.0
 10
-9.6615011629996772
 20
478.41852064590455
 30
0.0
 10
-13.081302898322512
 20
477.20853034815229
 30
0.0
 10
-17.616905890095943
 20
475.50559922045056
 30
0.0
 10
-19.022437421550869
 20
474.97055617866783
 30
0.0
 10
-19.069316138198239
 20
474.9527280558583
 30
0.0
 10
-19.11619485484561
 20
474.93489993304877
 30
0.0
  0
SPLINE
  5
1DF
100
AcDbEntity
  8
0
370
              15
  6
Continuous
 62
               7
100
AcDbSpline
210
0.0
220
0.0
230
1.0
 70
               8
 71
               2
 72
              15
 73
              12
 74
               0
 42
0.000001
 43
0.000001
 40
0.0
 40
0.0
 40
0.0
 40
1.0
 40
1.0
 40
2.0
 40
3.0
 40
4.0
 40
5.0
 40
6.0
 40
7.0
 40
7.0
 40
8.0
 40
8.0
 40
8.0
 10
-1.5764426088130605
 20
478.8366261897753
 30
0.0
 10
-1.5780800325662696
 20
478.83708773820752
 30
0.0
 10
-1.5797174563194787
 20
478.83754928663973
 30
0.0
 10
-1.9849553778872107
 20
478.9546623728919
 30
0.0
 10
-3.0883363163679789
 20
479.09555833368347
 30
0.0
 10
-4.5884414575380035
 20
479.18702393535716
 30
0.0
 10
-6.5132598584991612
 20
479.11552304794952
 30
0.0
 10
-8.3378162553658441
 20
478.84174549814873
 30
0.0
 10
-9.2956055751301321
 20
478.54655507547488
 30
0.0
 10
-9.5652052407090125
 20
478.4572786085181
 30
0.0
 10
-9.574214239486075
 20
478.45431733648036
 30
0.0
 10
-9.5832232382631375
 20
478.45135606444262
 30
0.0
  0
ENDBLK
  5
1E0
100
AcDbEntity
  8
一般
100
AcDbBlockEnd
  0
BLOCK
  5
1E1
100
AcDbEntity
  8
一般
100
AcDbBlockBegin
  2
*U1
 70
               1
 10
0.0
 20
0.0
 30
0.0
  3
*U1
  1

  0
INSERT
  5
1E2
100
AcDbEntity
  8
一般
 62
               7
100
AcDbBlockReference
  2
*U0
 10
0.0
 20
0.0
 30
0.0
  0
ENDBLK
  5
1E3
100
AcDbEntity
  8
一般
100
AcDbBlockEnd
  0
BLOCK
  5
1E4
100
AcDbEntity
  8
一般
100
AcDbBlockBegin
  2
*U2
 70
               1
 10
0.0
 20
0.0
 30
0.0
  3
*U2
  1

  0
INSERT
  5
1E5
100
AcDbEntity
  8
一般
 62
               7
100
AcDbBlockReference
  2
*U1
 10
0.0
 20
0.0
 30
0.0
  0
ENDBLK
  5
1E6
100
AcDbEntity
  8
一般
100
AcDbBlockEnd
  0
BLOCK
  5
1E7
100
AcDbEntity
  8
一般
100
AcDbBlockBegin
  2
*U3
 70
               1
 10
0.0
 20
0.0
 30
0.0
  3
*U3
  1

  0
INSERT
  5
1E8
100
AcDbEntity
  8
一般
 62
               7
100
AcDbBlockReference
  2
*U2
 10
0.0
 20
0.0
 30
0.0
  0
ENDBLK
  5
1E9
100
AcDbEntity
  8
一般
100
AcDbBlockEnd
  0
BLOCK
  5
1EA
100
AcDbEntity
  8
一般
100
AcDbBlockBegin
  2
*U4
 70
               1
 10
0.0
 20
0.0
 30
0.0
  3
*U4
  1

  0
INSERT
  5
1EB
100
AcDbEntity
  8
一般
 62
               7
100
AcDbBlockReference
  2
*U3
 10
0.0
 20
0.0
 30
0.0
  0
ENDBLK
  5
1EC
100
AcDbEntity
  8
一般
100
AcDbBlockEnd
  0
ENDSEC
  0
SECTION
  2
ENTITIES
  0
MTEXT
  5
1ED
100
AcDbEntity
  8
0
 62
               7
100
AcDbMText
 10
261.04670212314932
 20
65.504160622320825
 30
0.0
 40
3.1718236066923358
 41
0.0
 71
               1
 72
               1
  1
HFD-D65P^I\PHFD-D65B^I\PHFD-D65E{\H0.9176x;\l^I}
  7
@ＭＳ Ｐゴシック
 73
               1
 44
0.8762322015334065
  0
INSERT
  5
1EE
100
AcDbEntity
  8
一般
 62
               7
100
AcDbBlockReference
  2
*U4
 10
210.0
 20
148.5
 30
0.0
 41
0.2
 42
0.2
 43
0.2
  0
ENDSEC
  0
SECTION
  2
OBJECTS
  0
DICTIONARY
  5
19
100
AcDbDictionary
280
               0
281
               1
  3
ACAD_GROUP
350
1A
  3
ACAD_MLINESTYLE
350
1B
  3
ACAD_LAYOUT
350
1E
  3
ACAD_PLOTSETTINGS
350
22
  3
ACAD_PLOTSTYLENAME
350
1F
  3
ACAD_WIPEOUT_VARS
350
23
  0
DICTIONARY
  5
1A
102
{ACAD_REACTORS
330
19
102
}
100
AcDbDictionary
280
               0
281
               1
  0
DICTIONARY
  5
1B
102
{ACAD_REACTORS
330
19
102
}
100
AcDbDictionary
280
               0
281
               1
  3
Standard
350
1C
  0
MLINESTYLE
  5
1C
102
{ACAD_REACTORS
330
1B
102
}
100
AcDbMlineStyle
  2
Standard
 70
               0
  3

 62
               0
 51
90.0
 52
90.0
 71
               2
 49
0.5
 62
             256
  6
ByLayer
 49
-0.5
 62
             256
  6
ByLayer
  0
ACDBDICTIONARYWDFLT
  5
1F
102
{ACAD_REACTORS
330
19
102
}
100
AcDbDictionary
281
               1
  3
Normal
350
1D
100
AcDbDictionaryWithDefault
340
1D
  0
ACDBPLACEHOLDER
  5
1D
102
{ACAD_REACTORS
330
1F
102
}
  0
LAYOUT
  5
20
102
{ACAD_REACTORS
330
1E
102
}
100
AcDbPlotSettings
  1

  2

  4

  6

 40
0.0
 41
0.0
 42
0.0
 43
0.0
 44
0.0
 45
0.0
 46
0.0
 47
0.0
 48
0.0
 49
0.0
140
0.0
141
0.0
142
1.0
143
1.0
 70
            1024
 72
               0
 73
               0
 74
               0
  7

 75
               0
147
1.0
148
0.0
149
0.0
100
AcDbLayout
  1
Model
 70
               0
 71
               0
 10
0.0
 20
0.0
 11
0.0
 21
0.0
 12
0.0
 22
0.0
 32
0.0
 14
0.0
 24
0.0
 34
0.0
 15
0.0
 25
0.0
 35
0.0
146
0.0
 13
0.0
 23
0.0
 33
0.0
 16
0.0
 26
0.0
 36
0.0
 17
0.0
 27
0.0
 37
0.0
 76
               0
330
A
331
0
345
0
346
0
  0
LAYOUT
  5
21
102
{ACAD_REACTORS
330
1E
102
}
100
AcDbPlotSettings
  1

  2

  4

  6

 40
0.0
 41
0.0
 42
0.0
 43
0.0
 44
0.0
 45
0.0
 46
0.0
 47
0.0
 48
0.0
 49
0.0
140
0.0
141
0.0
142
1.0
143
1.0
 70
               0
 72
               0
 73
               0
 74
               0
  7

 75
               0
147
1.0
148
0.0
149
0.0
100
AcDbLayout
  1
Layout1
 70
               0
 71
               0
 10
0.0
 20
0.0
 11
0.0
 21
0.0
 12
0.0
 22
0.0
 32
0.0
 14
0.0
 24
0.0
 34
0.0
 15
0.0
 25
0.0
 35
0.0
146
0.0
 13
0.0
 23
0.0
 33
0.0
 16
0.0
 26
0.0
 36
0.0
 17
0.0
 27
0.0
 37
0.0
 76
               0
330
B
331
0
345
0
346
0
  0
DICTIONARY
  5
1E
102
{ACAD_REACTORS
330
19
102
}
100
AcDbDictionary
280
               0
281
               1
  3
Layout1
350
21
  3
Model
350
20
  0
DICTIONARY
  5
22
102
{ACAD_REACTORS
330
19
102
}
100
AcDbDictionary
280
               0
281
               1
  0
WIPEOUTVARIABLES
  5
23
100
AcDbWipeoutVariables
 70
               1
  0
ENDSEC
  0
EOF
