  0
SECTION
  2
HEADER
  9
$ACADVER
  1
AC1015
  9
$ACADMAINTVER
 70
               6
  9
$DWGCODEPAGE
  3
ANSI_932
  9
$INSBASE
 10
0.0
 20
0.0
 30
0.0
  9
$EXTMIN
 10
198.17283790915701
 20
49.762752348166771
 30
0.0
  9
$EXTMAX
 10
293.71843218189628
 20
246.55167336251762
 30
0.0
  9
$LIMMIN
 10
0.0
 20
0.0
  9
$LIMMAX
 10
0.0
 20
0.0
  9
$ORTHOMODE
 70
               0
  9
$REGENMODE
 70
               1
  9
$FILLMODE
 70
               1
  9
$QTEXTMODE
 70
               0
  9
$MIRRTEXT
 70
               1
  9
$LTSCALE
 40
5.0800000000000001
  9
$ATTMODE
 70
               1
  9
$TEXTSIZE
 40
0.2
  9
$TRACEWID
 40
1.0
  9
$TEXTSTYLE
  7
Standard
  9
$CLAYER
  8
0
  9
$CELTYPE
  6
Continuous
  9
$CECOLOR
 62
             256
  9
$CELTSCALE
 40
1.0
  9
$DISPSILH
 70
               0
  9
$DIMSCALE
 40
1.0
  9
$DIMASZ
 40
0.18
  9
$DIMEXO
 40
0.0625
  9
$DIMDLI
 40
0.38
  9
$DIMRND
 40
0.0
  9
$DIMDLE
 40
0.0
  9
$DIMEXE
 40
0.18
  9
$DIMTP
 40
0.0
  9
$DIMTM
 40
0.0
  9
$DIMTXT
 40
0.18
  9
$DIMCEN
 40
0.09
  9
$DIMTSZ
 40
0.0
  9
$DIMTOL
 70
               0
  9
$DIMLIM
 70
               0
  9
$DIMTIH
 70
               1
  9
$DIMTOH
 70
               1
  9
$DIMSE1
 70
               0
  9
$DIMSE2
 70
               0
  9
$DIMTAD
 70
               0
  9
$DIMZIN
 70
               0
  9
$DIMBLK
  1

  9
$DIMASO
 70
               1
  9
$DIMSHO
 70
               1
  9
$DIMPOST
  1

  9
$DIMAPOST
  1

  9
$DIMALT
 70
               0
  9
$DIMALTD
 70
               2
  9
$DIMALTF
 40
25.399999999999999
  9
$DIMLFAC
 40
1.0
  9
$DIMTOFL
 70
               0
  9
$DIMTVP
 40
0.0
  9
$DIMTIX
 70
               0
  9
$DIMSOXD
 70
               0
  9
$DIMSAH
 70
               0
  9
$DIMBLK1
  1

  9
$DIMBLK2
  1

  9
$DIMSTYLE
  2
Standard
  9
$DIMCLRD
 70
               0
  9
$DIMCLRE
 70
               0
  9
$DIMCLRT
 70
               0
  9
$DIMTFAC
 40
1.0
  9
$DIMGAP
 40
0.09
  9
$DIMJUST
 70
               0
  9
$DIMSD1
 70
               0
  9
$DIMSD2
 70
               0
  9
$DIMTOLJ
 70
               1
  9
$DIMTZIN
 70
               0
  9
$DIMALTZ
 70
               0
  9
$DIMALTTZ
 70
               0
  9
$DIMUPT
 70
               0
  9
$DIMDEC
 70
               4
  9
$DIMTDEC
 70
               4
  9
$DIMALTU
 70
               2
  9
$DIMALTTD
 70
               2
  9
$DIMTXSTY
  7
Standard
  9
$DIMAUNIT
 70
               0
  9
$DIMADEC
 70
               0
  9
$DIMALTRND
 40
0.0
  9
$DIMAZIN
 70
               0
  9
$DIMDSEP
 70
               0
  9
$DIMATFIT
 70
               3
  9
$DIMFRAC
 70
               0
  9
$DIMLDRBLK
  1

  9
$DIMLUNIT
 70
               2
  9
$DIMLWD
 70
               0
  9
$DIMLWE
 70
               0
  9
$DIMTMOVE
 70
               0
  9
$LUNITS
 70
               2
  9
$LUPREC
 70
               4
  9
$SKETCHINC
 40
0.1
  9
$FILLETRAD
 40
0.0
  9
$AUNITS
 70
               0
  9
$AUPREC
 70
               0
  9
$MENU
  1
acad
  9
$ELEVATION
 40
0.0
  9
$PELEVATION
 40
0.0
  9
$THICKNESS
 40
0.0
  9
$LIMCHECK
 70
               0
  9
$CHAMFERA
 40
0.0
  9
$CHAMFERB
 40
0.0
  9
$CHAMFERC
 40
0.0
  9
$CHAMFERD
 40
0.0
  9
$SKPOLY
 70
               0
  9
$TDCREATE
 40
2458068.666851852
  9
$TDUCREATE
 40
0.000000000
  9
$TDUPDATE
 40
2458068.666851852
  9
$TDUUPDATE
 40
0.000000000
  9
$TDINDWG
 40
0.0000000000
  9
$TDUSRTIMER
 40
0.0000000000
  9
$USRTIMER
 70
               1
  9
$ANGBASE
 50
0.0
  9
$ANGDIR
 70
               0
  9
$PDMODE
 70
               1
  9
$PDSIZE
 40
-2.0
  9
$PLINEWID
 40
0.0
  9
$SPLFRAME
 70
               0
  9
$SPLINETYPE
 70
               6
  9
$SPLINESEGS
 70
               8
  9
$HANDSEED
  5
33C
  9
$SURFTAB1
 70
               6
  9
$SURFTAB2
 70
               6
  9
$SURFTYPE
 70
               6
  9
$SURFU
 70
               6
  9
$SURFV
 70
               6
  9
$UCSBASE
  2

  9
$UCSNAME
  2

  9
$UCSORG
 10
0.0
 20
0.0
 30
0.0
  9
$UCSXDIR
 10
1.0
 20
0.0
 30
0.0
  9
$UCSYDIR
 10
0.0
 20
1.0
 30
0.0
  9
$UCSORTHOREF
  2

  9
$UCSORTHOVIEW
 70
               0
  9
$UCSORGTOP
 10
0.0
 20
0.0
 30
0.0
  9
$UCSORGBOTTOM
 10
0.0
 20
0.0
 30
0.0
  9
$UCSORGLEFT
 10
0.0
 20
0.0
 30
0.0
  9
$UCSORGRIGHT
 10
0.0
 20
0.0
 30
0.0
  9
$UCSORGFRONT
 10
0.0
 20
0.0
 30
0.0
  9
$UCSORGBACK
 10
0.0
 20
0.0
 30
0.0
  9
$PUCSBASE
  2

  9
$PUCSNAME
  2

  9
$PUCSORG
 10
0.0
 20
0.0
 30
0.0
  9
$PUCSXDIR
 10
1.0
 20
0.0
 30
0.0
  9
$PUCSYDIR
 10
0.0
 20
1.0
 30
0.0
  9
$PUCSORTHOREF
  2

  9
$PUCSORTHOVIEW
 70
               0
  9
$PUCSORGTOP
 10
0.0
 20
0.0
 30
0.0
  9
$PUCSORGBOTTOM
 10
0.0
 20
0.0
 30
0.0
  9
$PUCSORGLEFT
 10
0.0
 20
0.0
 30
0.0
  9
$PUCSORGRIGHT
 10
0.0
 20
0.0
 30
0.0
  9
$PUCSORGFRONT
 10
0.0
 20
0.0
 30
0.0
  9
$PUCSORGBACK
 10
0.0
 20
0.0
 30
0.0
  9
$USERI1
 70
               0
  9
$USERI2
 70
               0
  9
$USERI3
 70
               0
  9
$USERI4
 70
               0
  9
$USERI5
 70
               0
  9
$USERR1
 40
0.0
  9
$USERR2
 40
0.0
  9
$USERR3
 40
0.0
  9
$USERR4
 40
0.0
  9
$USERR5
 40
0.0
  9
$WORLDVIEW
 70
               1
  9
$SHADEDGE
 70
               3
  9
$SHADEDIF
 70
              70
  9
$TILEMODE
 70
               1
  9
$MAXACTVP
 70
              16
  9
$PINSBASE
 10
0.0
 20
0.0
 30
0.0
  9
$PLIMCHECK
 70
               0
  9
$PEXTMIN
 10
1.0000000000000000E+20
 20
1.0000000000000000E+20
 30
1.0000000000000000E+20
  9
$PEXTMAX
 10
-1.0000000000000000E+20
 20
-1.0000000000000000E+20
 30
-1.0000000000000000E+20
  9
$PLIMMIN
 10
0.0
 20
0.0
  9
$PLIMMAX
 10
12.0
 20
9.0
  9
$UNITMODE
 70
               0
  9
$VISRETAIN
 70
               0
  9
$PLINEGEN
 70
               1
  9
$PSLTSCALE
 70
               0
  9
$TREEDEPTH
 70
            3020
  9
$CMLSTYLE
  2
Standard
  9
$CMLJUST
 70
               0
  9
$CMLSCALE
 40
1.0
  9
$PROXYGRAPHICS
 70
               0
  9
$MEASUREMENT
 70
               1
  9
$CELWEIGHT
370
               0
  9
$ENDCAPS
280
               0
  9
$JOINSTYLE
280
               0
  9
$LWDISPLAY
290
               1
  9
$INSUNITS
 70
               4
  9
$HYPERLINKBASE
  1

  9
$STYLESHEET
  1

  9
$XEDIT
290
               1
  9
$CEPSNTYPE
380
               0
  9
$PSTYLEMODE
290
               1
  9
$FINGERPRINTGUID
  2

  9
$VERSIONGUID
  2

  9
$EXTNAMES
290
               1
  9
$PSVPSCALE
 40
0.0
  0
ENDSEC
  0
SECTION
  2
CLASSES
  0
CLASS
  1
LWPOLYLINE
  2
AcDbPolyline
  3
AutoCAD 2000
 90
    32768
280
               0
281
               1
  0
CLASS
  1
IMAGE
  2
AcDbRasterImage
  3
ISM
 90
    32895
280
               0
281
               1
  0
CLASS
  1
OLE2FRAME
  2
AcDbOle2Frame
  3
AutoCAD 2000
 90
    32768
280
               0
281
               1
  0
CLASS
  1
HATCH
  2
AcDbHatch
  3
AutoCAD 2000
 90
    32768
280
               0
281
               1
  0
CLASS
  1
DICTIONARYVAR
  2
AcDbDictionaryVar
  3
AutoCAD 2000
 90
    32768
280
               0
281
               0
  0
CLASS
  1
RASTERVARIABLES
  2
AcDbRasterVariables
  3
ISM
 90
    32768
280
               0
281
               0
  0
CLASS
  1
IMAGEDEF
  2
AcDbRasterImageDef
  3
ISM
 90
    32768
280
               0
281
               0
  0
CLASS
  1
IMAGEDEF_REACTOR
  2
AcDbRasterImageDefReactor
  3
ISM
 90
    32769
280
               0
281
               0
  0
CLASS
  1
IDBUFFER
  2
AcDbIdBuffer
  3
AutoCAD 2000
 90
    32768
280
               0
281
               0
  0
CLASS
  1
SPATIAL_FILTER
  2
AcDbSpatialFilter
  3
AutoCAD 2000
 90
    32768
280
               0
281
               0
  0
CLASS
  1
XRECORD
  2
AcDbXrecord
  3
AutoCAD 2000
 90
    32768
280
               0
281
               0
  0
CLASS
  1
SORTENTSTABLE
  2
AcDbSortentsTable
  3
AutoCAD 2000
 90
    32768
280
               0
281
               0
  0
CLASS
  1
LAYER_INDEX
  2
AcDbLayerIndex
  3
AutoCAD 2000
 90
    32768
280
               0
281
               0
  0
CLASS
  1
SPATIAL_INDEX
  2
AcDbSpatialIndex
  3
AutoCAD 2000
 90
    32768
280
               0
281
               0
  0
CLASS
  1
OBJECT_PTR
  2
CAseDLPNTableRecord
  3
"ASE-LPNTableRecord"
 90
    32769
280
               0
281
               0
  0
CLASS
  1
LAYOUT
  2
AcDbLayout
  3
AutoCAD 2000
 90
        0
280
               0
281
               0
  0
CLASS
  1
PLOTSETTINGS
  2
AcDbPlotSettings
  3
AutoCAD 2000
 90
    32768
280
               0
281
               0
  0
CLASS
  1
ACDBDICTIONARYWDFLT
  2
AcDbDictionaryWithDefault
  3
AutoCAD 2000
 90
        0
280
               0
281
               0
  0
CLASS
  1
ACDBPLACEHOLDER
  2
AcDbPlaceHolder
  3
AutoCAD 2000
 90
        0
280
               0
281
               0
  0
CLASS
  1
VBA_PROJECT
  2
AcDbVbaProject
  3
acadvba
 90
    32768
280
               0
281
               0
  0
CLASS
  1
WIPEOUT
  2
AcDbWipeout
  3
WipeOut|AutoCAD Express Tool|expresstools@autodesk.com
 90
    32895
280
               0
281
               1
  0
CLASS
  1
WIPEOUTVARIABLES
  2
AcDbWipeoutVariables
  3
WipeOut|AutoCAD Express Tool|expresstools@autodesk.com
 90
        0
280
               0
281
               0
  0
CLASS
  1
RTEXT
  2
RText
  3
RText|AutoCAD Express Tool|expresstools@autodesk.com
 90
    32768
280
               0
281
               1
  0
CLASS
  1
ARCALIGNEDTEXT
  2
AcDbArcAlignedText
  3
ATEXT|AutoCAD Express Tool|expresstools@autodesk.com
 90
    32768
280
               0
281
               1
  0
ENDSEC
  0
SECTION
  2
TABLES
  0
TABLE
  2
VPORT
  5
7
100
AcDbSymbolTable
 70
               1
  0
VPORT
  5
15
100
AcDbSymbolTableRecord
100
AcDbViewportTableRecord
  2
*ACTIVE
 70
               0
 10
0.0
 20
0.0
 11
1.0
 21
1.0
 12
245.94563504552664
 22
148.15721285534221
 13
0.0
 23
0.0
 14
1.0
 24
1.0
 15
0.0
 25
0.0
 16
0.0
 26
0.0
 36
1.0
 17
0.0
 27
0.0
 37
0.0
 40
196.78892101435085
 41
0.688564
 42
50.0
 43
0.0
 44
0.0
 50
0.0
 51
0.0
 71
               0
 72
             100
 73
               1
 74
               1
 75
               0
 76
               0
 77
               0
 78
               0
281
               0
 65
               0
110
0.0
120
0.0
130
0.0
111
1.0
121
0.0
131
0.0
112
0.0
122
1.0
132
0.0
345
0
346
0
 79
               0
146
0.0
  0
ENDTAB
  0
TABLE
  2
LTYPE
  5
4
100
AcDbSymbolTable
 70
              14
  0
LTYPE
  5
11
100
AcDbSymbolTableRecord
100
AcDbLinetypeTableRecord
  2
ByBlock
 70
              64
  3

 72
              65
 73
               0
 40
0.0
  0
LTYPE
  5
12
100
AcDbSymbolTableRecord
100
AcDbLinetypeTableRecord
  2
ByLayer
 70
              64
  3

 72
              65
 73
               0
 40
0.0
  0
LTYPE
  5
13
100
AcDbSymbolTableRecord
100
AcDbLinetypeTableRecord
  2
Continuous
 70
              64
  3
Solid line
 72
              65
 73
               0
 40
0.0
  0
LTYPE
  5
25
100
AcDbSymbolTableRecord
100
AcDbLinetypeTableRecord
  2
STYLE_01
 70
               0
  3

 72
              65
 73
               2
 40
0.075
 49
0.05
 74
               0
 49
-0.025
 74
               0
  0
LTYPE
  5
26
100
AcDbSymbolTableRecord
100
AcDbLinetypeTableRecord
  2
STYLE_02
 70
               0
  3

 72
              65
 73
               6
 40
0.4999999999999999
 49
0.25
 74
               0
 49
-0.05
 74
               0
 49
0.05
 74
               0
 49
-0.05
 74
               0
 49
0.05
 74
               0
 49
-0.05
 74
               0
  0
LTYPE
  5
27
100
AcDbSymbolTableRecord
100
AcDbLinetypeTableRecord
  2
STYLE_03
 70
               0
  3

 72
              65
 73
               4
 40
0.3999999999999999
 49
0.25
 74
               0
 49
-0.05
 74
               0
 49
0.05
 74
               0
 49
-0.05
 74
               0
  0
LTYPE
  5
28
100
AcDbSymbolTableRecord
100
AcDbLinetypeTableRecord
  2
STYLE_04
 70
               0
  3

 72
              65
 73
               4
 40
0.7999999999999998
 49
0.4999999999999999
 74
               0
 49
-0.1
 74
               0
 49
0.1
 74
               0
 49
-0.1
 74
               0
  0
LTYPE
  5
29
100
AcDbSymbolTableRecord
100
AcDbLinetypeTableRecord
  2
STYLE_05
 70
               0
  3

 72
              65
 73
               2
 40
0.025
 49
0.0005
 74
               0
 49
-0.0245
 74
               0
  0
LTYPE
  5
2A
100
AcDbSymbolTableRecord
100
AcDbLinetypeTableRecord
  2
STYLE_06
 70
               0
  3

 72
              65
 73
               4
 40
1.0416400000000001
 49
0.625
 74
               0
 49
-0.20828
 74
               0
 49
0.06943
 74
               0
 49
-0.13893
 74
               0
  0
LTYPE
  5
2B
100
AcDbSymbolTableRecord
100
AcDbLinetypeTableRecord
  2
STYLE_07
 70
               0
  3

 72
              65
 73
               6
 40
1.875
 49
0.625
 74
               0
 49
-0.20828
 74
               0
 49
0.6250000000000001
 74
               0
 49
-0.2083599999999999
 74
               0
 49
0.06943
 74
               0
 49
-0.1389299999999999
 74
               0
  0
LTYPE
  5
2C
100
AcDbSymbolTableRecord
100
AcDbLinetypeTableRecord
  2
STYLE_08
 70
               0
  3

 72
              65
 73
               6
 40
1.25
 49
0.625
 74
               0
 49
-0.20828
 74
               0
 49
0.06943
 74
               0
 49
-0.13893
 74
               0
 49
0.0694299999999999
 74
               0
 49
-0.13893
 74
               0
  0
LTYPE
  5
2D
100
AcDbSymbolTableRecord
100
AcDbLinetypeTableRecord
  2
STYLE_09
 70
               0
  3

 72
              65
 73
               4
 40
5.0
 49
3.75
 74
               0
 49
-0.2777849999999998
 74
               0
 49
0.6944300000000003
 74
               0
 49
-0.2777849999999998
 74
               0
  0
LTYPE
  5
2E
100
AcDbSymbolTableRecord
100
AcDbLinetypeTableRecord
  2
STYLE_10
 70
               0
  3

 72
              65
 73
               6
 40
5.9375
 49
3.75
 74
               0
 49
-0.2777849999999998
 74
               0
 49
0.6944300000000003
 74
               0
 49
-0.2777849999999998
 74
               0
 49
0.625
 74
               0
 49
-0.3125
 74
               0
  0
LTYPE
  5
2F
100
AcDbSymbolTableRecord
100
AcDbLinetypeTableRecord
  2
STYLE_11
 70
               0
  3

 72
              65
 73
               2
 40
0.1875
 49
0.125
 74
               0
 49
-0.0625
 74
               0
  0
ENDTAB
  0
TABLE
  2
LAYER
  5
2
100
AcDbSymbolTable
 70
               6
  0
LAYER
  5
14
100
AcDbSymbolTableRecord
100
AcDbLayerTableRecord
  2
0
 70
               0
 62
               7
  6
Continuous
290
               1
370
              15
390
1D
  0
LAYER
  5
30
100
AcDbSymbolTableRecord
100
AcDbLayerTableRecord
  2
Defpoints
 70
               0
 62
               7
  6
Continuous
290
               0
370
              -3
390
1D
  0
LAYER
  5
31
100
AcDbSymbolTableRecord
100
AcDbLayerTableRecord
  2
一般
 70
               0
 62
               7
  6
Continuous
290
               1
370
               5
390
1D
  0
LAYER
  5
32
100
AcDbSymbolTableRecord
100
AcDbLayerTableRecord
  2
寸法
 70
               0
 62
               7
  6
Continuous
290
               1
370
               5
390
1D
  0
LAYER
  5
33
100
AcDbSymbolTableRecord
100
AcDbLayerTableRecord
  2
レイヤー_1
 70
               0
 62
              19
  6
Continuous
290
               1
370
              15
390
1D
  0
LAYER
  5
34
100
AcDbSymbolTableRecord
100
AcDbLayerTableRecord
  2
FORMAT
 70
               0
 62
               7
  6
Continuous
290
               1
370
              15
390
1D
  0
ENDTAB
  0
TABLE
  2
STYLE
  5
3
100
AcDbSymbolTable
 70
               2
  0
STYLE
  5
17
100
AcDbSymbolTableRecord
100
AcDbTextStyleTableRecord
  2
Standard
 70
               0
 40
0.0
 41
1.0
 50
0.0
 71
               0
 42
0.0
  3
txt
  4
BIGFONT.SHX
  0
STYLE
  5
24
100
AcDbSymbolTableRecord
100
AcDbTextStyleTableRecord
  2
Arial
 70
               0
 40
0.0
 41
1.0
 50
0.0
 71
               0
 42
0.0
  3
Arial
  4

1001
ACAD
1000
Arial
1071
        0
  0
ENDTAB
  0
TABLE
  2
VIEW
  5
5
100
AcDbSymbolTable
 70
               0
  0
ENDTAB
  0
TABLE
  2
UCS
  5
6
100
AcDbSymbolTable
 70
               0
  0
ENDTAB
  0
TABLE
  2
APPID
  5
8
100
AcDbSymbolTable
 70
               1
  0
APPID
  5
16
100
AcDbSymbolTableRecord
100
AcDbRegAppTableRecord
  2
ACAD
 70
               0
  0
ENDTAB
  0
TABLE
  2
DIMSTYLE
  5
9
100
AcDbSymbolTable
 70
               1
100
AcDbDimStyleTable
 71
               0
  0
DIMSTYLE
105
18
100
AcDbSymbolTableRecord
100
AcDbDimStyleTableRecord
  2
Standard
 70
               0
  3

  4

 40
1.0
 41
0.18
 42
0.0625
 43
0.38
 44
0.18
 45
0.0
 46
0.0
 47
0.0
 48
0.0
 71
               0
 72
               0
 73
               1
 74
               1
 75
               0
 76
               0
 77
               0
 78
               0
 79
               0
140
0.18
141
0.09
142
0.0
143
25.399999999999999
144
1.0
145
0.0
146
1.0
147
0.09
148
0.0
170
               0
171
               2
172
               0
173
               0
174
               0
175
               0
176
               0
177
               0
178
               0
179
               0
271
               4
272
               4
273
               2
274
               2
275
               0
276
               0
277
               2
278
              46
279
               0
280
               0
281
               0
282
               0
283
               1
284
               0
285
               0
286
               0
288
               0
340
17
341
0
342
0
343
0
344
0
371
              -2
372
              -2
  0
ENDTAB
  0
TABLE
  2
BLOCK_RECORD
  5
1
100
AcDbSymbolTable
 70
               0
  0
BLOCK_RECORD
  5
A
100
AcDbSymbolTableRecord
100
AcDbBlockTableRecord
  2
*MODEL_SPACE
340
20
  0
BLOCK_RECORD
  5
B
100
AcDbSymbolTableRecord
100
AcDbBlockTableRecord
  2
*PAPER_SPACE
340
21
  0
ENDTAB
  0
ENDSEC
  0
SECTION
  2
BLOCKS
  0
BLOCK
  5
D
100
AcDbEntity
  8
0
100
AcDbBlockBegin
  2
*MODEL_SPACE
 70
               0
 10
0.0
 20
0.0
 30
0.0
  3
*MODEL_SPACE
  1

  0
ENDBLK
  5
E
100
AcDbEntity
  8
0
100
AcDbBlockEnd
  0
BLOCK
  5
F
100
AcDbEntity
 67
               1
  8
0
100
AcDbBlockBegin
  2
*PAPER_SPACE
 70
               0
 10
0.0
 20
0.0
 30
0.0
  3
*PAPER_SPACE
  1

  0
ENDBLK
  5
10
100
AcDbEntity
 67
               1
  8
0
100
AcDbBlockEnd
  0
ENDSEC
  0
SECTION
  2
ENTITIES
  0
MTEXT
  5
35
100
AcDbEntity
  8
0
 62
               7
100
AcDbMText
 10
261.04670212314932
 20
65.459043281508698
 30
0.0
 40
3.2756812689108266
 41
0.0
 71
               1
 72
               1
  1
HFD-D66P^I\PHFD-D66B^I\PHFD-D66E
  7
Arial
 73
               1
 44
0.9673603504928809
  0
SPLINE
  5
36
100
AcDbEntity
  8
0
370
              15
  6
Continuous
 62
               7
100
AcDbSpline
210
0.0
220
0.0
230
1.0
 70
               8
 71
               2
 72
              16
 73
              13
 74
               0
 42
0.000001
 43
0.000001
 40
0.0
 40
0.0
 40
0.0
 40
1.0
 40
1.0
 40
2.0
 40
3.0
 40
4.0
 40
5.0
 40
6.0
 40
7.0
 40
8.0
 40
8.0
 40
9.0
 40
9.0
 40
9.0
 10
201.50654948009722
 20
209.60088784169008
 30
0.0
 10
201.50526297600311
 20
209.60036635847547
 30
0.0
 10
201.50397647190903
 20
209.59984487526083
 30
0.0
 10
201.43386447722841
 20
209.57183861697837
 30
0.0
 10
201.16811289427832
 20
209.45583021903013
 30
0.0
 10
200.90306015589508
 20
209.27541158968464
 30
0.0
 10
200.78155569129979
 20
209.13999862077992
 30
0.0
 10
200.73029169014296
 20
209.06205823301781
 30
0.0
 10
200.68835463589278
 20
208.9758392245007
 30
0.0
 10
200.68364904896623
 20
208.89699668130245
 30
0.0
 10
200.68316108646331
 20
208.87655692302775
 30
0.0
 10
200.68314213759035
 20
208.87587594292259
 30
0.0
 10
200.68312318871739
 20
208.8751949628174
 30
0.0
  0
LINE
  5
37
100
AcDbEntity
  8
0
370
              15
  6
Continuous
 62
               7
100
AcDbLine
 10
200.6753074120771
 20
208.83715233959768
 30
0.0
 11
200.68306721835711
 21
208.55084932583765
 31
0.0
  0
SPLINE
  5
38
100
AcDbEntity
  8
0
370
              15
  6
Continuous
 62
               7
100
AcDbSpline
210
0.0
220
0.0
230
1.0
 70
               8
 71
               2
 72
              16
 73
              13
 74
               0
 42
0.000001
 43
0.000001
 40
0.0
 40
0.0
 40
0.0
 40
1.0
 40
1.0
 40
2.0
 40
3.0
 40
4.0
 40
5.0
 40
6.0
 40
7.0
 40
8.0
 40
8.0
 40
9.0
 40
9.0
 40
9.0
 10
200.6946636863828
 20
208.62324118761234
 30
0.0
 10
200.69455883285531
 20
208.62270828818808
 30
0.0
 10
200.69445397932782
 20
208.62217538876382
 30
0.0
 10
200.68712528041351
 20
208.58915450262629
 30
0.0
 10
200.68117712442762
 20
208.51826178020946
 30
0.0
 10
200.69692007001686
 20
208.44645373047589
 30
0.0
 10
200.73421423309514
 20
208.3534513470193
 30
0.0
 10
200.80137514549787
 20
208.25796749795475
 30
0.0
 10
200.86705422632201
 20
208.19428803862348
 30
0.0
 10
200.9245858432478
 20
208.14635184009506
 30
0.0
 10
200.95422359229167
 20
208.12264627413248
 30
0.0
 10
200.95520847434761
 20
208.12185517457237
 30
0.0
 10
200.95619335640353
 20
208.12106407501227
 30
0.0
  0
LINE
  5
39
100
AcDbEntity
  8
0
370
              15
  6
Continuous
 62
               7
100
AcDbLine
 10
200.89328353683709
 20
208.17662538531766
 30
0.0
 11
201.02525674779707
 21
203.30738938251764
 31
0.0
  0
SPLINE
  5
3A
100
AcDbEntity
  8
0
370
              15
  6
Continuous
 62
               7
100
AcDbSpline
210
0.0
220
0.0
230
1.0
 70
               8
 71
               2
 72
              14
 73
              11
 74
               0
 42
0.000001
 43
0.000001
 40
0.0
 40
0.0
 40
0.0
 40
1.0
 40
1.0
 40
2.0
 40
3.0
 40
4.0
 40
5.0
 40
6.0
 40
6.0
 40
7.0
 40
7.0
 40
7.0
 10
201.01758112586279
 20
203.59058660473158
 30
0.0
 10
201.01703717535361
 20
203.59006314278162
 30
0.0
 10
201.01649322484445
 20
203.58953968083168
 30
0.0
 10
200.98227135151228
 20
203.55723447012008
 30
0.0
 10
200.93167426186395
 20
203.503466479971
 30
0.0
 10
200.89493791049586
 20
203.45506172734423
 30
0.0
 10
200.85304172424756
 20
203.37826372359058
 30
0.0
 10
200.84063291116107
 20
203.29843002886389
 30
0.0
 10
200.83828900276225
 20
203.27044097866198
 30
0.0
 10
200.83824775680398
 20
203.26998998129409
 30
0.0
 10
200.83820651084574
 20
203.2695389839262
 30
0.0
  0
LINE
  5
3B
100
AcDbEntity
  8
0
370
              15
  6
Continuous
 62
               7
100
AcDbLine
 10
200.8279166269171
 20
203.20653777867767
 30
0.0
 11
200.83567639463706
 21
202.92023618699767
 31
0.0
  0
SPLINE
  5
3C
100
AcDbEntity
  8
0
370
              15
  6
Continuous
 62
               7
100
AcDbSpline
210
0.0
220
0.0
230
1.0
 70
               8
 71
               2
 72
              16
 73
              13
 74
               0
 42
0.000001
 43
0.000001
 40
0.0
 40
0.0
 40
0.0
 40
1.0
 40
1.0
 40
2.0
 40
3.0
 40
4.0
 40
5.0
 40
6.0
 40
7.0
 40
8.0
 40
8.0
 40
9.0
 40
9.0
 40
9.0
 10
200.84520262878976
 20
202.97911375762629
 30
0.0
 10
200.84511718680903
 20
202.97851721961644
 30
0.0
 10
200.84503174482833
 20
202.97792068160655
 30
0.0
 10
200.83876665901687
 20
202.94091314763548
 30
0.0
 10
200.83694735357616
 20
202.86560671522858
 30
0.0
 10
200.8568379704644
 20
202.79394572066124
 30
0.0
 10
200.89854558939922
 20
202.70215655138173
 30
0.0
 10
200.96933102396159
 20
202.60951025375982
 30
0.0
 10
201.03317052513432
 20
202.55192322691317
 30
0.0
 10
201.08491351951224
 20
202.51115088793819
 30
0.0
 10
201.11147859114416
 20
202.49097007187066
 30
0.0
 10
201.11236167276093
 20
202.49029666298884
 30
0.0
 10
201.11324475437766
 20
202.48962325410702
 30
0.0
  0
ARC
  5
3D
100
AcDbEntity
  8
0
370
              15
  6
Continuous
 62
               7
100
AcDbCircle
 10
207.3482520405571
 20
202.35241547555768
 30
0.0
 40
0.1000000000000222
100
AcDbArc
 50
256.88804076829348
 51
290.25029528890752
  0
LINE
  5
3E
100
AcDbEntity
  8
0
370
              15
  6
Continuous
 62
               7
100
AcDbLine
 10
207.09771191655707
 20
202.30809649035766
 30
0.0
 11
207.32556662999707
 21
202.25502290003766
 31
0.0
  0
LINE
  5
3F
100
AcDbEntity
  8
0
370
              15
  6
Continuous
 62
               7
100
AcDbLine
 10
207.3828643927171
 20
202.25859641627764
 30
0.0
 11
207.65761030091707
 21
202.35995714179765
 31
0.0
  0
SPLINE
  5
40
100
AcDbEntity
  8
0
370
              15
  6
Continuous
 62
               7
100
AcDbSpline
210
0.0
220
0.0
230
1.0
 70
               8
 71
               2
 72
              18
 73
              15
 74
               0
 42
0.000001
 43
0.000001
 40
0.0
 40
0.0
 40
0.0
 40
1.0
 40
1.0
 40
2.0
 40
3.0
 40
4.0
 40
5.0
 40
6.0
 40
7.0
 40
8.0
 40
9.0
 40
10.0
 40
10.0
 40
11.0
 40
11.0
 40
11.0
 10
206.8751293410736
 20
202.29939671972335
 30
0.0
 10
206.87524626231928
 20
202.29943261158985
 30
0.0
 10
206.87536318356496
 20
202.29946850345635
 30
0.0
 10
206.88160675415546
 20
202.30141407195154
 30
0.0
 10
206.89697364842175
 20
202.30583592328506
 30
0.0
 10
206.91937070610706
 20
202.31029334976077
 30
0.0
 10
206.95582731709544
 20
202.31533238447403
 30
0.0
 10
206.9982404894165
 20
202.31715723475639
 30
0.0
 10
207.03099013655699
 20
202.31665161472822
 30
0.0
 10
207.06020601184341
 20
202.31442120480176
 30
0.0
 10
207.08139490605151
 20
202.31145354837565
 30
0.0
 10
207.09334043842162
 20
202.30903759457755
 30
0.0
 10
207.09757471498014
 20
202.3081257959592
 30
0.0
 10
207.09764331576775
 20
202.30811114316626
 30
0.0
 10
207.09771191655534
 20
202.30809649037332
 30
0.0
  0
SPLINE
  5
41
100
AcDbEntity
  8
0
370
              15
  6
Continuous
 62
               7
100
AcDbSpline
210
0.0
220
0.0
230
1.0
 70
               8
 71
               2
 72
              17
 73
              14
 74
               0
 42
0.000001
 43
0.000001
 40
0.0
 40
0.0
 40
0.0
 40
1.0
 40
1.0
 40
2.0
 40
3.0
 40
4.0
 40
5.0
 40
6.0
 40
7.0
 40
8.0
 40
9.0
 40
9.0
 40
10.0
 40
10.0
 40
10.0
 10
201.51410448292108
 20
209.6043013537242
 30
0.0
 10
201.51410453514066
 20
209.60430139304955
 30
0.0
 10
201.51410458736026
 20
209.60430143237494
 30
0.0
 10
201.51443926308966
 20
209.60455214153055
 30
0.0
 10
201.51442023274174
 20
209.60458265466212
 30
0.0
 10
201.51394312839591
 20
209.60431459872891
 30
0.0
 10
201.51327101912739
 20
209.60393386204012
 30
0.0
 10
201.51196742445018
 20
209.60322815603803
 30
0.0
 10
201.51060204972759
 20
209.60256126575962
 30
0.0
 10
201.50910625686828
 20
209.60190529370095
 30
0.0
 10
201.50739032104764
 20
209.60121712801089
 30
0.0
 10
201.50656395229441
 20
209.60089352634469
 30
0.0
 10
201.50655671619583
 20
209.6008906840174
 30
0.0
 10
201.50654948009722
 20
209.60088784169008
 30
0.0
  0
ARC
  5
42
100
AcDbEntity
  8
0
370
              15
  6
Continuous
 62
               7
100
AcDbCircle
 10
201.29097097691709
 20
209.64288442531767
 30
0.0
 40
0.1000000000000134
100
AcDbArc
 50
110.25029528890749
 51
181.55253457640632
  0
LINE
  5
43
100
AcDbEntity
  8
0
370
              15
  6
Continuous
 62
               7
100
AcDbLine
 10
201.19100742819708
 20
209.64017560475764
 30
0.0
 11
201.19600807399709
 21
209.45567357915769
 31
0.0
  0
LINE
  5
44
100
AcDbEntity
  8
0
370
              15
  6
Continuous
 62
               7
100
AcDbLine
 10
204.3759367145571
 20
210.88759537359766
 30
0.0
 11
203.99848124723707
 21
210.74834248987764
 31
0.0
  0
LINE
  5
45
100
AcDbEntity
  8
0
370
              15
  6
Continuous
 62
               7
100
AcDbLine
 10
201.67873099091707
 20
209.89252785563764
 30
0.0
 11
201.25635883731709
 21
209.73670406851764
 31
0.0
  0
LINE
  5
46
100
AcDbEntity
  8
0
370
              15
  6
Continuous
 62
               7
100
AcDbLine
 10
198.3982805325571
 20
228.91977962923767
 30
0.0
 11
203.18736551155706
 21
52.223427151637665
 31
0.0
  0
LINE
  5
47
100
AcDbEntity
  8
0
370
              15
  6
Continuous
 62
               7
100
AcDbLine
 10
222.8789280432371
 20
53.131611354477641
 30
0.0
 11
218.08995405087705
 21
229.82386890951764
 31
0.0
  0
LINE
  5
48
100
AcDbEntity
  8
0
370
              15
  6
Continuous
 62
               7
100
AcDbLine
 10
198.97039641107708
 20
229.94362781039766
 30
0.0
 11
208.72298122603709
 21
227.67198425523765
 31
0.0
  0
ARC
  5
49
100
AcDbEntity
  8
0
370
              15
  6
Continuous
 62
               7
100
AcDbCircle
 10
208.85909423095708
 20
228.25634136511763
 30
0.0
 40
0.6000000000000243
100
AcDbArc
 50
256.88804076829996
 51
290.25029528890008
  0
LINE
  5
4A
100
AcDbEntity
  8
0
370
              15
  6
Continuous
 62
               7
100
AcDbLine
 10
209.06676780719707
 20
227.69342766383767
 30
0.0
 11
217.50393176055707
 21
230.80611117915765
 31
0.0
  0
LINE
  5
4B
100
AcDbEntity
  8
0
370
              15
  6
Continuous
 62
               7
100
AcDbLine
 10
217.09870011187706
 20
244.26438747047769
 30
0.0
 11
207.34611529687709
 21
246.53603102559765
 31
0.0
  0
ARC
  5
4C
100
AcDbEntity
  8
0
370
              15
  6
Continuous
 62
               7
100
AcDbCircle
 10
198.77283790915706
 20
242.83898968323768
 30
0.0
 40
0.6000000000000487
100
AcDbArc
 50
110.25029528889935
 51
181.55253457639787
  0
LINE
  5
4D
100
AcDbEntity
  8
0
370
              15
  6
Continuous
 62
               7
100
AcDbLine
 10
198.17305833867707
 20
242.82273350495763
 30
0.0
 11
198.5067293286771
 21
230.51172897683767
 31
0.0
  0
LINE
  5
4E
100
AcDbEntity
  8
0
370
              15
  6
Continuous
 62
               7
100
AcDbLine
 10
207.0023287217571
 20
246.51458739483769
 30
0.0
 11
198.5651647683971
 21
243.40190387947769
 31
0.0
  0
ARC
  5
4F
100
AcDbEntity
  8
0
370
              15
  6
Continuous
 62
               7
100
AcDbCircle
 10
216.96258763563708
 20
243.68002968771765
 30
0.0
 40
0.6000000000000099
100
AcDbArc
 50
1.5525345763980067
 51
76.888040768299717
  0
LINE
  5
50
100
AcDbEntity
  8
0
370
              15
  6
Continuous
 62
               7
100
AcDbLine
 10
217.89603820351707
 20
231.38528106487769
 30
0.0
 11
217.56236721351709
 21
243.69628559295762
 31
0.0
  0
ARC
  5
51
100
AcDbEntity
  8
0
370
              15
  6
Continuous
 62
               7
100
AcDbCircle
 10
199.10650890227706
 20
230.52798503991767
 30
0.0
 40
0.6000000000000099
100
AcDbArc
 50
181.55253457639802
 51
256.88804076829973
  0
ARC
  5
52
100
AcDbEntity
  8
0
370
              15
  6
Continuous
 62
               7
100
AcDbCircle
 10
217.29625862875707
 20
231.36902504443768
 30
0.0
 40
0.600000000000006
100
AcDbArc
 50
290.25029528890087
 51
1.5525345763980456
  0
ARC
  5
53
100
AcDbEntity
  8
0
370
              15
  6
Continuous
 62
               7
100
AcDbCircle
 10
207.21000230695708
 20
245.95167336251762
 30
0.0
 40
0.59999999999998
100
AcDbArc
 50
76.888040768298993
 51
110.25029528890201
  0
SPLINE
  5
54
100
AcDbEntity
  8
0
370
              15
  6
Continuous
 62
               7
100
AcDbSpline
210
0.0
220
0.0
230
1.0
 70
               8
 71
               2
 72
              16
 73
              13
 74
               0
 42
0.000001
 43
0.000001
 40
0.0
 40
0.0
 40
0.0
 40
1.0
 40
1.0
 40
2.0
 40
3.0
 40
4.0
 40
5.0
 40
6.0
 40
7.0
 40
8.0
 40
8.0
 40
9.0
 40
9.0
 40
9.0
 10
198.38689759380867
 20
229.55382649491241
 30
0.0
 10
198.38676634324668
 20
229.55375154836503
 30
0.0
 10
198.38663509268466
 20
229.55367660181764
 30
0.0
 10
198.37845249544483
 20
229.54906411647056
 30
0.0
 10
198.35758894899172
 20
229.53654492217305
 30
0.0
 10
198.3350859088581
 20
229.51538295099488
 30
0.0
 10
198.32134989833375
 20
229.49485502698965
 30
0.0
 10
198.31384126980456
 20
229.47806770806687
 30
0.0
 10
198.3112369572375
 20
229.46487917495756
 30
0.0
 10
198.30981509808478
 20
229.45254034445753
 30
0.0
 10
198.30933714990908
 20
229.4441736367487
 30
0.0
 10
198.30932849006905
 20
229.44403879164844
 30
0.0
 10
198.30931983022901
 20
229.44390394654823
 30
0.0
  0
LINE
  5
55
100
AcDbEntity
  8
0
370
              15
  6
Continuous
 62
               7
100
AcDbLine
 10
198.30921268687706
 20
229.44566455279767
 30
0.0
 11
198.31343553119709
 21
228.96660523295765
 31
0.0
  0
LINE
  5
56
100
AcDbEntity
  8
0
370
              15
  6
Continuous
 62
               7
100
AcDbLine
 10
199.25828294651708
 20
229.8765711411977
 30
0.0
 11
198.39683153939708
 21
229.55875989455765
 31
0.0
  0
SPLINE
  5
57
100
AcDbEntity
  8
0
370
              15
  6
Continuous
 62
               7
100
AcDbSpline
210
0.0
220
0.0
230
1.0
 70
               8
 71
               2
 72
              16
 73
              13
 74
               0
 42
0.000001
 43
0.000001
 40
0.0
 40
0.0
 40
0.0
 40
1.0
 40
1.0
 40
2.0
 40
3.0
 40
4.0
 40
5.0
 40
6.0
 40
7.0
 40
8.0
 40
8.0
 40
9.0
 40
9.0
 40
9.0
 10
218.15022047983587
 20
230.35722785467919
 30
0.0
 10
218.15019294231942
 20
230.35737245434598
 30
0.0
 10
218.15016540480295
 20
230.35751705401276
 30
0.0
 10
218.14856272807583
 20
230.36650126495454
 30
0.0
 10
218.14524364627323
 20
230.379661522785
 30
0.0
 10
218.1391926760426
 20
230.39692058326571
 30
0.0
 10
218.12421730594758
 20
230.41681218319584
 30
0.0
 10
218.10930568078379
 20
230.43165588047785
 30
0.0
 10
218.08718423965672
 20
230.4481798182502
 30
0.0
 10
218.06199354645321
 20
230.45976095293534
 30
0.0
 10
218.05241751123171
 20
230.46380496438621
 30
0.0
 10
218.0522635696687
 20
230.46387072380529
 30
0.0
 10
218.05210962810568
 20
230.46393648322436
 30
0.0
  0
LINE
  5
58
100
AcDbEntity
  8
0
370
              15
  6
Continuous
 62
               7
100
AcDbLine
 10
218.17208519263707
 20
229.87715955759768
 30
0.0
 11
218.15035288131708
 21
230.35574438335766
 31
0.0
  0
LINE
  5
59
100
AcDbEntity
  8
0
370
              15
  6
Continuous
 62
               7
100
AcDbLine
 10
218.04160871535709
 20
230.46800064559764
 30
0.0
 11
217.1502387759171
 21
230.67562506687767
 31
0.0
  0
ARC
  5
5A
100
AcDbEntity
  8
0
370
              15
  6
Continuous
 62
               7
100
AcDbCircle
 10
206.84146522507706
 20
207.86109375843765
 30
0.0
 40
0.5686971462776157
100
AcDbArc
 50
78.232895532201169
 51
106.58661527459995
  0
POLYLINE
  5
5B
100
AcDbEntity
  8
0
370
              15
  6
Continuous
 62
               7
100
AcDb2dPolyline
 66
               1
 10
0.0
 20
0.0
 30
0.0
 75
               5
  0
VERTEX
  5
5C
100
AcDbEntity
  8
0
370
              15
  6
Continuous
 62
               7
100
AcDbVertex
100
AcDb2dVertex
 10
200.8821895481571
 20
208.69118320411764
 30
0.0
  0
VERTEX
  5
5D
100
AcDbEntity
  8
0
370
              15
  6
Continuous
 62
               7
100
AcDbVertex
100
AcDb2dVertex
 10
200.97084451371711
 20
208.60770915031765
 30
0.0
  0
VERTEX
  5
5E
100
AcDbEntity
  8
0
370
              15
  6
Continuous
 62
               7
100
AcDbVertex
100
AcDb2dVertex
 10
201.17283521419708
 20
208.47680887783764
 30
0.0
  0
VERTEX
  5
5F
100
AcDbEntity
  8
0
370
              15
  6
Continuous
 62
               7
100
AcDbVertex
100
AcDb2dVertex
 10
201.43946594019707
 20
208.35777791571766
 30
0.0
  0
VERTEX
  5
60
100
AcDbEntity
  8
0
370
              15
  6
Continuous
 62
               7
100
AcDbVertex
100
AcDb2dVertex
 10
201.76498857319712
 20
208.25318196123766
 30
0.0
  0
VERTEX
  5
61
100
AcDbEntity
  8
0
370
              15
  6
Continuous
 62
               7
100
AcDbVertex
100
AcDb2dVertex
 10
202.14238600327707
 20
208.16527578499765
 30
0.0
  0
VERTEX
  5
62
100
AcDbEntity
  8
0
370
              15
  6
Continuous
 62
               7
100
AcDbVertex
100
AcDb2dVertex
 10
202.56352285543707
 20
208.09595433811768
 30
0.0
  0
VERTEX
  5
63
100
AcDbEntity
  8
0
370
              15
  6
Continuous
 62
               7
100
AcDbVertex
100
AcDb2dVertex
 10
203.01932073839706
 20
208.04671193223766
 30
0.0
  0
VERTEX
  5
64
100
AcDbEntity
  8
0
370
              15
  6
Continuous
 62
               7
100
AcDbVertex
100
AcDb2dVertex
 10
203.49995477703709
 20
208.01861024587768
 30
0.0
  0
VERTEX
  5
65
100
AcDbEntity
  8
0
370
              15
  6
Continuous
 62
               7
100
AcDbVertex
100
AcDb2dVertex
 10
203.99506323539708
 20
208.01225471999766
 30
0.0
  0
VERTEX
  5
66
100
AcDbEntity
  8
0
370
              15
  6
Continuous
 62
               7
100
AcDbVertex
100
AcDb2dVertex
 10
204.4939733962371
 20
208.02778241735766
 30
0.0
  0
VERTEX
  5
67
100
AcDbEntity
  8
0
370
              15
  6
Continuous
 62
               7
100
AcDbVertex
100
AcDb2dVertex
 10
204.9859312297171
 20
208.06485897139765
 30
0.0
  0
VERTEX
  5
68
100
AcDbEntity
  8
0
370
              15
  6
Continuous
 62
               7
100
AcDbVertex
100
AcDb2dVertex
 10
205.46033092463708
 20
208.12268465827768
 30
0.0
  0
VERTEX
  5
69
100
AcDbEntity
  8
0
370
              15
  6
Continuous
 62
               7
100
AcDbVertex
100
AcDb2dVertex
 10
205.9069469099571
 20
208.20001338047766
 30
0.0
  0
VERTEX
  5
6A
100
AcDbEntity
  8
0
370
              15
  6
Continuous
 62
               7
100
AcDbVertex
100
AcDb2dVertex
 10
206.31615103411707
 20
208.29517804003765
 30
0.0
  0
VERTEX
  5
6B
100
AcDbEntity
  8
0
370
              15
  6
Continuous
 62
               7
100
AcDbVertex
100
AcDb2dVertex
 10
206.67912238527708
 20
208.40612701111766
 30
0.0
  0
SEQEND
  5
6C
100
AcDbEntity
  8
0
370
              15
  6
Continuous
 62
               7
  0
POLYLINE
  5
6D
100
AcDbEntity
  8
0
370
              15
  6
Continuous
 62
               7
100
AcDb2dPolyline
 66
               1
 10
0.0
 20
0.0
 30
0.0
 75
               5
  0
VERTEX
  5
6E
100
AcDbEntity
  8
0
370
              15
  6
Continuous
 62
               7
100
AcDbVertex
100
AcDb2dVertex
 10
201.54020826639706
 20
209.60312056307765
 30
0.0
  0
VERTEX
  5
6F
100
AcDbEntity
  8
0
370
              15
  6
Continuous
 62
               7
100
AcDbVertex
100
AcDb2dVertex
 10
201.56159706255707
 20
209.61318278011765
 30
0.0
  0
VERTEX
  5
70
100
AcDbEntity
  8
0
370
              15
  6
Continuous
 62
               7
100
AcDbVertex
100
AcDb2dVertex
 10
201.57645286863706
 20
209.62412793835767
 30
0.0
  0
VERTEX
  5
71
100
AcDbEntity
  8
0
370
              15
  6
Continuous
 62
               7
100
AcDbVertex
100
AcDb2dVertex
 10
201.58422417395707
 20
209.63554984459768
 30
0.0
  0
VERTEX
  5
72
100
AcDbEntity
  8
0
370
              15
  6
Continuous
 62
               7
100
AcDbVertex
100
AcDb2dVertex
 10
201.58462294963709
 20
209.64702492595762
 30
0.0
  0
VERTEX
  5
73
100
AcDbEntity
  8
0
370
              15
  6
Continuous
 62
               7
100
AcDbVertex
100
AcDb2dVertex
 10
201.57763437779707
 20
209.65812785391765
 30
0.0
  0
VERTEX
  5
74
100
AcDbEntity
  8
0
370
              15
  6
Continuous
 62
               7
100
AcDbVertex
100
AcDb2dVertex
 10
201.56351768887706
 20
209.66844660015767
 30
0.0
  0
VERTEX
  5
75
100
AcDbEntity
  8
0
370
              15
  6
Continuous
 62
               7
100
AcDbVertex
100
AcDb2dVertex
 10
201.54279639447708
 20
209.67759849579767
 30
0.0
  0
VERTEX
  5
76
100
AcDbEntity
  8
0
370
              15
  6
Continuous
 62
               7
100
AcDbVertex
100
AcDb2dVertex
 10
201.5162391639571
 20
209.68524436411764
 30
0.0
  0
SEQEND
  5
77
100
AcDbEntity
  8
0
370
              15
  6
Continuous
 62
               7
  0
LINE
  5
78
100
AcDbEntity
  8
0
370
              15
  6
Continuous
 62
               7
100
AcDbLine
 10
201.28838445047708
 20
209.73831795447765
 30
0.0
 11
201.5162391639571
 21
209.68524436411764
 31
0.0
  0
LINE
  5
79
100
AcDbEntity
  8
0
370
              15
  6
Continuous
 62
               7
100
AcDbLine
 10
206.95744191791709
 20
208.41783952707766
 30
0.0
 11
207.18529663135709
 21
208.36476593671767
 31
0.0
  0
LINE
  5
7A
100
AcDbEntity
  8
0
370
              15
  6
Continuous
 62
               7
100
AcDbLine
 10
200.6753074120771
 20
208.83715233959768
 30
0.0
 11
200.67592266659707
 21
208.86683973855767
 31
0.0
  0
LINE
  5
7B
100
AcDbEntity
  8
0
370
              15
  6
Continuous
 62
               7
100
AcDbLine
 10
201.50518177443709
 20
209.60033325427764
 30
0.0
 11
201.50658487555711
 21
209.60090108691764
 31
0.0
  0
ARC
  5
7C
100
AcDbEntity
  8
0
370
              15
  6
Continuous
 62
               7
100
AcDbCircle
 10
206.63564106915709
 20
208.29445257835766
 30
0.0
 40
0.1198407434332983
100
AcDbArc
 50
359.02867184800488
 51
68.726158882093614
  0
LINE
  5
7D
100
AcDbEntity
  8
0
370
              15
  6
Continuous
 62
               7
100
AcDbLine
 10
206.76322439815706
 20
208.00611801683766
 30
0.0
 11
206.75546459187706
 21
208.29242103059767
 31
0.0
  0
POLYLINE
  5
7E
100
AcDbEntity
  8
0
370
              15
  6
Continuous
 62
               7
100
AcDb2dPolyline
 66
               1
 10
0.0
 20
0.0
 30
0.0
 75
               5
  0
VERTEX
  5
7F
100
AcDbEntity
  8
0
370
              15
  6
Continuous
 62
               7
100
AcDbVertex
100
AcDb2dVertex
 10
206.68830129767707
 20
207.92764415419768
 30
0.0
  0
VERTEX
  5
80
100
AcDbEntity
  8
0
370
              15
  6
Continuous
 62
               7
100
AcDbVertex
100
AcDb2dVertex
 10
206.32518186895709
 20
207.81696752707765
 30
0.0
  0
VERTEX
  5
81
100
AcDbEntity
  8
0
370
              15
  6
Continuous
 62
               7
100
AcDbVertex
100
AcDb2dVertex
 10
205.91601107987708
 20
207.72206433679764
 30
0.0
  0
VERTEX
  5
82
100
AcDbEntity
  8
0
370
              15
  6
Continuous
 62
               7
100
AcDbVertex
100
AcDb2dVertex
 10
205.46959103411709
 20
207.64497621927765
 30
0.0
  0
VERTEX
  5
83
100
AcDbEntity
  8
0
370
              15
  6
Continuous
 62
               7
100
AcDbVertex
100
AcDb2dVertex
 10
204.99552446747705
 20
207.58736123503766
 30
0.0
  0
VERTEX
  5
84
100
AcDbEntity
  8
0
370
              15
  6
Continuous
 62
               7
100
AcDbVertex
100
AcDb2dVertex
 10
204.5040091082771
 20
207.55045876923765
 30
0.0
  0
VERTEX
  5
85
100
AcDbEntity
  8
0
370
              15
  6
Continuous
 62
               7
100
AcDbVertex
100
AcDb2dVertex
 10
204.00561807203707
 20
207.53506267031764
 30
0.0
  0
VERTEX
  5
86
100
AcDbEntity
  8
0
370
              15
  6
Continuous
 62
               7
100
AcDbVertex
100
AcDb2dVertex
 10
203.51107229083709
 20
207.54150416283767
 30
0.0
  0
VERTEX
  5
87
100
AcDbEntity
  8
0
370
              15
  6
Continuous
 62
               7
100
AcDbVertex
100
AcDb2dVertex
 10
203.03100960179708
 20
207.56964463019764
 30
0.0
  0
VERTEX
  5
88
100
AcDbEntity
  8
0
370
              15
  6
Continuous
 62
               7
100
AcDbVertex
100
AcDb2dVertex
 10
202.5757565511571
 20
207.61887861611766
 30
0.0
  0
VERTEX
  5
89
100
AcDbEntity
  8
0
370
              15
  6
Continuous
 62
               7
100
AcDbVertex
100
AcDb2dVertex
 10
202.15510676535709
 20
207.68814732155766
 30
0.0
  0
VERTEX
  5
8A
100
AcDbEntity
  8
0
370
              15
  6
Continuous
 62
               7
100
AcDbVertex
100
AcDb2dVertex
 10
201.77810841531709
 20
207.77596054115767
 30
0.0
  0
VERTEX
  5
8B
100
AcDbEntity
  8
0
370
              15
  6
Continuous
 62
               7
100
AcDbVertex
100
AcDb2dVertex
 10
201.45287110623707
 20
207.88042932627766
 30
0.0
  0
VERTEX
  5
8C
100
AcDbEntity
  8
0
370
              15
  6
Continuous
 62
               7
100
AcDbVertex
100
AcDb2dVertex
 10
201.18639147371709
 20
207.99930660819766
 30
0.0
  0
VERTEX
  5
8D
100
AcDbEntity
  8
0
370
              15
  6
Continuous
 62
               7
100
AcDbVertex
100
AcDb2dVertex
 10
201.03636212767708
 20
208.09084856507764
 30
0.0
  0
SEQEND
  5
8E
100
AcDbEntity
  8
0
370
              15
  6
Continuous
 62
               7
  0
SPLINE
  5
8F
100
AcDbEntity
  8
0
370
              15
  6
Continuous
 62
               7
100
AcDbSpline
210
0.0
220
0.0
230
1.0
 70
               8
 71
               2
 72
              15
 73
              12
 74
               0
 42
0.000001
 43
0.000001
 40
0.0
 40
0.0
 40
0.0
 40
1.0
 40
1.0
 40
2.0
 40
3.0
 40
4.0
 40
5.0
 40
6.0
 40
7.0
 40
7.0
 40
8.0
 40
8.0
 40
8.0
 10
206.68830129769361
 20
207.9276441542151
 30
0.0
 10
206.68834468991639
 20
207.92763675284772
 30
0.0
 10
206.68838808213917
 20
207.92762935148036
 30
0.0
 10
206.69230272519792
 20
207.92692197586769
 30
0.0
 10
206.69882543730427
 20
207.92611887167297
 30
0.0
 10
206.70424979085982
 20
207.92604356750073
 30
0.0
 10
206.70918315562065
 20
207.92686189015359
 30
0.0
 10
206.71364314635929
 20
207.92819732961692
 30
0.0
 10
206.71748439890075
 20
207.92963623166872
 30
0.0
 10
206.7191932897025
 20
207.93030488795168
 30
0.0
 10
206.71922748064435
 20
207.93031820312254
 30
0.0
 10
206.71926167158617
 20
207.93033151829337
 30
0.0
  0
SPLINE
  5
90
100
AcDbEntity
  8
0
370
              15
  6
Continuous
 62
               7
100
AcDbSpline
210
0.0
220
0.0
230
1.0
 70
               8
 71
               2
 72
              14
 73
              11
 74
               0
 42
0.000001
 43
0.000001
 40
0.0
 40
0.0
 40
0.0
 40
1.0
 40
1.0
 40
2.0
 40
3.0
 40
4.0
 40
5.0
 40
6.0
 40
6.0
 40
7.0
 40
7.0
 40
7.0
 10
206.6818030033287
 20
207.87368981416896
 30
0.0
 10
206.68179624679257
 20
207.87378115151287
 30
0.0
 10
206.68178949025645
 20
207.87387248885676
 30
0.0
 10
206.68141738250122
 20
207.8791875607439
 30
0.0
 10
206.68041567984199
 20
207.8899789991022
 30
0.0
 10
206.67816162155509
 20
207.90235380805342
 30
0.0
 10
206.67441971333068
 20
207.91087797762177
 30
0.0
 10
206.67183987296502
 20
207.91575317483492
 30
0.0
 10
206.67050217489967
 20
207.91814846994674
 30
0.0
 10
206.67048069689335
 20
207.91818719030542
 30
0.0
 10
206.670459218887
 20
207.91822591066409
 30
0.0
  0
LINE
  5
91
100
AcDbEntity
  8
0
370
              15
  6
Continuous
 62
               7
100
AcDbLine
 10
206.6818030033171
 20
207.87368981415764
 30
0.0
 11
206.81630600355709
 21
202.91111561871764
 31
0.0
  0
SPLINE
  5
92
100
AcDbEntity
  8
0
370
              15
  6
Continuous
 62
               7
100
AcDbSpline
210
0.0
220
0.0
230
1.0
 70
               8
 71
               2
 72
              16
 73
              13
 74
               0
 42
0.000001
 43
0.000001
 40
0.0
 40
0.0
 40
0.0
 40
1.0
 40
1.0
 40
2.0
 40
3.0
 40
4.0
 40
5.0
 40
6.0
 40
7.0
 40
8.0
 40
8.0
 40
9.0
 40
9.0
 40
9.0
 10
206.75234243592871
 20
202.79181734394572
 30
0.0
 10
206.75243380534056
 20
202.79186223822606
 30
0.0
 10
206.75252517475241
 20
202.7919071325064
 30
0.0
 10
206.76117924817754
 20
202.79582406963343
 30
0.0
 10
206.77669433007344
 20
202.80612889246925
 30
0.0
 10
206.78836181389022
 20
202.81946505295011
 30
0.0
 10
206.80167425176185
 20
202.83998510952898
 30
0.0
 10
206.81044120730948
 20
202.86450642719117
 30
0.0
 10
206.81557799380687
 20
202.8867789270285
 30
0.0
 10
206.81622157710953
 20
202.90557210945582
 30
0.0
 10
206.81630293075594
 20
202.91094233133143
 30
0.0
 10
206.81630446715315
 20
202.91102897503043
 30
0.0
 10
206.81630600355038
 20
202.91111561872941
 30
0.0
  0
POLYLINE
  5
93
100
AcDbEntity
  8
0
370
              15
  6
Continuous
 62
               7
100
AcDb2dPolyline
 66
               1
 10
0.0
 20
0.0
 30
0.0
 75
               5
  0
VERTEX
  5
94
100
AcDbEntity
  8
0
370
              15
  6
Continuous
 62
               7
100
AcDbVertex
100
AcDb2dVertex
 10
201.02525674779707
 20
203.30738938251764
 30
0.0
  0
VERTEX
  5
95
100
AcDbEntity
  8
0
370
              15
  6
Continuous
 62
               7
100
AcDbVertex
100
AcDb2dVertex
 10
201.02938264635708
 20
203.26566169747764
 30
0.0
  0
VERTEX
  5
96
100
AcDbEntity
  8
0
370
              15
  6
Continuous
 62
               7
100
AcDbVertex
100
AcDb2dVertex
 10
201.0892013703571
 20
203.12424425743762
 30
0.0
  0
VERTEX
  5
97
100
AcDbEntity
  8
0
370
              15
  6
Continuous
 62
               7
100
AcDbVertex
100
AcDb2dVertex
 10
201.21852432127707
 20
202.98868289075764
 30
0.0
  0
VERTEX
  5
98
100
AcDbEntity
  8
0
370
              15
  6
Continuous
 62
               7
100
AcDbVertex
100
AcDb2dVertex
 10
201.41457366719709
 20
202.86189053599767
 30
0.0
  0
VERTEX
  5
99
100
AcDbEntity
  8
0
370
              15
  6
Continuous
 62
               7
100
AcDbVertex
100
AcDb2dVertex
 10
201.67313572415708
 20
202.74659107047768
 30
0.0
  0
VERTEX
  5
9A
100
AcDbEntity
  8
0
370
              15
  6
Continuous
 62
               7
100
AcDbVertex
100
AcDb2dVertex
 10
201.98865616047709
 20
202.64526223391766
 30
0.0
  0
VERTEX
  5
9B
100
AcDbEntity
  8
0
370
              15
  6
Continuous
 62
               7
100
AcDbVertex
100
AcDb2dVertex
 10
202.35435504607707
 20
202.56008096839767
 30
0.0
  0
VERTEX
  5
9C
100
AcDbEntity
  8
0
370
              15
  6
Continuous
 62
               7
100
AcDbVertex
100
AcDb2dVertex
 10
202.7623748763171
 20
202.49287750151763
 30
0.0
  0
VERTEX
  5
9D
100
AcDbEntity
  8
0
370
              15
  6
Continuous
 62
               7
100
AcDbVertex
100
AcDb2dVertex
 10
203.2039494840771
 20
202.44509600211765
 30
0.0
  0
VERTEX
  5
9E
100
AcDbEntity
  8
0
370
              15
  6
Continuous
 62
               7
100
AcDbVertex
100
AcDb2dVertex
 10
203.66959007279709
 20
202.41776268615766
 30
0.0
  0
VERTEX
  5
9F
100
AcDbEntity
  8
0
370
              15
  6
Continuous
 62
               7
100
AcDbVertex
100
AcDb2dVertex
 10
204.14929285315711
 20
202.41146531451767
 30
0.0
  0
VERTEX
  5
A0
100
AcDbEntity
  8
0
370
              15
  6
Continuous
 62
               7
100
AcDbVertex
100
AcDb2dVertex
 10
204.63275022491706
 20
202.42633890335767
 30
0.0
  0
VERTEX
  5
A1
100
AcDbEntity
  8
0
370
              15
  6
Continuous
 62
               7
100
AcDbVertex
100
AcDb2dVertex
 10
205.10957477751708
 20
202.46206399327764
 30
0.0
  0
VERTEX
  5
A2
100
AcDbEntity
  8
0
370
              15
  6
Continuous
 62
               7
100
AcDbVertex
100
AcDb2dVertex
 10
205.5695213857571
 20
202.51787298691767
 30
0.0
  0
VERTEX
  5
A3
100
AcDbEntity
  8
0
370
              15
  6
Continuous
 62
               7
100
AcDbVertex
100
AcDb2dVertex
 10
206.00270736199707
 20
202.59256661823767
 30
0.0
  0
VERTEX
  5
A4
100
AcDbEntity
  8
0
370
              15
  6
Continuous
 62
               7
100
AcDbVertex
100
AcDb2dVertex
 10
206.39982492351709
 20
202.68454012975764
 30
0.0
  0
VERTEX
  5
A5
100
AcDbEntity
  8
0
370
              15
  6
Continuous
 62
               7
100
AcDbVertex
100
AcDb2dVertex
 10
206.75234243591706
 20
202.79181734395769
 30
0.0
  0
SEQEND
  5
A6
100
AcDbEntity
  8
0
370
              15
  6
Continuous
 62
               7
  0
LINE
  5
A7
100
AcDbEntity
  8
0
370
              15
  6
Continuous
 62
               7
100
AcDbLine
 10
200.8279166269171
 20
203.20653777867767
 30
0.0
 11
200.83049113515708
 21
203.25584228551767
 31
0.0
  0
POLYLINE
  5
A8
100
AcDbEntity
  8
0
370
              15
  6
Continuous
 62
               7
100
AcDb2dPolyline
 66
               1
 10
0.0
 20
0.0
 30
0.0
 75
               5
  0
VERTEX
  5
A9
100
AcDbEntity
  8
0
370
              15
  6
Continuous
 62
               7
100
AcDbVertex
100
AcDb2dVertex
 10
201.03777391679708
 20
203.05726278903765
 30
0.0
  0
VERTEX
  5
AA
100
AcDbEntity
  8
0
370
              15
  6
Continuous
 62
               7
100
AcDbVertex
100
AcDb2dVertex
 10
201.1240772494771
 20
202.97659066903765
 30
0.0
  0
VERTEX
  5
AB
100
AcDbEntity
  8
0
370
              15
  6
Continuous
 62
               7
100
AcDbVertex
100
AcDb2dVertex
 10
201.32606771663708
 20
202.84586231483766
 30
0.0
  0
VERTEX
  5
AC
100
AcDbEntity
  8
0
370
              15
  6
Continuous
 62
               7
100
AcDbVertex
100
AcDb2dVertex
 10
201.59254734919708
 20
202.72698503291764
 30
0.0
  0
VERTEX
  5
AD
100
AcDbEntity
  8
0
370
              15
  6
Continuous
 62
               7
100
AcDbVertex
100
AcDb2dVertex
 10
201.91778465823708
 20
202.62251624779768
 30
0.0
  0
VERTEX
  5
AE
100
AcDbEntity
  8
0
370
              15
  6
Continuous
 62
               7
100
AcDbVertex
100
AcDb2dVertex
 10
202.29478300827708
 20
202.53470302819767
 30
0.0
  0
VERTEX
  5
AF
100
AcDbEntity
  8
0
370
              15
  6
Continuous
 62
               7
100
AcDbVertex
100
AcDb2dVertex
 10
202.71543279407709
 20
202.46543432275763
 30
0.0
  0
VERTEX
  5
B0
100
AcDbEntity
  8
0
370
              15
  6
Continuous
 62
               7
100
AcDbVertex
100
AcDb2dVertex
 10
203.17068584471707
 20
202.41620033683765
 30
0.0
  0
VERTEX
  5
B1
100
AcDbEntity
  8
0
370
              15
  6
Continuous
 62
               7
100
AcDbVertex
100
AcDb2dVertex
 10
203.6507485337971
 20
202.38805986947767
 30
0.0
  0
VERTEX
  5
B2
100
AcDbEntity
  8
0
370
              15
  6
Continuous
 62
               7
100
AcDbVertex
100
AcDb2dVertex
 10
204.14529431495706
 20
202.38161837695765
 30
0.0
  0
VERTEX
  5
B3
100
AcDbEntity
  8
0
370
              15
  6
Continuous
 62
               7
100
AcDbVertex
100
AcDb2dVertex
 10
204.64368535119709
 20
202.39701447587765
 30
0.0
  0
VERTEX
  5
B4
100
AcDbEntity
  8
0
370
              15
  6
Continuous
 62
               7
100
AcDbVertex
100
AcDb2dVertex
 10
205.13520071043706
 20
202.43391694167764
 30
0.0
  0
VERTEX
  5
B5
100
AcDbEntity
  8
0
370
              15
  6
Continuous
 62
               7
100
AcDbVertex
100
AcDb2dVertex
 10
205.60926727703708
 20
202.49153192587767
 30
0.0
  0
VERTEX
  5
B6
100
AcDbEntity
  8
0
370
              15
  6
Continuous
 62
               7
100
AcDbVertex
100
AcDb2dVertex
 10
206.05568732283709
 20
202.56862004343765
 30
0.0
  0
VERTEX
  5
B7
100
AcDbEntity
  8
0
370
              15
  6
Continuous
 62
               7
100
AcDbVertex
100
AcDb2dVertex
 10
206.46485811187708
 20
202.66352323371763
 30
0.0
  0
VERTEX
  5
B8
100
AcDbEntity
  8
0
370
              15
  6
Continuous
 62
               7
100
AcDbVertex
100
AcDb2dVertex
 10
206.82797754063708
 20
202.77419986083765
 30
0.0
  0
SEQEND
  5
B9
100
AcDbEntity
  8
0
370
              15
  6
Continuous
 62
               7
  0
SPLINE
  5
BA
100
AcDbEntity
  8
0
370
              15
  6
Continuous
 62
               7
100
AcDbSpline
210
0.0
220
0.0
230
1.0
 70
               8
 71
               2
 72
              17
 73
              14
 74
               0
 42
0.000001
 43
0.000001
 40
0.0
 40
0.0
 40
0.0
 40
1.0
 40
1.0
 40
2.0
 40
3.0
 40
4.0
 40
5.0
 40
6.0
 40
7.0
 40
8.0
 40
9.0
 40
9.0
 40
10.0
 40
10.0
 40
10.0
 10
206.90807380671376
 20
202.66180646968212
 30
0.0
 10
206.90806697803225
 20
202.66189241906059
 30
0.0
 10
206.90806014935072
 20
202.66197836843907
 30
0.0
 10
206.90766076316868
 20
202.66730711150086
 30
0.0
 10
206.9059605782148
 20
202.68491927042916
 30
0.0
 10
206.89937542720449
 20
202.70557552376502
 30
0.0
 10
206.88814227516636
 20
202.72934932303653
 30
0.0
 10
206.87194047894522
 20
202.7487612411922
 30
0.0
 10
206.85719974197241
 20
202.76192419001273
 30
0.0
 10
206.84440475317268
 20
202.76815643565953
 30
0.0
 10
206.83476511115549
 20
202.77195765140647
 30
0.0
 10
206.82818934726882
 20
202.77412829151302
 30
0.0
 10
206.82808344395153
 20
202.77416407618
 30
0.0
 10
206.82797754063427
 20
202.77419986084698
 30
0.0
  0
LINE
  5
BB
100
AcDbEntity
  8
0
370
              15
  6
Continuous
 62
               7
100
AcDbLine
 10
206.9158335744371
 20
202.37550487799766
 30
0.0
 11
206.90807380671708
 21
202.66180646967766
 31
0.0
  0
ARC
  5
BC
100
AcDbEntity
  8
0
370
              15
  6
Continuous
 62
               7
100
AcDbCircle
 10
206.85817156975708
 20
202.34883945923764
 30
0.0
 40
0.0522724968751139
100
AcDbArc
 50
255.02509945087789
 51
288.55664181877955
  0
POLYLINE
  5
BD
100
AcDbEntity
  8
0
370
              15
  6
Continuous
 62
               7
100
AcDb2dPolyline
 66
               1
 10
0.0
 20
0.0
 30
0.0
 75
               5
  0
VERTEX
  5
BE
100
AcDbEntity
  8
0
370
              15
  6
Continuous
 62
               7
100
AcDbVertex
100
AcDb2dVertex
 10
206.8446645719971
 20
202.29834218267769
 30
0.0
  0
VERTEX
  5
BF
100
AcDbEntity
  8
0
370
              15
  6
Continuous
 62
               7
100
AcDbVertex
100
AcDb2dVertex
 10
206.48169322083709
 20
202.18739321159768
 30
0.0
  0
VERTEX
  5
C0
100
AcDbEntity
  8
0
370
              15
  6
Continuous
 62
               7
100
AcDbVertex
100
AcDb2dVertex
 10
206.07248909667709
 20
202.09222855203762
 30
0.0
  0
VERTEX
  5
C1
100
AcDbEntity
  8
0
370
              15
  6
Continuous
 62
               7
100
AcDbVertex
100
AcDb2dVertex
 10
205.62587311139708
 20
202.01489982979768
 30
0.0
  0
VERTEX
  5
C2
100
AcDbEntity
  8
0
370
              15
  6
Continuous
 62
               7
100
AcDbVertex
100
AcDb2dVertex
 10
205.15147341643709
 20
201.95707414291766
 30
0.0
  0
VERTEX
  5
C3
100
AcDbEntity
  8
0
370
              15
  6
Continuous
 62
               7
100
AcDbVertex
100
AcDb2dVertex
 10
204.65951558295708
 20
201.91999758891762
 30
0.0
  0
VERTEX
  5
C4
100
AcDbEntity
  8
0
370
              15
  6
Continuous
 62
               7
100
AcDbVertex
100
AcDb2dVertex
 10
204.16060542215709
 20
201.90446989151766
 30
0.0
  0
VERTEX
  5
C5
100
AcDbEntity
  8
0
370
              15
  6
Continuous
 62
               7
100
AcDbVertex
100
AcDb2dVertex
 10
203.6654969637971
 20
201.91082541743765
 30
0.0
  0
VERTEX
  5
C6
100
AcDbEntity
  8
0
370
              15
  6
Continuous
 62
               7
100
AcDbVertex
100
AcDb2dVertex
 10
203.1848629251171
 20
201.93892710375763
 30
0.0
  0
VERTEX
  5
C7
100
AcDbEntity
  8
0
370
              15
  6
Continuous
 62
               7
100
AcDbVertex
100
AcDb2dVertex
 10
202.72906504219708
 20
201.98816950963766
 30
0.0
  0
VERTEX
  5
C8
100
AcDbEntity
  8
0
370
              15
  6
Continuous
 62
               7
100
AcDbVertex
100
AcDb2dVertex
 10
202.30792819003707
 20
202.05749095651765
 30
0.0
  0
VERTEX
  5
C9
100
AcDbEntity
  8
0
370
              15
  6
Continuous
 62
               7
100
AcDbVertex
100
AcDb2dVertex
 10
201.93053075995707
 20
202.14539713279765
 30
0.0
  0
VERTEX
  5
CA
100
AcDbEntity
  8
0
370
              15
  6
Continuous
 62
               7
100
AcDbVertex
100
AcDb2dVertex
 10
201.60500812695707
 20
202.24999308723767
 30
0.0
  0
VERTEX
  5
CB
100
AcDbEntity
  8
0
370
              15
  6
Continuous
 62
               7
100
AcDbVertex
100
AcDb2dVertex
 10
201.33837740095709
 20
202.36902404939767
 30
0.0
  0
VERTEX
  5
CC
100
AcDbEntity
  8
0
370
              15
  6
Continuous
 62
               7
100
AcDbVertex
100
AcDb2dVertex
 10
201.1837599633171
 20
202.46393961043765
 30
0.0
  0
SEQEND
  5
CD
100
AcDbEntity
  8
0
370
              15
  6
Continuous
 62
               7
  0
LINE
  5
CE
100
AcDbEntity
  8
0
370
              15
  6
Continuous
 62
               7
100
AcDbLine
 10
206.82797754063708
 20
202.77419986083765
 30
0.0
 11
206.75234243591706
 21
202.79181734395769
 31
0.0
  0
ARC
  5
CF
100
AcDbEntity
  8
0
370
              15
  6
Continuous
 62
               7
100
AcDbCircle
 10
207.24730453443706
 20
208.25590362983763
 30
0.0
 40
0.1252836058714331
100
AcDbArc
 50
119.66581246420202
 51
184.8993796946022
  0
ARC
  5
D0
100
AcDbEntity
  8
0
370
              15
  6
Continuous
 62
               7
100
AcDbCircle
 10
207.14485685539705
 20
208.25323376867766
 30
0.0
 40
0.1186372622455805
100
AcDbArc
 50
359.27055363069826
 51
70.070167253599379
  0
ARC
  5
D1
100
AcDbEntity
  8
0
370
              15
  6
Continuous
 62
               7
100
AcDbCircle
 10
207.18037304959705
 20
208.52115391011765
 30
0.0
 40
0.2819579900684924
100
AcDbArc
 50
258.15119727050143
 51
287.14346894870147
  0
LINE
  5
D2
100
AcDbEntity
  8
0
370
              15
  6
Continuous
 62
               7
100
AcDbLine
 10
207.28284766971709
 20
202.32828748851765
 30
0.0
 11
207.12247868719709
 21
208.24520364111766
 31
0.0
  0
LINE
  5
D3
100
AcDbEntity
  8
0
370
              15
  6
Continuous
 62
               7
100
AcDbLine
 10
207.2634845031171
 20
208.25172340991764
 30
0.0
 11
207.42385348567709
 21
202.33480725731766
 31
0.0
  0
ARC
  5
D4
100
AcDbEntity
  8
0
370
              15
  6
Continuous
 62
               7
100
AcDbCircle
 10
207.3407420321571
 20
202.60423775751767
 30
0.0
 40
0.2819579900678859
100
AcDbArc
 50
258.15119727050393
 51
287.1434689487009
  0
LINE
  5
D5
100
AcDbEntity
  8
0
370
              15
  6
Continuous
 62
               7
100
AcDbLine
 10
207.12247868719709
 20
208.24520364111766
 30
0.0
 11
206.89462397371707
 21
208.29827723147767
 31
0.0
  0
ARC
  5
D6
100
AcDbEntity
  8
0
370
              15
  6
Continuous
 62
               7
100
AcDbCircle
 10
207.01944982099707
 20
208.30897722019765
 30
0.0
 40
0.1252836058714726
100
AcDbArc
 50
119.66581246419175
 51
184.89937969460044
  0
LINE
  5
D7
100
AcDbEntity
  8
0
370
              15
  6
Continuous
 62
               7
100
AcDbLine
 10
206.89462397371707
 20
208.29827723147767
 30
0.0
 11
206.90238377999708
 21
208.01197421771764
 31
0.0
  0
LINE
  5
D8
100
AcDbEntity
  8
0
370
              15
  6
Continuous
 62
               7
100
AcDbLine
 10
207.05499295627709
 20
202.38136107887766
 30
0.0
 11
207.28284766971709
 21
202.32828748851765
 31
0.0
  0
LINE
  5
D9
100
AcDbEntity
  8
0
370
              15
  6
Continuous
 62
               7
100
AcDbLine
 10
207.04723318855707
 20
202.66766267055766
 30
0.0
 11
207.05499295627709
 21
202.38136107887766
 31
0.0
  0
SPLINE
  5
DA
100
AcDbEntity
  8
0
370
              15
  6
Continuous
 62
               7
100
AcDbSpline
210
0.0
220
0.0
230
1.0
 70
               8
 71
               2
 72
              17
 73
              14
 74
               0
 42
0.000001
 43
0.000001
 40
0.0
 40
0.0
 40
0.0
 40
1.0
 40
1.0
 40
2.0
 40
3.0
 40
4.0
 40
5.0
 40
6.0
 40
7.0
 40
8.0
 40
9.0
 40
9.0
 40
10.0
 40
10.0
 40
10.0
 10
207.04723318856645
 20
202.6676626705717
 30
0.0
 10
207.04721581826604
 20
202.66788479686042
 30
0.0
 10
207.04719844796563
 20
202.66810692314914
 30
0.0
 10
207.0463253535645
 20
202.68010065989728
 30
0.0
 10
207.0415844077784
 20
202.72509647284275
 30
0.0
 10
207.02043209609991
 20
202.77843234356334
 30
0.0
 10
206.99846464801826
 20
202.8153702258889
 30
0.0
 10
206.97180705420578
 20
202.84770521814818
 30
0.0
 10
206.94436738411491
 20
202.87008069839061
 30
0.0
 10
206.91952926383192
 20
202.88317346757486
 30
0.0
 10
206.8993332895065
 20
202.89074669407748
 30
0.0
 10
206.89132879363353
 20
202.89357517750631
 30
0.0
 10
206.89106210067953
 20
202.89367008905205
 30
0.0
 10
206.89079540772553
 20
202.89376500059782
 30
0.0
  0
LINE
  5
DB
100
AcDbEntity
  8
0
370
              15
  6
Continuous
 62
               7
100
AcDbLine
 10
206.81630600355709
 20
202.91111561871764
 30
0.0
 11
206.89079540771706
 21
202.89376500059763
 31
0.0
  0
LINE
  5
DC
100
AcDbEntity
  8
0
370
              15
  6
Continuous
 62
               7
100
AcDbLine
 10
206.75629240751709
 20
207.85633919603768
 30
0.0
 11
206.6818030033171
 21
207.87368981415764
 31
0.0
  0
SPLINE
  5
DD
100
AcDbEntity
  8
0
370
              15
  6
Continuous
 62
               7
100
AcDbSpline
210
0.0
220
0.0
230
1.0
 70
               8
 71
               2
 72
              16
 73
              13
 74
               0
 42
0.000001
 43
0.000001
 40
0.0
 40
0.0
 40
0.0
 40
1.0
 40
1.0
 40
2.0
 40
3.0
 40
4.0
 40
5.0
 40
6.0
 40
7.0
 40
8.0
 40
8.0
 40
9.0
 40
9.0
 40
9.0
 10
206.75629240750385
 20
207.85633919603725
 30
0.0
 10
206.7564531653405
 20
207.85631506749459
 30
0.0
 10
206.75661392317716
 20
207.85629093895193
 30
0.0
 10
206.76659832958205
 20
207.85468632766154
 30
0.0
 10
206.79014688904039
 20
207.85230733629453
 30
0.0
 10
206.81829326733049
 20
207.85746719171331
 30
0.0
 10
206.85758717471074
 20
207.87813257959922
 30
0.0
 10
206.88461086676679
 20
207.918351640715
 30
0.0
 10
206.89742288484061
 20
207.95348901998489
 30
0.0
 10
206.90151431580716
 20
207.99245393325779
 30
0.0
 10
206.90235234767286
 20
208.01136663610711
 30
0.0
 10
206.90236806383314
 20
208.01167042690824
 30
0.0
 10
206.90238377999339
 20
208.01197421770937
 30
0.0
  0
ARC
  5
DE
100
AcDbEntity
  8
0
370
              15
  6
Continuous
 62
               7
100
AcDbCircle
 10
206.8366356216371
 20
208.01990715427766
 30
0.0
 40
0.2843458261745145
100
AcDbArc
 50
78.232779062097563
 51
106.58669811780541
  0
ARC
  5
DF
100
AcDbEntity
  8
0
370
              15
  6
Continuous
 62
               7
100
AcDbCircle
 10
206.84439542791711
 20
207.73360414047767
 30
0.0
 40
0.284345826177182
100
AcDbArc
 50
78.232779062303123
 51
106.58669811770245
  0
ARC
  5
E0
100
AcDbEntity
  8
0
370
              15
  6
Continuous
 62
               7
100
AcDbCircle
 10
206.9892448364771
 20
202.38929259335765
 30
0.0
 40
0.28434582617695
100
AcDbArc
 50
78.23277906230274
 51
106.58669811769731
  0
ARC
  5
E1
100
AcDbEntity
  8
0
370
              15
  6
Continuous
 62
               7
100
AcDbCircle
 10
206.76596744695706
 20
202.88306349271767
 30
0.0
 40
0.1252858414217881
100
AcDbArc
 50
299.66638305520809
 51
4.8999893506995704
  0
ARC
  5
E2
100
AcDbEntity
  8
0
370
              15
  6
Continuous
 62
               7
100
AcDbCircle
 10
206.99700460419706
 20
202.10299100167765
 30
0.0
 40
0.2843458261769946
100
AcDbArc
 50
78.232779062304616
 51
106.58669811770415
  0
ARC
  5
E3
100
AcDbEntity
  8
0
370
              15
  6
Continuous
 62
               7
100
AcDbCircle
 10
201.57824706699705
 20
209.57638205727764
 30
0.0
 40
0.1252836058713711
100
AcDbArc
 50
119.66581246419426
 51
184.89937969460578
  0
LINE
  5
E4
100
AcDbEntity
  8
0
370
              15
  6
Continuous
 62
               7
100
AcDbLine
 10
201.45342121975708
 20
209.56568206851765
 30
0.0
 11
201.22556650631708
 21
209.61875565887766
 31
0.0
  0
ARC
  5
E5
100
AcDbEntity
  8
0
370
              15
  6
Continuous
 62
               7
100
AcDbCircle
 10
201.35039235355706
 20
209.62945564759764
 30
0.0
 40
0.1252836058717712
100
AcDbArc
 50
119.66581246430543
 51
184.89937969450511
  0
ARC
  5
E6
100
AcDbEntity
  8
0
370
              15
  6
Continuous
 62
               7
100
AcDbCircle
 10
213.73631693431707
 20
49.931926794157675
 30
0.0
 40
0.1691744459909068
100
AcDbArc
 50
258.1510689178952
 51
287.1435335427995
  0
LINE
  5
E7
100
AcDbEntity
  8
0
370
              15
  6
Continuous
 62
               7
100
AcDbLine
 10
213.70158001743707
 20
49.766357051197673
 30
0.0
 11
203.2081009736371
 21
52.210575121917671
 31
0.0
  0
ARC
  5
E8
100
AcDbEntity
  8
0
370
              15
  6
Continuous
 62
               7
100
AcDbCircle
 10
206.90992104943712
 20
208.06926933139763
 30
0.0
 40
0.5931993701320398
100
AcDbArc
 50
359.27091545480215
 51
70.069351828699965
  0
LINE
  5
E9
100
AcDbEntity
  8
0
370
              15
  6
Continuous
 62
               7
100
AcDbLine
 10
207.11213231735709
 20
208.62693957075766
 30
0.0
 11
201.2152201365171
 21
210.00049158851763
 31
0.0
  0
POLYLINE
  5
EA
100
AcDbEntity
  8
0
370
              15
  6
Continuous
 62
               7
100
AcDb2dPolyline
 66
               1
 10
0.0
 20
0.0
 30
0.0
 75
               5
  0
VERTEX
  5
EB
100
AcDbEntity
  8
0
370
              15
  6
Continuous
 62
               7
100
AcDbVertex
100
AcDb2dVertex
 10
200.85014600399708
 20
209.61136950703764
 30
0.0
  0
VERTEX
  5
EC
100
AcDbEntity
  8
0
370
              15
  6
Continuous
 62
               7
100
AcDbVertex
100
AcDb2dVertex
 10
200.85488606551706
 20
209.70276847299766
 30
0.0
  0
VERTEX
  5
ED
100
AcDbEntity
  8
0
370
              15
  6
Continuous
 62
               7
100
AcDbVertex
100
AcDb2dVertex
 10
200.8739708127971
 20
209.78727221863767
 30
0.0
  0
VERTEX
  5
EE
100
AcDbEntity
  8
0
370
              15
  6
Continuous
 62
               7
100
AcDbVertex
100
AcDb2dVertex
 10
200.90666663335708
 20
209.86163191599763
 30
0.0
  0
VERTEX
  5
EF
100
AcDbEntity
  8
0
370
              15
  6
Continuous
 62
               7
100
AcDbVertex
100
AcDb2dVertex
 10
200.95171687531709
 20
209.92299046975765
 30
0.0
  0
VERTEX
  5
F0
100
AcDbEntity
  8
0
370
              15
  6
Continuous
 62
               7
100
AcDbVertex
100
AcDb2dVertex
 10
201.00739011043709
 20
209.96899138907767
 30
0.0
  0
VERTEX
  5
F1
100
AcDbEntity
  8
0
370
              15
  6
Continuous
 62
               7
100
AcDbVertex
100
AcDb2dVertex
 10
201.07154752539708
 20
209.99786342063766
 30
0.0
  0
VERTEX
  5
F2
100
AcDbEntity
  8
0
370
              15
  6
Continuous
 62
               7
100
AcDbVertex
100
AcDb2dVertex
 10
201.14172302507708
 20
210.00850080731763
 30
0.0
  0
VERTEX
  5
F3
100
AcDbEntity
  8
0
370
              15
  6
Continuous
 62
               7
100
AcDbVertex
100
AcDb2dVertex
 10
201.2152201365171
 20
210.00049158851763
 30
0.0
  0
SEQEND
  5
F4
100
AcDbEntity
  8
0
370
              15
  6
Continuous
 62
               7
  0
LINE
  5
F5
100
AcDbEntity
  8
0
370
              15
  6
Continuous
 62
               7
100
AcDbLine
 10
200.85014600399708
 20
209.61136950703764
 30
0.0
 11
200.86079929407708
 21
209.21830955779768
 31
0.0
  0
LINE
  5
F6
100
AcDbEntity
  8
0
370
              15
  6
Continuous
 62
               7
100
AcDbLine
 10
200.88892830751709
 20
208.18047162071764
 30
0.0
 11
201.0053418209171
 21
203.88532060819765
 31
0.0
  0
LINE
  5
F7
100
AcDbEntity
  8
0
370
              15
  6
Continuous
 62
               7
100
AcDbLine
 10
201.01155980227708
 20
203.81273955279764
 30
0.0
 11
201.0053418209171
 21
203.88532060819765
 31
0.0
  0
LINE
  5
F8
100
AcDbEntity
  8
0
370
              15
  6
Continuous
 62
               7
100
AcDbLine
 10
206.37598377571706
 20
202.16019348487765
 30
0.0
 11
207.29319407807711
 21
201.94655013683766
 31
0.0
  0
POLYLINE
  5
F9
100
AcDbEntity
  8
0
370
              15
  6
Continuous
 62
               7
100
AcDb2dPolyline
 66
               1
 10
0.0
 20
0.0
 30
0.0
 75
               5
  0
VERTEX
  5
FA
100
AcDbEntity
  8
0
370
              15
  6
Continuous
 62
               7
100
AcDbVertex
100
AcDb2dVertex
 10
207.65826821059707
 20
202.33567221827764
 30
0.0
  0
VERTEX
  5
FB
100
AcDbEntity
  8
0
370
              15
  6
Continuous
 62
               7
100
AcDbVertex
100
AcDb2dVertex
 10
207.65352818759709
 20
202.24427183023766
 30
0.0
  0
VERTEX
  5
FC
100
AcDbEntity
  8
0
370
              15
  6
Continuous
 62
               7
100
AcDbVertex
100
AcDb2dVertex
 10
207.6344434403571
 20
202.15976808459766
 30
0.0
  0
VERTEX
  5
FD
100
AcDbEntity
  8
0
370
              15
  6
Continuous
 62
               7
100
AcDbVertex
100
AcDb2dVertex
 10
207.60174758123708
 20
202.08540980935766
 30
0.0
  0
VERTEX
  5
FE
100
AcDbEntity
  8
0
370
              15
  6
Continuous
 62
               7
100
AcDbVertex
100
AcDb2dVertex
 10
207.55669737779706
 20
202.02404983351764
 30
0.0
  0
VERTEX
  5
FF
100
AcDbEntity
  8
0
370
              15
  6
Continuous
 62
               7
100
AcDbVertex
100
AcDb2dVertex
 10
207.50102414267707
 20
201.97804891415765
 30
0.0
  0
VERTEX
  5
100
100
AcDbEntity
  8
0
370
              15
  6
Continuous
 62
               7
100
AcDbVertex
100
AcDb2dVertex
 10
207.43686668919707
 20
201.94917830467764
 30
0.0
  0
VERTEX
  5
101
100
AcDbEntity
  8
0
370
              15
  6
Continuous
 62
               7
100
AcDbVertex
100
AcDb2dVertex
 10
207.36669122807712
 20
201.93853949591764
 30
0.0
  0
VERTEX
  5
102
100
AcDbEntity
  8
0
370
              15
  6
Continuous
 62
               7
100
AcDbVertex
100
AcDb2dVertex
 10
207.29319407807711
 20
201.94655013683766
 30
0.0
  0
SEQEND
  5
103
100
AcDbEntity
  8
0
370
              15
  6
Continuous
 62
               7
  0
LINE
  5
104
100
AcDbEntity
  8
0
370
              15
  6
Continuous
 62
               7
100
AcDbLine
 10
207.65826821059707
 20
202.33567221827764
 30
0.0
 11
207.50307239367706
 21
208.06172111711766
 31
0.0
  0
POLYLINE
  5
105
100
AcDbEntity
  8
0
370
              15
  6
Continuous
 62
               7
100
AcDb2dPolyline
 66
               1
 10
0.0
 20
0.0
 30
0.0
 75
               5
  0
VERTEX
  5
106
100
AcDbEntity
  8
0
370
              15
  6
Continuous
 62
               7
100
AcDbVertex
100
AcDb2dVertex
 10
204.13522364251708
 20
210.36349187471768
 30
0.0
  0
VERTEX
  5
107
100
AcDbEntity
  8
0
370
              15
  6
Continuous
 62
               7
100
AcDbVertex
100
AcDb2dVertex
 10
204.25016175983708
 20
210.36559355451766
 30
0.0
  0
VERTEX
  5
108
100
AcDbEntity
  8
0
370
              15
  6
Continuous
 62
               7
100
AcDbVertex
100
AcDb2dVertex
 10
204.34602644555707
 20
210.42549102879764
 30
0.0
  0
VERTEX
  5
109
100
AcDbEntity
  8
0
370
              15
  6
Continuous
 62
               7
100
AcDbVertex
100
AcDb2dVertex
 10
204.40822315983709
 20
210.53406650915764
 30
0.0
  0
VERTEX
  5
10A
100
AcDbEntity
  8
0
370
              15
  6
Continuous
 62
               7
100
AcDbVertex
100
AcDb2dVertex
 10
204.42728303371709
 20
210.67478923743766
 30
0.0
  0
VERTEX
  5
10B
100
AcDbEntity
  8
0
370
              15
  6
Continuous
 62
               7
100
AcDbVertex
100
AcDb2dVertex
 10
204.40030436247707
 20
210.82623560115763
 30
0.0
  0
VERTEX
  5
10C
100
AcDbEntity
  8
0
370
              15
  6
Continuous
 62
               7
100
AcDbVertex
100
AcDb2dVertex
 10
204.33139440807707
 20
210.96534940799768
 30
0.0
  0
VERTEX
  5
10D
100
AcDbEntity
  8
0
370
              15
  6
Continuous
 62
               7
100
AcDbVertex
100
AcDb2dVertex
 10
204.23104413055705
 20
211.07095070999765
 30
0.0
  0
VERTEX
  5
10E
100
AcDbEntity
  8
0
370
              15
  6
Continuous
 62
               7
100
AcDbVertex
100
AcDb2dVertex
 10
204.1145309029171
 20
211.12696373395767
 30
0.0
  0
VERTEX
  5
10F
100
AcDbEntity
  8
0
370
              15
  6
Continuous
 62
               7
100
AcDbVertex
100
AcDb2dVertex
 10
203.99959278559709
 20
211.12486205415763
 30
0.0
  0
VERTEX
  5
110
100
AcDbEntity
  8
0
370
              15
  6
Continuous
 62
               7
100
AcDbVertex
100
AcDb2dVertex
 10
203.90372809983708
 20
211.06496457987765
 30
0.0
  0
VERTEX
  5
111
100
AcDbEntity
  8
0
370
              15
  6
Continuous
 62
               7
100
AcDbVertex
100
AcDb2dVertex
 10
203.84153138559708
 20
210.95638909951765
 30
0.0
  0
VERTEX
  5
112
100
AcDbEntity
  8
0
370
              15
  6
Continuous
 62
               7
100
AcDbVertex
100
AcDb2dVertex
 10
203.82247151171708
 20
210.81566637123768
 30
0.0
  0
VERTEX
  5
113
100
AcDbEntity
  8
0
370
              15
  6
Continuous
 62
               7
100
AcDbVertex
100
AcDb2dVertex
 10
203.8494501829571
 20
210.66422000751766
 30
0.0
  0
VERTEX
  5
114
100
AcDbEntity
  8
0
370
              15
  6
Continuous
 62
               7
100
AcDbVertex
100
AcDb2dVertex
 10
203.9183601373571
 20
210.52510620067767
 30
0.0
  0
VERTEX
  5
115
100
AcDbEntity
  8
0
370
              15
  6
Continuous
 62
               7
100
AcDbVertex
100
AcDb2dVertex
 10
204.01871041483707
 20
210.41950489863763
 30
0.0
  0
VERTEX
  5
116
100
AcDbEntity
  8
0
370
              15
  6
Continuous
 62
               7
100
AcDbVertex
100
AcDb2dVertex
 10
204.13522364251708
 20
210.36349187471768
 30
0.0
  0
SEQEND
  5
117
100
AcDbEntity
  8
0
370
              15
  6
Continuous
 62
               7
  0
POLYLINE
  5
118
100
AcDbEntity
  8
0
370
              15
  6
Continuous
 62
               7
100
AcDb2dPolyline
 66
               1
 10
0.0
 20
0.0
 30
0.0
 75
               5
  0
VERTEX
  5
119
100
AcDbEntity
  8
0
370
              15
  6
Continuous
 62
               7
100
AcDbVertex
100
AcDb2dVertex
 10
204.39388331167709
 20
200.82007799139768
 30
0.0
  0
VERTEX
  5
11A
100
AcDbEntity
  8
0
370
              15
  6
Continuous
 62
               7
100
AcDbVertex
100
AcDb2dVertex
 10
204.50882146755706
 20
200.82217824911766
 30
0.0
  0
VERTEX
  5
11B
100
AcDbEntity
  8
0
370
              15
  6
Continuous
 62
               7
100
AcDbVertex
100
AcDb2dVertex
 10
204.60468611475707
 20
200.88207714543768
 30
0.0
  0
VERTEX
  5
11C
100
AcDbEntity
  8
0
370
              15
  6
Continuous
 62
               7
100
AcDbVertex
100
AcDb2dVertex
 10
204.66688286755709
 20
200.99065120371768
 30
0.0
  0
VERTEX
  5
11D
100
AcDbEntity
  8
0
370
              15
  6
Continuous
 62
               7
100
AcDbVertex
100
AcDb2dVertex
 10
204.68594274143709
 20
201.13137393199764
 30
0.0
  0
VERTEX
  5
11E
100
AcDbEntity
  8
0
370
              15
  6
Continuous
 62
               7
100
AcDbVertex
100
AcDb2dVertex
 10
204.65896407019707
 20
201.28282029575763
 30
0.0
  0
VERTEX
  5
11F
100
AcDbEntity
  8
0
370
              15
  6
Continuous
 62
               7
100
AcDbVertex
100
AcDb2dVertex
 10
204.59005407723706
 20
201.42193552463766
 30
0.0
  0
VERTEX
  5
120
100
AcDbEntity
  8
0
370
              15
  6
Continuous
 62
               7
100
AcDbVertex
100
AcDb2dVertex
 10
204.48970383827708
 20
201.52753540459764
 30
0.0
  0
VERTEX
  5
121
100
AcDbEntity
  8
0
370
              15
  6
Continuous
 62
               7
100
AcDbVertex
100
AcDb2dVertex
 10
204.37319057207708
 20
201.58354985059765
 30
0.0
  0
VERTEX
  5
122
100
AcDbEntity
  8
0
370
              15
  6
Continuous
 62
               7
100
AcDbVertex
100
AcDb2dVertex
 10
204.25825249331709
 20
201.58144674871767
 30
0.0
  0
VERTEX
  5
123
100
AcDbEntity
  8
0
370
              15
  6
Continuous
 62
               7
100
AcDbVertex
100
AcDb2dVertex
 10
204.16238776903708
 20
201.52155069655765
 30
0.0
  0
VERTEX
  5
124
100
AcDbEntity
  8
0
370
              15
  6
Continuous
 62
               7
100
AcDbVertex
100
AcDb2dVertex
 10
204.10019109331711
 20
201.41297379411765
 30
0.0
  0
VERTEX
  5
125
100
AcDbEntity
  8
0
370
              15
  6
Continuous
 62
               7
100
AcDbVertex
100
AcDb2dVertex
 10
204.08113121943711
 20
201.27225106583768
 30
0.0
  0
VERTEX
  5
126
100
AcDbEntity
  8
0
370
              15
  6
Continuous
 62
               7
100
AcDbVertex
100
AcDb2dVertex
 10
204.10810989067707
 20
201.12080470207763
 30
0.0
  0
VERTEX
  5
127
100
AcDbEntity
  8
0
370
              15
  6
Continuous
 62
               7
100
AcDbVertex
100
AcDb2dVertex
 10
204.17701980651708
 20
200.98169231735767
 30
0.0
  0
VERTEX
  5
128
100
AcDbEntity
  8
0
370
              15
  6
Continuous
 62
               7
100
AcDbVertex
100
AcDb2dVertex
 10
204.2773701225571
 20
200.87608959323762
 30
0.0
  0
VERTEX
  5
129
100
AcDbEntity
  8
0
370
              15
  6
Continuous
 62
               7
100
AcDbVertex
100
AcDb2dVertex
 10
204.39388331167709
 20
200.82007799139768
 30
0.0
  0
SEQEND
  5
12A
100
AcDbEntity
  8
0
370
              15
  6
Continuous
 62
               7
  0
POLYLINE
  5
12B
100
AcDbEntity
  8
0
370
              15
  6
Continuous
 62
               7
100
AcDb2dPolyline
 66
               1
 10
0.0
 20
0.0
 30
0.0
 75
               5
  0
VERTEX
  5
12C
100
AcDbEntity
  8
0
370
              15
  6
Continuous
 62
               7
100
AcDbVertex
100
AcDb2dVertex
 10
207.75645939643709
 20
76.755683287157652
 30
0.0
  0
VERTEX
  5
12D
100
AcDbEntity
  8
0
370
              15
  6
Continuous
 62
               7
100
AcDbVertex
100
AcDb2dVertex
 10
208.10176492151709
 20
76.708601394797654
 30
0.0
  0
VERTEX
  5
12E
100
AcDbEntity
  8
0
370
              15
  6
Continuous
 62
               7
100
AcDbVertex
100
AcDb2dVertex
 10
208.4371581392771
 20
76.729724112077648
 30
0.0
  0
VERTEX
  5
12F
100
AcDbEntity
  8
0
370
              15
  6
Continuous
 62
               7
100
AcDbVertex
100
AcDb2dVertex
 10
208.75477768275709
 20
76.818553774517653
 30
0.0
  0
VERTEX
  5
130
100
AcDbEntity
  8
0
370
              15
  6
Continuous
 62
               7
100
AcDbVertex
100
AcDb2dVertex
 10
209.04717853743708
 20
76.973026111917662
 30
0.0
  0
VERTEX
  5
131
100
AcDbEntity
  8
0
370
              15
  6
Continuous
 62
               7
100
AcDbVertex
100
AcDb2dVertex
 10
209.3075069367971
 20
77.189514729557644
 30
0.0
  0
VERTEX
  5
132
100
AcDbEntity
  8
0
370
              15
  6
Continuous
 62
               7
100
AcDbVertex
100
AcDb2dVertex
 10
209.52966166643708
 20
77.462929194077645
 30
0.0
  0
VERTEX
  5
133
100
AcDbEntity
  8
0
370
              15
  6
Continuous
 62
               7
100
AcDbVertex
100
AcDb2dVertex
 10
209.70843489475709
 20
77.786885716557649
 30
0.0
  0
VERTEX
  5
134
100
AcDbEntity
  8
0
370
              15
  6
Continuous
 62
               7
100
AcDbVertex
100
AcDb2dVertex
 10
209.83963686547708
 20
78.153768546917661
 30
0.0
  0
VERTEX
  5
135
100
AcDbEntity
  8
0
370
              15
  6
Continuous
 62
               7
100
AcDbVertex
100
AcDb2dVertex
 10
209.92019211319706
 20
78.554990182957653
 30
0.0
  0
VERTEX
  5
136
100
AcDbEntity
  8
0
370
              15
  6
Continuous
 62
               7
100
AcDbVertex
100
AcDb2dVertex
 10
209.94821212079708
 20
78.981155323557644
 30
0.0
  0
VERTEX
  5
137
100
AcDbEntity
  8
0
370
              15
  6
Continuous
 62
               7
100
AcDbVertex
100
AcDb2dVertex
 10
209.92304088647711
 20
79.42225374135765
 30
0.0
  0
VERTEX
  5
138
100
AcDbEntity
  8
0
370
              15
  6
Continuous
 62
               7
100
AcDbVertex
100
AcDb2dVertex
 10
209.8452677211971
 20
79.867962532157648
 30
0.0
  0
VERTEX
  5
139
100
AcDbEntity
  8
0
370
              15
  6
Continuous
 62
               7
100
AcDbVertex
100
AcDb2dVertex
 10
209.71671600495711
 20
80.30781830575765
 30
0.0
  0
VERTEX
  5
13A
100
AcDbEntity
  8
0
370
              15
  6
Continuous
 62
               7
100
AcDbVertex
100
AcDb2dVertex
 10
209.5403985302371
 20
80.73153281803765
 30
0.0
  0
VERTEX
  5
13B
100
AcDbEntity
  8
0
370
              15
  6
Continuous
 62
               7
100
AcDbVertex
100
AcDb2dVertex
 10
209.32044843527709
 20
81.129156020757662
 30
0.0
  0
VERTEX
  5
13C
100
AcDbEntity
  8
0
370
              15
  6
Continuous
 62
               7
100
AcDbVertex
100
AcDb2dVertex
 10
209.06202080827711
 20
81.491381601077663
 30
0.0
  0
VERTEX
  5
13D
100
AcDbEntity
  8
0
370
              15
  6
Continuous
 62
               7
100
AcDbVertex
100
AcDb2dVertex
 10
208.77117278511707
 20
81.809721872877645
 30
0.0
  0
VERTEX
  5
13E
100
AcDbEntity
  8
0
370
              15
  6
Continuous
 62
               7
100
AcDbVertex
100
AcDb2dVertex
 10
208.4547224537971
 20
82.076687604037659
 30
0.0
  0
VERTEX
  5
13F
100
AcDbEntity
  8
0
370
              15
  6
Continuous
 62
               7
100
AcDbVertex
100
AcDb2dVertex
 10
208.1200862733171
 20
82.286051982397652
 30
0.0
  0
VERTEX
  5
140
100
AcDbEntity
  8
0
370
              15
  6
Continuous
 62
               7
100
AcDbVertex
100
AcDb2dVertex
 10
207.77510798747707
 20
82.432901771437642
 30
0.0
  0
VERTEX
  5
141
100
AcDbEntity
  8
0
370
              15
  6
Continuous
 62
               7
100
AcDbVertex
100
AcDb2dVertex
 10
207.42787398247708
 20
82.513782061597652
 30
0.0
  0
VERTEX
  5
142
100
AcDbEntity
  8
0
370
              15
  6
Continuous
 62
               7
100
AcDbVertex
100
AcDb2dVertex
 10
207.08652308335706
 20
82.526797098077651
 30
0.0
  0
VERTEX
  5
143
100
AcDbEntity
  8
0
370
              15
  6
Continuous
 62
               7
100
AcDbVertex
100
AcDb2dVertex
 10
206.75905595603706
 20
82.471654676277652
 30
0.0
  0
VERTEX
  5
144
100
AcDbEntity
  8
0
370
              15
  6
Continuous
 62
               7
100
AcDbVertex
100
AcDb2dVertex
 10
206.4531479871971
 20
82.349653203157644
 30
0.0
  0
VERTEX
  5
145
100
AcDbEntity
  8
0
370
              15
  6
Continuous
 62
               7
100
AcDbVertex
100
AcDb2dVertex
 10
206.1759701920771
 20
82.163621669397642
 30
0.0
  0
VERTEX
  5
146
100
AcDbEntity
  8
0
370
              15
  6
Continuous
 62
               7
100
AcDbVertex
100
AcDb2dVertex
 10
205.93401874515706
 20
81.917948051397659
 30
0.0
  0
VERTEX
  5
147
100
AcDbEntity
  8
0
370
              15
  6
Continuous
 62
               7
100
AcDbVertex
100
AcDb2dVertex
 10
205.73296473259711
 20
81.618388211997654
 30
0.0
  0
VERTEX
  5
148
100
AcDbEntity
  8
0
370
              15
  6
Continuous
 62
               7
100
AcDbVertex
100
AcDb2dVertex
 10
205.57752107387708
 20
81.271949935197654
 30
0.0
  0
VERTEX
  5
149
100
AcDbEntity
  8
0
370
              15
  6
Continuous
 62
               7
100
AcDbVertex
100
AcDb2dVertex
 10
205.4713306365571
 20
80.886772024957651
 30
0.0
  0
VERTEX
  5
14A
100
AcDbEntity
  8
0
370
              15
  6
Continuous
 62
               7
100
AcDbVertex
100
AcDb2dVertex
 10
205.41688325767709
 20
80.47186101267765
 30
0.0
  0
VERTEX
  5
14B
100
AcDbEntity
  8
0
370
              15
  6
Continuous
 62
               7
100
AcDbVertex
100
AcDb2dVertex
 10
205.41545469403707
 20
80.036958414837656
 30
0.0
  0
VERTEX
  5
14C
100
AcDbEntity
  8
0
370
              15
  6
Continuous
 62
               7
100
AcDbVertex
100
AcDb2dVertex
 10
205.46707861643708
 20
79.592242026157649
 30
0.0
  0
VERTEX
  5
14D
100
AcDbEntity
  8
0
370
              15
  6
Continuous
 62
               7
100
AcDbVertex
100
AcDb2dVertex
 10
205.57054461631708
 20
79.148156811997652
 30
0.0
  0
VERTEX
  5
14E
100
AcDbEntity
  8
0
370
              15
  6
Continuous
 62
               7
100
AcDbVertex
100
AcDb2dVertex
 10
205.72342765387711
 20
78.715102818757657
 30
0.0
  0
VERTEX
  5
14F
100
AcDbEntity
  8
0
370
              15
  6
Continuous
 62
               7
100
AcDbVertex
100
AcDb2dVertex
 10
205.9221447255571
 20
78.303218488077647
 30
0.0
  0
VERTEX
  5
150
100
AcDbEntity
  8
0
370
              15
  6
Continuous
 62
               7
100
AcDbVertex
100
AcDb2dVertex
 10
206.16203738859707
 20
77.922180557397652
 30
0.0
  0
VERTEX
  5
151
100
AcDbEntity
  8
0
370
              15
  6
Continuous
 62
               7
100
AcDbVertex
100
AcDb2dVertex
 10
206.43748339387707
 20
77.580895437437647
 30
0.0
  0
VERTEX
  5
152
100
AcDbEntity
  8
0
370
              15
  6
Continuous
 62
               7
100
AcDbVertex
100
AcDb2dVertex
 10
206.7420263120371
 20
77.287378580077657
 30
0.0
  0
VERTEX
  5
153
100
AcDbEntity
  8
0
370
              15
  6
Continuous
 62
               7
100
AcDbVertex
100
AcDb2dVertex
 10
207.06852746439708
 20
77.048515602837654
 30
0.0
  0
VERTEX
  5
154
100
AcDbEntity
  8
0
370
              15
  6
Continuous
 62
               7
100
AcDbVertex
100
AcDb2dVertex
 10
207.40933462779708
 20
76.869887335277653
 30
0.0
  0
VERTEX
  5
155
100
AcDbEntity
  8
0
370
              15
  6
Continuous
 62
               7
100
AcDbVertex
100
AcDb2dVertex
 10
207.75645939643709
 20
76.755683287157652
 30
0.0
  0
SEQEND
  5
156
100
AcDbEntity
  8
0
370
              15
  6
Continuous
 62
               7
  0
POLYLINE
  5
157
100
AcDbEntity
  8
0
370
              15
  6
Continuous
 62
               7
100
AcDb2dPolyline
 66
               1
 10
0.0
 20
0.0
 30
0.0
 75
               5
  0
VERTEX
  5
158
100
AcDbEntity
  8
0
370
              15
  6
Continuous
 62
               7
100
AcDbVertex
100
AcDb2dVertex
 10
208.22980653783711
 20
59.291237843117642
 30
0.0
  0
VERTEX
  5
159
100
AcDbEntity
  8
0
370
              15
  6
Continuous
 62
               7
100
AcDbVertex
100
AcDb2dVertex
 10
208.45555358271707
 20
59.271891340357655
 30
0.0
  0
VERTEX
  5
15A
100
AcDbEntity
  8
0
370
              15
  6
Continuous
 62
               7
100
AcDbVertex
100
AcDb2dVertex
 10
208.66731794647706
 20
59.320465323797649
 30
0.0
  0
VERTEX
  5
15B
100
AcDbEntity
  8
0
370
              15
  6
Continuous
 62
               7
100
AcDbVertex
100
AcDb2dVertex
 10
208.85368304043709
 20
59.434350985517653
 30
0.0
  0
VERTEX
  5
15C
100
AcDbEntity
  8
0
370
              15
  6
Continuous
 62
               7
100
AcDbVertex
100
AcDb2dVertex
 10
209.00460223787707
 20
59.607398543997647
 30
0.0
  0
VERTEX
  5
15D
100
AcDbEntity
  8
0
370
              15
  6
Continuous
 62
               7
100
AcDbVertex
100
AcDb2dVertex
 10
209.11193905879708
 20
59.830288832077656
 30
0.0
  0
VERTEX
  5
15E
100
AcDbEntity
  8
0
370
              15
  6
Continuous
 62
               7
100
AcDbVertex
100
AcDb2dVertex
 10
209.16990738871709
 20
60.090995998597649
 30
0.0
  0
VERTEX
  5
15F
100
AcDbEntity
  8
0
370
              15
  6
Continuous
 62
               7
100
AcDbVertex
100
AcDb2dVertex
 10
209.17538143511709
 20
60.375484038677655
 30
0.0
  0
VERTEX
  5
160
100
AcDbEntity
  8
0
370
              15
  6
Continuous
 62
               7
100
AcDbVertex
100
AcDb2dVertex
 10
209.12806656451707
 20
60.668401813877651
 30
0.0
  0
VERTEX
  5
161
100
AcDbEntity
  8
0
370
              15
  6
Continuous
 62
               7
100
AcDbVertex
100
AcDb2dVertex
 10
209.03051379215708
 20
60.953950147757652
 30
0.0
  0
VERTEX
  5
162
100
AcDbEntity
  8
0
370
              15
  6
Continuous
 62
               7
100
AcDbVertex
100
AcDb2dVertex
 10
208.88798177451707
 20
61.216750528077654
 30
0.0
  0
VERTEX
  5
163
100
AcDbEntity
  8
0
370
              15
  6
Continuous
 62
               7
100
AcDbVertex
100
AcDb2dVertex
 10
208.70815437823705
 20
61.442634400637644
 30
0.0
  0
VERTEX
  5
164
100
AcDbEntity
  8
0
370
              15
  6
Continuous
 62
               7
100
AcDbVertex
100
AcDb2dVertex
 10
208.50072675183708
 20
61.619406568677647
 30
0.0
  0
VERTEX
  5
165
100
AcDbEntity
  8
0
370
              15
  6
Continuous
 62
               7
100
AcDbVertex
100
AcDb2dVertex
 10
208.27688049607707
 20
61.737566594997645
 30
0.0
  0
VERTEX
  5
166
100
AcDbEntity
  8
0
370
              15
  6
Continuous
 62
               7
100
AcDbVertex
100
AcDb2dVertex
 10
208.04868392775711
 20
61.790719812677651
 30
0.0
  0
VERTEX
  5
167
100
AcDbEntity
  8
0
370
              15
  6
Continuous
 62
               7
100
AcDbVertex
100
AcDb2dVertex
 10
207.82843915767705
 20
61.776000723917662
 30
0.0
  0
VERTEX
  5
168
100
AcDbEntity
  8
0
370
              15
  6
Continuous
 62
               7
100
AcDbVertex
100
AcDb2dVertex
 10
207.62801901091711
 20
61.694227449317651
 30
0.0
  0
VERTEX
  5
169
100
AcDbEntity
  8
0
370
              15
  6
Continuous
 62
               7
100
AcDbVertex
100
AcDb2dVertex
 10
207.4582289057571
 20
61.549779048357649
 30
0.0
  0
VERTEX
  5
16A
100
AcDbEntity
  8
0
370
              15
  6
Continuous
 62
               7
100
AcDbVertex
100
AcDb2dVertex
 10
207.32822191779709
 20
61.350460451317645
 30
0.0
  0
VERTEX
  5
16B
100
AcDbEntity
  8
0
370
              15
  6
Continuous
 62
               7
100
AcDbVertex
100
AcDb2dVertex
 10
207.24500663499705
 20
61.107017938077661
 30
0.0
  0
VERTEX
  5
16C
100
AcDbEntity
  8
0
370
              15
  6
Continuous
 62
               7
100
AcDbVertex
100
AcDb2dVertex
 10
207.21306961471709
 20
60.83256009439765
 30
0.0
  0
VERTEX
  5
16D
100
AcDbEntity
  8
0
370
              15
  6
Continuous
 62
               7
100
AcDbVertex
100
AcDb2dVertex
 10
207.23413242031711
 20
60.541890896157653
 30
0.0
  0
VERTEX
  5
16E
100
AcDbEntity
  8
0
370
              15
  6
Continuous
 62
               7
100
AcDbVertex
100
AcDb2dVertex
 10
207.30705924943709
 20
60.250694669557646
 30
0.0
  0
VERTEX
  5
16F
100
AcDbEntity
  8
0
370
              15
  6
Continuous
 62
               7
100
AcDbVertex
100
AcDb2dVertex
 10
207.42791890883709
 20
59.974651184317651
 30
0.0
  0
VERTEX
  5
170
100
AcDbEntity
  8
0
370
              15
  6
Continuous
 62
               7
100
AcDbVertex
100
AcDb2dVertex
 10
207.59019573659711
 20
59.728651711477653
 30
0.0
  0
VERTEX
  5
171
100
AcDbEntity
  8
0
370
              15
  6
Continuous
 62
               7
100
AcDbVertex
100
AcDb2dVertex
 10
207.78514149339708
 20
59.52594833083765
 30
0.0
  0
VERTEX
  5
172
100
AcDbEntity
  8
0
370
              15
  6
Continuous
 62
               7
100
AcDbVertex
100
AcDb2dVertex
 10
208.00224641635708
 20
59.377478968917657
 30
0.0
  0
VERTEX
  5
173
100
AcDbEntity
  8
0
370
              15
  6
Continuous
 62
               7
100
AcDbVertex
100
AcDb2dVertex
 10
208.22980653783711
 20
59.291237843117642
 30
0.0
  0
SEQEND
  5
174
100
AcDbEntity
  8
0
370
              15
  6
Continuous
 62
               7
  0
POLYLINE
  5
175
100
AcDbEntity
  8
0
370
              15
  6
Continuous
 62
               7
100
AcDb2dPolyline
 66
               1
 10
0.0
 20
0.0
 30
0.0
 75
               5
  0
VERTEX
  5
176
100
AcDbEntity
  8
0
370
              15
  6
Continuous
 62
               7
100
AcDbVertex
100
AcDb2dVertex
 10
203.7593911377171
 20
224.23007244915766
 30
0.0
  0
VERTEX
  5
177
100
AcDbEntity
  8
0
370
              15
  6
Continuous
 62
               7
100
AcDbVertex
100
AcDb2dVertex
 10
203.85551456135707
 20
224.18386131327765
 30
0.0
  0
VERTEX
  5
178
100
AcDbEntity
  8
0
370
              15
  6
Continuous
 62
               7
100
AcDbVertex
100
AcDb2dVertex
 10
203.93830356839706
 20
224.09673941999768
 30
0.0
  0
VERTEX
  5
179
100
AcDbEntity
  8
0
370
              15
  6
Continuous
 62
               7
100
AcDbVertex
100
AcDb2dVertex
 10
203.99515425963708
 20
223.98197092291764
 30
0.0
  0
VERTEX
  5
17A
100
AcDbEntity
  8
0
370
              15
  6
Continuous
 62
               7
100
AcDbVertex
100
AcDb2dVertex
 10
204.01741164687709
 20
223.85702795931763
 30
0.0
  0
VERTEX
  5
17B
100
AcDbEntity
  8
0
370
              15
  6
Continuous
 62
               7
100
AcDbVertex
100
AcDb2dVertex
 10
204.00168725203707
 20
223.74093199083768
 30
0.0
  0
VERTEX
  5
17C
100
AcDbEntity
  8
0
370
              15
  6
Continuous
 62
               7
100
AcDbVertex
100
AcDb2dVertex
 10
203.95037496271709
 20
223.6513576081577
 30
0.0
  0
VERTEX
  5
17D
100
AcDbEntity
  8
0
370
              15
  6
Continuous
 62
               7
100
AcDbVertex
100
AcDb2dVertex
 10
203.87128661319707
 20
223.60194137559768
 30
0.0
  0
VERTEX
  5
17E
100
AcDbEntity
  8
0
370
              15
  6
Continuous
 62
               7
100
AcDbVertex
100
AcDb2dVertex
 10
203.77646267683707
 20
223.60020709871768
 30
0.0
  0
VERTEX
  5
17F
100
AcDbEntity
  8
0
370
              15
  6
Continuous
 62
               7
100
AcDbVertex
100
AcDb2dVertex
 10
203.68033925315706
 20
223.64641823459766
 30
0.0
  0
VERTEX
  5
180
100
AcDbEntity
  8
0
370
              15
  6
Continuous
 62
               7
100
AcDbVertex
100
AcDb2dVertex
 10
203.59755024611707
 20
223.73354012783764
 30
0.0
  0
VERTEX
  5
181
100
AcDbEntity
  8
0
370
              15
  6
Continuous
 62
               7
100
AcDbVertex
100
AcDb2dVertex
 10
203.54069955491707
 20
223.84830862495767
 30
0.0
  0
VERTEX
  5
182
100
AcDbEntity
  8
0
370
              15
  6
Continuous
 62
               7
100
AcDbVertex
100
AcDb2dVertex
 10
203.51844216767708
 20
223.97325158855767
 30
0.0
  0
VERTEX
  5
183
100
AcDbEntity
  8
0
370
              15
  6
Continuous
 62
               7
100
AcDbVertex
100
AcDb2dVertex
 10
203.5341665625171
 20
224.08934755699767
 30
0.0
  0
VERTEX
  5
184
100
AcDbEntity
  8
0
370
              15
  6
Continuous
 62
               7
100
AcDbVertex
100
AcDb2dVertex
 10
203.58547885179709
 20
224.17892193971764
 30
0.0
  0
VERTEX
  5
185
100
AcDbEntity
  8
0
370
              15
  6
Continuous
 62
               7
100
AcDbVertex
100
AcDb2dVertex
 10
203.66456720131708
 20
224.22833817227769
 30
0.0
  0
VERTEX
  5
186
100
AcDbEntity
  8
0
370
              15
  6
Continuous
 62
               7
100
AcDbVertex
100
AcDb2dVertex
 10
203.7593911377171
 20
224.23007244915766
 30
0.0
  0
SEQEND
  5
187
100
AcDbEntity
  8
0
370
              15
  6
Continuous
 62
               7
  0
LINE
  5
188
100
AcDbEntity
  8
0
370
              15
  6
Continuous
 62
               7
100
AcDbLine
 10
222.86431084563708
 20
53.11941988819764
 30
0.0
 11
213.78618388607708
 21
49.770268882837641
 31
0.0
  0
LINE
  5
189
100
AcDbEntity
  8
0
370
              15
  6
Continuous
 62
               7
100
AcDbLine
 10
203.93343339787711
 20
223.65811757415764
 30
0.0
 11
203.95325402503707
 21
223.65449280583766
 31
0.0
  0
ARC
  5
18A
100
AcDbEntity
  8
0
370
              15
  6
Continuous
 62
               7
100
AcDbCircle
 10
204.05035278151706
 20
224.01793518951766
 30
0.0
 40
0.3783369643496591
100
AcDbArc
 50
145.22945380260066
 51
251.99891209730396
  0
POLYLINE
  5
18B
100
AcDbEntity
  8
0
370
              15
  6
Continuous
 62
               7
100
AcDb2dPolyline
 66
               1
 10
0.0
 20
0.0
 30
0.0
 75
               5
  0
VERTEX
  5
18C
100
AcDbEntity
  8
0
370
              15
  6
Continuous
 62
               7
100
AcDbVertex
100
AcDb2dVertex
 10
203.2081009736371
 20
52.210575121917671
 30
0.0
  0
VERTEX
  5
18D
100
AcDbEntity
  8
0
370
              15
  6
Continuous
 62
               7
100
AcDbVertex
100
AcDb2dVertex
 10
203.20000522039709
 20
52.212914553117642
 30
0.0
  0
VERTEX
  5
18E
100
AcDbEntity
  8
0
370
              15
  6
Continuous
 62
               7
100
AcDbVertex
100
AcDb2dVertex
 10
203.19372912955708
 20
52.215720542877648
 30
0.0
  0
VERTEX
  5
18F
100
AcDbEntity
  8
0
370
              15
  6
Continuous
 62
               7
100
AcDbVertex
100
AcDb2dVertex
 10
203.18951314819708
 20
52.218885173317659
 30
0.0
  0
VERTEX
  5
190
100
AcDbEntity
  8
0
370
              15
  6
Continuous
 62
               7
100
AcDbVertex
100
AcDb2dVertex
 10
203.18751982347706
 20
52.222286703837639
 30
0.0
  0
VERTEX
  5
191
100
AcDbEntity
  8
0
370
              15
  6
Continuous
 62
               7
100
AcDbVertex
100
AcDb2dVertex
 10
203.18736551155706
 20
52.223427151637665
 30
0.0
  0
SEQEND
  5
192
100
AcDbEntity
  8
0
370
              15
  6
Continuous
 62
               7
  0
LINE
  5
193
100
AcDbEntity
  8
0
370
              15
  6
Continuous
 62
               7
100
AcDbLine
 10
207.29319407807711
 20
201.94655013683766
 30
0.0
 11
207.55337652151709
 21
202.04253803123768
 31
0.0
  0
LINE
  5
194
100
AcDbEntity
  8
0
370
              15
  6
Continuous
 62
               7
100
AcDbLine
 10
207.55337652151709
 20
202.04253803123768
 30
0.0
 11
207.5600750375971
 21
202.03886095399764
 31
0.0
  0
LINE
  5
195
100
AcDbEntity
  8
0
370
              15
  6
Continuous
 62
               7
100
AcDbLine
 10
204.29219436359708
 20
210.42140235015765
 30
0.0
 11
204.33578983291707
 21
210.41522989463766
 31
0.0
  0
ARC
  5
196
100
AcDbEntity
  8
0
370
              15
  6
Continuous
 62
               7
100
AcDbCircle
 10
204.42996108311706
 20
210.85448897311764
 30
0.0
 40
0.4544707823319544
100
AcDbArc
 50
142.18417928130069
 51
252.35390872040227
  0
LINE
  5
197
100
AcDbEntity
  8
0
370
              15
  6
Continuous
 62
               7
100
AcDbLine
 10
206.61625684919707
 20
202.22508725027768
 30
0.0
 11
206.78301373295707
 21
202.21967606679766
 31
0.0
  0
ARC
  5
198
100
AcDbEntity
  8
0
370
              15
  6
Continuous
 62
               7
100
AcDbCircle
 10
206.77960683351705
 20
202.07280377951767
 30
0.0
 40
0.1469117957550085
100
AcDbArc
 50
77.680799065005701
 51
88.671185946292113
  0
LINE
  5
199
100
AcDbEntity
  8
0
370
              15
  6
Continuous
 62
               7
100
AcDbLine
 10
207.54265728243706
 20
202.04589855383767
 30
0.0
 11
206.81095161127709
 21
202.21633280319764
 31
0.0
  0
ARC
  5
19A
100
AcDbEntity
  8
0
370
              15
  6
Continuous
 62
               7
100
AcDbCircle
 10
207.52820734379711
 20
201.98103068323763
 30
0.0
 40
0.0664578164321937
100
AcDbArc
 50
67.745326221998425
 51
77.441856985609348
  0
POLYLINE
  5
19B
100
AcDbEntity
  8
0
370
              15
  6
Continuous
 62
               7
100
AcDb2dPolyline
 66
               1
 10
0.0
 20
0.0
 30
0.0
 75
               5
  0
VERTEX
  5
19C
100
AcDbEntity
  8
0
370
              15
  6
Continuous
 62
               7
100
AcDbVertex
100
AcDb2dVertex
 10
222.8789280432371
 20
53.131611354477641
 30
0.0
  0
VERTEX
  5
19D
100
AcDbEntity
  8
0
370
              15
  6
Continuous
 62
               7
100
AcDbVertex
100
AcDb2dVertex
 10
222.87846839751708
 20
53.129243988637654
 30
0.0
  0
VERTEX
  5
19E
100
AcDbEntity
  8
0
370
              15
  6
Continuous
 62
               7
100
AcDbVertex
100
AcDb2dVertex
 10
222.87587560127707
 20
53.12576454051765
 30
0.0
  0
VERTEX
  5
19F
100
AcDbEntity
  8
0
370
              15
  6
Continuous
 62
               7
100
AcDbVertex
100
AcDb2dVertex
 10
222.87109543903705
 20
53.122447342477642
 30
0.0
  0
VERTEX
  5
1A0
100
AcDbEntity
  8
0
370
              15
  6
Continuous
 62
               7
100
AcDbVertex
100
AcDb2dVertex
 10
222.86431084563708
 20
53.11941988819764
 30
0.0
  0
SEQEND
  5
1A1
100
AcDbEntity
  8
0
370
              15
  6
Continuous
 62
               7
  0
LINE
  5
1A2
100
AcDbEntity
  8
0
370
              15
  6
Continuous
 62
               7
100
AcDbLine
 10
204.55085403275712
 20
200.87798846679763
 30
0.0
 11
204.59444950207705
 21
200.87181601131766
 31
0.0
  0
ARC
  5
1A3
100
AcDbEntity
  8
0
370
              15
  6
Continuous
 62
               7
100
AcDbCircle
 10
204.68861797343709
 20
201.31107364971766
 30
0.0
 40
0.4544685676551185
100
AcDbArc
 50
142.18395971030122
 51
252.35418753749781
  0
LINE
  5
1A4
100
AcDbEntity
  8
0
370
              15
  6
Continuous
 62
               7
100
AcDbLine
 10
201.00711672503706
 20
209.66927998247769
 30
0.0
 11
200.85014600399708
 21
209.61136950703764
 31
0.0
  0
ARC
  5
1A5
100
AcDbEntity
  8
0
370
              15
  6
Continuous
 62
               7
100
AcDbCircle
 10
201.4163392737571
 20
209.70588263027764
 30
0.0
 40
0.4108562378683067
100
AcDbArc
 50
132.57807552699992
 51
185.11118280530098
  0
LINE
  5
1A6
100
AcDbEntity
  8
0
370
              15
  6
Continuous
 62
               7
100
AcDbLine
 10
201.00711672503706
 20
209.66927998247769
 30
0.0
 11
201.01589153047706
 21
209.34552792527762
 31
0.0
  0
LINE
  5
1A7
100
AcDbEntity
  8
0
370
              15
  6
Continuous
 62
               7
100
AcDbLine
 10
205.75410845767709
 20
79.556294055757647
 30
0.0
 11
205.77448686427709
 21
79.440026491277663
 31
0.0
  0
SPLINE
  5
1A8
100
AcDbEntity
  8
0
370
              15
  6
Continuous
 62
               7
100
AcDbSpline
210
0.0
220
0.0
230
1.0
 70
               8
 71
               2
 72
              10
 73
               7
 74
               0
 42
0.000001
 43
0.000001
 40
0.0
 40
0.0
 40
0.0
 40
1.0
 40
1.0
 40
2.0
 40
2.0
 40
3.0
 40
3.0
 40
3.0
 10
205.77448675617052
 20
79.440030324932067
 30
0.0
 10
205.77507491471272
 20
79.435422255685097
 30
0.0
 10
205.77566307325492
 20
79.430814186438127
 30
0.0
 10
205.81785762609968
 20
79.106087631146025
 30
0.0
 10
205.88277966823642
 20
78.786459184960549
 30
0.0
 10
205.88371217403801
 20
78.781919767063798
 30
0.0
 10
205.88464467983957
 20
78.777380349167032
 30
0.0
  0
LINE
  5
1A9
100
AcDbEntity
  8
0
370
              15
  6
Continuous
 62
               7
100
AcDbLine
 10
205.88464481159707
 20
78.777381548877656
 30
0.0
 11
205.90346329391707
 21
78.718668388757649
 31
0.0
  0
POLYLINE
  5
1AA
100
AcDbEntity
  8
0
370
              15
  6
Continuous
 62
               7
100
AcDb2dPolyline
 66
               1
 10
0.0
 20
0.0
 30
0.0
 75
               5
  0
VERTEX
  5
1AB
100
AcDbEntity
  8
0
370
              15
  6
Continuous
 62
               7
100
AcDbVertex
100
AcDb2dVertex
 10
205.90346329391707
 20
78.718668388757649
 30
0.0
  0
VERTEX
  5
1AC
100
AcDbEntity
  8
0
370
              15
  6
Continuous
 62
               7
100
AcDbVertex
100
AcDb2dVertex
 10
206.1207041802771
 20
78.287761791997653
 30
0.0
  0
VERTEX
  5
1AD
100
AcDbEntity
  8
0
370
              15
  6
Continuous
 62
               7
100
AcDbVertex
100
AcDb2dVertex
 10
206.38286187815709
 20
77.893228687677649
 30
0.0
  0
VERTEX
  5
1AE
100
AcDbEntity
  8
0
370
              15
  6
Continuous
 62
               7
100
AcDbVertex
100
AcDb2dVertex
 10
206.6830705468771
 20
77.545406939237651
 30
0.0
  0
VERTEX
  5
1AF
100
AcDbEntity
  8
0
370
              15
  6
Continuous
 62
               7
100
AcDbVertex
100
AcDb2dVertex
 10
207.01346856883708
 20
77.253396727837654
 30
0.0
  0
VERTEX
  5
1B0
100
AcDbEntity
  8
0
370
              15
  6
Continuous
 62
               7
100
AcDbVertex
100
AcDb2dVertex
 10
207.36540331315709
 20
77.024843285197647
 30
0.0
  0
VERTEX
  5
1B1
100
AcDbEntity
  8
0
370
              15
  6
Continuous
 62
               7
100
AcDbVertex
100
AcDb2dVertex
 10
207.72965786655709
 20
76.865737119197661
 30
0.0
  0
VERTEX
  5
1B2
100
AcDbEntity
  8
0
370
              15
  6
Continuous
 62
               7
100
AcDbVertex
100
AcDb2dVertex
 10
208.09669298027711
 20
76.780244609597645
 30
0.0
  0
VERTEX
  5
1B3
100
AcDbEntity
  8
0
370
              15
  6
Continuous
 62
               7
100
AcDbVertex
100
AcDb2dVertex
 10
208.45689647903708
 20
76.770604694837644
 30
0.0
  0
VERTEX
  5
1B4
100
AcDbEntity
  8
0
370
              15
  6
Continuous
 62
               7
100
AcDbVertex
100
AcDb2dVertex
 10
208.7949269354371
 20
76.835224512437648
 30
0.0
  0
SEQEND
  5
1B5
100
AcDbEntity
  8
0
370
              15
  6
Continuous
 62
               7
  0
ARC
  5
1B6
100
AcDbEntity
  8
0
370
              15
  6
Continuous
 62
               7
100
AcDbCircle
 10
209.28812876307711
 20
80.325022497917658
 30
0.0
 40
3.6166618499486001
100
AcDbArc
 50
170.83312545719991
 51
192.2719436956001
  0
LINE
  5
1B7
100
AcDbEntity
  8
0
370
              15
  6
Continuous
 62
               7
100
AcDbLine
 10
205.7321246979171
 20
81.003005706077658
 30
0.0
 11
205.71765698291711
 21
80.901194524197663
 31
0.0
  0
SPLINE
  5
1B8
100
AcDbEntity
  8
0
370
              15
  6
Continuous
 62
               7
100
AcDbSpline
210
0.0
220
0.0
230
1.0
 70
               8
 71
               2
 72
              11
 73
               8
 74
               0
 42
0.000001
 43
0.000001
 40
0.0
 40
0.0
 40
0.0
 40
1.0
 40
1.0
 40
2.0
 40
3.0
 40
3.0
 40
4.0
 40
4.0
 40
4.0
 10
205.81062438446946
 20
81.508406477912061
 30
0.0
 10
205.80997291283836
 20
81.505563558380317
 30
0.0
 10
205.80932144120723
 20
81.502720638848587
 30
0.0
 10
205.78999008070275
 20
81.416842397235243
 30
0.0
 10
205.74941270927366
 20
81.181341308625136
 30
0.0
 10
205.73277226592845
 20
81.009879465321319
 30
0.0
 10
205.73244845985153
 20
81.006443322950872
 30
0.0
 10
205.73212465377463
 20
81.003007180580411
 30
0.0
  0
LINE
  5
1B9
100
AcDbEntity
  8
0
370
              15
  6
Continuous
 62
               7
100
AcDbLine
 10
205.82665205415708
 20
81.552668194117658
 30
0.0
 11
205.81062441483709
 21
81.508411416677646
 31
0.0
  0
ARC
  5
1BA
100
AcDbEntity
  8
0
370
              15
  6
Continuous
 62
               7
100
AcDbCircle
 10
207.45803865055709
 20
80.840259125517662
 30
0.0
 40
1.7801541809712516
100
AcDbArc
 50
114.50190329340053
 51
156.4096212174
  0
POLYLINE
  5
1BB
100
AcDbEntity
  8
0
370
              15
  6
Continuous
 62
               7
100
AcDb2dPolyline
 66
               1
 10
0.0
 20
0.0
 30
0.0
 75
               5
  0
VERTEX
  5
1BC
100
AcDbEntity
  8
0
370
              15
  6
Continuous
 62
               7
100
AcDbVertex
100
AcDb2dVertex
 10
208.38677725891705
 20
59.349148318557653
 30
0.0
  0
VERTEX
  5
1BD
100
AcDbEntity
  8
0
370
              15
  6
Continuous
 62
               7
100
AcDbVertex
100
AcDb2dVertex
 10
208.61252430375706
 20
59.329801815797651
 30
0.0
  0
VERTEX
  5
1BE
100
AcDbEntity
  8
0
370
              15
  6
Continuous
 62
               7
100
AcDbVertex
100
AcDb2dVertex
 10
208.7228085765571
 20
59.34611097943764
 30
0.0
  0
SEQEND
  5
1BF
100
AcDbEntity
  8
0
370
              15
  6
Continuous
 62
               7
  0
POLYLINE
  5
1C0
100
AcDbEntity
  8
0
370
              15
  6
Continuous
 62
               7
100
AcDb2dPolyline
 66
               1
 10
0.0
 20
0.0
 30
0.0
 75
               5
  0
VERTEX
  5
1C1
100
AcDbEntity
  8
0
370
              15
  6
Continuous
 62
               7
100
AcDbVertex
100
AcDb2dVertex
 10
207.82652389635709
 20
61.775563978877642
 30
0.0
  0
VERTEX
  5
1C2
100
AcDbEntity
  8
0
370
              15
  6
Continuous
 62
               7
100
AcDbVertex
100
AcDb2dVertex
 10
207.78498973199706
 20
61.752137924757648
 30
0.0
  0
VERTEX
  5
1C3
100
AcDbEntity
  8
0
370
              15
  6
Continuous
 62
               7
100
AcDbVertex
100
AcDb2dVertex
 10
207.6151996268371
 20
61.60768952379766
 30
0.0
  0
VERTEX
  5
1C4
100
AcDbEntity
  8
0
370
              15
  6
Continuous
 62
               7
100
AcDbVertex
100
AcDb2dVertex
 10
207.48519263883708
 20
61.408370926757641
 30
0.0
  0
VERTEX
  5
1C5
100
AcDbEntity
  8
0
370
              15
  6
Continuous
 62
               7
100
AcDbVertex
100
AcDb2dVertex
 10
207.40197735607705
 20
61.164928413517657
 30
0.0
  0
VERTEX
  5
1C6
100
AcDbEntity
  8
0
370
              15
  6
Continuous
 62
               7
100
AcDbVertex
100
AcDb2dVertex
 10
207.37004033579709
 20
60.890470569797642
 30
0.0
  0
VERTEX
  5
1C7
100
AcDbEntity
  8
0
370
              15
  6
Continuous
 62
               7
100
AcDbVertex
100
AcDb2dVertex
 10
207.39110314139711
 20
60.59980137159765
 30
0.0
  0
VERTEX
  5
1C8
100
AcDbEntity
  8
0
370
              15
  6
Continuous
 62
               7
100
AcDbVertex
100
AcDb2dVertex
 10
207.46402997051709
 20
60.308605144997657
 30
0.0
  0
VERTEX
  5
1C9
100
AcDbEntity
  8
0
370
              15
  6
Continuous
 62
               7
100
AcDbVertex
100
AcDb2dVertex
 10
207.58488962991709
 20
60.032561659757647
 30
0.0
  0
VERTEX
  5
1CA
100
AcDbEntity
  8
0
370
              15
  6
Continuous
 62
               7
100
AcDbVertex
100
AcDb2dVertex
 10
207.74716645767705
 20
59.786562186917649
 30
0.0
  0
VERTEX
  5
1CB
100
AcDbEntity
  8
0
370
              15
  6
Continuous
 62
               7
100
AcDbVertex
100
AcDb2dVertex
 10
207.94211221447708
 20
59.583858806237643
 30
0.0
  0
VERTEX
  5
1CC
100
AcDbEntity
  8
0
370
              15
  6
Continuous
 62
               7
100
AcDbVertex
100
AcDb2dVertex
 10
208.15921713739706
 20
59.435389444357654
 30
0.0
  0
VERTEX
  5
1CD
100
AcDbEntity
  8
0
370
              15
  6
Continuous
 62
               7
100
AcDbVertex
100
AcDb2dVertex
 10
208.38677725891705
 20
59.349148318557653
 30
0.0
  0
SEQEND
  5
1CE
100
AcDbEntity
  8
0
370
              15
  6
Continuous
 62
               7
  0
LINE
  5
1CF
100
AcDbEntity
  8
0
370
              15
  6
Continuous
 62
               7
100
AcDbLine
 10
198.75731881795707
 20
243.41159417431766
 30
0.0
 11
208.50990363291706
 21
241.13995061919766
 31
0.0
  0
ARC
  5
1D0
100
AcDbEntity
  8
0
370
              15
  6
Continuous
 62
               7
100
AcDbCircle
 10
208.88196102719706
 20
240.48677162639768
 30
0.0
 40
0.751711049039513
100
AcDbArc
 50
119.66627882440184
 51
184.89945428639842
  0
LINE
  5
1D1
100
AcDbEntity
  8
0
370
              15
  6
Continuous
 62
               7
100
AcDbLine
 10
208.13299664787709
 20
240.42256991503768
 30
0.0
 11
198.38041183287709
 21
242.69421347015765
 31
0.0
  0
ARC
  5
1D2
100
AcDbEntity
  8
0
370
              15
  6
Continuous
 62
               7
100
AcDbCircle
 10
199.12937621223708
 20
242.75841518155767
 30
0.0
 40
0.751711049039654
100
AcDbArc
 50
119.6662788243997
 51
184.89945428640098
  0
LINE
  5
1D3
100
AcDbEntity
  8
0
370
              15
  6
Continuous
 62
               7
100
AcDbLine
 10
208.46666763787707
 20
228.11156538691765
 30
0.0
 11
208.13299664787709
 21
240.42256991503768
 31
0.0
  0
LINE
  5
1D4
100
AcDbEntity
  8
0
370
              15
  6
Continuous
 62
               7
100
AcDbLine
 10
198.71408282291708
 20
230.38320894203764
 30
0.0
 11
208.46666763787707
 21
228.11156538691765
 31
0.0
  0
LINE
  5
1D5
100
AcDbEntity
  8
0
370
              15
  6
Continuous
 62
               7
100
AcDbLine
 10
198.38041183287709
 20
242.69421347015765
 30
0.0
 11
198.71408282291708
 21
230.38320894203764
 31
0.0
  0
LINE
  5
1D6
100
AcDbEntity
  8
0
370
              15
  6
Continuous
 62
               7
100
AcDbLine
 10
216.94706758627706
 20
244.25263413451765
 30
0.0
 11
207.1944827713171
 21
246.52427768967766
 31
0.0
  0
LINE
  5
1D7
100
AcDbEntity
  8
0
370
              15
  6
Continuous
 62
               7
100
AcDbLine
 10
208.50990363291706
 20
241.13995061919766
 30
0.0
 11
216.94706758627706
 21
244.25263413451765
 31
0.0
  0
LINE
  5
1D8
100
AcDbEntity
  8
0
370
              15
  6
Continuous
 62
               7
100
AcDbLine
 10
207.1944827713171
 20
246.52427768967766
 30
0.0
 11
198.75731881795707
 21
243.41159417431766
 31
0.0
  0
ARC
  5
1D9
100
AcDbEntity
  8
0
370
              15
  6
Continuous
 62
               7
100
AcDbCircle
 10
208.2672530946771
 20
240.47074790919766
 30
0.0
 40
0.7118367444533428
100
AcDbArc
 50
359.27075458899981
 51
70.06953429430024
  0
ARC
  5
1DA
100
AcDbEntity
  8
0
370
              15
  6
Continuous
 62
               7
100
AcDbCircle
 10
208.48036437887708
 20
242.07826428803767
 30
0.0
 40
1.691741173301077
100
AcDbArc
 50
258.15109532389937
 51
287.14350713680068
  0
LINE
  5
1DB
100
AcDbEntity
  8
0
370
              15
  6
Continuous
 62
               7
100
AcDbLine
 10
208.97903218283707
 20
240.46168808547765
 30
0.0
 11
209.3127031728371
 21
228.15068355735764
 31
0.0
  0
ARC
  5
1DC
100
AcDbEntity
  8
0
370
              15
  6
Continuous
 62
               7
100
AcDbCircle
 10
208.81403536891708
 20
229.76725975991764
 30
0.0
 40
1.6917411733007466
100
AcDbArc
 50
258.15109532390022
 51
287.14350713679931
  0
ARC
  5
1DD
100
AcDbEntity
  8
0
370
              15
  6
Continuous
 62
               7
100
AcDbCircle
 10
216.7044170480371
 20
243.58343142455766
 30
0.0
 40
0.7118367444533882
100
AcDbArc
 50
359.27075458899986
 51
70.069534294301491
  0
LINE
  5
1DE
100
AcDbEntity
  8
0
370
              15
  6
Continuous
 62
               7
100
AcDbLine
 10
217.41619613619707
 20
243.57437160079763
 30
0.0
 11
208.97903218283707
 21
240.46168808547765
 31
0.0
  0
LINE
  5
1DF
100
AcDbEntity
  8
0
370
              15
  6
Continuous
 62
               7
100
AcDbLine
 10
217.7498671261971
 20
231.26336707267768
 30
0.0
 11
217.41619613619707
 21
243.57437160079763
 31
0.0
  0
LINE
  5
1E0
100
AcDbEntity
  8
0
370
              15
  6
Continuous
 62
               7
100
AcDbLine
 10
209.3127031728371
 20
228.15068355735764
 30
0.0
 11
217.7498671261971
 21
231.26336707267768
 31
0.0
  0
ARC
  5
1E1
100
AcDbEntity
  8
0
370
              15
  6
Continuous
 62
               7
100
AcDbCircle
 10
208.91902643211711
 20
227.50199290487765
 30
0.0
 40
0.5392217484362163
100
AcDbArc
 50
258.15113736820206
 51
287.1434650925014
  0
ARC
  5
1E2
100
AcDbEntity
  8
0
370
              15
  6
Continuous
 62
               7
100
AcDbCircle
 10
208.9327925249971
 20
226.98359546219766
 30
0.0
 40
0.1248344230751594
100
AcDbArc
 50
119.58476778820742
 51
184.28848665069472
  0
ARC
  5
1E3
100
AcDbEntity
  8
0
370
              15
  6
Continuous
 62
               7
100
AcDbCircle
 10
208.92399353119708
 20
227.34398271799768
 30
0.0
 40
0.2573104389148896
100
AcDbArc
 50
258.15128632699646
 51
287.14331613360218
  0
ARC
  5
1E4
100
AcDbEntity
  8
0
370
              15
  6
Continuous
 62
               7
100
AcDbCircle
 10
208.95959788163708
 20
226.98678206251765
 30
0.0
 40
0.118372430204316
100
AcDbArc
 50
359.97429305030761
 51
70.12591745169459
  0
ARC
  5
1E5
100
AcDbEntity
  8
0
370
              15
  6
Continuous
 62
               7
100
AcDbCircle
 10
208.93134671947709
 20
227.04521395431766
 30
0.0
 40
0.5639184536423753
100
AcDbArc
 50
258.15120116120011
 51
287.14340129949983
  0
LINE
  5
1E6
100
AcDbEntity
  8
0
370
              15
  6
Continuous
 62
               7
100
AcDbLine
 10
208.81555752423708
 20
226.49331098763767
 30
0.0
 11
208.80830761583709
 21
226.97426055063767
 31
0.0
  0
LINE
  5
1E7
100
AcDbEntity
  8
0
370
              15
  6
Continuous
 62
               7
100
AcDbLine
 10
209.07797029995709
 20
226.98672895227767
 30
0.0
 11
209.09756971939709
 21
226.50635039399765
 31
0.0
  0
LINE
  5
1E8
100
AcDbEntity
  8
0
370
              15
  6
Continuous
 62
               7
100
AcDbLine
 10
208.80830761583709
 20
226.97426055063767
 30
0.0
 11
198.37530961863706
 21
229.40439093255765
 31
0.0
  0
ARC
  5
1E9
100
AcDbEntity
  8
0
370
              15
  6
Continuous
 62
               7
100
AcDbCircle
 10
198.49979452779706
 20
229.41372584415765
 30
0.0
 40
0.1248344230753732
100
AcDbArc
 50
119.58476778829571
 51
184.28848665070771
  0
LINE
  5
1EA
100
AcDbEntity
  8
0
370
              15
  6
Continuous
 62
               7
100
AcDbLine
 10
198.43816243839709
 20
229.52228513087766
 30
0.0
 11
208.87116043559706
 21
227.09215474895768
 31
0.0
  0
ARC
  5
1EB
100
AcDbEntity
  8
0
370
              15
  6
Continuous
 62
               7
100
AcDbCircle
 10
210.27867509471707
 20
235.18008720155765
 30
0.0
 40
6.6310643337893058
100
AcDbArc
 50
285.11402805829994
 51
295.3865625195001
  0
ARC
  5
1EC
100
AcDbEntity
  8
0
370
              15
  6
Continuous
 62
               7
100
AcDbCircle
 10
206.5989855215571
 20
237.38592856903767
 30
0.0
 40
9.0526385989697111
100
AcDbArc
 50
249.48451039610009
 51
264.20851377049991
  0
POLYLINE
  5
1ED
100
AcDbEntity
  8
0
370
              15
  6
Continuous
 62
               7
100
AcDb2dPolyline
 66
               1
 10
0.0
 20
0.0
 30
0.0
 75
               5
  0
VERTEX
  5
1EE
100
AcDbEntity
  8
0
370
              15
  6
Continuous
 62
               7
100
AcDbVertex
100
AcDb2dVertex
 10
218.02564263247709
 20
230.42795204099764
 30
0.0
  0
VERTEX
  5
1EF
100
AcDbEntity
  8
0
370
              15
  6
Continuous
 62
               7
100
AcDbVertex
100
AcDb2dVertex
 10
218.03596121847707
 20
230.4325568543577
 30
0.0
  0
VERTEX
  5
1F0
100
AcDbEntity
  8
0
370
              15
  6
Continuous
 62
               7
100
AcDbVertex
100
AcDb2dVertex
 10
218.04323189967707
 20
230.43760208079766
 30
0.0
  0
VERTEX
  5
1F1
100
AcDbEntity
  8
0
370
              15
  6
Continuous
 62
               7
100
AcDbVertex
100
AcDb2dVertex
 10
218.0471747840771
 20
230.44289394587764
 30
0.0
  0
VERTEX
  5
1F2
100
AcDbEntity
  8
0
370
              15
  6
Continuous
 62
               7
100
AcDbVertex
100
AcDb2dVertex
 10
218.04763977123707
 20
230.44822926611766
 30
0.0
  0
VERTEX
  5
1F3
100
AcDbEntity
  8
0
370
              15
  6
Continuous
 62
               7
100
AcDbVertex
100
AcDb2dVertex
 10
218.04460739371711
 20
230.45340287859767
 30
0.0
  0
VERTEX
  5
1F4
100
AcDbEntity
  8
0
370
              15
  6
Continuous
 62
               7
100
AcDbVertex
100
AcDb2dVertex
 10
218.03819580927711
 20
230.45821598375767
 30
0.0
  0
VERTEX
  5
1F5
100
AcDbEntity
  8
0
370
              15
  6
Continuous
 62
               7
100
AcDbVertex
100
AcDb2dVertex
 10
218.02864993379706
 20
230.46248366259766
 30
0.0
  0
VERTEX
  5
1F6
100
AcDbEntity
  8
0
370
              15
  6
Continuous
 62
               7
100
AcDbVertex
100
AcDb2dVertex
 10
218.01633702959711
 20
230.46604206303766
 30
0.0
  0
SEQEND
  5
1F7
100
AcDbEntity
  8
0
370
              15
  6
Continuous
 62
               7
  0
LINE
  5
1F8
100
AcDbEntity
  8
0
370
              15
  6
Continuous
 62
               7
100
AcDbLine
 10
208.99983908419708
 20
227.09810446751766
 30
0.0
 11
218.02564263247709
 21
230.42795204099764
 31
0.0
  0
POLYLINE
  5
1F9
100
AcDbEntity
  8
0
370
              15
  6
Continuous
 62
               7
100
AcDb2dPolyline
 66
               1
 10
0.0
 20
0.0
 30
0.0
 75
               5
  0
VERTEX
  5
1FA
100
AcDbEntity
  8
0
370
              15
  6
Continuous
 62
               7
100
AcDbVertex
100
AcDb2dVertex
 10
198.42885683547709
 20
229.56037515291769
 30
0.0
  0
VERTEX
  5
1FB
100
AcDbEntity
  8
0
370
              15
  6
Continuous
 62
               7
100
AcDbVertex
100
AcDb2dVertex
 10
198.41853824951707
 20
229.55577033955768
 30
0.0
  0
VERTEX
  5
1FC
100
AcDbEntity
  8
0
370
              15
  6
Continuous
 62
               7
100
AcDbVertex
100
AcDb2dVertex
 10
198.41126756827705
 20
229.55072511311766
 30
0.0
  0
VERTEX
  5
1FD
100
AcDbEntity
  8
0
370
              15
  6
Continuous
 62
               7
100
AcDbVertex
100
AcDb2dVertex
 10
198.4073246839171
 20
229.54543324803765
 30
0.0
  0
VERTEX
  5
1FE
100
AcDbEntity
  8
0
370
              15
  6
Continuous
 62
               7
100
AcDbVertex
100
AcDb2dVertex
 10
198.40685969671708
 20
229.54009792779766
 30
0.0
  0
VERTEX
  5
1FF
100
AcDbEntity
  8
0
370
              15
  6
Continuous
 62
               7
100
AcDbVertex
100
AcDb2dVertex
 10
198.40989207423706
 20
229.53492431535767
 30
0.0
  0
VERTEX
  5
200
100
AcDbEntity
  8
0
370
              15
  6
Continuous
 62
               7
100
AcDbVertex
100
AcDb2dVertex
 10
198.41630365871708
 20
229.53011121015766
 30
0.0
  0
VERTEX
  5
201
100
AcDbEntity
  8
0
370
              15
  6
Continuous
 62
               7
100
AcDbVertex
100
AcDb2dVertex
 10
198.42584953415707
 20
229.52584353135765
 30
0.0
  0
VERTEX
  5
202
100
AcDbEntity
  8
0
370
              15
  6
Continuous
 62
               7
100
AcDbVertex
100
AcDb2dVertex
 10
198.43816243839709
 20
229.52228513087766
 30
0.0
  0
SEQEND
  5
203
100
AcDbEntity
  8
0
370
              15
  6
Continuous
 62
               7
  0
LINE
  5
204
100
AcDbEntity
  8
0
370
              15
  6
Continuous
 62
               7
100
AcDbLine
 10
218.10377384819708
 20
230.31657652575768
 30
0.0
 11
209.07797029995709
 21
226.98672895227767
 31
0.0
  0
ARC
  5
205
100
AcDbEntity
  8
0
370
              15
  6
Continuous
 62
               7
100
AcDbCircle
 10
217.98540142991709
 20
230.31662963603765
 30
0.0
 40
0.118372430204407
100
AcDbArc
 50
359.97429305030761
 51
70.125917451688906
  0
LINE
  5
206
100
AcDbEntity
  8
0
370
              15
  6
Continuous
 62
               7
100
AcDbLine
 10
198.38255952699708
 20
228.92344136955765
 30
0.0
 11
208.81555752423708
 21
226.49331098763767
 31
0.0
  0
LINE
  5
207
100
AcDbEntity
  8
0
370
              15
  6
Continuous
 62
               7
100
AcDbLine
 10
198.37530961863706
 20
229.40439093255765
 30
0.0
 11
198.38255952699708
 21
228.92344136955765
 31
0.0
  0
LINE
  5
208
100
AcDbEntity
  8
0
370
              15
  6
Continuous
 62
               7
100
AcDbLine
 10
209.09756971939709
 20
226.50635039399765
 30
0.0
 11
218.1233732676771
 21
229.83619796747763
 31
0.0
  0
LINE
  5
209
100
AcDbEntity
  8
0
370
              15
  6
Continuous
 62
               7
100
AcDbLine
 10
218.1233732676771
 20
229.83619796747763
 30
0.0
 11
218.10377384819708
 21
230.31657652575768
 31
0.0
  0
SPLINE
  5
20A
100
AcDbEntity
  8
0
370
              15
  6
Continuous
 62
               7
100
AcDbSpline
210
0.0
220
0.0
230
1.0
 70
               8
 71
               2
 72
              14
 73
              11
 74
               0
 42
0.000001
 43
0.000001
 40
0.0
 40
0.0
 40
0.0
 40
1.0
 40
1.0
 40
2.0
 40
3.0
 40
4.0
 40
5.0
 40
6.0
 40
6.0
 40
7.0
 40
7.0
 40
7.0
 10
203.89175380374772
 20
224.15255978543314
 30
0.0
 10
203.89162217636249
 20
224.15070625972646
 30
0.0
 10
203.89149054897729
 20
224.14885273401978
 30
0.0
 10
203.8892793005997
 20
224.10715482030832
 30
0.0
 10
203.900402970519
 20
224.03206971235841
 30
0.0
 10
203.92129929085888
 20
223.96498804016778
 30
0.0
 10
203.95202505121165
 20
223.90204873696919
 30
0.0
 10
203.9901617440143
 20
223.84723598401234
 30
0.0
 10
204.0139832788623
 20
223.82238980328955
 30
0.0
 10
204.01531058501018
 20
223.82105665176692
 30
0.0
 10
204.0166378911581
 20
223.81972350024432
 30
0.0
  0
LINE
  5
20B
100
AcDbEntity
  8
0
370
              15
  6
Continuous
 62
               7
100
AcDbLine
 10
198.30932128679709
 20
229.44389363563766
 30
0.0
 11
198.30921268687706
 21
229.44566455279767
 31
0.0
  0
POLYLINE
  5
20C
100
AcDbEntity
  8
0
370
              15
  6
Continuous
 62
               7
100
AcDb2dPolyline
 66
               1
 10
0.0
 20
0.0
 30
0.0
 75
               5
  0
VERTEX
  5
20D
100
AcDbEntity
  8
0
370
              15
  6
Continuous
 62
               7
100
AcDbVertex
100
AcDb2dVertex
 10
198.39683153939708
 20
229.55875989455765
 30
0.0
  0
VERTEX
  5
20E
100
AcDbEntity
  8
0
370
              15
  6
Continuous
 62
               7
100
AcDbVertex
100
AcDb2dVertex
 10
198.38769401655708
 20
229.55432421823764
 30
0.0
  0
VERTEX
  5
20F
100
AcDbEntity
  8
0
370
              15
  6
Continuous
 62
               7
100
AcDbVertex
100
AcDb2dVertex
 10
198.38678094983709
 20
229.55375210055766
 30
0.0
  0
SEQEND
  5
210
100
AcDbEntity
  8
0
370
              15
  6
Continuous
 62
               7
  0
POLYLINE
  5
211
100
AcDbEntity
  8
0
370
              15
  6
Continuous
 62
               7
100
AcDb2dPolyline
 66
               1
 10
0.0
 20
0.0
 30
0.0
 75
               5
  0
VERTEX
  5
212
100
AcDbEntity
  8
0
370
              15
  6
Continuous
 62
               7
100
AcDbVertex
100
AcDb2dVertex
 10
198.38255952699708
 20
228.92344136955765
 30
0.0
  0
VERTEX
  5
213
100
AcDbEntity
  8
0
370
              15
  6
Continuous
 62
               7
100
AcDbVertex
100
AcDb2dVertex
 10
198.35557489595706
 20
228.93123958211766
 30
0.0
  0
VERTEX
  5
214
100
AcDbEntity
  8
0
370
              15
  6
Continuous
 62
               7
100
AcDbVertex
100
AcDb2dVertex
 10
198.33465408055707
 20
228.94059280515765
 30
0.0
  0
VERTEX
  5
215
100
AcDbEntity
  8
0
370
              15
  6
Continuous
 62
               7
100
AcDbVertex
100
AcDb2dVertex
 10
198.32060104771708
 20
228.95114132231768
 30
0.0
  0
VERTEX
  5
216
100
AcDbEntity
  8
0
370
              15
  6
Continuous
 62
               7
100
AcDbVertex
100
AcDb2dVertex
 10
198.31395571851706
 20
228.96247987231766
 30
0.0
  0
VERTEX
  5
217
100
AcDbEntity
  8
0
370
              15
  6
Continuous
 62
               7
100
AcDbVertex
100
AcDb2dVertex
 10
198.31343553119709
 20
228.96660523295765
 30
0.0
  0
SEQEND
  5
218
100
AcDbEntity
  8
0
370
              15
  6
Continuous
 62
               7
  0
LINE
  5
219
100
AcDbEntity
  8
0
370
              15
  6
Continuous
 62
               7
100
AcDbLine
 10
218.04160871535709
 20
230.46800064559764
 30
0.0
 11
218.05218758891709
 21
230.46389288015763
 31
0.0
  0
LINE
  5
21A
100
AcDbEntity
  8
0
370
              15
  6
Continuous
 62
               7
100
AcDbLine
 10
218.15020283599711
 20
230.35735660975769
 30
0.0
 11
218.15035288131708
 21
230.35574438335766
 31
0.0
  0
POLYLINE
  5
21B
100
AcDbEntity
  8
0
370
              15
  6
Continuous
 62
               7
100
AcDb2dPolyline
 66
               1
 10
0.0
 20
0.0
 30
0.0
 75
               5
  0
VERTEX
  5
21C
100
AcDbEntity
  8
0
370
              15
  6
Continuous
 62
               7
100
AcDbVertex
100
AcDb2dVertex
 10
218.17208519263707
 20
229.87715955759768
 30
0.0
  0
VERTEX
  5
21D
100
AcDbEntity
  8
0
370
              15
  6
Continuous
 62
               7
100
AcDbVertex
100
AcDb2dVertex
 10
218.17056429519707
 20
229.86894466923766
 30
0.0
  0
VERTEX
  5
21E
100
AcDbEntity
  8
0
370
              15
  6
Continuous
 62
               7
100
AcDbVertex
100
AcDb2dVertex
 10
218.16192175275708
 20
229.85734677611765
 30
0.0
  0
VERTEX
  5
21F
100
AcDbEntity
  8
0
370
              15
  6
Continuous
 62
               7
100
AcDbVertex
100
AcDb2dVertex
 10
218.14598734079709
 20
229.84628947683768
 30
0.0
  0
VERTEX
  5
220
100
AcDbEntity
  8
0
370
              15
  6
Continuous
 62
               7
100
AcDbVertex
100
AcDb2dVertex
 10
218.1233732676771
 20
229.83619796747763
 30
0.0
  0
SEQEND
  5
221
100
AcDbEntity
  8
0
370
              15
  6
Continuous
 62
               7
  0
POLYLINE
  5
222
100
AcDbEntity
  8
0
370
              15
  6
Continuous
 62
               7
100
AcDb2dPolyline
 66
               1
 10
0.0
 20
0.0
 30
0.0
 75
               5
  0
VERTEX
  5
223
100
AcDbEntity
  8
0
370
              15
  6
Continuous
 62
               7
100
AcDbVertex
100
AcDb2dVertex
 10
201.54020826639706
 20
209.60312056307765
 30
0.0
  0
VERTEX
  5
224
100
AcDbEntity
  8
0
370
              15
  6
Continuous
 62
               7
100
AcDbVertex
100
AcDb2dVertex
 10
201.25353583903711
 20
209.47439948731764
 30
0.0
  0
VERTEX
  5
225
100
AcDbEntity
  8
0
370
              15
  6
Continuous
 62
               7
100
AcDbVertex
100
AcDb2dVertex
 10
201.02976283875708
 20
209.33604285087765
 30
0.0
  0
VERTEX
  5
226
100
AcDbEntity
  8
0
370
              15
  6
Continuous
 62
               7
100
AcDbVertex
100
AcDb2dVertex
 10
200.87371374419706
 20
209.19103315823764
 30
0.0
  0
VERTEX
  5
227
100
AcDbEntity
  8
0
370
              15
  6
Continuous
 62
               7
100
AcDbVertex
100
AcDb2dVertex
 10
200.78875281159708
 20
209.04249653971766
 30
0.0
  0
VERTEX
  5
228
100
AcDbEntity
  8
0
370
              15
  6
Continuous
 62
               7
100
AcDbVertex
100
AcDb2dVertex
 10
200.77671028595708
 20
208.89363459375767
 30
0.0
  0
VERTEX
  5
229
100
AcDbEntity
  8
0
370
              15
  6
Continuous
 62
               7
100
AcDbVertex
100
AcDb2dVertex
 10
200.8378471587171
 20
208.74765663535766
 30
0.0
  0
VERTEX
  5
22A
100
AcDbEntity
  8
0
370
              15
  6
Continuous
 62
               7
100
AcDbVertex
100
AcDb2dVertex
 10
200.8821895481571
 20
208.69118320411764
 30
0.0
  0
SEQEND
  5
22B
100
AcDbEntity
  8
0
370
              15
  6
Continuous
 62
               7
  0
LINE
  5
22C
100
AcDbEntity
  8
0
370
              15
  6
Continuous
 62
               7
100
AcDbLine
 10
204.37992670775711
 20
210.87886620911766
 30
0.0
 11
204.00111569207709
 21
210.73911322927768
 31
0.0
  0
LINE
  5
22D
100
AcDbEntity
  8
0
370
              15
  6
Continuous
 62
               7
100
AcDbLine
 10
201.69567854987707
 20
209.88857906543765
 30
0.0
 11
201.28838445047708
 21
209.73831795447765
 31
0.0
  0
LINE
  5
22E
100
AcDbEntity
  8
0
370
              15
  6
Continuous
 62
               7
100
AcDbLine
 10
207.18529663135709
 20
208.36476593671767
 30
0.0
 11
207.37600560731707
 21
208.43512330903766
 31
0.0
  0
POLYLINE
  5
22F
100
AcDbEntity
  8
0
370
              15
  6
Continuous
 62
               7
100
AcDb2dPolyline
 66
               1
 10
0.0
 20
0.0
 30
0.0
 75
               5
  0
VERTEX
  5
230
100
AcDbEntity
  8
0
370
              15
  6
Continuous
 62
               7
100
AcDbVertex
100
AcDb2dVertex
 10
206.75546459187706
 20
208.29242103059767
 30
0.0
  0
VERTEX
  5
231
100
AcDbEntity
  8
0
370
              15
  6
Continuous
 62
               7
100
AcDbVertex
100
AcDb2dVertex
 10
206.38181718279711
 20
208.17820869583764
 30
0.0
  0
VERTEX
  5
232
100
AcDbEntity
  8
0
370
              15
  6
Continuous
 62
               7
100
AcDbVertex
100
AcDb2dVertex
 10
205.9605775491971
 20
208.08024514075765
 30
0.0
  0
VERTEX
  5
233
100
AcDbEntity
  8
0
370
              15
  6
Continuous
 62
               7
100
AcDbVertex
100
AcDb2dVertex
 10
205.5008265146771
 20
208.00064228319764
 30
0.0
  0
VERTEX
  5
234
100
AcDbEntity
  8
0
370
              15
  6
Continuous
 62
               7
100
AcDbVertex
100
AcDb2dVertex
 10
205.01247325787708
 20
207.94111555619767
 30
0.0
  0
VERTEX
  5
235
100
AcDbEntity
  8
0
370
              15
  6
Continuous
 62
               7
100
AcDbVertex
100
AcDb2dVertex
 10
204.50604652099707
 20
207.90294866187767
 30
0.0
  0
VERTEX
  5
236
100
AcDbEntity
  8
0
370
              15
  6
Continuous
 62
               7
100
AcDbVertex
100
AcDb2dVertex
 10
203.99246208471709
 20
207.88696414739763
 30
0.0
  0
VERTEX
  5
237
100
AcDbEntity
  8
0
370
              15
  6
Continuous
 62
               7
100
AcDbVertex
100
AcDb2dVertex
 10
203.48279168807707
 20
207.89350654851768
 30
0.0
  0
VERTEX
  5
238
100
AcDbEntity
  8
0
370
              15
  6
Continuous
 62
               7
100
AcDbVertex
100
AcDb2dVertex
 10
202.98802174635705
 20
207.92243494835765
 30
0.0
  0
VERTEX
  5
239
100
AcDbEntity
  8
0
370
              15
  6
Continuous
 62
               7
100
AcDbVertex
100
AcDb2dVertex
 10
202.51881790711707
 20
207.97312561439765
 30
0.0
  0
VERTEX
  5
23A
100
AcDbEntity
  8
0
370
              15
  6
Continuous
 62
               7
100
AcDbVertex
100
AcDb2dVertex
 10
202.08529491143707
 20
208.04448601075768
 30
0.0
  0
VERTEX
  5
23B
100
AcDbEntity
  8
0
370
              15
  6
Continuous
 62
               7
100
AcDbVertex
100
AcDb2dVertex
 10
201.69679755691709
 20
208.13497766279767
 30
0.0
  0
VERTEX
  5
23C
100
AcDbEntity
  8
0
370
              15
  6
Continuous
 62
               7
100
AcDbVertex
100
AcDb2dVertex
 10
201.36170050471708
 20
208.24264988303764
 30
0.0
  0
VERTEX
  5
23D
100
AcDbEntity
  8
0
370
              15
  6
Continuous
 62
               7
100
AcDbVertex
100
AcDb2dVertex
 10
201.08722782027706
 20
208.36518180507767
 30
0.0
  0
VERTEX
  5
23E
100
AcDbEntity
  8
0
370
              15
  6
Continuous
 62
               7
100
AcDbVertex
100
AcDb2dVertex
 10
200.87929566307707
 20
208.49993192991766
 30
0.0
  0
VERTEX
  5
23F
100
AcDbEntity
  8
0
370
              15
  6
Continuous
 62
               7
100
AcDbVertex
100
AcDb2dVertex
 10
200.74238681103711
 20
208.64399550771765
 30
0.0
  0
VERTEX
  5
240
100
AcDbEntity
  8
0
370
              15
  6
Continuous
 62
               7
100
AcDbVertex
100
AcDb2dVertex
 10
200.6794520930371
 20
208.79426709031765
 30
0.0
  0
VERTEX
  5
241
100
AcDbEntity
  8
0
370
              15
  6
Continuous
 62
               7
100
AcDbVertex
100
AcDb2dVertex
 10
200.6753074120771
 20
208.83715233959768
 30
0.0
  0
SEQEND
  5
242
100
AcDbEntity
  8
0
370
              15
  6
Continuous
 62
               7
  0
ARC
  5
243
100
AcDbEntity
  8
0
370
              15
  6
Continuous
 62
               7
100
AcDbCircle
 10
201.52701180219708
 20
209.54724279663768
 30
0.0
 40
0.0574149061630711
100
AcDbArc
 50
76.712120168111667
 51
110.84109762127761
  0
POLYLINE
  5
244
100
AcDbEntity
  8
0
370
              15
  6
Continuous
 62
               7
100
AcDb2dPolyline
 66
               1
 10
0.0
 20
0.0
 30
0.0
 75
               5
  0
VERTEX
  5
245
100
AcDbEntity
  8
0
370
              15
  6
Continuous
 62
               7
100
AcDbVertex
100
AcDb2dVertex
 10
200.68306721835711
 20
208.55084932583765
 30
0.0
  0
VERTEX
  5
246
100
AcDbEntity
  8
0
370
              15
  6
Continuous
 62
               7
100
AcDbVertex
100
AcDb2dVertex
 10
200.68721189931705
 20
208.50796407655764
 30
0.0
  0
VERTEX
  5
247
100
AcDbEntity
  8
0
370
              15
  6
Continuous
 62
               7
100
AcDbVertex
100
AcDb2dVertex
 10
200.75014661731711
 20
208.35769249395764
 30
0.0
  0
VERTEX
  5
248
100
AcDbEntity
  8
0
370
              15
  6
Continuous
 62
               7
100
AcDbVertex
100
AcDb2dVertex
 10
200.88705546935705
 20
208.21362891611764
 30
0.0
  0
VERTEX
  5
249
100
AcDbEntity
  8
0
370
              15
  6
Continuous
 62
               7
100
AcDbVertex
100
AcDb2dVertex
 10
201.09498762651708
 20
208.07887879131766
 30
0.0
  0
VERTEX
  5
24A
100
AcDbEntity
  8
0
370
              15
  6
Continuous
 62
               7
100
AcDbVertex
100
AcDb2dVertex
 10
201.36946031095707
 20
207.95634686927767
 30
0.0
  0
VERTEX
  5
24B
100
AcDbEntity
  8
0
370
              15
  6
Continuous
 62
               7
100
AcDbVertex
100
AcDb2dVertex
 10
201.70455736319707
 20
207.84867464899764
 30
0.0
  0
VERTEX
  5
24C
100
AcDbEntity
  8
0
370
              15
  6
Continuous
 62
               7
100
AcDbVertex
100
AcDb2dVertex
 10
202.09305471767709
 20
207.75818299695763
 30
0.0
  0
VERTEX
  5
24D
100
AcDbEntity
  8
0
370
              15
  6
Continuous
 62
               7
100
AcDbVertex
100
AcDb2dVertex
 10
202.52657771335706
 20
207.68682260063767
 30
0.0
  0
VERTEX
  5
24E
100
AcDbEntity
  8
0
370
              15
  6
Continuous
 62
               7
100
AcDbVertex
100
AcDb2dVertex
 10
202.99578155263706
 20
207.63613193459767
 30
0.0
  0
VERTEX
  5
24F
100
AcDbEntity
  8
0
370
              15
  6
Continuous
 62
               7
100
AcDbVertex
100
AcDb2dVertex
 10
203.49055149431709
 20
207.60720353475764
 30
0.0
  0
VERTEX
  5
250
100
AcDbEntity
  8
0
370
              15
  6
Continuous
 62
               7
100
AcDbVertex
100
AcDb2dVertex
 10
204.00022189095705
 20
207.60066113363766
 30
0.0
  0
VERTEX
  5
251
100
AcDbEntity
  8
0
370
              15
  6
Continuous
 62
               7
100
AcDbVertex
100
AcDb2dVertex
 10
204.51380632723706
 20
207.61664564811764
 30
0.0
  0
VERTEX
  5
252
100
AcDbEntity
  8
0
370
              15
  6
Continuous
 62
               7
100
AcDbVertex
100
AcDb2dVertex
 10
205.02023306411709
 20
207.65481254243767
 30
0.0
  0
VERTEX
  5
253
100
AcDbEntity
  8
0
370
              15
  6
Continuous
 62
               7
100
AcDbVertex
100
AcDb2dVertex
 10
205.50858632091706
 20
207.71433926943766
 30
0.0
  0
VERTEX
  5
254
100
AcDbEntity
  8
0
370
              15
  6
Continuous
 62
               7
100
AcDbVertex
100
AcDb2dVertex
 10
205.96833735543709
 20
207.79394212695769
 30
0.0
  0
VERTEX
  5
255
100
AcDbEntity
  8
0
370
              15
  6
Continuous
 62
               7
100
AcDbVertex
100
AcDb2dVertex
 10
206.3895769890371
 20
207.89190568207766
 30
0.0
  0
VERTEX
  5
256
100
AcDbEntity
  8
0
370
              15
  6
Continuous
 62
               7
100
AcDbVertex
100
AcDb2dVertex
 10
206.76322439815706
 20
208.00611801683766
 30
0.0
  0
SEQEND
  5
257
100
AcDbEntity
  8
0
370
              15
  6
Continuous
 62
               7
  0
SPLINE
  5
258
100
AcDbEntity
  8
0
370
              15
  6
Continuous
 62
               7
100
AcDbSpline
210
0.0
220
0.0
230
1.0
 70
               8
 71
               2
 72
              17
 73
              14
 74
               0
 42
0.000001
 43
0.000001
 40
0.0
 40
0.0
 40
0.0
 40
1.0
 40
1.0
 40
2.0
 40
3.0
 40
4.0
 40
5.0
 40
6.0
 40
7.0
 40
8.0
 40
9.0
 40
9.0
 40
10.0
 40
10.0
 40
10.0
 10
206.71926167158617
 20
207.93033151829337
 30
0.0
 10
206.71929646368153
 20
207.93033952037689
 30
0.0
 10
206.71933125577692
 20
207.93034752246041
 30
0.0
 10
206.72347650272377
 20
207.93119703319192
 30
0.0
 10
206.73061710852073
 20
207.9336929495644
 30
0.0
 10
206.73819823476094
 20
207.93862051686503
 30
0.0
 10
206.74677191819754
 20
207.9481763623254
 30
0.0
 10
206.75383501767809
 20
207.95951616206847
 30
0.0
 10
206.75875552161796
 20
207.97106648654227
 30
0.0
 10
206.76173719469543
 20
207.9847426988438
 30
0.0
 10
206.76288277128
 20
207.99905237634346
 30
0.0
 10
206.76321288528456
 20
208.00589771438712
 30
0.0
 10
206.76321864171265
 20
208.00600786560344
 30
0.0
 10
206.76322439814075
 20
208.00611801681978
 30
0.0
  0
POLYLINE
  5
259
100
AcDbEntity
  8
0
370
              15
  6
Continuous
 62
               7
100
AcDb2dPolyline
 66
               1
 10
0.0
 20
0.0
 30
0.0
 75
               5
  0
VERTEX
  5
25A
100
AcDbEntity
  8
0
370
              15
  6
Continuous
 62
               7
100
AcDbVertex
100
AcDb2dVertex
 10
206.90807380671708
 20
202.66180646967766
 30
0.0
  0
VERTEX
  5
25B
100
AcDbEntity
  8
0
370
              15
  6
Continuous
 62
               7
100
AcDbVertex
100
AcDb2dVertex
 10
206.53442639759709
 20
202.54759413495765
 30
0.0
  0
VERTEX
  5
25C
100
AcDbEntity
  8
0
370
              15
  6
Continuous
 62
               7
100
AcDbVertex
100
AcDb2dVertex
 10
206.11318676403707
 20
202.44963057983767
 30
0.0
  0
VERTEX
  5
25D
100
AcDbEntity
  8
0
370
              15
  6
Continuous
 62
               7
100
AcDbVertex
100
AcDb2dVertex
 10
205.65343572947708
 20
202.37002772231764
 30
0.0
  0
VERTEX
  5
25E
100
AcDbEntity
  8
0
370
              15
  6
Continuous
 62
               7
100
AcDbVertex
100
AcDb2dVertex
 10
205.16508247271707
 20
202.31050099531765
 30
0.0
  0
VERTEX
  5
25F
100
AcDbEntity
  8
0
370
              15
  6
Continuous
 62
               7
100
AcDbVertex
100
AcDb2dVertex
 10
204.6586557358371
 20
202.27233410099763
 30
0.0
  0
VERTEX
  5
260
100
AcDbEntity
  8
0
370
              15
  6
Continuous
 62
               7
100
AcDbVertex
100
AcDb2dVertex
 10
204.14507129955709
 20
202.25634958647768
 30
0.0
  0
VERTEX
  5
261
100
AcDbEntity
  8
0
370
              15
  6
Continuous
 62
               7
100
AcDbVertex
100
AcDb2dVertex
 10
203.63540090291707
 20
202.26289198759767
 30
0.0
  0
VERTEX
  5
262
100
AcDbEntity
  8
0
370
              15
  6
Continuous
 62
               7
100
AcDbVertex
100
AcDb2dVertex
 10
203.14063096119708
 20
202.29182038743767
 30
0.0
  0
VERTEX
  5
263
100
AcDbEntity
  8
0
370
              15
  6
Continuous
 62
               7
100
AcDbVertex
100
AcDb2dVertex
 10
202.67142712195709
 20
202.34251105347764
 30
0.0
  0
VERTEX
  5
264
100
AcDbEntity
  8
0
370
              15
  6
Continuous
 62
               7
100
AcDbVertex
100
AcDb2dVertex
 10
202.23790412627707
 20
202.41387144983767
 30
0.0
  0
VERTEX
  5
265
100
AcDbEntity
  8
0
370
              15
  6
Continuous
 62
               7
100
AcDbVertex
100
AcDb2dVertex
 10
201.84940677175709
 20
202.50436310187769
 30
0.0
  0
VERTEX
  5
266
100
AcDbEntity
  8
0
370
              15
  6
Continuous
 62
               7
100
AcDbVertex
100
AcDb2dVertex
 10
201.5143097195571
 20
202.61203532211763
 30
0.0
  0
VERTEX
  5
267
100
AcDbEntity
  8
0
370
              15
  6
Continuous
 62
               7
100
AcDbVertex
100
AcDb2dVertex
 10
201.23983703511706
 20
202.73456724419765
 30
0.0
  0
VERTEX
  5
268
100
AcDbEntity
  8
0
370
              15
  6
Continuous
 62
               7
100
AcDbVertex
100
AcDb2dVertex
 10
201.03190487791707
 20
202.86931736899766
 30
0.0
  0
VERTEX
  5
269
100
AcDbEntity
  8
0
370
              15
  6
Continuous
 62
               7
100
AcDbVertex
100
AcDb2dVertex
 10
200.89499602587705
 20
203.01338094679767
 30
0.0
  0
VERTEX
  5
26A
100
AcDbEntity
  8
0
370
              15
  6
Continuous
 62
               7
100
AcDbVertex
100
AcDb2dVertex
 10
200.83206130787707
 20
203.16365252939767
 30
0.0
  0
VERTEX
  5
26B
100
AcDbEntity
  8
0
370
              15
  6
Continuous
 62
               7
100
AcDbVertex
100
AcDb2dVertex
 10
200.8279166269171
 20
203.20653777867767
 30
0.0
  0
SEQEND
  5
26C
100
AcDbEntity
  8
0
370
              15
  6
Continuous
 62
               7
  0
ARC
  5
26D
100
AcDbEntity
  8
0
370
              15
  6
Continuous
 62
               7
100
AcDbCircle
 10
201.28588266835709
 20
203.31405650379767
 30
0.0
 40
0.3570727720548245
100
AcDbArc
 50
138.45011251929839
 51
225.98546293239767
  0
POLYLINE
  5
26E
100
AcDbEntity
  8
0
370
              15
  6
Continuous
 62
               7
100
AcDb2dPolyline
 66
               1
 10
0.0
 20
0.0
 30
0.0
 75
               5
  0
VERTEX
  5
26F
100
AcDbEntity
  8
0
370
              15
  6
Continuous
 62
               7
100
AcDbVertex
100
AcDb2dVertex
 10
200.83567639463706
 20
202.92023618699767
 30
0.0
  0
VERTEX
  5
270
100
AcDbEntity
  8
0
370
              15
  6
Continuous
 62
               7
100
AcDbVertex
100
AcDb2dVertex
 10
200.83982107559709
 20
202.87735093771764
 30
0.0
  0
VERTEX
  5
271
100
AcDbEntity
  8
0
370
              15
  6
Continuous
 62
               7
100
AcDbVertex
100
AcDb2dVertex
 10
200.90275579359707
 20
202.72707935511764
 30
0.0
  0
VERTEX
  5
272
100
AcDbEntity
  8
0
370
              15
  6
Continuous
 62
               7
100
AcDbVertex
100
AcDb2dVertex
 10
201.03966464563709
 20
202.58301577731766
 30
0.0
  0
VERTEX
  5
273
100
AcDbEntity
  8
0
370
              15
  6
Continuous
 62
               7
100
AcDbVertex
100
AcDb2dVertex
 10
201.24759680283708
 20
202.44826565247766
 30
0.0
  0
VERTEX
  5
274
100
AcDbEntity
  8
0
370
              15
  6
Continuous
 62
               7
100
AcDbVertex
100
AcDb2dVertex
 10
201.52206948727707
 20
202.32573373043766
 30
0.0
  0
VERTEX
  5
275
100
AcDbEntity
  8
0
370
              15
  6
Continuous
 62
               7
100
AcDbVertex
100
AcDb2dVertex
 10
201.85716653947711
 20
202.21806151019766
 30
0.0
  0
VERTEX
  5
276
100
AcDbEntity
  8
0
370
              15
  6
Continuous
 62
               7
100
AcDbVertex
100
AcDb2dVertex
 10
202.24566389399709
 20
202.12756985815764
 30
0.0
  0
VERTEX
  5
277
100
AcDbEntity
  8
0
370
              15
  6
Continuous
 62
               7
100
AcDbVertex
100
AcDb2dVertex
 10
202.67918688967711
 20
202.05620946179766
 30
0.0
  0
VERTEX
  5
278
100
AcDbEntity
  8
0
370
              15
  6
Continuous
 62
               7
100
AcDbVertex
100
AcDb2dVertex
 10
203.14839072891709
 20
202.00551879575767
 30
0.0
  0
VERTEX
  5
279
100
AcDbEntity
  8
0
370
              15
  6
Continuous
 62
               7
100
AcDbVertex
100
AcDb2dVertex
 10
203.64316067063709
 20
201.97659039591764
 30
0.0
  0
VERTEX
  5
27A
100
AcDbEntity
  8
0
370
              15
  6
Continuous
 62
               7
100
AcDbVertex
100
AcDb2dVertex
 10
204.15283106727711
 20
201.97004799479765
 30
0.0
  0
VERTEX
  5
27B
100
AcDbEntity
  8
0
370
              15
  6
Continuous
 62
               7
100
AcDbVertex
100
AcDb2dVertex
 10
204.66641550355706
 20
201.98603250927766
 30
0.0
  0
VERTEX
  5
27C
100
AcDbEntity
  8
0
370
              15
  6
Continuous
 62
               7
100
AcDbVertex
100
AcDb2dVertex
 10
205.17284224043709
 20
202.02419940359766
 30
0.0
  0
VERTEX
  5
27D
100
AcDbEntity
  8
0
370
              15
  6
Continuous
 62
               7
100
AcDbVertex
100
AcDb2dVertex
 10
205.66119549723706
 20
202.08372613059765
 30
0.0
  0
VERTEX
  5
27E
100
AcDbEntity
  8
0
370
              15
  6
Continuous
 62
               7
100
AcDbVertex
100
AcDb2dVertex
 10
206.12094653175708
 20
202.16332898811768
 30
0.0
  0
VERTEX
  5
27F
100
AcDbEntity
  8
0
370
              15
  6
Continuous
 62
               7
100
AcDbVertex
100
AcDb2dVertex
 10
206.5421861653171
 20
202.26129254323766
 30
0.0
  0
VERTEX
  5
280
100
AcDbEntity
  8
0
370
              15
  6
Continuous
 62
               7
100
AcDbVertex
100
AcDb2dVertex
 10
206.9158335744371
 20
202.37550487799766
 30
0.0
  0
SEQEND
  5
281
100
AcDbEntity
  8
0
370
              15
  6
Continuous
 62
               7
  0
ARC
  5
282
100
AcDbEntity
  8
0
370
              15
  6
Continuous
 62
               7
100
AcDbCircle
 10
206.84306372991708
 20
202.36552260639766
 30
0.0
 40
0.0734513173243277
100
AcDbArc
 50
295.60508297778006
 51
7.810852792585651
  0
LINE
  5
283
100
AcDbEntity
  8
0
370
              15
  6
Continuous
 62
               7
100
AcDbLine
 10
207.44331741767709
 20
208.31806832767762
 30
0.0
 11
207.2634845031171
 21
208.25172340991764
 31
0.0
  0
LINE
  5
284
100
AcDbEntity
  8
0
370
              15
  6
Continuous
 62
               7
100
AcDbLine
 10
207.42385348567709
 20
202.33480725731766
 30
0.0
 11
207.6559708274371
 21
202.42044122475767
 31
0.0
  0
ARC
  5
285
100
AcDbEntity
  8
0
370
              15
  6
Continuous
 62
               7
100
AcDbCircle
 10
206.68604880371709
 20
207.86431325099764
 30
0.0
 40
0.0706947623532676
100
AcDbArc
 50
353.52350770110399
 51
67.874730463896412
  0
ARC
  5
286
100
AcDbEntity
  8
0
370
              15
  6
Continuous
 62
               7
100
AcDbCircle
 10
207.35014845887707
 20
202.32532045975765
 30
0.0
 40
0.0743130560986001
100
AcDbArc
 50
296.11949909080101
 51
7.3343878951131396
  0
ARC
  5
287
100
AcDbEntity
  8
0
370
              15
  6
Continuous
 62
               7
100
AcDbCircle
 10
207.35353353039707
 20
202.32041631519766
 30
0.0
 40
0.071122754901198
100
AcDbArc
 50
173.64604580968938
 51
246.84498445820373
  0
ARC
  5
288
100
AcDbEntity
  8
0
370
              15
  6
Continuous
 62
               7
100
AcDbCircle
 10
207.12567881691712
 20
202.37348990555768
 30
0.0
 40
0.0711227549011177
100
AcDbArc
 50
173.64604580960841
 51
246.84498445821583
  0
LINE
  5
289
100
AcDbEntity
  8
0
370
              15
  6
Continuous
 62
               7
100
AcDbLine
 10
201.22556650631708
 20
209.61875565887766
 30
0.0
 11
201.22951777235707
 21
209.47297117167767
 31
0.0
  0
POLYLINE
  5
28A
100
AcDbEntity
  8
0
370
              15
  6
Continuous
 62
               7
100
AcDb2dPolyline
 66
               1
 10
0.0
 20
0.0
 30
0.0
 75
               5
  0
VERTEX
  5
28B
100
AcDbEntity
  8
0
370
              15
  6
Continuous
 62
               7
100
AcDbVertex
100
AcDb2dVertex
 10
201.19100742819708
 20
209.64017560475764
 30
0.0
  0
VERTEX
  5
28C
100
AcDbEntity
  8
0
370
              15
  6
Continuous
 62
               7
100
AcDbVertex
100
AcDb2dVertex
 10
201.1912651273571
 20
209.63827493455767
 30
0.0
  0
VERTEX
  5
28D
100
AcDbEntity
  8
0
370
              15
  6
Continuous
 62
               7
100
AcDbVertex
100
AcDb2dVertex
 10
201.19458726667708
 20
209.63260563523767
 30
0.0
  0
VERTEX
  5
28E
100
AcDbEntity
  8
0
370
              15
  6
Continuous
 62
               7
100
AcDbVertex
100
AcDb2dVertex
 10
201.20161378307705
 20
209.62733137667766
 30
0.0
  0
VERTEX
  5
28F
100
AcDbEntity
  8
0
370
              15
  6
Continuous
 62
               7
100
AcDbVertex
100
AcDb2dVertex
 10
201.2120741907971
 20
209.62265476515765
 30
0.0
  0
VERTEX
  5
290
100
AcDbEntity
  8
0
370
              15
  6
Continuous
 62
               7
100
AcDbVertex
100
AcDb2dVertex
 10
201.22556650631708
 20
209.61875565887766
 30
0.0
  0
SEQEND
  5
291
100
AcDbEntity
  8
0
370
              15
  6
Continuous
 62
               7
  0
ARC
  5
292
100
AcDbEntity
  8
0
370
              15
  6
Continuous
 62
               7
100
AcDbCircle
 10
201.27501188495705
 20
209.68511862367765
 30
0.0
 40
0.0548543007224941
100
AcDbArc
 50
75.890054720316897
 51
109.8797456139108
  0
LINE
  5
293
100
AcDbEntity
  8
0
370
              15
  6
Continuous
 62
               7
100
AcDbLine
 10
208.91197033891706
 20
226.48206865351767
 30
0.0
 11
213.70158001743707
 21
49.766357051197673
 31
0.0
  0
LINE
  5
294
100
AcDbEntity
  8
0
370
              15
  6
Continuous
 62
               7
100
AcDbLine
 10
208.99659587855706
 20
226.48518092087767
 30
0.0
 11
213.78618388607708
 21
49.770268882837641
 31
0.0
  0
LINE
  5
295
100
AcDbEntity
  8
0
370
              15
  6
Continuous
 62
               7
100
AcDbLine
 10
198.41879718555708
 20
228.91500070079769
 30
0.0
 11
203.2081009736371
 21
52.210575121917671
 31
0.0
  0
LINE
  5
296
100
AcDbEntity
  8
0
370
              15
  6
Continuous
 62
               7
100
AcDbLine
 10
218.0751544073571
 20
229.81840890131764
 30
0.0
 11
222.86431084563708
 21
53.11941988819764
 31
0.0
  0
LINE
  5
297
100
AcDbEntity
  8
0
370
              15
  6
Continuous
 62
               7
100
AcDbLine
 10
201.21946807675707
 20
209.99950227391767
 30
0.0
 11
201.22704935047707
 21
209.71978633271766
 31
0.0
  0
LINE
  5
298
100
AcDbEntity
  8
0
370
              15
  6
Continuous
 62
               7
100
AcDbLine
 10
201.24548851011707
 20
209.99344115807764
 30
0.0
 11
201.25248820403706
 21
209.73518297551766
 31
0.0
  0
LINE
  5
299
100
AcDbEntity
  8
0
370
              15
  6
Continuous
 62
               7
100
AcDbLine
 10
208.89045624767709
 20
81.688709987357655
 30
0.0
 11
209.01877274043707
 21
76.954390939677651
 31
0.0
  0
LINE
  5
29A
100
AcDbEntity
  8
0
370
              15
  6
Continuous
 62
               7
100
AcDbLine
 10
201.0053418209171
 20
203.88532060819765
 30
0.0
 11
201.00955063591709
 21
203.88687334667765
 31
0.0
  0
LINE
  5
29B
100
AcDbEntity
  8
0
370
              15
  6
Continuous
 62
               7
100
AcDbLine
 10
208.91709145279708
 20
81.659971013517648
 30
0.0
 11
209.04417826023709
 21
76.971021992477645
 31
0.0
  0
LINE
  5
29C
100
AcDbEntity
  8
0
370
              15
  6
Continuous
 62
               7
100
AcDbLine
 10
209.1993673290371
 20
81.310075847117659
 30
0.0
 11
209.31095387267709
 21
77.193018969677652
 31
0.0
  0
LINE
  5
29D
100
AcDbEntity
  8
0
370
              15
  6
Continuous
 62
               7
100
AcDbLine
 10
209.22626216179708
 20
81.271757745277654
 30
0.0
 11
209.3361000731571
 21
77.219217773837656
 31
0.0
  0
LINE
  5
29E
100
AcDbEntity
  8
0
370
              15
  6
Continuous
 62
               7
100
AcDbLine
 10
209.91372714983709
 20
79.49628094147765
 30
0.0
 11
209.93544552659708
 21
78.694967544837652
 31
0.0
  0
LINE
  5
29F
100
AcDbEntity
  8
0
370
              15
  6
Continuous
 62
               7
100
AcDbLine
 10
209.93175942739708
 20
79.339336900517651
 30
0.0
 11
209.9451453601171
 21
78.845454353837653
 31
0.0
  0
LINE
  5
2A0
100
AcDbEntity
  8
0
370
              15
  6
Continuous
 62
               7
100
AcDbLine
 10
206.67101316551711
 20
202.24150715823765
 30
0.0
 11
206.6715068280771
 21
202.22329316307767
 31
0.0
  0
ARC
  5
2A1
100
AcDbEntity
  8
0
370
              15
  6
Continuous
 62
               7
100
AcDbCircle
 10
199.1382038391171
 20
230.33599096015769
 30
0.0
 40
0.4267413434543715
100
AcDbArc
 50
173.64734147020013
 51
246.84438095529811
  0
ARC
  5
2A2
100
AcDbEntity
  8
0
370
              15
  6
Continuous
 62
               7
100
AcDbCircle
 10
208.89078865407708
 20
228.06434740499765
 30
0.0
 40
0.426741343454462
100
AcDbArc
 50
173.64734147020147
 51
246.84438095529669
  0
ARC
  5
2A3
100
AcDbEntity
  8
0
370
              15
  6
Continuous
 62
               7
100
AcDbCircle
 10
208.87047494471707
 20
228.09377009267769
 30
0.0
 40
0.445875485101124
100
AcDbArc
 50
296.11928652489729
 51
7.3334866053009469
  0
ARC
  5
2A4
100
AcDbEntity
  8
0
370
              15
  6
Continuous
 62
               7
100
AcDbCircle
 10
217.30763889807707
 20
231.20645360803769
 30
0.0
 40
0.4458754851013882
100
AcDbArc
 50
296.11928652490019
 51
7.333486605302312
  0
ARC
  5
2A5
100
AcDbEntity
  8
0
370
              15
  6
Continuous
 62
               7
100
AcDbCircle
 10
217.04196181247707
 20
244.01238155147763
 30
0.0
 40
0.2583141843123539
100
AcDbArc
 50
77.311616838298619
 51
111.55287619210421
  0
ARC
  5
2A6
100
AcDbEntity
  8
0
370
              15
  6
Continuous
 62
               7
100
AcDbCircle
 10
207.28937699751708
 20
246.28402510663767
 30
0.0
 40
0.2583141843117916
100
AcDbArc
 50
77.311616838301532
 51
111.55287619219639
  0
POLYLINE
  5
2A7
100
AcDbEntity
  8
0
370
              15
  6
Continuous
 62
               7
100
AcDb2dPolyline
 66
               1
 10
0.0
 20
0.0
 30
0.0
 75
               5
  0
VERTEX
  5
2A8
100
AcDbEntity
  8
0
370
              15
  6
Continuous
 62
               7
100
AcDbVertex
100
AcDb2dVertex
 10
198.17305833867707
 20
242.82273350495763
 30
0.0
  0
VERTEX
  5
2A9
100
AcDbEntity
  8
0
370
              15
  6
Continuous
 62
               7
100
AcDbVertex
100
AcDb2dVertex
 10
198.17460097071705
 20
242.81132884723769
 30
0.0
  0
VERTEX
  5
2AA
100
AcDbEntity
  8
0
370
              15
  6
Continuous
 62
               7
100
AcDbVertex
100
AcDb2dVertex
 10
198.19453590767705
 20
242.77731314859764
 30
0.0
  0
VERTEX
  5
2AB
100
AcDbEntity
  8
0
370
              15
  6
Continuous
 62
               7
100
AcDbVertex
100
AcDb2dVertex
 10
198.23669451899707
 20
242.74566741735765
 30
0.0
  0
VERTEX
  5
2AC
100
AcDbEntity
  8
0
370
              15
  6
Continuous
 62
               7
100
AcDbVertex
100
AcDb2dVertex
 10
198.2994573765171
 20
242.71760823903767
 30
0.0
  0
VERTEX
  5
2AD
100
AcDbEntity
  8
0
370
              15
  6
Continuous
 62
               7
100
AcDbVertex
100
AcDb2dVertex
 10
198.38041183287709
 20
242.69421347015765
 30
0.0
  0
SEQEND
  5
2AE
100
AcDbEntity
  8
0
370
              15
  6
Continuous
 62
               7
  0
ARC
  5
2AF
100
AcDbEntity
  8
0
370
              15
  6
Continuous
 62
               7
100
AcDbCircle
 10
198.67709069891706
 20
243.09247258115766
 30
0.0
 40
0.329051883927347
100
AcDbArc
 50
75.888125311000437
 51
109.88581542619936
  0
POLYLINE
  5
2B0
100
AcDbEntity
  8
0
370
              15
  6
Continuous
 62
               7
100
AcDb2dPolyline
 66
               1
 10
0.0
 20
0.0
 30
0.0
 75
               5
  0
VERTEX
  5
2B1
100
AcDbEntity
  8
0
370
              15
  6
Continuous
 62
               7
100
AcDbVertex
100
AcDb2dVertex
 10
198.5067293286771
 20
230.51172897683767
 30
0.0
  0
VERTEX
  5
2B2
100
AcDbEntity
  8
0
370
              15
  6
Continuous
 62
               7
100
AcDbVertex
100
AcDb2dVertex
 10
198.50827196071708
 20
230.50032431911768
 30
0.0
  0
VERTEX
  5
2B3
100
AcDbEntity
  8
0
370
              15
  6
Continuous
 62
               7
100
AcDbVertex
100
AcDb2dVertex
 10
198.52820689767708
 20
230.46630862047766
 30
0.0
  0
VERTEX
  5
2B4
100
AcDbEntity
  8
0
370
              15
  6
Continuous
 62
               7
100
AcDbVertex
100
AcDb2dVertex
 10
198.5703655089971
 20
230.43466288923767
 30
0.0
  0
VERTEX
  5
2B5
100
AcDbEntity
  8
0
370
              15
  6
Continuous
 62
               7
100
AcDbVertex
100
AcDb2dVertex
 10
198.63312836651707
 20
230.40660371091764
 30
0.0
  0
VERTEX
  5
2B6
100
AcDbEntity
  8
0
370
              15
  6
Continuous
 62
               7
100
AcDbVertex
100
AcDb2dVertex
 10
198.71408282291708
 20
230.38320894203764
 30
0.0
  0
SEQEND
  5
2B7
100
AcDbEntity
  8
0
370
              15
  6
Continuous
 62
               7
  0
ARC
  5
2B8
100
AcDbEntity
  8
0
370
              15
  6
Continuous
 62
               7
100
AcDbCircle
 10
207.11425465227705
 20
246.20515609647765
 30
0.0
 40
0.3290518839279537
100
AcDbArc
 50
75.888125311002483
 51
109.88581542620292
  0
POLYLINE
  5
2B9
100
AcDbEntity
  8
0
370
              15
  6
Continuous
 62
               7
100
AcDb2dPolyline
 66
               1
 10
0.0
 20
0.0
 30
0.0
 75
               5
  0
VERTEX
  5
2BA
100
AcDbEntity
  8
0
370
              15
  6
Continuous
 62
               7
100
AcDbVertex
100
AcDb2dVertex
 10
217.56236721351709
 20
243.69628559295762
 30
0.0
  0
VERTEX
  5
2BB
100
AcDbEntity
  8
0
370
              15
  6
Continuous
 62
               7
100
AcDbVertex
100
AcDb2dVertex
 10
217.55776978207709
 20
243.67261157487769
 30
0.0
  0
VERTEX
  5
2BC
100
AcDbEntity
  8
0
370
              15
  6
Continuous
 62
               7
100
AcDbVertex
100
AcDb2dVertex
 10
217.5318427180371
 20
243.63781776423764
 30
0.0
  0
VERTEX
  5
2BD
100
AcDbEntity
  8
0
370
              15
  6
Continuous
 62
               7
100
AcDbVertex
100
AcDb2dVertex
 10
217.48403884279708
 20
243.60464630859769
 30
0.0
  0
VERTEX
  5
2BE
100
AcDbEntity
  8
0
370
              15
  6
Continuous
 62
               7
100
AcDbVertex
100
AcDb2dVertex
 10
217.41619613619707
 20
243.57437160079763
 30
0.0
  0
SEQEND
  5
2BF
100
AcDbEntity
  8
0
370
              15
  6
Continuous
 62
               7
  0
POLYLINE
  5
2C0
100
AcDbEntity
  8
0
370
              15
  6
Continuous
 62
               7
100
AcDb2dPolyline
 66
               1
 10
0.0
 20
0.0
 30
0.0
 75
               5
  0
VERTEX
  5
2C1
100
AcDbEntity
  8
0
370
              15
  6
Continuous
 62
               7
100
AcDbVertex
100
AcDb2dVertex
 10
217.7498671261971
 20
231.26336707267768
 30
0.0
  0
VERTEX
  5
2C2
100
AcDbEntity
  8
0
370
              15
  6
Continuous
 62
               7
100
AcDbVertex
100
AcDb2dVertex
 10
217.81770983283707
 20
231.29364178047766
 30
0.0
  0
VERTEX
  5
2C3
100
AcDbEntity
  8
0
370
              15
  6
Continuous
 62
               7
100
AcDbVertex
100
AcDb2dVertex
 10
217.86551370803707
 20
231.32681323611769
 30
0.0
  0
VERTEX
  5
2C4
100
AcDbEntity
  8
0
370
              15
  6
Continuous
 62
               7
100
AcDbVertex
100
AcDb2dVertex
 10
217.89144077207709
 20
231.36160704675765
 30
0.0
  0
VERTEX
  5
2C5
100
AcDbEntity
  8
0
370
              15
  6
Continuous
 62
               7
100
AcDbVertex
100
AcDb2dVertex
 10
217.89603820351707
 20
231.38528106487769
 30
0.0
  0
SEQEND
  5
2C6
100
AcDbEntity
  8
0
370
              15
  6
Continuous
 62
               7
  0
LINE
  5
2C7
100
AcDbEntity
  8
0
370
              15
  6
Continuous
 62
               7
100
AcDbLine
 10
218.01633702959711
 20
230.46604206303766
 30
0.0
 11
217.13720394911709
 21
230.67081618539765
 31
0.0
  0
LINE
  5
2C8
100
AcDbEntity
  8
0
370
              15
  6
Continuous
 62
               7
100
AcDbLine
 10
199.27523018843706
 20
229.87262372343764
 30
0.0
 11
198.42885683547709
 21
229.56037515291769
 31
0.0
  0
POLYLINE
  5
2C9
100
AcDbEntity
  8
0
370
              15
  6
Continuous
 62
               7
100
AcDb2dPolyline
 66
               1
 10
0.0
 20
0.0
 30
0.0
 75
               5
  0
VERTEX
  5
2CA
100
AcDbEntity
  8
0
370
              15
  6
Continuous
 62
               7
100
AcDbVertex
100
AcDb2dVertex
 10
198.37530961863706
 20
229.40439093255765
 30
0.0
  0
VERTEX
  5
2CB
100
AcDbEntity
  8
0
370
              15
  6
Continuous
 62
               7
100
AcDbVertex
100
AcDb2dVertex
 10
198.34950644631706
 20
229.41184766911766
 30
0.0
  0
VERTEX
  5
2CC
100
AcDbEntity
  8
0
370
              15
  6
Continuous
 62
               7
100
AcDbVertex
100
AcDb2dVertex
 10
198.3295016473171
 20
229.42079132047769
 30
0.0
  0
VERTEX
  5
2CD
100
AcDbEntity
  8
0
370
              15
  6
Continuous
 62
               7
100
AcDbVertex
100
AcDb2dVertex
 10
198.31606454327709
 20
229.43087786543768
 30
0.0
  0
VERTEX
  5
2CE
100
AcDbEntity
  8
0
370
              15
  6
Continuous
 62
               7
100
AcDbVertex
100
AcDb2dVertex
 10
198.30970997271709
 20
229.44171990987763
 30
0.0
  0
VERTEX
  5
2CF
100
AcDbEntity
  8
0
370
              15
  6
Continuous
 62
               7
100
AcDbVertex
100
AcDb2dVertex
 10
198.30932128679709
 20
229.44389363563766
 30
0.0
  0
SEQEND
  5
2D0
100
AcDbEntity
  8
0
370
              15
  6
Continuous
 62
               7
  0
ARC
  5
2D1
100
AcDbEntity
  8
0
370
              15
  6
Continuous
 62
               7
100
AcDbCircle
 10
198.41548712823709
 20
229.50716664251766
 30
0.0
 40
0.0548625067689092
100
AcDbArc
 50
75.89528678317788
 51
109.87946884169732
  0
ARC
  5
2D2
100
AcDbEntity
  8
0
370
              15
  6
Continuous
 62
               7
100
AcDbCircle
 10
218.03213935551707
 20
230.42616407051767
 30
0.0
 40
0.0428948457579684
100
AcDbArc
 50
77.24647022737814
 51
111.61678060398155
  0
POLYLINE
  5
2D3
100
AcDbEntity
  8
0
370
              15
  6
Continuous
 62
               7
100
AcDb2dPolyline
 66
               1
 10
0.0
 20
0.0
 30
0.0
 75
               5
  0
VERTEX
  5
2D4
100
AcDbEntity
  8
0
370
              15
  6
Continuous
 62
               7
100
AcDbVertex
100
AcDb2dVertex
 10
218.15035288131708
 20
230.35574438335766
 30
0.0
  0
VERTEX
  5
2D5
100
AcDbEntity
  8
0
370
              15
  6
Continuous
 62
               7
100
AcDbVertex
100
AcDb2dVertex
 10
218.1488981627171
 20
230.34788918927762
 30
0.0
  0
VERTEX
  5
2D6
100
AcDbEntity
  8
0
370
              15
  6
Continuous
 62
               7
100
AcDbVertex
100
AcDb2dVertex
 10
218.14063458611707
 20
230.33679926923767
 30
0.0
  0
VERTEX
  5
2D7
100
AcDbEntity
  8
0
370
              15
  6
Continuous
 62
               7
100
AcDbVertex
100
AcDb2dVertex
 10
218.12539784119707
 20
230.32622615359767
 30
0.0
  0
VERTEX
  5
2D8
100
AcDbEntity
  8
0
370
              15
  6
Continuous
 62
               7
100
AcDbVertex
100
AcDb2dVertex
 10
218.10377384819708
 20
230.31657652575768
 30
0.0
  0
SEQEND
  5
2D9
100
AcDbEntity
  8
0
370
              15
  6
Continuous
 62
               7
  0
SPLINE
  5
2DA
100
AcDbEntity
  8
0
370
              15
  6
Continuous
 62
               7
100
AcDbSpline
210
0.0
220
0.0
230
1.0
 70
               8
 71
               2
 72
              11
 73
               8
 74
               0
 42
0.000001
 43
0.000001
 40
0.0
 40
0.0
 40
0.0
 40
1.0
 40
1.0
 40
2.0
 40
3.0
 40
3.0
 40
4.0
 40
4.0
 40
4.0
 10
207.18980960336947
 20
239.68069884060964
 30
0.0
 10
207.1920957545519
 20
239.65308087979764
 30
0.0
 10
207.1943819057343
 20
239.6254629189857
 30
0.0
 10
207.51772101323098
 20
235.53519198143641
 30
0.0
 10
208.30197730754011
 20
230.06904285621206
 30
0.0
 10
208.53521776911396
 20
228.56398682100718
 30
0.0
 10
208.53523898982354
 20
228.56384893628706
 30
0.0
 10
208.53526021053312
 20
228.56371105156694
 30
0.0
  0
SPLINE
  5
2DB
100
AcDbEntity
  8
0
370
              15
  6
Continuous
 62
               7
100
AcDbSpline
210
0.0
220
0.0
230
1.0
 70
               8
 71
               2
 72
              17
 73
              14
 74
               0
 42
0.000001
 43
0.000001
 40
0.0
 40
0.0
 40
0.0
 40
1.0
 40
1.0
 40
2.0
 40
3.0
 40
4.0
 40
5.0
 40
6.0
 40
7.0
 40
8.0
 40
9.0
 40
9.0
 40
10.0
 40
10.0
 40
10.0
 10
212.42008206326796
 20
229.99691990558472
 30
0.0
 10
212.42031112564149
 20
229.99487970957813
 30
0.0
 10
212.42054018801502
 20
229.99283951357154
 30
0.0
 10
212.42927036175064
 20
229.93168668153191
 30
0.0
 10
212.42278160743189
 20
229.76181589740867
 30
0.0
 10
212.21323492688592
 20
229.46404442791254
 30
0.0
 10
211.59522927535488
 20
229.11230264032707
 30
0.0
 10
210.87261199268482
 20
228.89134323701958
 30
0.0
 10
210.25785760423332
 20
228.75137948322248
 30
0.0
 10
209.42645242372032
 20
228.62399289320143
 30
0.0
 10
208.7540814663123
 20
228.57605219375603
 30
0.0
 10
208.54892625465749
 20
228.56449858859258
 30
0.0
 10
208.54209270730772
 20
228.56410479579202
 30
0.0
 10
208.53525915995795
 20
228.56371100299145
 30
0.0
  0
SPLINE
  5
2DC
100
AcDbEntity
  8
0
370
              15
  6
Continuous
 62
               7
100
AcDbSpline
210
0.0
220
0.0
230
1.0
 70
               8
 71
               2
 72
              11
 73
               8
 74
               0
 42
0.000001
 43
0.000001
 40
0.0
 40
0.0
 40
0.0
 40
1.0
 40
1.0
 40
2.0
 40
3.0
 40
3.0
 40
4.0
 40
4.0
 40
4.0
 10
211.03450711252322
 20
240.47425565400471
 30
0.0
 10
211.0395520247437
 20
240.44846345639445
 30
0.0
 10
211.04459693696421
 20
240.42267125878425
 30
0.0
 10
211.55942437250073
 20
237.85408741063696
 30
0.0
 10
212.30481760940114
 20
232.67024996238632
 30
0.0
 10
212.42007108913438
 20
229.99718533020564
 30
0.0
 10
212.42007653821412
 20
229.99705277338495
 30
0.0
 10
212.42008198729386
 20
229.99692021656426
 30
0.0
  0
SPLINE
  5
2DD
100
AcDbEntity
  8
0
370
              15
  6
Continuous
 62
               7
100
AcDbSpline
210
0.0
220
0.0
230
1.0
 70
               8
 71
               2
 72
              11
 73
               8
 74
               0
 42
0.000001
 43
0.000001
 40
0.0
 40
0.0
 40
0.0
 40
1.0
 40
1.0
 40
2.0
 40
3.0
 40
3.0
 40
4.0
 40
4.0
 40
4.0
 10
209.12619678698579
 20
239.77023163298512
 30
0.0
 10
209.13547748149784
 20
239.77376053492006
 30
0.0
 10
209.1447581760099
 20
239.777289436855
 30
0.0
 10
209.83339426809383
 20
240.04102786690663
 30
0.0
 10
210.74440603005937
 20
240.37067969029306
 30
0.0
 10
211.01637019307123
 20
240.46777448924774
 30
0.0
 10
211.02543865279722
 20
240.47101507162623
 30
0.0
 10
211.03450711252322
 20
240.47425565400471
 30
0.0
  0
SPLINE
  5
2DE
100
AcDbEntity
  8
0
370
              15
  6
Continuous
 62
               7
100
AcDbSpline
210
0.0
220
0.0
230
1.0
 70
               8
 71
               2
 72
              12
 73
               9
 74
               0
 42
0.000001
 43
0.000001
 40
0.0
 40
0.0
 40
0.0
 40
1.0
 40
1.0
 40
2.0
 40
3.0
 40
4.0
 40
4.0
 40
5.0
 40
5.0
 40
5.0
 10
208.53526021053312
 20
228.56371105156694
 30
0.0
 10
208.53527353264781
 20
228.56385053344468
 30
0.0
 10
208.53528685476252
 20
228.56399001532242
 30
0.0
 10
208.64761631151904
 20
229.72928221289897
 30
0.0
 10
209.05913611548203
 20
234.58290100238608
 30
0.0
 10
209.1205283660282
 20
238.99363276539918
 30
0.0
 10
209.12576187828475
 20
239.7147641927927
 30
0.0
 10
209.12597933263527
 20
239.74249791288889
 30
0.0
 10
209.12619678698579
 20
239.77023163298512
 30
0.0
  0
SPLINE
  5
2DF
100
AcDbEntity
  8
0
370
              15
  6
Continuous
 62
               7
100
AcDbSpline
210
0.0
220
0.0
230
1.0
 70
               8
 71
               2
 72
              16
 73
              13
 74
               0
 42
0.000001
 43
0.000001
 40
0.0
 40
0.0
 40
0.0
 40
1.0
 40
1.0
 40
2.0
 40
3.0
 40
4.0
 40
5.0
 40
6.0
 40
7.0
 40
8.0
 40
8.0
 40
9.0
 40
9.0
 40
9.0
 10
208.81951436279877
 20
240.18996552570144
 30
0.0
 10
208.81729498082609
 20
240.18930121178585
 30
0.0
 10
208.81507559885344
 20
240.1886368978702
 30
0.0
 10
208.7576385045428
 20
240.17125002642467
 30
0.0
 10
208.57564667622117
 20
240.11954766798175
 30
0.0
 10
208.37127896566662
 20
240.09220095803613
 30
0.0
 10
208.13488755492571
 20
240.06904276871893
 30
0.0
 10
207.84788282701865
 20
240.07307326373979
 30
0.0
 10
207.62844285287929
 20
240.08971950333034
 30
0.0
 10
207.48007543700453
 20
240.11732132895747
 30
0.0
 10
207.43911712089448
 20
240.12547302818717
 30
0.0
 10
207.43774889993523
 20
240.12574328010106
 30
0.0
 10
207.43638067897598
 20
240.12601353201492
 30
0.0
  0
SPLINE
  5
2E0
100
AcDbEntity
  8
0
370
              15
  6
Continuous
 62
               7
100
AcDbSpline
210
0.0
220
0.0
230
1.0
 70
               8
 71
               2
 72
              16
 73
              13
 74
               0
 42
0.000001
 43
0.000001
 40
0.0
 40
0.0
 40
0.0
 40
1.0
 40
1.0
 40
2.0
 40
3.0
 40
4.0
 40
5.0
 40
6.0
 40
7.0
 40
8.0
 40
8.0
 40
9.0
 40
9.0
 40
9.0
 10
207.18980960336947
 20
239.68069884060964
 30
0.0
 10
207.19187079356686
 20
239.68034872301661
 30
0.0
 10
207.19393198376423
 20
239.67999860542358
 30
0.0
 10
207.25552809291034
 20
239.6693868658142
 30
0.0
 10
207.50291101124807
 20
239.63060204826004
 30
0.0
 10
207.8664669930204
 20
239.61548740599619
 30
0.0
 10
208.15511488906481
 20
239.61937128747917
 30
0.0
 10
208.44350972952429
 20
239.63845718469841
 30
0.0
 10
208.76745942687916
 20
239.67980534146471
 30
0.0
 10
209.01949449057105
 20
239.74107148742007
 30
0.0
 10
209.11949572399084
 20
239.76842133615631
 30
0.0
 10
209.1228462554883
 20
239.76932648457071
 30
0.0
 10
209.12619678698579
 20
239.77023163298512
 30
0.0
  0
ARC
  5
2E1
100
AcDbEntity
  8
0
370
              15
  6
Continuous
 62
               7
100
AcDbCircle
 10
207.6843336819727
 20
239.69780113034966
 30
0.0
 40
0.4948197172854623
100
AcDbArc
 50
120.07264728099473
 51
181.98068950349756
  0
SPLINE
  5
2E2
100
AcDbEntity
  8
0
370
              15
  6
Continuous
 62
               7
100
AcDbSpline
210
0.0
220
0.0
230
1.0
 70
               8
 71
               2
 72
              10
 73
               7
 74
               0
 42
0.000001
 43
0.000001
 40
0.0
 40
0.0
 40
0.0
 40
1.0
 40
1.0
 40
2.0
 40
2.0
 40
3.0
 40
3.0
 40
3.0
 10
207.43638067897598
 20
240.12601353201492
 30
0.0
 10
207.42482553482952
 20
240.12863562417078
 30
0.0
 10
207.41327039068304
 20
240.13125771632662
 30
0.0
 10
206.32519018581843
 20
240.37710924256891
 30
0.0
 10
205.26233360213041
 20
240.63226966068396
 30
0.0
 10
205.25100645850904
 20
240.63497748965244
 30
0.0
 10
205.23967931488767
 20
240.63768531862095
 30
0.0
  0
SPLINE
  5
2E3
100
AcDbEntity
  8
0
370
              15
  6
Continuous
 62
               7
100
AcDbSpline
210
0.0
220
0.0
230
1.0
 70
               8
 71
               2
 72
              10
 73
               7
 74
               0
 42
0.000001
 43
0.000001
 40
0.0
 40
0.0
 40
0.0
 40
1.0
 40
1.0
 40
2.0
 40
2.0
 40
3.0
 40
3.0
 40
3.0
 10
204.98397854379348
 20
240.19449718282203
 30
0.0
 10
204.99536087869106
 20
240.19196634558173
 30
0.0
 10
205.00674321358863
 20
240.18943550834143
 30
0.0
 10
206.07490439755787
 20
239.95379980054196
 30
0.0
 10
207.16661949324885
 20
239.68634125256688
 30
0.0
 10
207.17821454830914
 20
239.68352004658826
 30
0.0
 10
207.18980960336947
 20
239.68069884060964
 30
0.0
  0
ARC
  5
2E4
100
AcDbEntity
  8
0
370
              15
  6
Continuous
 62
               7
100
AcDbCircle
 10
208.65594918681271
 20
239.74854801594964
 30
0.0
 40
0.4707472620317977
100
AcDbArc
 50
2.640099244600878
 51
69.668050824499787
  0
SPLINE
  5
2E5
100
AcDbEntity
  8
0
370
              15
  6
Continuous
 62
               7
100
AcDbSpline
210
0.0
220
0.0
230
1.0
 70
               8
 71
               2
 72
              10
 73
               7
 74
               0
 42
0.000001
 43
0.000001
 40
0.0
 40
0.0
 40
0.0
 40
1.0
 40
1.0
 40
2.0
 40
2.0
 40
3.0
 40
3.0
 40
3.0
 10
210.71992639889447
 20
240.89107566766393
 30
0.0
 10
210.71091394357521
 20
240.88767667749408
 30
0.0
 10
210.70190148825594
 20
240.88427768732424
 30
0.0
 10
209.78422875232275
 20
240.53714379710641
 30
0.0
 10
208.83803587611217
 20
240.19665042370639
 30
0.0
 10
208.82877511945549
 20
240.19330797470391
 30
0.0
 10
208.81951436279877
 20
240.18996552570144
 30
0.0
  0
POLYLINE
  5
2E6
100
AcDbEntity
  8
0
370
              15
  6
Continuous
 62
               7
100
AcDb2dPolyline
 66
               1
 10
0.0
 20
0.0
 30
0.0
 75
               5
  0
VERTEX
  5
2E7
100
AcDbEntity
  8
0
370
              15
  6
Continuous
 62
               7
100
AcDbVertex
100
AcDb2dVertex
 10
204.04476379261271
 20
229.60967069210966
 30
0.0
  0
VERTEX
  5
2E8
100
AcDbEntity
  8
0
370
              15
  6
Continuous
 62
               7
100
AcDbVertex
100
AcDb2dVertex
 10
204.04106173145271
 20
229.77312507310967
 30
0.0
  0
VERTEX
  5
2E9
100
AcDbEntity
  8
0
370
              15
  6
Continuous
 62
               7
100
AcDbVertex
100
AcDb2dVertex
 10
204.16965854717273
 20
230.01839735530965
 30
0.0
  0
VERTEX
  5
2EA
100
AcDbEntity
  8
0
370
              15
  6
Continuous
 62
               7
100
AcDbVertex
100
AcDb2dVertex
 10
204.45438526669273
 20
230.25540331026968
 30
0.0
  0
VERTEX
  5
2EB
100
AcDbEntity
  8
0
370
              15
  6
Continuous
 62
               7
100
AcDbVertex
100
AcDb2dVertex
 10
204.8842997348527
 20
230.47503504390966
 30
0.0
  0
VERTEX
  5
2EC
100
AcDbEntity
  8
0
370
              15
  6
Continuous
 62
               7
100
AcDbVertex
100
AcDb2dVertex
 10
205.44288071545273
 20
230.66885219406964
 30
0.0
  0
VERTEX
  5
2ED
100
AcDbEntity
  8
0
370
              15
  6
Continuous
 62
               7
100
AcDbVertex
100
AcDb2dVertex
 10
206.10866226369274
 20
230.82940648206966
 30
0.0
  0
VERTEX
  5
2EE
100
AcDbEntity
  8
0
370
              15
  6
Continuous
 62
               7
100
AcDbVertex
100
AcDb2dVertex
 10
206.8560586184127
 20
230.95052789914965
 30
0.0
  0
VERTEX
  5
2EF
100
AcDbEntity
  8
0
370
              15
  6
Continuous
 62
               7
100
AcDbVertex
100
AcDb2dVertex
 10
207.38557783277273
 20
231.00700161774967
 30
0.0
  0
VERTEX
  5
2F0
100
AcDbEntity
  8
0
370
              15
  6
Continuous
 62
               7
100
AcDbVertex
100
AcDb2dVertex
 10
207.9295866959327
 20
231.04287959470963
 30
0.0
  0
SEQEND
  5
2F1
100
AcDbEntity
  8
0
370
              15
  6
Continuous
 62
               7
  0
POLYLINE
  5
2F2
100
AcDbEntity
  8
0
370
              15
  6
Continuous
 62
               7
100
AcDb2dPolyline
 66
               1
 10
0.0
 20
0.0
 30
0.0
 75
               5
  0
VERTEX
  5
2F3
100
AcDbEntity
  8
0
370
              15
  6
Continuous
 62
               7
100
AcDbVertex
100
AcDb2dVertex
 10
207.9295866959327
 20
231.04287959470963
 30
0.0
  0
VERTEX
  5
2F4
100
AcDbEntity
  8
0
370
              15
  6
Continuous
 62
               7
100
AcDbVertex
100
AcDb2dVertex
 10
208.47877562089275
 20
231.05754783670966
 30
0.0
  0
VERTEX
  5
2F5
100
AcDbEntity
  8
0
370
              15
  6
Continuous
 62
               7
100
AcDbVertex
100
AcDb2dVertex
 10
209.29173616029269
 20
231.03933366030969
 30
0.0
  0
VERTEX
  5
2F6
100
AcDbEntity
  8
0
370
              15
  6
Continuous
 62
               7
100
AcDbVertex
100
AcDb2dVertex
 10
210.06398761949271
 20
230.97361917242964
 30
0.0
  0
VERTEX
  5
2F7
100
AcDbEntity
  8
0
370
              15
  6
Continuous
 62
               7
100
AcDbVertex
100
AcDb2dVertex
 10
210.76585320557274
 20
230.86292983338967
 30
0.0
  0
VERTEX
  5
2F8
100
AcDbEntity
  8
0
370
              15
  6
Continuous
 62
               7
100
AcDbVertex
100
AcDb2dVertex
 10
211.37036047961271
 20
230.71151932854968
 30
0.0
  0
VERTEX
  5
2F9
100
AcDbEntity
  8
0
370
              15
  6
Continuous
 62
               7
100
AcDbVertex
100
AcDb2dVertex
 10
211.8542785842927
 20
230.52520627646965
 30
0.0
  0
VERTEX
  5
2FA
100
AcDbEntity
  8
0
370
              15
  6
Continuous
 62
               7
100
AcDbVertex
100
AcDb2dVertex
 10
212.19901083905273
 20
230.31115062834968
 30
0.0
  0
VERTEX
  5
2FB
100
AcDbEntity
  8
0
370
              15
  6
Continuous
 62
               7
100
AcDbVertex
100
AcDb2dVertex
 10
212.34472777273271
 20
230.15706177202969
 30
0.0
  0
VERTEX
  5
2FC
100
AcDbEntity
  8
0
370
              15
  6
Continuous
 62
               7
100
AcDbVertex
100
AcDb2dVertex
 10
212.42008206325272
 20
229.99691990558966
 30
0.0
  0
SEQEND
  5
2FD
100
AcDbEntity
  8
0
370
              15
  6
Continuous
 62
               7
  0
POLYLINE
  5
2FE
100
AcDbEntity
  8
0
370
              15
  6
Continuous
 62
               7
100
AcDb2dPolyline
 66
               1
 10
0.0
 20
0.0
 30
0.0
 75
               5
  0
VERTEX
  5
2FF
100
AcDbEntity
  8
0
370
              15
  6
Continuous
 62
               7
100
AcDbVertex
100
AcDb2dVertex
 10
208.53525915997272
 20
228.56371100298963
 30
0.0
  0
VERTEX
  5
300
100
AcDbEntity
  8
0
370
              15
  6
Continuous
 62
               7
100
AcDbVertex
100
AcDb2dVertex
 10
207.9860702350127
 20
228.54904276098966
 30
0.0
  0
VERTEX
  5
301
100
AcDbEntity
  8
0
370
              15
  6
Continuous
 62
               7
100
AcDbVertex
100
AcDb2dVertex
 10
207.17310969557269
 20
228.56725693738966
 30
0.0
  0
VERTEX
  5
302
100
AcDbEntity
  8
0
370
              15
  6
Continuous
 62
               7
100
AcDbVertex
100
AcDb2dVertex
 10
206.40085823641269
 20
228.63297142526966
 30
0.0
  0
VERTEX
  5
303
100
AcDbEntity
  8
0
370
              15
  6
Continuous
 62
               7
100
AcDbVertex
100
AcDb2dVertex
 10
205.69899265033271
 20
228.74366076430968
 30
0.0
  0
VERTEX
  5
304
100
AcDbEntity
  8
0
370
              15
  6
Continuous
 62
               7
100
AcDbVertex
100
AcDb2dVertex
 10
205.09448537629271
 20
228.89507126914967
 30
0.0
  0
VERTEX
  5
305
100
AcDbEntity
  8
0
370
              15
  6
Continuous
 62
               7
100
AcDbVertex
100
AcDb2dVertex
 10
204.61056727161269
 20
229.08138432122968
 30
0.0
  0
VERTEX
  5
306
100
AcDbEntity
  8
0
370
              15
  6
Continuous
 62
               7
100
AcDbVertex
100
AcDb2dVertex
 10
204.26583501685272
 20
229.29543996934967
 30
0.0
  0
VERTEX
  5
307
100
AcDbEntity
  8
0
370
              15
  6
Continuous
 62
               7
100
AcDbVertex
100
AcDb2dVertex
 10
204.12011808317268
 20
229.44952882562964
 30
0.0
  0
VERTEX
  5
308
100
AcDbEntity
  8
0
370
              15
  6
Continuous
 62
               7
100
AcDbVertex
100
AcDb2dVertex
 10
204.04476379261271
 20
229.60967069210966
 30
0.0
  0
SEQEND
  5
309
100
AcDbEntity
  8
0
370
              15
  6
Continuous
 62
               7
  0
SPLINE
  5
30A
100
AcDbEntity
  8
0
370
              15
  6
Continuous
 62
               7
100
AcDbSpline
210
0.0
220
0.0
230
1.0
 70
               8
 71
               2
 72
              18
 73
              15
 74
               0
 42
0.000001
 43
0.000001
 40
0.0
 40
0.0
 40
0.0
 40
1.0
 40
1.0
 40
2.0
 40
3.0
 40
4.0
 40
5.0
 40
6.0
 40
7.0
 40
8.0
 40
9.0
 40
10.0
 40
10.0
 40
11.0
 40
11.0
 40
11.0
 10
204.84394559831989
 20
240.76768497471861
 30
0.0
 10
204.84277263717132
 20
240.76722856317593
 30
0.0
 10
204.84159967602275
 20
240.76677215163329
 30
0.0
 10
204.80623866486798
 20
240.75311300275354
 30
0.0
 10
204.73762551906333
 20
240.72539978239104
 30
0.0
 10
204.60338461935305
 20
240.66017710557998
 30
0.0
 10
204.51925854548608
 20
240.55538758918306
 30
0.0
 10
204.51876545653099
 20
240.45726821514984
 30
0.0
 10
204.58156028598418
 20
240.37639657140357
 30
0.0
 10
204.66193473612742
 20
240.31899166118114
 30
0.0
 10
204.77320216894489
 20
240.26688336915538
 30
0.0
 10
204.90833727036693
 20
240.21924773183474
 30
0.0
 10
204.97927306196246
 20
240.19604816268372
 30
0.0
 10
204.98162580287797
 20
240.19527267275288
 30
0.0
 10
204.98397854379348
 20
240.19449718282203
 30
0.0
  0
SPLINE
  5
30B
100
AcDbEntity
  8
0
370
              15
  6
Continuous
 62
               7
100
AcDbSpline
210
0.0
220
0.0
230
1.0
 70
               8
 71
               2
 72
              11
 73
               8
 74
               0
 42
0.000001
 43
0.000001
 40
0.0
 40
0.0
 40
0.0
 40
1.0
 40
1.0
 40
2.0
 40
3.0
 40
3.0
 40
4.0
 40
4.0
 40
4.0
 10
204.84394559831989
 20
240.76768497471861
 30
0.0
 10
204.84032985468028
 20
240.7407428090778
 30
0.0
 10
204.83671411104069
 20
240.71380064343703
 30
0.0
 10
204.4641015313492
 20
238.03591545840567
 30
0.0
 10
204.00953164618761
 20
232.50259676865522
 30
0.0
 10
204.04475982639929
 20
229.60995649259041
 30
0.0
 10
204.04476184750047
 20
229.60981343685833
 30
0.0
 10
204.04476386860165
 20
229.60967038112625
 30
0.0
  0
SPLINE
  5
30C
100
AcDbEntity
  8
0
370
              15
  6
Continuous
 62
               7
100
AcDbSpline
210
0.0
220
0.0
230
1.0
 70
               8
 71
               2
 72
              11
 73
               8
 74
               0
 42
0.000001
 43
0.000001
 40
0.0
 40
0.0
 40
0.0
 40
1.0
 40
1.0
 40
2.0
 40
3.0
 40
3.0
 40
4.0
 40
4.0
 40
4.0
 10
204.04476386860165
 20
229.60967038112625
 30
0.0
 10
204.04476434552021
 20
229.60980321187577
 30
0.0
 10
204.04476482243876
 20
229.60993604262529
 30
0.0
 10
204.06624295747008
 20
232.28795838220361
 30
0.0
 10
204.5907542501061
 20
237.53302806732466
 30
0.0
 10
204.97638495201366
 20
240.14209503045521
 30
0.0
 10
204.98018174790357
 20
240.16829610663859
 30
0.0
 10
204.98397854379348
 20
240.19449718282203
 30
0.0
  0
ARC
  5
30D
100
AcDbEntity
  8
0
370
              15
  6
Continuous
 62
               7
100
AcDbCircle
 10
205.09879801337274
 20
240.79415988046964
 30
0.0
 40
0.256223874933686
100
AcDbArc
 50
80.824375394708895
 51
185.93080022469766
  0
ARC
  5
30E
100
AcDbEntity
  8
0
370
              15
  6
Continuous
 62
               7
100
AcDbCircle
 10
205.47176651405275
 20
240.20842251926967
 30
0.0
 40
0.4879866995403399
100
AcDbArc
 50
118.39851990900486
 51
181.63523172460114
  0
SPLINE
  5
30F
100
AcDbEntity
  8
0
370
              15
  6
Continuous
 62
               7
100
AcDbSpline
210
0.0
220
0.0
230
1.0
 70
               8
 71
               2
 72
              18
 73
              15
 74
               0
 42
0.000001
 43
0.000001
 40
0.0
 40
0.0
 40
0.0
 40
1.0
 40
1.0
 40
2.0
 40
3.0
 40
4.0
 40
5.0
 40
6.0
 40
7.0
 40
8.0
 40
9.0
 40
10.0
 40
10.0
 40
11.0
 40
11.0
 40
11.0
 10
205.23967931488767
 20
240.63768531862095
 30
0.0
 10
205.23824663798774
 20
240.63811257427736
 30
0.0
 10
205.23681396108782
 20
240.63853982993376
 30
0.0
 10
205.19358953936029
 20
240.65130392053368
 30
0.0
 10
205.11018956748379
 20
240.67750288860054
 30
0.0
 10
205.003230665845
 20
240.71950958746896
 30
0.0
 10
204.91877851646663
 20
240.78904962505521
 30
0.0
 10
204.90026146392509
 20
240.86622507929673
 30
0.0
 10
204.93366068555508
 20
240.92383261229872
 30
0.0
 10
204.99019385824533
 20
240.97809535048299
 30
0.0
 10
205.0746752666158
 20
241.01911611823073
 30
0.0
 10
205.11673720049674
 20
241.03742116564985
 30
0.0
 10
205.13822638324194
 20
241.04649942660279
 30
0.0
 10
205.13894108350257
 20
241.04680229551263
 30
0.0
 10
205.13965578376323
 20
241.04710516442245
 30
0.0
  0
SPLINE
  5
310
100
AcDbEntity
  8
0
370
              15
  6
Continuous
 62
               7
100
AcDbSpline
210
0.0
220
0.0
230
1.0
 70
               8
 71
               2
 72
              11
 73
               8
 74
               0
 42
0.000001
 43
0.000001
 40
0.0
 40
0.0
 40
0.0
 40
1.0
 40
1.0
 40
2.0
 40
3.0
 40
3.0
 40
4.0
 40
4.0
 40
4.0
 10
212.42008198729386
 20
229.99692021656426
 30
0.0
 10
212.42007404022155
 20
229.99706299825522
 30
0.0
 10
212.42006609314925
 20
229.99720577994617
 30
0.0
 10
212.25014888812152
 20
232.88590649704071
 30
0.0
 10
211.43323397614989
 20
238.35700243359048
 30
0.0
 10
210.90492614789378
 20
240.99437666024258
 30
0.0
 10
210.89970015747167
 20
241.02091005307193
 30
0.0
 10
210.89447416704957
 20
241.04744344590131
 30
0.0
  0
SPLINE
  5
311
100
AcDbEntity
  8
0
370
              15
  6
Continuous
 62
               7
100
AcDbSpline
210
0.0
220
0.0
230
1.0
 70
               8
 71
               2
 72
              18
 73
              15
 74
               0
 42
0.000001
 43
0.000001
 40
0.0
 40
0.0
 40
0.0
 40
1.0
 40
1.0
 40
2.0
 40
3.0
 40
4.0
 40
5.0
 40
6.0
 40
7.0
 40
8.0
 40
9.0
 40
10.0
 40
10.0
 40
11.0
 40
11.0
 40
11.0
 10
211.03450711252322
 20
240.47425565400471
 30
0.0
 10
211.03567778281965
 20
240.47479658800125
 30
0.0
 10
211.03684845311608
 20
240.4753375219978
 30
0.0
 10
211.07214044403702
 20
240.49154321653799
 30
0.0
 10
211.14061916214371
 20
240.5242162310883
 30
0.0
 10
211.27459256849292
 20
240.59930825251081
 30
0.0
 10
211.35852391748179
 20
240.71128304431983
 30
0.0
 10
211.35897361930495
 20
240.8110027144192
 30
0.0
 10
211.29625505114512
 20
240.88906038576468
 30
0.0
 10
211.21599845387175
 20
240.94211702146481
 30
0.0
 10
211.10490642323052
 20
240.9877537378207
 30
0.0
 10
210.96999139501042
 20
241.02726963366288
 30
0.0
 10
210.89917193736144
 20
241.04617698746995
 30
0.0
 10
210.89682305220549
 20
241.04681021668563
 30
0.0
 10
210.89447416704957
 20
241.04744344590131
 30
0.0
  0
SPLINE
  5
312
100
AcDbEntity
  8
0
370
              15
  6
Continuous
 62
               7
100
AcDbSpline
210
0.0
220
0.0
230
1.0
 70
               8
 71
               2
 72
              11
 73
               8
 74
               0
 42
0.000001
 43
0.000001
 40
0.0
 40
0.0
 40
0.0
 40
1.0
 40
1.0
 40
2.0
 40
3.0
 40
3.0
 40
4.0
 40
4.0
 40
4.0
 10
208.68864310747361
 20
241.56124178811365
 30
0.0
 10
208.6877862423238
 20
241.53612532685554
 30
0.0
 10
208.68692937717401
 20
241.51100886559743
 30
0.0
 10
208.57231783103001
 20
237.81053496906895
 30
0.0
 10
208.08142033837834
 20
232.5462440076397
 30
0.0
 10
207.92961314666991
 20
231.04315500165697
 30
0.0
 10
207.92959939601616
 20
231.04301727389031
 30
0.0
 10
207.92958564536241
 20
231.04287954612363
 30
0.0
  0
SPLINE
  5
313
100
AcDbEntity
  8
0
370
              15
  6
Continuous
 62
               7
100
AcDbSpline
210
0.0
220
0.0
230
1.0
 70
               8
 71
               2
 72
              11
 73
               8
 74
               0
 42
0.000001
 43
0.000001
 40
0.0
 40
0.0
 40
0.0
 40
1.0
 40
1.0
 40
2.0
 40
3.0
 40
3.0
 40
4.0
 40
4.0
 40
4.0
 10
210.89447416704957
 20
241.04744344590131
 30
0.0
 10
210.88308188960983
 20
241.05034111959168
 30
0.0
 10
210.87168961217012
 20
241.05323879328205
 30
0.0
 10
210.16709732565016
 20
241.2367134408193
 30
0.0
 10
209.10587861729144
 20
241.47327038739581
 30
0.0
 10
208.71181333563194
 20
241.556332933867
 30
0.0
 10
208.70022822155278
 20
241.55878736099032
 30
0.0
 10
208.68864310747361
 20
241.56124178811365
 30
0.0
  0
POLYLINE
  5
314
100
AcDbEntity
  8
0
370
              15
  6
Continuous
 62
               7
100
AcDb2dPolyline
 66
               1
 10
0.0
 20
0.0
 30
0.0
 75
               5
  0
VERTEX
  5
315
100
AcDbEntity
  8
0
370
              15
  6
Continuous
 62
               7
100
AcDbVertex
100
AcDb2dVertex
 10
210.89447416705275
 20
241.04744344590966
 30
0.0
  0
VERTEX
  5
316
100
AcDbEntity
  8
0
370
              15
  6
Continuous
 62
               7
100
AcDbVertex
100
AcDb2dVertex
 10
210.88373132225274
 20
241.11375955634963
 30
0.0
  0
VERTEX
  5
317
100
AcDbEntity
  8
0
370
              15
  6
Continuous
 62
               7
100
AcDbVertex
100
AcDb2dVertex
 10
210.86430718249269
 20
241.17339756762965
 30
0.0
  0
VERTEX
  5
318
100
AcDbEntity
  8
0
370
              15
  6
Continuous
 62
               7
100
AcDbVertex
100
AcDb2dVertex
 10
210.83686699681269
 20
241.22431503182963
 30
0.0
  0
VERTEX
  5
319
100
AcDbEntity
  8
0
370
              15
  6
Continuous
 62
               7
100
AcDbVertex
100
AcDb2dVertex
 10
210.80235059649272
 20
241.26476688938968
 30
0.0
  0
VERTEX
  5
31A
100
AcDbEntity
  8
0
370
              15
  6
Continuous
 62
               7
100
AcDbVertex
100
AcDb2dVertex
 10
210.76194003149271
 20
241.29336923210965
 30
0.0
  0
VERTEX
  5
31B
100
AcDbEntity
  8
0
370
              15
  6
Continuous
 62
               7
100
AcDbVertex
100
AcDb2dVertex
 10
210.7170192312127
 20
241.30914212690965
 30
0.0
  0
VERTEX
  5
31C
100
AcDbEntity
  8
0
370
              15
  6
Continuous
 62
               7
100
AcDbVertex
100
AcDb2dVertex
 10
210.66912678069269
 20
241.31154457878964
 30
0.0
  0
VERTEX
  5
31D
100
AcDbEntity
  8
0
370
              15
  6
Continuous
 62
               7
100
AcDbVertex
100
AcDb2dVertex
 10
210.61990286777271
 20
241.30049551346968
 30
0.0
  0
SEQEND
  5
31E
100
AcDbEntity
  8
0
370
              15
  6
Continuous
 62
               7
  0
ARC
  5
31F
100
AcDbEntity
  8
0
370
              15
  6
Continuous
 62
               7
100
AcDbCircle
 10
210.56861943533272
 20
240.44976234026967
 30
0.0
 40
0.4665310816728734
100
AcDbArc
 50
3.0094650776004226
 51
71.075409371098118
  0
SPLINE
  5
320
100
AcDbEntity
  8
0
370
              15
  6
Continuous
 62
               7
100
AcDbSpline
210
0.0
220
0.0
230
1.0
 70
               8
 71
               2
 72
              18
 73
              15
 74
               0
 42
0.000001
 43
0.000001
 40
0.0
 40
0.0
 40
0.0
 40
1.0
 40
1.0
 40
2.0
 40
3.0
 40
4.0
 40
5.0
 40
6.0
 40
7.0
 40
8.0
 40
9.0
 40
10.0
 40
10.0
 40
11.0
 40
11.0
 40
11.0
 10
210.61990286777004
 20
241.30049551346542
 30
0.0
 10
210.62133554466993
 20
241.30006825780902
 30
0.0
 10
210.62276822156986
 20
241.29964100215261
 30
0.0
 10
210.66599264329739
 20
241.28687691155255
 30
0.0
 10
210.74939261517397
 20
241.26067794348614
 30
0.0
 10
210.85635151681262
 20
241.21867124461727
 30
0.0
 10
210.94080366619104
 20
241.1491312070313
 30
0.0
 10
210.95932071873256
 20
241.07195575278959
 30
0.0
 10
210.92592149710256
 20
241.01434821978756
 30
0.0
 10
210.86938832441223
 20
240.96008548160347
 30
0.0
 10
210.78490691604188
 20
240.91906471385568
 30
0.0
 10
210.74284498216093
 20
240.90075966643647
 30
0.0
 10
210.72135579941573
 20
240.89168140548355
 30
0.0
 10
210.7206410991551
 20
240.89137853657374
 30
0.0
 10
210.71992639889447
 20
240.89107566766393
 30
0.0
  0
SPLINE
  5
321
100
AcDbEntity
  8
0
370
              15
  6
Continuous
 62
               7
100
AcDbSpline
210
0.0
220
0.0
230
1.0
 70
               8
 71
               2
 72
              11
 73
               8
 74
               0
 42
0.000001
 43
0.000001
 40
0.0
 40
0.0
 40
0.0
 40
1.0
 40
1.0
 40
2.0
 40
3.0
 40
3.0
 40
4.0
 40
4.0
 40
4.0
 10
206.75225592385735
 20
241.4717089957382
 30
0.0
 10
206.74296605161402
 20
241.46851871206491
 30
0.0
 10
206.73367617937069
 20
241.46532842839159
 30
0.0
 10
206.04419386433742
 20
241.23281193513998
 30
0.0
 10
205.13374520868896
 20
240.8823839441315
 30
0.0
 10
204.8620641651913
 20
240.77484326966999
 30
0.0
 10
204.8530048817556
 20
240.77126412219428
 30
0.0
 10
204.84394559831989
 20
240.76768497471861
 30
0.0
  0
SPLINE
  5
322
100
AcDbEntity
  8
0
370
              15
  6
Continuous
 62
               7
100
AcDbSpline
210
0.0
220
0.0
230
1.0
 70
               8
 71
               2
 72
              11
 73
               8
 74
               0
 42
0.000001
 43
0.000001
 40
0.0
 40
0.0
 40
0.0
 40
1.0
 40
1.0
 40
2.0
 40
3.0
 40
3.0
 40
4.0
 40
4.0
 40
4.0
 10
207.92958564536241
 20
231.04287954612363
 30
0.0
 10
207.92956485319186
 20
231.04301567673269
 30
0.0
 10
207.92954406102129
 20
231.04315180734176
 30
0.0
 10
207.64328321597017
 20
232.87700963551822
 30
0.0
 10
206.96572175837667
 20
238.06646384805094
 30
0.0
 10
206.75554940462357
 20
241.42170759179044
 30
0.0
 10
206.75390266424046
 20
241.44670829376429
 30
0.0
 10
206.75225592385735
 20
241.4717089957382
 30
0.0
  0
POLYLINE
  5
323
100
AcDbEntity
  8
0
370
              15
  6
Continuous
 62
               7
100
AcDb2dPolyline
 66
               1
 10
0.0
 20
0.0
 30
0.0
 75
               5
  0
VERTEX
  5
324
100
AcDbEntity
  8
0
370
              15
  6
Continuous
 62
               7
100
AcDbVertex
100
AcDb2dVertex
 10
208.68864310749271
 20
241.56124178810967
 30
0.0
  0
VERTEX
  5
325
100
AcDbEntity
  8
0
370
              15
  6
Continuous
 62
               7
100
AcDbVertex
100
AcDb2dVertex
 10
208.67820527589274
 20
241.62748685262966
 30
0.0
  0
VERTEX
  5
326
100
AcDbEntity
  8
0
370
              15
  6
Continuous
 62
               7
100
AcDbVertex
100
AcDb2dVertex
 10
208.6593884869327
 20
241.68698339534967
 30
0.0
  0
VERTEX
  5
327
100
AcDbEntity
  8
0
370
              15
  6
Continuous
 62
               7
100
AcDbVertex
100
AcDb2dVertex
 10
208.63283700773272
 20
241.73769385546964
 30
0.0
  0
VERTEX
  5
328
100
AcDbEntity
  8
0
370
              15
  6
Continuous
 62
               7
100
AcDbVertex
100
AcDb2dVertex
 10
208.5994602527727
 20
241.77788025850967
 30
0.0
  0
VERTEX
  5
329
100
AcDbEntity
  8
0
370
              15
  6
Continuous
 62
               7
100
AcDbVertex
100
AcDb2dVertex
 10
208.56040140601274
 20
241.80616774910965
 30
0.0
  0
VERTEX
  5
32A
100
AcDbEntity
  8
0
370
              15
  6
Continuous
 62
               7
100
AcDbVertex
100
AcDb2dVertex
 10
208.51699792665272
 20
241.82158721838965
 30
0.0
  0
VERTEX
  5
32B
100
AcDbEntity
  8
0
370
              15
  6
Continuous
 62
               7
100
AcDbVertex
100
AcDb2dVertex
 10
208.47073657853275
 20
241.82360974190968
 30
0.0
  0
VERTEX
  5
32C
100
AcDbEntity
  8
0
370
              15
  6
Continuous
 62
               7
100
AcDbVertex
100
AcDb2dVertex
 10
208.42320150369272
 20
241.81216730006966
 30
0.0
  0
SEQEND
  5
32D
100
AcDbEntity
  8
0
370
              15
  6
Continuous
 62
               7
  0
SPLINE
  5
32E
100
AcDbEntity
  8
0
370
              15
  6
Continuous
 62
               7
100
AcDbSpline
210
0.0
220
0.0
230
1.0
 70
               8
 71
               2
 72
              10
 73
               7
 74
               0
 42
0.000001
 43
0.000001
 40
0.0
 40
0.0
 40
0.0
 40
1.0
 40
1.0
 40
2.0
 40
2.0
 40
3.0
 40
3.0
 40
3.0
 10
208.42320150368167
 20
241.81216730007145
 30
0.0
 10
208.43475664782815
 20
241.80954520791559
 30
0.0
 10
208.44631179197461
 20
241.80692311575973
 30
0.0
 10
209.53439199683925
 20
241.56107158951755
 30
0.0
 10
210.59724858052726
 20
241.30591117140241
 30
0.0
 10
210.60857572414864
 20
241.3032033424339
 30
0.0
 10
210.61990286777004
 20
241.30049551346542
 30
0.0
  0
ARC
  5
32F
100
AcDbEntity
  8
0
370
              15
  6
Continuous
 62
               7
100
AcDbCircle
 10
206.99986574377274
 20
241.50201811198966
 30
0.0
 40
0.2494579432463198
100
AcDbArc
 50
80.725898560400864
 51
186.97867422760433
  0
SPLINE
  5
330
100
AcDbEntity
  8
0
370
              15
  6
Continuous
 62
               7
100
AcDbSpline
210
0.0
220
0.0
230
1.0
 70
               8
 71
               2
 72
              10
 73
               7
 74
               0
 42
0.000001
 43
0.000001
 40
0.0
 40
0.0
 40
0.0
 40
1.0
 40
1.0
 40
2.0
 40
2.0
 40
3.0
 40
3.0
 40
3.0
 10
205.13965578376323
 20
241.04710516442245
 30
0.0
 10
205.14866823908247
 20
241.05050415459226
 30
0.0
 10
205.15768069440173
 20
241.0539031447621
 30
0.0
 10
206.0753534303349
 20
241.40103703497996
 30
0.0
 10
207.02154630654547
 20
241.74153040837999
 30
0.0
 10
207.03080706320219
 20
241.74487285738246
 30
0.0
 10
207.0400678198589
 20
241.74821530638491
 30
0.0
  0
SPLINE
  5
331
100
AcDbEntity
  8
0
370
              15
  6
Continuous
 62
               7
100
AcDbSpline
210
0.0
220
0.0
230
1.0
 70
               8
 71
               2
 72
              16
 73
              13
 74
               0
 42
0.000001
 43
0.000001
 40
0.0
 40
0.0
 40
0.0
 40
1.0
 40
1.0
 40
2.0
 40
3.0
 40
4.0
 40
5.0
 40
6.0
 40
7.0
 40
8.0
 40
8.0
 40
9.0
 40
9.0
 40
9.0
 10
208.68864310747361
 20
241.56124178811365
 30
0.0
 10
208.68657892154653
 20
241.56170243506949
 30
0.0
 10
208.68451473561944
 20
241.56216308202534
 30
0.0
 10
208.62282809620731
 20
241.5761149936848
 30
0.0
 10
208.37510762108627
 20
241.62735418459573
 30
0.0
 10
208.0113380404768
 20
241.65034969253114
 30
0.0
 10
207.72262690737779
 20
241.6487989826125
 30
0.0
 10
207.43427043847981
 20
241.62829734209743
 30
0.0
 10
207.11049716231753
 20
241.58044001262624
 30
0.0
 10
206.85879539185711
 20
241.50687679978449
 30
0.0
 10
206.75894690255794
 20
241.47389135905291
 30
0.0
 10
206.75560141320764
 20
241.47280017739553
 30
0.0
 10
206.75225592385735
 20
241.4717089957382
 30
0.0
  0
SPLINE
  5
332
100
AcDbEntity
  8
0
370
              15
  6
Continuous
 62
               7
100
AcDbSpline
210
0.0
220
0.0
230
1.0
 70
               8
 71
               2
 72
              16
 73
              13
 74
               0
 42
0.000001
 43
0.000001
 40
0.0
 40
0.0
 40
0.0
 40
1.0
 40
1.0
 40
2.0
 40
3.0
 40
4.0
 40
5.0
 40
6.0
 40
7.0
 40
8.0
 40
8.0
 40
9.0
 40
9.0
 40
9.0
 10
207.0400678198589
 20
241.74821530638491
 30
0.0
 10
207.04228720183156
 20
241.74887962030053
 30
0.0
 10
207.04450658380424
 20
241.74954393421615
 30
0.0
 10
207.10194367811491
 20
241.76693080566184
 30
0.0
 10
207.28393550643645
 20
241.81863316410443
 30
0.0
 10
207.48830321699106
 20
241.8459798740503
 30
0.0
 10
207.72469462773199
 20
241.86913806336719
 30
0.0
 10
208.01169935563902
 20
241.86510756834662
 30
0.0
 10
208.23113932977839
 20
241.84846132875595
 30
0.0
 10
208.37950674565309
 20
241.82085950312893
 30
0.0
 10
208.42046506176325
 20
241.81270780389917
 30
0.0
 10
208.42183328272245
 20
241.81243755198528
 30
0.0
 10
208.42320150368167
 20
241.81216730007145
 30
0.0
  0
LINE
  5
333
100
AcDbEntity
  8
0
370
              15
  6
Continuous
 62
               7
100
AcDbLine
 10
212.39366815209272
 20
229.73969712418966
 30
0.0
 11
212.37828188757271
 21
230.76479863674967
 31
0.0
  0
SPLINE
  5
334
100
AcDbEntity
  8
0
370
              15
  6
Continuous
 62
               7
100
AcDbSpline
210
0.0
220
0.0
230
1.0
 70
               8
 71
               2
 72
              11
 73
               8
 74
               0
 42
0.000001
 43
0.000001
 40
0.0
 40
0.0
 40
0.0
 40
1.0
 40
1.0
 40
2.0
 40
3.0
 40
3.0
 40
4.0
 40
4.0
 40
4.0
 10
204.52779532591899
 20
240.51875872541115
 30
0.0
 10
204.52560231987223
 20
240.4975136315575
 30
0.0
 10
204.52340931382548
 20
240.47626853770385
 30
0.0
 10
204.39731647321426
 20
239.29807601419589
 30
0.0
 10
204.04065137584601
 20
234.37088507945248
 30
0.0
 10
204.0448198931046
 20
230.52280474586325
 30
0.0
 10
204.04479398382955
 20
230.4941453274069
 30
0.0
 10
204.04476807455453
 20
230.46548590895054
 30
0.0
  0
SPLINE
  5
335
100
AcDbEntity
  8
0
370
              15
  6
Continuous
 62
               7
100
AcDbSpline
210
0.0
220
0.0
230
1.0
 70
               8
 71
               2
 72
              17
 73
              14
 74
               0
 42
0.000001
 43
0.000001
 40
0.0
 40
0.0
 40
0.0
 40
1.0
 40
1.0
 40
2.0
 40
3.0
 40
4.0
 40
5.0
 40
6.0
 40
7.0
 40
8.0
 40
9.0
 40
9.0
 40
10.0
 40
10.0
 40
10.0
 10
205.01132210285652
 20
241.03766328488342
 30
0.0
 10
205.01102041850552
 20
241.03756782331394
 30
0.0
 10
205.01071873415452
 20
241.03747236174445
 30
0.0
 10
204.94612287056191
 20
241.01800792613716
 30
0.0
 10
204.84654631264834
 20
240.96890784926086
 30
0.0
 10
204.76502743322055
 20
240.91484666974731
 30
0.0
 10
204.67957294618131
 20
240.84536808680218
 30
0.0
 10
204.61522895442343
 20
240.76996578077981
 30
0.0
 10
204.57168995970983
 20
240.70240940951652
 30
0.0
 10
204.54398900087921
 20
240.62694763608403
 30
0.0
 10
204.52813331698647
 20
240.56147488433183
 30
0.0
 10
204.52116022061958
 20
240.52822199184203
 30
0.0
 10
204.52092444192692
 20
240.52711536706502
 30
0.0
 10
204.52068866323424
 20
240.52600874228801
 30
0.0
  0
SPLINE
  5
336
100
AcDbEntity
  8
0
370
              15
  6
Continuous
 62
               7
100
AcDbSpline
210
0.0
220
0.0
230
1.0
 70
               8
 71
               2
 72
              11
 73
               8
 74
               0
 42
0.000001
 43
0.000001
 40
0.0
 40
0.0
 40
0.0
 40
1.0
 40
1.0
 40
2.0
 40
3.0
 40
3.0
 40
4.0
 40
4.0
 40
4.0
 10
212.38904440653664
 20
230.60440321363814
 30
0.0
 10
212.3882415293769
 20
230.61954787018615
 30
0.0
 10
212.38743865221716
 20
230.63469252673417
 30
0.0
 10
212.19345779936742
 20
234.38421538848502
 30
0.0
 10
211.57231777610968
 20
239.3809875953549
 30
0.0
 10
211.35663519502293
 20
240.72934436917561
 30
0.0
 10
211.35256452410127
 20
240.75524080252387
 30
0.0
 10
211.3484938531796
 20
240.78113723587217
 30
0.0
  0
SPLINE
  5
337
100
AcDbEntity
  8
0
370
              15
  6
Continuous
 62
               7
100
AcDbSpline
210
0.0
220
0.0
230
1.0
 70
               8
 71
               2
 72
              17
 73
              14
 74
               0
 42
0.000001
 43
0.000001
 40
0.0
 40
0.0
 40
0.0
 40
1.0
 40
1.0
 40
2.0
 40
3.0
 40
4.0
 40
5.0
 40
6.0
 40
7.0
 40
8.0
 40
9.0
 40
9.0
 40
10.0
 40
10.0
 40
10.0
 10
211.35028789093562
 20
240.7817734071771
 30
0.0
 10
211.35027063867147
 20
240.78218348951481
 30
0.0
 10
211.35025338640733
 20
240.78259357185249
 30
0.0
 10
211.34977893742246
 20
240.79490597975251
 30
0.0
 10
211.34680194819452
 20
240.8487188814965
 30
0.0
 10
211.31736221880578
 20
240.92363959499482
 30
0.0
 10
211.23138179335132
 20
241.05860267815314
 30
0.0
 10
211.08021888275951
 20
241.17321401531035
 30
0.0
 10
210.94711262092562
 20
241.24033659443268
 30
0.0
 10
210.83798647459551
 20
241.27509953554568
 30
0.0
 10
210.76133829235425
 20
241.29483529703873
 30
0.0
 10
210.72246524325624
 20
241.30422516800201
 30
0.0
 10
210.72117139950421
 20
241.30453983747748
 30
0.0
 10
210.71987755575222
 20
241.30485450695289
 30
0.0
  0
LINE
  5
338
100
AcDbEntity
  8
0
370
              15
  6
Continuous
 62
               7
100
AcDbLine
 10
204.04350078741271
 20
230.63341613126966
 30
0.0
 11
204.07654434873268
 21
229.87851306626965
 31
0.0
  0
SPLINE
  5
339
100
AcDbEntity
  8
0
370
              15
  6
Continuous
 62
               7
100
AcDbSpline
210
0.0
220
0.0
230
1.0
 70
               8
 71
               2
 72
              10
 73
               7
 74
               0
 42
0.000001
 43
0.000001
 40
0.0
 40
0.0
 40
0.0
 40
1.0
 40
1.0
 40
2.0
 40
2.0
 40
3.0
 40
3.0
 40
3.0
 10
210.71942834983997
 20
241.30607506470932
 30
0.0
 10
210.7083975212206
 20
241.30875055718894
 30
0.0
 10
210.69736669260126
 20
241.31142604966863
 30
0.0
 10
209.63893446001833
 20
241.56954035555805
 30
0.0
 10
208.54271326037363
 20
241.81433744407767
 30
0.0
 10
208.53081693643685
 20
241.81701011342631
 30
0.0
 10
208.51892061250004
 20
241.81968278277498
 30
0.0
  0
SPLINE
  5
33A
100
AcDbEntity
  8
0
370
              15
  6
Continuous
 62
               7
100
AcDbSpline
210
0.0
220
0.0
230
1.0
 70
               8
 71
               2
 72
              11
 73
               8
 74
               0
 42
0.000001
 43
0.000001
 40
0.0
 40
0.0
 40
0.0
 40
1.0
 40
1.0
 40
2.0
 40
3.0
 40
3.0
 40
4.0
 40
4.0
 40
4.0
 10
206.92006794863727
 20
241.74177255824594
 30
0.0
 10
206.91109908650466
 20
241.7385750249781
 30
0.0
 10
206.90213022437206
 20
241.73537749171021
 30
0.0
 10
206.21816987730747
 20
241.49337943215977
 30
0.0
 10
205.31104927895279
 20
241.15279320661944
 30
0.0
 10
205.02994297266176
 20
241.04578459826286
 30
0.0
 10
205.0205672293323
 20
241.04221897370098
 30
0.0
 10
205.01119148600287
 20
241.03865334913905
 30
0.0
  0
SPLINE
  5
33B
100
AcDbEntity
  8
0
370
              15
  6
Continuous
 62
               7
100
AcDbSpline
210
0.0
220
0.0
230
1.0
 70
               8
 71
               2
 72
              15
 73
              12
 74
               0
 42
0.000001
 43
0.000001
 40
0.0
 40
0.0
 40
0.0
 40
1.0
 40
1.0
 40
2.0
 40
3.0
 40
4.0
 40
5.0
 40
6.0
 40
7.0
 40
7.0
 40
8.0
 40
8.0
 40
8.0
 10
208.51914193520938
 20
241.81899860048435
 30
0.0
 10
208.51881445045873
 20
241.81909091017081
 30
0.0
 10
208.51848696570809
 20
241.81918321985725
 30
0.0
 10
208.43743938139454
 20
241.84260583710767
 30
0.0
 10
208.21676319369834
 20
241.87078502926602
 30
0.0
 10
207.91674216546437
 20
241.88907814960072
 30
0.0
 10
207.53177848527216
 20
241.8747779721192
 30
0.0
 10
207.16686720589882
 20
241.82002246215905
 30
0.0
 10
206.97530934194594
 20
241.76098437762428
 30
0.0
 10
206.92138940883018
 20
241.74312908423292
 30
0.0
 10
206.91958760907474
 20
241.74253682982538
 30
0.0
 10
206.9177858093193
 20
241.74194457541785
 30
0.0
  0
ENDSEC
  0
SECTION
  2
OBJECTS
  0
DICTIONARY
  5
19
100
AcDbDictionary
280
               0
281
               1
  3
ACAD_GROUP
350
1A
  3
ACAD_MLINESTYLE
350
1B
  3
ACAD_LAYOUT
350
1E
  3
ACAD_PLOTSETTINGS
350
22
  3
ACAD_PLOTSTYLENAME
350
1F
  3
ACAD_WIPEOUT_VARS
350
23
  0
DICTIONARY
  5
1A
102
{ACAD_REACTORS
330
19
102
}
100
AcDbDictionary
280
               0
281
               1
  0
DICTIONARY
  5
1B
102
{ACAD_REACTORS
330
19
102
}
100
AcDbDictionary
280
               0
281
               1
  3
Standard
350
1C
  0
MLINESTYLE
  5
1C
102
{ACAD_REACTORS
330
1B
102
}
100
AcDbMlineStyle
  2
Standard
 70
               0
  3

 62
               0
 51
90.0
 52
90.0
 71
               2
 49
0.5
 62
             256
  6
ByLayer
 49
-0.5
 62
             256
  6
ByLayer
  0
ACDBDICTIONARYWDFLT
  5
1F
102
{ACAD_REACTORS
330
19
102
}
100
AcDbDictionary
281
               1
  3
Normal
350
1D
100
AcDbDictionaryWithDefault
340
1D
  0
ACDBPLACEHOLDER
  5
1D
102
{ACAD_REACTORS
330
1F
102
}
  0
LAYOUT
  5
20
102
{ACAD_REACTORS
330
1E
102
}
100
AcDbPlotSettings
  1

  2

  4

  6

 40
0.0
 41
0.0
 42
0.0
 43
0.0
 44
0.0
 45
0.0
 46
0.0
 47
0.0
 48
0.0
 49
0.0
140
0.0
141
0.0
142
1.0
143
1.0
 70
            1024
 72
               0
 73
               0
 74
               0
  7

 75
               0
147
1.0
148
0.0
149
0.0
100
AcDbLayout
  1
Model
 70
               0
 71
               0
 10
0.0
 20
0.0
 11
0.0
 21
0.0
 12
0.0
 22
0.0
 32
0.0
 14
0.0
 24
0.0
 34
0.0
 15
0.0
 25
0.0
 35
0.0
146
0.0
 13
0.0
 23
0.0
 33
0.0
 16
0.0
 26
0.0
 36
0.0
 17
0.0
 27
0.0
 37
0.0
 76
               0
330
A
331
0
345
0
346
0
  0
LAYOUT
  5
21
102
{ACAD_REACTORS
330
1E
102
}
100
AcDbPlotSettings
  1

  2

  4

  6

 40
0.0
 41
0.0
 42
0.0
 43
0.0
 44
0.0
 45
0.0
 46
0.0
 47
0.0
 48
0.0
 49
0.0
140
0.0
141
0.0
142
1.0
143
1.0
 70
               0
 72
               0
 73
               0
 74
               0
  7

 75
               0
147
1.0
148
0.0
149
0.0
100
AcDbLayout
  1
Layout1
 70
               0
 71
               0
 10
0.0
 20
0.0
 11
0.0
 21
0.0
 12
0.0
 22
0.0
 32
0.0
 14
0.0
 24
0.0
 34
0.0
 15
0.0
 25
0.0
 35
0.0
146
0.0
 13
0.0
 23
0.0
 33
0.0
 16
0.0
 26
0.0
 36
0.0
 17
0.0
 27
0.0
 37
0.0
 76
               0
330
B
331
0
345
0
346
0
  0
DICTIONARY
  5
1E
102
{ACAD_REACTORS
330
19
102
}
100
AcDbDictionary
280
               0
281
               1
  3
Layout1
350
21
  3
Model
350
20
  0
DICTIONARY
  5
22
102
{ACAD_REACTORS
330
19
102
}
100
AcDbDictionary
280
               0
281
               1
  0
WIPEOUTVARIABLES
  5
23
100
AcDbWipeoutVariables
 70
               1
  0
ENDSEC
  0
EOF
