  0
SECTION
  2
HEADER
  9
$ACADVER
  1
AC1015
  9
$ACADMAINTVER
 70
               6
  9
$DWGCODEPAGE
  3
ANSI_932
  9
$INSBASE
 10
0.0
 20
0.0
 30
0.0
  9
$EXTMIN
 10
261.04670212314932
 20
50.519554381625213
 30
0.0
  9
$EXTMAX
 10
293.78118196641623
 20
66.299999999999997
 30
0.0
  9
$LIMMIN
 10
0.0
 20
0.0
  9
$LIMMAX
 10
0.0
 20
0.0
  9
$ORTHOMODE
 70
               0
  9
$REGENMODE
 70
               1
  9
$FILLMODE
 70
               1
  9
$QTEXTMODE
 70
               0
  9
$MIRRTEXT
 70
               1
  9
$LTSCALE
 40
5.0800000000000001
  9
$ATTMODE
 70
               1
  9
$TEXTSIZE
 40
0.2
  9
$TRACEWID
 40
1.0
  9
$TEXTSTYLE
  7
Standard
  9
$CLAYER
  8
0
  9
$CELTYPE
  6
Continuous
  9
$CECOLOR
 62
             256
  9
$CELTSCALE
 40
1.0
  9
$DISPSILH
 70
               0
  9
$DIMSCALE
 40
1.0
  9
$DIMASZ
 40
0.18
  9
$DIMEXO
 40
0.0625
  9
$DIMDLI
 40
0.38
  9
$DIMRND
 40
0.0
  9
$DIMDLE
 40
0.0
  9
$DIMEXE
 40
0.18
  9
$DIMTP
 40
0.0
  9
$DIMTM
 40
0.0
  9
$DIMTXT
 40
0.18
  9
$DIMCEN
 40
0.09
  9
$DIMTSZ
 40
0.0
  9
$DIMTOL
 70
               0
  9
$DIMLIM
 70
               0
  9
$DIMTIH
 70
               1
  9
$DIMTOH
 70
               1
  9
$DIMSE1
 70
               0
  9
$DIMSE2
 70
               0
  9
$DIMTAD
 70
               0
  9
$DIMZIN
 70
               0
  9
$DIMBLK
  1

  9
$DIMASO
 70
               1
  9
$DIMSHO
 70
               1
  9
$DIMPOST
  1

  9
$DIMAPOST
  1

  9
$DIMALT
 70
               0
  9
$DIMALTD
 70
               2
  9
$DIMALTF
 40
25.399999999999999
  9
$DIMLFAC
 40
1.0
  9
$DIMTOFL
 70
               0
  9
$DIMTVP
 40
0.0
  9
$DIMTIX
 70
               0
  9
$DIMSOXD
 70
               0
  9
$DIMSAH
 70
               0
  9
$DIMBLK1
  1

  9
$DIMBLK2
  1

  9
$DIMSTYLE
  2
Standard
  9
$DIMCLRD
 70
               0
  9
$DIMCLRE
 70
               0
  9
$DIMCLRT
 70
               0
  9
$DIMTFAC
 40
1.0
  9
$DIMGAP
 40
0.09
  9
$DIMJUST
 70
               0
  9
$DIMSD1
 70
               0
  9
$DIMSD2
 70
               0
  9
$DIMTOLJ
 70
               1
  9
$DIMTZIN
 70
               0
  9
$DIMALTZ
 70
               0
  9
$DIMALTTZ
 70
               0
  9
$DIMUPT
 70
               0
  9
$DIMDEC
 70
               4
  9
$DIMTDEC
 70
               4
  9
$DIMALTU
 70
               2
  9
$DIMALTTD
 70
               2
  9
$DIMTXSTY
  7
Standard
  9
$DIMAUNIT
 70
               0
  9
$DIMADEC
 70
               0
  9
$DIMALTRND
 40
0.0
  9
$DIMAZIN
 70
               0
  9
$DIMDSEP
 70
               0
  9
$DIMATFIT
 70
               3
  9
$DIMFRAC
 70
               0
  9
$DIMLDRBLK
  1

  9
$DIMLUNIT
 70
               2
  9
$DIMLWD
 70
               0
  9
$DIMLWE
 70
               0
  9
$DIMTMOVE
 70
               0
  9
$LUNITS
 70
               2
  9
$LUPREC
 70
               4
  9
$SKETCHINC
 40
0.1
  9
$FILLETRAD
 40
0.0
  9
$AUNITS
 70
               0
  9
$AUPREC
 70
               0
  9
$MENU
  1
acad
  9
$ELEVATION
 40
0.0
  9
$PELEVATION
 40
0.0
  9
$THICKNESS
 40
0.0
  9
$LIMCHECK
 70
               0
  9
$CHAMFERA
 40
0.0
  9
$CHAMFERB
 40
0.0
  9
$CHAMFERC
 40
0.0
  9
$CHAMFERD
 40
0.0
  9
$SKPOLY
 70
               0
  9
$TDCREATE
 40
2458068.670428241
  9
$TDUCREATE
 40
0.000000000
  9
$TDUPDATE
 40
2458068.670428241
  9
$TDUUPDATE
 40
0.000000000
  9
$TDINDWG
 40
0.0000000000
  9
$TDUSRTIMER
 40
0.0000000000
  9
$USRTIMER
 70
               1
  9
$ANGBASE
 50
0.0
  9
$ANGDIR
 70
               0
  9
$PDMODE
 70
               1
  9
$PDSIZE
 40
-2.0
  9
$PLINEWID
 40
0.0
  9
$SPLFRAME
 70
               0
  9
$SPLINETYPE
 70
               6
  9
$SPLINESEGS
 70
               8
  9
$HANDSEED
  5
212
  9
$SURFTAB1
 70
               6
  9
$SURFTAB2
 70
               6
  9
$SURFTYPE
 70
               6
  9
$SURFU
 70
               6
  9
$SURFV
 70
               6
  9
$UCSBASE
  2

  9
$UCSNAME
  2

  9
$UCSORG
 10
0.0
 20
0.0
 30
0.0
  9
$UCSXDIR
 10
1.0
 20
0.0
 30
0.0
  9
$UCSYDIR
 10
0.0
 20
1.0
 30
0.0
  9
$UCSORTHOREF
  2

  9
$UCSORTHOVIEW
 70
               0
  9
$UCSORGTOP
 10
0.0
 20
0.0
 30
0.0
  9
$UCSORGBOTTOM
 10
0.0
 20
0.0
 30
0.0
  9
$UCSORGLEFT
 10
0.0
 20
0.0
 30
0.0
  9
$UCSORGRIGHT
 10
0.0
 20
0.0
 30
0.0
  9
$UCSORGFRONT
 10
0.0
 20
0.0
 30
0.0
  9
$UCSORGBACK
 10
0.0
 20
0.0
 30
0.0
  9
$PUCSBASE
  2

  9
$PUCSNAME
  2

  9
$PUCSORG
 10
0.0
 20
0.0
 30
0.0
  9
$PUCSXDIR
 10
1.0
 20
0.0
 30
0.0
  9
$PUCSYDIR
 10
0.0
 20
1.0
 30
0.0
  9
$PUCSORTHOREF
  2

  9
$PUCSORTHOVIEW
 70
               0
  9
$PUCSORGTOP
 10
0.0
 20
0.0
 30
0.0
  9
$PUCSORGBOTTOM
 10
0.0
 20
0.0
 30
0.0
  9
$PUCSORGLEFT
 10
0.0
 20
0.0
 30
0.0
  9
$PUCSORGRIGHT
 10
0.0
 20
0.0
 30
0.0
  9
$PUCSORGFRONT
 10
0.0
 20
0.0
 30
0.0
  9
$PUCSORGBACK
 10
0.0
 20
0.0
 30
0.0
  9
$USERI1
 70
               0
  9
$USERI2
 70
               0
  9
$USERI3
 70
               0
  9
$USERI4
 70
               0
  9
$USERI5
 70
               0
  9
$USERR1
 40
0.0
  9
$USERR2
 40
0.0
  9
$USERR3
 40
0.0
  9
$USERR4
 40
0.0
  9
$USERR5
 40
0.0
  9
$WORLDVIEW
 70
               1
  9
$SHADEDGE
 70
               3
  9
$SHADEDIF
 70
              70
  9
$TILEMODE
 70
               1
  9
$MAXACTVP
 70
              16
  9
$PINSBASE
 10
0.0
 20
0.0
 30
0.0
  9
$PLIMCHECK
 70
               0
  9
$PEXTMIN
 10
1.0000000000000000E+20
 20
1.0000000000000000E+20
 30
1.0000000000000000E+20
  9
$PEXTMAX
 10
-1.0000000000000000E+20
 20
-1.0000000000000000E+20
 30
-1.0000000000000000E+20
  9
$PLIMMIN
 10
0.0
 20
0.0
  9
$PLIMMAX
 10
12.0
 20
9.0
  9
$UNITMODE
 70
               0
  9
$VISRETAIN
 70
               0
  9
$PLINEGEN
 70
               1
  9
$PSLTSCALE
 70
               0
  9
$TREEDEPTH
 70
            3020
  9
$CMLSTYLE
  2
Standard
  9
$CMLJUST
 70
               0
  9
$CMLSCALE
 40
1.0
  9
$PROXYGRAPHICS
 70
               0
  9
$MEASUREMENT
 70
               1
  9
$CELWEIGHT
370
               0
  9
$ENDCAPS
280
               0
  9
$JOINSTYLE
280
               0
  9
$LWDISPLAY
290
               1
  9
$INSUNITS
 70
               4
  9
$HYPERLINKBASE
  1

  9
$STYLESHEET
  1

  9
$XEDIT
290
               1
  9
$CEPSNTYPE
380
               0
  9
$PSTYLEMODE
290
               1
  9
$FINGERPRINTGUID
  2

  9
$VERSIONGUID
  2

  9
$EXTNAMES
290
               1
  9
$PSVPSCALE
 40
0.0
  0
ENDSEC
  0
SECTION
  2
CLASSES
  0
CLASS
  1
LWPOLYLINE
  2
AcDbPolyline
  3
AutoCAD 2000
 90
    32768
280
               0
281
               1
  0
CLASS
  1
IMAGE
  2
AcDbRasterImage
  3
ISM
 90
    32895
280
               0
281
               1
  0
CLASS
  1
OLE2FRAME
  2
AcDbOle2Frame
  3
AutoCAD 2000
 90
    32768
280
               0
281
               1
  0
CLASS
  1
HATCH
  2
AcDbHatch
  3
AutoCAD 2000
 90
    32768
280
               0
281
               1
  0
CLASS
  1
DICTIONARYVAR
  2
AcDbDictionaryVar
  3
AutoCAD 2000
 90
    32768
280
               0
281
               0
  0
CLASS
  1
RASTERVARIABLES
  2
AcDbRasterVariables
  3
ISM
 90
    32768
280
               0
281
               0
  0
CLASS
  1
IMAGEDEF
  2
AcDbRasterImageDef
  3
ISM
 90
    32768
280
               0
281
               0
  0
CLASS
  1
IMAGEDEF_REACTOR
  2
AcDbRasterImageDefReactor
  3
ISM
 90
    32769
280
               0
281
               0
  0
CLASS
  1
IDBUFFER
  2
AcDbIdBuffer
  3
AutoCAD 2000
 90
    32768
280
               0
281
               0
  0
CLASS
  1
SPATIAL_FILTER
  2
AcDbSpatialFilter
  3
AutoCAD 2000
 90
    32768
280
               0
281
               0
  0
CLASS
  1
XRECORD
  2
AcDbXrecord
  3
AutoCAD 2000
 90
    32768
280
               0
281
               0
  0
CLASS
  1
SORTENTSTABLE
  2
AcDbSortentsTable
  3
AutoCAD 2000
 90
    32768
280
               0
281
               0
  0
CLASS
  1
LAYER_INDEX
  2
AcDbLayerIndex
  3
AutoCAD 2000
 90
    32768
280
               0
281
               0
  0
CLASS
  1
SPATIAL_INDEX
  2
AcDbSpatialIndex
  3
AutoCAD 2000
 90
    32768
280
               0
281
               0
  0
CLASS
  1
OBJECT_PTR
  2
CAseDLPNTableRecord
  3
"ASE-LPNTableRecord"
 90
    32769
280
               0
281
               0
  0
CLASS
  1
LAYOUT
  2
AcDbLayout
  3
AutoCAD 2000
 90
        0
280
               0
281
               0
  0
CLASS
  1
PLOTSETTINGS
  2
AcDbPlotSettings
  3
AutoCAD 2000
 90
    32768
280
               0
281
               0
  0
CLASS
  1
ACDBDICTIONARYWDFLT
  2
AcDbDictionaryWithDefault
  3
AutoCAD 2000
 90
        0
280
               0
281
               0
  0
CLASS
  1
ACDBPLACEHOLDER
  2
AcDbPlaceHolder
  3
AutoCAD 2000
 90
        0
280
               0
281
               0
  0
CLASS
  1
VBA_PROJECT
  2
AcDbVbaProject
  3
acadvba
 90
    32768
280
               0
281
               0
  0
CLASS
  1
WIPEOUT
  2
AcDbWipeout
  3
WipeOut|AutoCAD Express Tool|expresstools@autodesk.com
 90
    32895
280
               0
281
               1
  0
CLASS
  1
WIPEOUTVARIABLES
  2
AcDbWipeoutVariables
  3
WipeOut|AutoCAD Express Tool|expresstools@autodesk.com
 90
        0
280
               0
281
               0
  0
CLASS
  1
RTEXT
  2
RText
  3
RText|AutoCAD Express Tool|expresstools@autodesk.com
 90
    32768
280
               0
281
               1
  0
CLASS
  1
ARCALIGNEDTEXT
  2
AcDbArcAlignedText
  3
ATEXT|AutoCAD Express Tool|expresstools@autodesk.com
 90
    32768
280
               0
281
               1
  0
ENDSEC
  0
SECTION
  2
TABLES
  0
TABLE
  2
VPORT
  5
7
100
AcDbSymbolTable
 70
               1
  0
VPORT
  5
15
100
AcDbSymbolTableRecord
100
AcDbViewportTableRecord
  2
*ACTIVE
 70
               0
 10
0.0
 20
0.0
 11
1.0
 21
1.0
 12
277.41394204478274
 22
58.409777190812605
 13
0.0
 23
0.0
 14
1.0
 24
1.0
 15
0.0
 25
0.0
 16
0.0
 26
0.0
 36
1.0
 17
0.0
 27
0.0
 37
0.0
 40
15.780445618374785
 41
0.688564
 42
50.0
 43
0.0
 44
0.0
 50
0.0
 51
0.0
 71
               0
 72
             100
 73
               1
 74
               1
 75
               0
 76
               0
 77
               0
 78
               0
281
               0
 65
               0
110
0.0
120
0.0
130
0.0
111
1.0
121
0.0
131
0.0
112
0.0
122
1.0
132
0.0
345
0
346
0
 79
               0
146
0.0
  0
ENDTAB
  0
TABLE
  2
LTYPE
  5
4
100
AcDbSymbolTable
 70
              14
  0
LTYPE
  5
11
100
AcDbSymbolTableRecord
100
AcDbLinetypeTableRecord
  2
ByBlock
 70
              64
  3

 72
              65
 73
               0
 40
0.0
  0
LTYPE
  5
12
100
AcDbSymbolTableRecord
100
AcDbLinetypeTableRecord
  2
ByLayer
 70
              64
  3

 72
              65
 73
               0
 40
0.0
  0
LTYPE
  5
13
100
AcDbSymbolTableRecord
100
AcDbLinetypeTableRecord
  2
Continuous
 70
              64
  3
Solid line
 72
              65
 73
               0
 40
0.0
  0
LTYPE
  5
27
100
AcDbSymbolTableRecord
100
AcDbLinetypeTableRecord
  2
STYLE_01
 70
               0
  3

 72
              65
 73
               2
 40
0.075
 49
0.05
 74
               0
 49
-0.025
 74
               0
  0
LTYPE
  5
28
100
AcDbSymbolTableRecord
100
AcDbLinetypeTableRecord
  2
STYLE_02
 70
               0
  3

 72
              65
 73
               6
 40
0.4999999999999999
 49
0.25
 74
               0
 49
-0.05
 74
               0
 49
0.05
 74
               0
 49
-0.05
 74
               0
 49
0.05
 74
               0
 49
-0.05
 74
               0
  0
LTYPE
  5
29
100
AcDbSymbolTableRecord
100
AcDbLinetypeTableRecord
  2
STYLE_03
 70
               0
  3

 72
              65
 73
               4
 40
0.3999999999999999
 49
0.25
 74
               0
 49
-0.05
 74
               0
 49
0.05
 74
               0
 49
-0.05
 74
               0
  0
LTYPE
  5
2A
100
AcDbSymbolTableRecord
100
AcDbLinetypeTableRecord
  2
STYLE_04
 70
               0
  3

 72
              65
 73
               4
 40
0.7999999999999998
 49
0.4999999999999999
 74
               0
 49
-0.1
 74
               0
 49
0.1
 74
               0
 49
-0.1
 74
               0
  0
LTYPE
  5
2B
100
AcDbSymbolTableRecord
100
AcDbLinetypeTableRecord
  2
STYLE_05
 70
               0
  3

 72
              65
 73
               2
 40
0.025
 49
0.0005
 74
               0
 49
-0.0245
 74
               0
  0
LTYPE
  5
2C
100
AcDbSymbolTableRecord
100
AcDbLinetypeTableRecord
  2
STYLE_06
 70
               0
  3

 72
              65
 73
               4
 40
1.0416400000000001
 49
0.625
 74
               0
 49
-0.20828
 74
               0
 49
0.06943
 74
               0
 49
-0.13893
 74
               0
  0
LTYPE
  5
2D
100
AcDbSymbolTableRecord
100
AcDbLinetypeTableRecord
  2
STYLE_07
 70
               0
  3

 72
              65
 73
               6
 40
1.875
 49
0.625
 74
               0
 49
-0.20828
 74
               0
 49
0.6250000000000001
 74
               0
 49
-0.2083599999999999
 74
               0
 49
0.06943
 74
               0
 49
-0.1389299999999999
 74
               0
  0
LTYPE
  5
2E
100
AcDbSymbolTableRecord
100
AcDbLinetypeTableRecord
  2
STYLE_08
 70
               0
  3

 72
              65
 73
               6
 40
1.25
 49
0.625
 74
               0
 49
-0.20828
 74
               0
 49
0.06943
 74
               0
 49
-0.13893
 74
               0
 49
0.0694299999999999
 74
               0
 49
-0.13893
 74
               0
  0
LTYPE
  5
2F
100
AcDbSymbolTableRecord
100
AcDbLinetypeTableRecord
  2
STYLE_09
 70
               0
  3

 72
              65
 73
               4
 40
5.0
 49
3.75
 74
               0
 49
-0.2777849999999998
 74
               0
 49
0.6944300000000003
 74
               0
 49
-0.2777849999999998
 74
               0
  0
LTYPE
  5
30
100
AcDbSymbolTableRecord
100
AcDbLinetypeTableRecord
  2
STYLE_10
 70
               0
  3

 72
              65
 73
               6
 40
5.9375
 49
3.75
 74
               0
 49
-0.2777849999999998
 74
               0
 49
0.6944300000000003
 74
               0
 49
-0.2777849999999998
 74
               0
 49
0.625
 74
               0
 49
-0.3125
 74
               0
  0
LTYPE
  5
31
100
AcDbSymbolTableRecord
100
AcDbLinetypeTableRecord
  2
STYLE_11
 70
               0
  3

 72
              65
 73
               2
 40
0.1875
 49
0.125
 74
               0
 49
-0.0625
 74
               0
  0
ENDTAB
  0
TABLE
  2
LAYER
  5
2
100
AcDbSymbolTable
 70
               6
  0
LAYER
  5
14
100
AcDbSymbolTableRecord
100
AcDbLayerTableRecord
  2
0
 70
               0
 62
               7
  6
Continuous
290
               1
370
              15
390
1D
  0
LAYER
  5
32
100
AcDbSymbolTableRecord
100
AcDbLayerTableRecord
  2
Defpoints
 70
               0
 62
               7
  6
Continuous
290
               0
370
              -3
390
1D
  0
LAYER
  5
33
100
AcDbSymbolTableRecord
100
AcDbLayerTableRecord
  2
一般
 70
               0
 62
               7
  6
Continuous
290
               1
370
               5
390
1D
  0
LAYER
  5
34
100
AcDbSymbolTableRecord
100
AcDbLayerTableRecord
  2
寸法
 70
               0
 62
               7
  6
Continuous
290
               1
370
               5
390
1D
  0
LAYER
  5
35
100
AcDbSymbolTableRecord
100
AcDbLayerTableRecord
  2
レイヤー_1
 70
               0
 62
              19
  6
Continuous
290
               1
370
              15
390
1D
  0
LAYER
  5
36
100
AcDbSymbolTableRecord
100
AcDbLayerTableRecord
  2
FORMAT
 70
               0
 62
               7
  6
Continuous
290
               1
370
              15
390
1D
  0
ENDTAB
  0
TABLE
  2
STYLE
  5
3
100
AcDbSymbolTable
 70
               2
  0
STYLE
  5
17
100
AcDbSymbolTableRecord
100
AcDbTextStyleTableRecord
  2
Standard
 70
               0
 40
0.0
 41
1.0
 50
0.0
 71
               0
 42
0.0
  3
txt
  4
BIGFONT.SHX
  0
STYLE
  5
26
100
AcDbSymbolTableRecord
100
AcDbTextStyleTableRecord
  2
Arial
 70
               0
 40
0.0
 41
1.0
 50
0.0
 71
               0
 42
0.0
  3
Arial
  4

1001
ACAD
1000
Arial
1071
        0
  0
ENDTAB
  0
TABLE
  2
VIEW
  5
5
100
AcDbSymbolTable
 70
               0
  0
ENDTAB
  0
TABLE
  2
UCS
  5
6
100
AcDbSymbolTable
 70
               0
  0
ENDTAB
  0
TABLE
  2
APPID
  5
8
100
AcDbSymbolTable
 70
               1
  0
APPID
  5
16
100
AcDbSymbolTableRecord
100
AcDbRegAppTableRecord
  2
ACAD
 70
               0
  0
ENDTAB
  0
TABLE
  2
DIMSTYLE
  5
9
100
AcDbSymbolTable
 70
               1
100
AcDbDimStyleTable
 71
               0
  0
DIMSTYLE
105
18
100
AcDbSymbolTableRecord
100
AcDbDimStyleTableRecord
  2
Standard
 70
               0
  3

  4

 40
1.0
 41
0.18
 42
0.0625
 43
0.38
 44
0.18
 45
0.0
 46
0.0
 47
0.0
 48
0.0
 71
               0
 72
               0
 73
               1
 74
               1
 75
               0
 76
               0
 77
               0
 78
               0
 79
               0
140
0.18
141
0.09
142
0.0
143
25.399999999999999
144
1.0
145
0.0
146
1.0
147
0.09
148
0.0
170
               0
171
               2
172
               0
173
               0
174
               0
175
               0
176
               0
177
               0
178
               0
179
               0
271
               4
272
               4
273
               2
274
               2
275
               0
276
               0
277
               2
278
              46
279
               0
280
               0
281
               0
282
               0
283
               1
284
               0
285
               0
286
               0
288
               0
340
17
341
0
342
0
343
0
344
0
371
              -2
372
              -2
  0
ENDTAB
  0
TABLE
  2
BLOCK_RECORD
  5
1
100
AcDbSymbolTable
 70
               2
  0
BLOCK_RECORD
  5
A
100
AcDbSymbolTableRecord
100
AcDbBlockTableRecord
  2
*MODEL_SPACE
340
20
  0
BLOCK_RECORD
  5
B
100
AcDbSymbolTableRecord
100
AcDbBlockTableRecord
  2
*PAPER_SPACE
340
21
  0
BLOCK_RECORD
  5
24
100
AcDbSymbolTableRecord
100
AcDbBlockTableRecord
  2
*U0
340
0
102
{BLKREFS
331
20E
102
}
  0
BLOCK_RECORD
  5
25
100
AcDbSymbolTableRecord
100
AcDbBlockTableRecord
  2
*U1
340
0
102
{BLKREFS
331
211
102
}
  0
ENDTAB
  0
ENDSEC
  0
SECTION
  2
BLOCKS
  0
BLOCK
  5
D
100
AcDbEntity
  8
0
100
AcDbBlockBegin
  2
*MODEL_SPACE
 70
               0
 10
0.0
 20
0.0
 30
0.0
  3
*MODEL_SPACE
  1

  0
ENDBLK
  5
E
100
AcDbEntity
  8
0
100
AcDbBlockEnd
  0
BLOCK
  5
F
100
AcDbEntity
 67
               1
  8
0
100
AcDbBlockBegin
  2
*PAPER_SPACE
 70
               0
 10
0.0
 20
0.0
 30
0.0
  3
*PAPER_SPACE
  1

  0
ENDBLK
  5
10
100
AcDbEntity
 67
               1
  8
0
100
AcDbBlockEnd
  0
BLOCK
  5
37
100
AcDbEntity
  8
一般
100
AcDbBlockBegin
  2
*U0
 70
               1
 10
0.0
 20
0.0
 30
0.0
  3
*U0
  1

  0
LINE
  5
38
100
AcDbEntity
  8
0
370
              15
  6
Continuous
 62
               7
100
AcDbLine
 10
-92.590251393289591
 20
451.22078903030047
 30
0.0
 11
-68.644826498489593
 21
-432.26097335769958
 31
0.0
  0
LINE
  5
39
100
AcDbEntity
  8
0
370
              15
  6
Continuous
 62
               7
100
AcDbLine
 10
29.812986159910551
 20
-427.72005234349967
 30
0.0
 11
5.8681161981099734
 21
455.74123543170026
 31
0.0
  0
LINE
  5
3A
100
AcDbEntity
  8
0
370
              15
  6
Continuous
 62
               7
100
AcDbLine
 10
-60.217629077489974
 20
334.34515027770044
 30
0.0
 11
-60.204945855089491
 21
334.17123627330034
 31
0.0
  0
SPLINE
  5
3B
100
AcDbEntity
  8
0
370
              15
  6
Continuous
 62
               7
100
AcDbSpline
210
0.0
220
0.0
230
1.0
 70
               8
 71
               2
 72
              14
 73
              11
 74
               0
 42
0.000001
 43
0.000001
 40
0.0
 40
0.0
 40
0.0
 40
1.0
 40
1.0
 40
2.0
 40
3.0
 40
4.0
 40
5.0
 40
6.0
 40
6.0
 40
7.0
 40
7.0
 40
7.0
 10
-60.204960390420084
 20
334.17143982474954
 30
0.0
 10
-60.204624874836455
 20
334.1690393874901
 30
0.0
 10
-60.204289359252826
 20
334.16663895023066
 30
0.0
 10
-60.194447493002727
 20
334.09451112430679
 30
0.0
 10
-60.171964811159242
 20
333.9516913421121
 30
0.0
 10
-60.137765015980577
 20
333.80459224405058
 30
0.0
 10
-60.071297453528487
 20
333.62975665710997
 30
0.0
 10
-59.964364221597307
 20
333.48020689833675
 30
0.0
 10
-59.91925981358726
 20
333.42295739661904
 30
0.0
 10
-59.918538717998118
 20
333.42203073697488
 30
0.0
 10
-59.917817622408975
 20
333.42110407733071
 30
0.0
  0
LINE
  5
3C
100
AcDbEntity
  8
0
370
              15
  6
Continuous
 62
               7
100
AcDbLine
 10
-89.729672000889778
 20
456.34002993610034
 30
0.0
 11
-40.966747925890004
 21
444.98181216030025
 31
0.0
  0
ARC
  5
3D
100
AcDbEntity
  8
0
370
              15
  6
Continuous
 62
               7
100
AcDbCircle
 10
-40.286182901289422
 20
447.90359770970031
 30
0.0
 40
3.0000000000001212
100
AcDbArc
 50
256.88804076829996
 51
290.25029528889115
  0
LINE
  5
3E
100
AcDbEntity
  8
0
370
              15
  6
Continuous
 62
               7
100
AcDbLine
 10
-39.247815020089902
 20
445.08902920330047
 30
0.0
 11
2.9380047467103481
 21
460.6524467799004
 31
0.0
  0
LINE
  5
3F
100
AcDbEntity
  8
0
370
              15
  6
Continuous
 62
               7
100
AcDbLine
 10
0.9118465031102545
 20
527.94382823650039
 30
0.0
 11
-47.851077571689885
 21
539.30204601210039
 31
0.0
  0
ARC
  5
40
100
AcDbEntity
  8
0
370
              15
  6
Continuous
 62
               7
100
AcDbCircle
 10
-90.717464510289929
 20
520.81683930030044
 30
0.0
 40
2.9999999999998725
100
AcDbArc
 50
110.25029528889272
 51
181.5525345763981
  0
LINE
  5
41
100
AcDbEntity
  8
0
370
              15
  6
Continuous
 62
               7
100
AcDbLine
 10
-93.716362362689679
 20
520.73555840890026
 30
0.0
 11
-92.048007412689358
 21
459.18053576830039
 31
0.0
  0
LINE
  5
42
100
AcDbEntity
  8
0
370
              15
  6
Continuous
 62
               7
100
AcDbLine
 10
-49.570010447489395
 20
539.19482785830041
 30
0.0
 11
-91.755830214289645
 21
523.63141028150039
 31
0.0
  0
ARC
  5
43
100
AcDbEntity
  8
0
370
              15
  6
Continuous
 62
               7
100
AcDbCircle
 10
0.2312841219105479
 20
525.02203932270027
 30
0.0
 40
2.9999999999998219
100
AcDbArc
 50
1.5525345763981246
 51
76.888040768298993
  0
LINE
  5
44
100
AcDbEntity
  8
0
370
              15
  6
Continuous
 62
               7
100
AcDbLine
 10
4.8985369615103167
 20
463.54829620850046
 30
0.0
 11
3.2301820115104505
 21
525.10331884890024
 31
0.0
  0
ARC
  5
45
100
AcDbEntity
  8
0
370
              15
  6
Continuous
 62
               7
100
AcDbCircle
 10
-89.049109544689955
 20
459.2618160837003
 30
0.0
 40
2.9999999999998219
100
AcDbArc
 50
181.5525345763981
 51
256.88804076829882
  0
ARC
  5
46
100
AcDbEntity
  8
0
370
              15
  6
Continuous
 62
               7
100
AcDbCircle
 10
1.8996390877106109
 20
463.46701610630043
 30
0.0
 40
2.9999999999998725
100
AcDbArc
 50
290.25029528889274
 51
1.5525345763981024
  0
ARC
  5
47
100
AcDbEntity
  8
0
370
              15
  6
Continuous
 62
               7
100
AcDbCircle
 10
-48.531642521289896
 20
536.38025769670026
 30
0.0
 40
2.9999999999998996
100
AcDbArc
 50
76.888040768298993
 51
110.25029528889272
  0
SPLINE
  5
48
100
AcDbEntity
  8
0
370
              15
  6
Continuous
 62
               7
100
AcDbSpline
210
0.0
220
0.0
230
1.0
 70
               8
 71
               2
 72
              16
 73
              13
 74
               0
 42
0.000001
 43
0.000001
 40
0.0
 40
0.0
 40
0.0
 40
1.0
 40
1.0
 40
2.0
 40
3.0
 40
4.0
 40
5.0
 40
6.0
 40
7.0
 40
8.0
 40
8.0
 40
9.0
 40
9.0
 40
9.0
 10
-92.647166087089673
 20
454.39102335867415
 30
0.0
 10
-92.647822339899804
 20
454.39064862593716
 30
0.0
 10
-92.648478592709935
 20
454.39027389320017
 30
0.0
 10
-92.689391578909081
 20
454.36721146646482
 30
0.0
 10
-92.793709311174453
 20
454.30461549497727
 30
0.0
 10
-92.906224511842439
 20
454.19880563908646
 30
0.0
 10
-92.974904564466115
 20
454.09616601906032
 30
0.0
 10
-93.012447707109814
 20
454.01222942444633
 30
0.0
 10
-93.025469269946726
 20
453.94628675889976
 30
0.0
 10
-93.032578565708619
 20
453.88459260639979
 30
0.0
 10
-93.034968306587771
 20
453.84275906785547
 30
0.0
 10
-93.035011605788114
 20
453.84208484235432
 30
0.0
 10
-93.035054904988456
 20
453.84141061685318
 30
0.0
  0
LINE
  5
49
100
AcDbEntity
  8
0
370
              15
  6
Continuous
 62
               7
100
AcDbLine
 10
-93.035590621689508
 20
453.85021364810041
 30
0.0
 11
-93.014476400089634
 21
451.45491704890037
 31
0.0
  0
LINE
  5
4A
100
AcDbEntity
  8
0
370
              15
  6
Continuous
 62
               7
100
AcDbLine
 10
-88.290239323489359
 20
456.00474659010047
 30
0.0
 11
-92.597496359289735
 21
454.41569035690031
 31
0.0
  0
SPLINE
  5
4B
100
AcDbEntity
  8
0
370
              15
  6
Continuous
 62
               7
100
AcDbSpline
210
0.0
220
0.0
230
1.0
 70
               8
 71
               2
 72
              16
 73
              13
 74
               0
 42
0.000001
 43
0.000001
 40
0.0
 40
0.0
 40
0.0
 40
1.0
 40
1.0
 40
2.0
 40
3.0
 40
4.0
 40
5.0
 40
6.0
 40
7.0
 40
8.0
 40
8.0
 40
9.0
 40
9.0
 40
9.0
 10
6.1694483430461418
 20
458.40803015750794
 30
0.0
 10
6.1693106554638319
 20
458.40875315584185
 30
0.0
 10
6.1691729678815221
 20
458.40947615417576
 30
0.0
 10
6.1611595842465334
 20
458.45439720888476
 30
0.0
 10
6.1445641752330715
 20
458.52019849803696
 30
0.0
 10
6.114309324078576
 20
458.6064938004406
 30
0.0
 10
6.0394324736049469
 20
458.70595180009127
 30
0.0
 10
5.964874347785198
 20
458.78017028650129
 30
0.0
 10
5.8542671421506469
 20
458.86278997536306
 30
0.0
 10
5.7283136761321742
 20
458.92069564878875
 30
0.0
 10
5.6804335000248187
 20
458.94091570604314
 30
0.0
 10
5.6796637922098938
 20
458.94124450313848
 30
0.0
 10
5.6788940843949689
 20
458.94157330023381
 30
0.0
  0
LINE
  5
4C
100
AcDbEntity
  8
0
370
              15
  6
Continuous
 62
               7
100
AcDbLine
 10
6.2787719071103396
 20
456.00768867210036
 30
0.0
 11
6.1701103503101962
 21
458.40061280090026
 31
0.0
  0
LINE
  5
4D
100
AcDbEntity
  8
0
370
              15
  6
Continuous
 62
               7
100
AcDbLine
 10
5.6263895205103012
 20
458.96189411210025
 30
0.0
 11
1.1695398235102488
 21
460.00001621850038
 31
0.0
  0
ARC
  5
4E
100
AcDbEntity
  8
0
370
              15
  6
Continuous
 62
               7
100
AcDbCircle
 10
-15.900069384489498
 20
-443.71847514509955
 30
0.0
 40
0.8458722299540891
100
AcDbArc
 50
258.15106891788889
 51
287.14353354277466
  0
LINE
  5
4F
100
AcDbEntity
  8
0
370
              15
  6
Continuous
 62
               7
100
AcDbLine
 10
-16.073753969089367
 20
-444.54632385989953
 30
0.0
 11
-68.541149188089904
 21
-432.32523350629953
 31
0.0
  0
POLYLINE
  5
50
100
AcDbEntity
  8
0
370
              15
  6
Continuous
 62
               7
100
AcDb2dPolyline
 66
               1
 10
0.0
 20
0.0
 30
0.0
 75
               5
  0
VERTEX
  5
51
100
AcDbEntity
  8
0
370
              15
  6
Continuous
 62
               7
100
AcDbVertex
100
AcDb2dVertex
 10
-45.799357073889396
 20
-309.59969268009962
 30
0.0
  0
VERTEX
  5
52
100
AcDbEntity
  8
0
370
              15
  6
Continuous
 62
               7
100
AcDbVertex
100
AcDb2dVertex
 10
-44.072829448489657
 20
-309.83510214189965
 30
0.0
  0
VERTEX
  5
53
100
AcDbEntity
  8
0
370
              15
  6
Continuous
 62
               7
100
AcDbVertex
100
AcDb2dVertex
 10
-42.395863359689784
 20
-309.72948855549964
 30
0.0
  0
VERTEX
  5
54
100
AcDbEntity
  8
0
370
              15
  6
Continuous
 62
               7
100
AcDbVertex
100
AcDb2dVertex
 10
-40.807765642289624
 20
-309.28534024329963
 30
0.0
  0
VERTEX
  5
55
100
AcDbEntity
  8
0
370
              15
  6
Continuous
 62
               7
100
AcDbVertex
100
AcDb2dVertex
 10
-39.345761368889626
 20
-308.51297855629963
 30
0.0
  0
VERTEX
  5
56
100
AcDbEntity
  8
0
370
              15
  6
Continuous
 62
               7
100
AcDbVertex
100
AcDb2dVertex
 10
-38.044119372089781
 20
-307.43053546809966
 30
0.0
  0
VERTEX
  5
57
100
AcDbEntity
  8
0
370
              15
  6
Continuous
 62
               7
100
AcDbVertex
100
AcDb2dVertex
 10
-36.933345723889389
 20
-306.06346314549967
 30
0.0
  0
VERTEX
  5
58
100
AcDbEntity
  8
0
370
              15
  6
Continuous
 62
               7
100
AcDbVertex
100
AcDb2dVertex
 10
-36.039479582489903
 20
-304.44368053309967
 30
0.0
  0
VERTEX
  5
59
100
AcDbEntity
  8
0
370
              15
  6
Continuous
 62
               7
100
AcDbVertex
100
AcDb2dVertex
 10
-35.383469728689661
 20
-302.60926638129962
 30
0.0
  0
VERTEX
  5
5A
100
AcDbEntity
  8
0
370
              15
  6
Continuous
 62
               7
100
AcDbVertex
100
AcDb2dVertex
 10
-34.980693490289369
 20
-300.60315820109963
 30
0.0
  0
VERTEX
  5
5B
100
AcDbEntity
  8
0
370
              15
  6
Continuous
 62
               7
100
AcDbVertex
100
AcDb2dVertex
 10
-34.840593452089607
 20
-298.47233249809966
 30
0.0
  0
VERTEX
  5
5C
100
AcDbEntity
  8
0
370
              15
  6
Continuous
 62
               7
100
AcDbVertex
100
AcDb2dVertex
 10
-34.966449623689542
 20
-296.26684040909964
 30
0.0
  0
VERTEX
  5
5D
100
AcDbEntity
  8
0
370
              15
  6
Continuous
 62
               7
100
AcDbVertex
100
AcDb2dVertex
 10
-35.355315450089975
 20
-294.03829645509967
 30
0.0
  0
VERTEX
  5
5E
100
AcDbEntity
  8
0
370
              15
  6
Continuous
 62
               7
100
AcDbVertex
100
AcDb2dVertex
 10
-35.998074031289789
 20
-291.83901758709965
 30
0.0
  0
VERTEX
  5
5F
100
AcDbEntity
  8
0
370
              15
  6
Continuous
 62
               7
100
AcDbVertex
100
AcDb2dVertex
 10
-36.879661405089692
 20
-289.72044502569963
 30
0.0
  0
VERTEX
  5
60
100
AcDbEntity
  8
0
370
              15
  6
Continuous
 62
               7
100
AcDbVertex
100
AcDb2dVertex
 10
-37.97941187988944
 20
-287.73232901209963
 30
0.0
  0
VERTEX
  5
61
100
AcDbEntity
  8
0
370
              15
  6
Continuous
 62
               7
100
AcDbVertex
100
AcDb2dVertex
 10
-39.271550014689993
 20
-285.92120111049962
 30
0.0
  0
VERTEX
  5
62
100
AcDbEntity
  8
0
370
              15
  6
Continuous
 62
               7
100
AcDbVertex
100
AcDb2dVertex
 10
-40.725790130689703
 20
-284.32949975149967
 30
0.0
  0
VERTEX
  5
63
100
AcDbEntity
  8
0
370
              15
  6
Continuous
 62
               7
100
AcDbVertex
100
AcDb2dVertex
 10
-42.308041787289667
 20
-282.99467109569963
 30
0.0
  0
VERTEX
  5
64
100
AcDbEntity
  8
0
370
              15
  6
Continuous
 62
               7
100
AcDbVertex
100
AcDb2dVertex
 10
-43.981222689689631
 20
-281.94784920389964
 30
0.0
  0
VERTEX
  5
65
100
AcDbEntity
  8
0
370
              15
  6
Continuous
 62
               7
100
AcDbVertex
100
AcDb2dVertex
 10
-45.706114118689939
 20
-281.21360025869967
 30
0.0
  0
VERTEX
  5
66
100
AcDbEntity
  8
0
370
              15
  6
Continuous
 62
               7
100
AcDbVertex
100
AcDb2dVertex
 10
-47.442284143689804
 20
-280.80919880789963
 30
0.0
  0
VERTEX
  5
67
100
AcDbEntity
  8
0
370
              15
  6
Continuous
 62
               7
100
AcDbVertex
100
AcDb2dVertex
 10
-49.149038639289657
 20
-280.74412362549964
 30
0.0
  0
VERTEX
  5
68
100
AcDbEntity
  8
0
370
              15
  6
Continuous
 62
               7
100
AcDbVertex
100
AcDb2dVertex
 10
-50.786374275889457
 20
-281.01983573449962
 30
0.0
  0
VERTEX
  5
69
100
AcDbEntity
  8
0
370
              15
  6
Continuous
 62
               7
100
AcDbVertex
100
AcDb2dVertex
 10
-52.315914120089829
 20
-281.62984310009966
 30
0.0
  0
VERTEX
  5
6A
100
AcDbEntity
  8
0
370
              15
  6
Continuous
 62
               7
100
AcDbVertex
100
AcDb2dVertex
 10
-53.701803095689584
 20
-282.56000076889967
 30
0.0
  0
VERTEX
  5
6B
100
AcDbEntity
  8
0
370
              15
  6
Continuous
 62
               7
100
AcDbVertex
100
AcDb2dVertex
 10
-54.911560330289731
 20
-283.78836885889962
 30
0.0
  0
VERTEX
  5
6C
100
AcDbEntity
  8
0
370
              15
  6
Continuous
 62
               7
100
AcDbVertex
100
AcDb2dVertex
 10
-55.916830393089541
 20
-285.28616805589962
 30
0.0
  0
VERTEX
  5
6D
100
AcDbEntity
  8
0
370
              15
  6
Continuous
 62
               7
100
AcDbVertex
100
AcDb2dVertex
 10
-56.694048686689612
 20
-287.01835943989965
 30
0.0
  0
VERTEX
  5
6E
100
AcDbEntity
  8
0
370
              15
  6
Continuous
 62
               7
100
AcDbVertex
100
AcDb2dVertex
 10
-57.225000873289801
 20
-288.94424899109964
 30
0.0
  0
VERTEX
  5
6F
100
AcDbEntity
  8
0
370
              15
  6
Continuous
 62
               7
100
AcDbVertex
100
AcDb2dVertex
 10
-57.497237767889956
 20
-291.01880405249966
 30
0.0
  0
VERTEX
  5
70
100
AcDbEntity
  8
0
370
              15
  6
Continuous
 62
               7
100
AcDbVertex
100
AcDb2dVertex
 10
-57.504380585889876
 20
-293.19331704169963
 30
0.0
  0
VERTEX
  5
71
100
AcDbEntity
  8
0
370
              15
  6
Continuous
 62
               7
100
AcDbVertex
100
AcDb2dVertex
 10
-57.246260973889903
 20
-295.41689898509964
 30
0.0
  0
VERTEX
  5
72
100
AcDbEntity
  8
0
370
              15
  6
Continuous
 62
               7
100
AcDbVertex
100
AcDb2dVertex
 10
-56.728930974689675
 20
-297.63732505589962
 30
0.0
  0
VERTEX
  5
73
100
AcDbEntity
  8
0
370
              15
  6
Continuous
 62
               7
100
AcDbVertex
100
AcDb2dVertex
 10
-55.964515786889379
 20
-299.80259502209964
 30
0.0
  0
VERTEX
  5
74
100
AcDbEntity
  8
0
370
              15
  6
Continuous
 62
               7
100
AcDbVertex
100
AcDb2dVertex
 10
-54.970930428489638
 20
-301.86201667549966
 30
0.0
  0
VERTEX
  5
75
100
AcDbEntity
  8
0
370
              15
  6
Continuous
 62
               7
100
AcDbVertex
100
AcDb2dVertex
 10
-53.771467113289773
 20
-303.76720632889965
 30
0.0
  0
VERTEX
  5
76
100
AcDbEntity
  8
0
370
              15
  6
Continuous
 62
               7
100
AcDbVertex
100
AcDb2dVertex
 10
-52.394237086689728
 20
-305.47363192869966
 30
0.0
  0
VERTEX
  5
77
100
AcDbEntity
  8
0
370
              15
  6
Continuous
 62
               7
100
AcDbVertex
100
AcDb2dVertex
 10
-50.871522496089611
 20
-306.94121621549965
 30
0.0
  0
VERTEX
  5
78
100
AcDbEntity
  8
0
370
              15
  6
Continuous
 62
               7
100
AcDbVertex
100
AcDb2dVertex
 10
-49.239016734089446
 20
-308.13553110169966
 30
0.0
  0
VERTEX
  5
79
100
AcDbEntity
  8
0
370
              15
  6
Continuous
 62
               7
100
AcDbVertex
100
AcDb2dVertex
 10
-47.534980917289786
 20
-309.02867243949964
 30
0.0
  0
VERTEX
  5
7A
100
AcDbEntity
  8
0
370
              15
  6
Continuous
 62
               7
100
AcDbVertex
100
AcDb2dVertex
 10
-45.799357073889396
 20
-309.59969268009962
 30
0.0
  0
SEQEND
  5
7B
100
AcDbEntity
  8
0
370
              15
  6
Continuous
 62
               7
  0
POLYLINE
  5
7C
100
AcDbEntity
  8
0
370
              15
  6
Continuous
 62
               7
100
AcDb2dPolyline
 66
               1
 10
0.0
 20
0.0
 30
0.0
 75
               5
  0
VERTEX
  5
7D
100
AcDbEntity
  8
0
370
              15
  6
Continuous
 62
               7
100
AcDbVertex
100
AcDb2dVertex
 10
-43.432621366889535
 20
-396.92191990029966
 30
0.0
  0
VERTEX
  5
7E
100
AcDbEntity
  8
0
370
              15
  6
Continuous
 62
               7
100
AcDbVertex
100
AcDb2dVertex
 10
-42.303886142689763
 20
-397.01865241409962
 30
0.0
  0
VERTEX
  5
7F
100
AcDbEntity
  8
0
370
              15
  6
Continuous
 62
               7
100
AcDbVertex
100
AcDb2dVertex
 10
-41.245064323689704
 20
-396.77578249689964
 30
0.0
  0
VERTEX
  5
80
100
AcDbEntity
  8
0
370
              15
  6
Continuous
 62
               7
100
AcDbVertex
100
AcDb2dVertex
 10
-40.313238853889644
 20
-396.20635418829966
 30
0.0
  0
VERTEX
  5
81
100
AcDbEntity
  8
0
370
              15
  6
Continuous
 62
               7
100
AcDbVertex
100
AcDb2dVertex
 10
-39.558642866689652
 20
-395.34111639589963
 30
0.0
  0
VERTEX
  5
82
100
AcDbEntity
  8
0
370
              15
  6
Continuous
 62
               7
100
AcDbVertex
100
AcDb2dVertex
 10
-39.021958762089881
 20
-394.22666495549964
 30
0.0
  0
VERTEX
  5
83
100
AcDbEntity
  8
0
370
              15
  6
Continuous
 62
               7
100
AcDbVertex
100
AcDb2dVertex
 10
-38.73211711248986
 20
-392.92312912289964
 30
0.0
  0
VERTEX
  5
84
100
AcDbEntity
  8
0
370
              15
  6
Continuous
 62
               7
100
AcDbVertex
100
AcDb2dVertex
 10
-38.704746880489793
 20
-391.50068892249965
 30
0.0
  0
VERTEX
  5
85
100
AcDbEntity
  8
0
370
              15
  6
Continuous
 62
               7
100
AcDbVertex
100
AcDb2dVertex
 10
-38.941321233489717
 20
-390.03610004649966
 30
0.0
  0
VERTEX
  5
86
100
AcDbEntity
  8
0
370
              15
  6
Continuous
 62
               7
100
AcDbVertex
100
AcDb2dVertex
 10
-39.429085095489782
 20
-388.60835837709965
 30
0.0
  0
VERTEX
  5
87
100
AcDbEntity
  8
0
370
              15
  6
Continuous
 62
               7
100
AcDbVertex
100
AcDb2dVertex
 10
-40.141745183489903
 20
-387.29435647549963
 30
0.0
  0
VERTEX
  5
88
100
AcDbEntity
  8
0
370
              15
  6
Continuous
 62
               7
100
AcDbVertex
100
AcDb2dVertex
 10
-41.040882164889709
 20
-386.16493711269965
 30
0.0
  0
VERTEX
  5
89
100
AcDbEntity
  8
0
370
              15
  6
Continuous
 62
               7
100
AcDbVertex
100
AcDb2dVertex
 10
-42.078020297089452
 20
-385.28107627249966
 30
0.0
  0
VERTEX
  5
8A
100
AcDbEntity
  8
0
370
              15
  6
Continuous
 62
               7
100
AcDbVertex
100
AcDb2dVertex
 10
-43.197251575689634
 20
-384.69027614089964
 30
0.0
  0
VERTEX
  5
8B
100
AcDbEntity
  8
0
370
              15
  6
Continuous
 62
               7
100
AcDbVertex
100
AcDb2dVertex
 10
-44.338234417289996
 20
-384.42451005249967
 30
0.0
  0
VERTEX
  5
8C
100
AcDbEntity
  8
0
370
              15
  6
Continuous
 62
               7
100
AcDbVertex
100
AcDb2dVertex
 10
-45.439458267689943
 20
-384.49810549629962
 30
0.0
  0
VERTEX
  5
8D
100
AcDbEntity
  8
0
370
              15
  6
Continuous
 62
               7
100
AcDbVertex
100
AcDb2dVertex
 10
-46.441559001489978
 20
-384.90697186929964
 30
0.0
  0
VERTEX
  5
8E
100
AcDbEntity
  8
0
370
              15
  6
Continuous
 62
               7
100
AcDbVertex
100
AcDb2dVertex
 10
-47.290509527289387
 20
-385.62921387409966
 30
0.0
  0
VERTEX
  5
8F
100
AcDbEntity
  8
0
370
              15
  6
Continuous
 62
               7
100
AcDbVertex
100
AcDb2dVertex
 10
-47.940544467289683
 20
-386.62580685929964
 30
0.0
  0
VERTEX
  5
90
100
AcDbEntity
  8
0
370
              15
  6
Continuous
 62
               7
100
AcDbVertex
100
AcDb2dVertex
 10
-48.356620881089739
 20
-387.84301942549962
 30
0.0
  0
VERTEX
  5
91
100
AcDbEntity
  8
0
370
              15
  6
Continuous
 62
               7
100
AcDbVertex
100
AcDb2dVertex
 10
-48.516305982489385
 20
-389.21530864389962
 30
0.0
  0
VERTEX
  5
92
100
AcDbEntity
  8
0
370
              15
  6
Continuous
 62
               7
100
AcDbVertex
100
AcDb2dVertex
 10
-48.410991954489774
 20
-390.66865463509964
 30
0.0
  0
VERTEX
  5
93
100
AcDbEntity
  8
0
370
              15
  6
Continuous
 62
               7
100
AcDbVertex
100
AcDb2dVertex
 10
-48.046357808889653
 20
-392.12463576809967
 30
0.0
  0
VERTEX
  5
94
100
AcDbEntity
  8
0
370
              15
  6
Continuous
 62
               7
100
AcDbVertex
100
AcDb2dVertex
 10
-47.442059511889411
 20
-393.50485319429964
 30
0.0
  0
VERTEX
  5
95
100
AcDbEntity
  8
0
370
              15
  6
Continuous
 62
               7
100
AcDbVertex
100
AcDb2dVertex
 10
-46.630675373289606
 20
-394.73485055849966
 30
0.0
  0
VERTEX
  5
96
100
AcDbEntity
  8
0
370
              15
  6
Continuous
 62
               7
100
AcDbVertex
100
AcDb2dVertex
 10
-45.655946589089936
 20
-395.74836746169962
 30
0.0
  0
VERTEX
  5
97
100
AcDbEntity
  8
0
370
              15
  6
Continuous
 62
               7
100
AcDbVertex
100
AcDb2dVertex
 10
-44.570421974489719
 20
-396.49071427129962
 30
0.0
  0
VERTEX
  5
98
100
AcDbEntity
  8
0
370
              15
  6
Continuous
 62
               7
100
AcDbVertex
100
AcDb2dVertex
 10
-43.432621366889535
 20
-396.92191990029966
 30
0.0
  0
SEQEND
  5
99
100
AcDbEntity
  8
0
370
              15
  6
Continuous
 62
               7
  0
POLYLINE
  5
9A
100
AcDbEntity
  8
0
370
              15
  6
Continuous
 62
               7
100
AcDb2dPolyline
 66
               1
 10
0.0
 20
0.0
 30
0.0
 75
               5
  0
VERTEX
  5
9B
100
AcDbEntity
  8
0
370
              15
  6
Continuous
 62
               7
100
AcDbVertex
100
AcDb2dVertex
 10
-65.784698367489355
 20
427.77225312990026
 30
0.0
  0
VERTEX
  5
9C
100
AcDbEntity
  8
0
370
              15
  6
Continuous
 62
               7
100
AcDbVertex
100
AcDb2dVertex
 10
-65.304081249289439
 20
427.54119745050025
 30
0.0
  0
VERTEX
  5
9D
100
AcDbEntity
  8
0
370
              15
  6
Continuous
 62
               7
100
AcDbVertex
100
AcDb2dVertex
 10
-64.890136214089935
 20
427.10558798410034
 30
0.0
  0
VERTEX
  5
9E
100
AcDbEntity
  8
0
370
              15
  6
Continuous
 62
               7
100
AcDbVertex
100
AcDb2dVertex
 10
-64.605882757889404
 20
426.53174549870027
 30
0.0
  0
VERTEX
  5
9F
100
AcDbEntity
  8
0
370
              15
  6
Continuous
 62
               7
100
AcDbVertex
100
AcDb2dVertex
 10
-64.494595821689828
 20
425.90703068070025
 30
0.0
  0
VERTEX
  5
A0
100
AcDbEntity
  8
0
370
              15
  6
Continuous
 62
               7
100
AcDbVertex
100
AcDb2dVertex
 10
-64.573217795889732
 20
425.32655083830036
 30
0.0
  0
VERTEX
  5
A1
100
AcDbEntity
  8
0
370
              15
  6
Continuous
 62
               7
100
AcDbVertex
100
AcDb2dVertex
 10
-64.829779242489522
 20
424.87867892490044
 30
0.0
  0
VERTEX
  5
A2
100
AcDbEntity
  8
0
370
              15
  6
Continuous
 62
               7
100
AcDbVertex
100
AcDb2dVertex
 10
-65.225220990089738
 20
424.63159776210045
 30
0.0
  0
VERTEX
  5
A3
100
AcDbEntity
  8
0
370
              15
  6
Continuous
 62
               7
100
AcDbVertex
100
AcDb2dVertex
 10
-65.699340672089775
 20
424.62292637770042
 30
0.0
  0
VERTEX
  5
A4
100
AcDbEntity
  8
0
370
              15
  6
Continuous
 62
               7
100
AcDbVertex
100
AcDb2dVertex
 10
-66.179957790289691
 20
424.85398205710044
 30
0.0
  0
VERTEX
  5
A5
100
AcDbEntity
  8
0
370
              15
  6
Continuous
 62
               7
100
AcDbVertex
100
AcDb2dVertex
 10
-66.59390282548965
 20
425.28959152330026
 30
0.0
  0
VERTEX
  5
A6
100
AcDbEntity
  8
0
370
              15
  6
Continuous
 62
               7
100
AcDbVertex
100
AcDb2dVertex
 10
-66.878156281489638
 20
425.86343400890041
 30
0.0
  0
VERTEX
  5
A7
100
AcDbEntity
  8
0
370
              15
  6
Continuous
 62
               7
100
AcDbVertex
100
AcDb2dVertex
 10
-66.989443217889757
 20
426.48814882690044
 30
0.0
  0
VERTEX
  5
A8
100
AcDbEntity
  8
0
370
              15
  6
Continuous
 62
               7
100
AcDbVertex
100
AcDb2dVertex
 10
-66.910821243689853
 20
427.06862866910046
 30
0.0
  0
VERTEX
  5
A9
100
AcDbEntity
  8
0
370
              15
  6
Continuous
 62
               7
100
AcDbVertex
100
AcDb2dVertex
 10
-66.654259797089608
 20
427.51650058270025
 30
0.0
  0
VERTEX
  5
AA
100
AcDbEntity
  8
0
370
              15
  6
Continuous
 62
               7
100
AcDbVertex
100
AcDb2dVertex
 10
-66.258818049489847
 20
427.76358174550046
 30
0.0
  0
VERTEX
  5
AB
100
AcDbEntity
  8
0
370
              15
  6
Continuous
 62
               7
100
AcDbVertex
100
AcDb2dVertex
 10
-65.784698367489355
 20
427.77225312990026
 30
0.0
  0
SEQEND
  5
AC
100
AcDbEntity
  8
0
370
              15
  6
Continuous
 62
               7
  0
POLYLINE
  5
AD
100
AcDbEntity
  8
0
370
              15
  6
Continuous
 62
               7
100
AcDb2dPolyline
 66
               1
 10
0.0
 20
0.0
 30
0.0
 75
               5
  0
VERTEX
  5
AE
100
AcDbEntity
  8
0
370
              15
  6
Continuous
 62
               7
100
AcDbVertex
100
AcDb2dVertex
 10
-63.084291126089639
 20
328.13900129470039
 30
0.0
  0
VERTEX
  5
AF
100
AcDbEntity
  8
0
370
              15
  6
Continuous
 62
               7
100
AcDbVertex
100
AcDb2dVertex
 10
-62.119988706689938
 20
328.08143166730042
 30
0.0
  0
VERTEX
  5
B0
100
AcDbEntity
  8
0
370
              15
  6
Continuous
 62
               7
100
AcDbVertex
100
AcDb2dVertex
 10
-61.236316553089992
 20
328.36433565370044
 30
0.0
  0
VERTEX
  5
B1
100
AcDbEntity
  8
0
370
              15
  6
Continuous
 62
               7
100
AcDbVertex
100
AcDb2dVertex
 10
-60.49881198248967
 20
328.96671849430027
 30
0.0
  0
VERTEX
  5
B2
100
AcDbEntity
  8
0
370
              15
  6
Continuous
 62
               7
100
AcDbVertex
100
AcDb2dVertex
 10
-59.962173193489789
 20
329.84392070030026
 30
0.0
  0
VERTEX
  5
B3
100
AcDbEntity
  8
0
370
              15
  6
Continuous
 62
               7
100
AcDbVertex
100
AcDb2dVertex
 10
-59.666199451289586
 20
330.93087638890029
 30
0.0
  0
VERTEX
  5
B4
100
AcDbEntity
  8
0
370
              15
  6
Continuous
 62
               7
100
AcDbVertex
100
AcDb2dVertex
 10
-59.632842687889379
 20
332.14697294530038
 30
0.0
  0
VERTEX
  5
B5
100
AcDbEntity
  8
0
370
              15
  6
Continuous
 62
               7
100
AcDbVertex
100
AcDb2dVertex
 10
-59.86457579368961
 20
333.40201578030042
 30
0.0
  0
VERTEX
  5
B6
100
AcDbEntity
  8
0
370
              15
  6
Continuous
 62
               7
100
AcDbVertex
100
AcDb2dVertex
 10
-60.344212805889939
 20
334.60292694250029
 30
0.0
  0
VERTEX
  5
B7
100
AcDbEntity
  8
0
370
              15
  6
Continuous
 62
               7
100
AcDbVertex
100
AcDb2dVertex
 10
-61.036181129689695
 20
335.66064063870044
 30
0.0
  0
VERTEX
  5
B8
100
AcDbEntity
  8
0
370
              15
  6
Continuous
 62
               7
100
AcDbVertex
100
AcDb2dVertex
 10
-61.889160642089692
 20
336.49670950530026
 30
0.0
  0
VERTEX
  5
B9
100
AcDbEntity
  8
0
370
              15
  6
Continuous
 62
               7
100
AcDbVertex
100
AcDb2dVertex
 10
-62.839889850089449
 20
337.04912995690029
 30
0.0
  0
VERTEX
  5
BA
100
AcDbEntity
  8
0
370
              15
  6
Continuous
 62
               7
100
AcDbVertex
100
AcDb2dVertex
 10
-63.817857326890035
 20
337.27692531150046
 30
0.0
  0
VERTEX
  5
BB
100
AcDbEntity
  8
0
370
              15
  6
Continuous
 62
               7
100
AcDbVertex
100
AcDb2dVertex
 10
-64.750531698489695
 20
337.1632010297003
 30
0.0
  0
VERTEX
  5
BC
100
AcDbEntity
  8
0
370
              15
  6
Continuous
 62
               7
100
AcDbVertex
100
AcDb2dVertex
 10
-65.568740917489677
 20
336.7163976945003
 30
0.0
  0
VERTEX
  5
BD
100
AcDbEntity
  8
0
370
              15
  6
Continuous
 62
               7
100
AcDbVertex
100
AcDb2dVertex
 10
-66.211802037889711
 20
335.96964884410045
 30
0.0
  0
VERTEX
  5
BE
100
AcDbEntity
  8
0
370
              15
  6
Continuous
 62
               7
100
AcDbVertex
100
AcDb2dVertex
 10
-66.632022245889758
 20
334.9783390229004
 30
0.0
  0
VERTEX
  5
BF
100
AcDbEntity
  8
0
370
              15
  6
Continuous
 62
               7
100
AcDbVertex
100
AcDb2dVertex
 10
-66.798235601889601
 20
333.81598879530043
 30
0.0
  0
VERTEX
  5
C0
100
AcDbEntity
  8
0
370
              15
  6
Continuous
 62
               7
100
AcDbVertex
100
AcDb2dVertex
 10
-66.698115296289771
 20
332.56880178130041
 30
0.0
  0
VERTEX
  5
C1
100
AcDbEntity
  8
0
370
              15
  6
Continuous
 62
               7
100
AcDbVertex
100
AcDb2dVertex
 10
-66.339085877489552
 20
331.32927795430032
 30
0.0
  0
VERTEX
  5
C2
100
AcDbEntity
  8
0
370
              15
  6
Continuous
 62
               7
100
AcDbVertex
100
AcDb2dVertex
 10
-65.747775734889629
 20
330.18934561370043
 30
0.0
  0
VERTEX
  5
C3
100
AcDbEntity
  8
0
370
              15
  6
Continuous
 62
               7
100
AcDbVertex
100
AcDb2dVertex
 10
-64.968039274289723
 20
329.23355586870025
 30
0.0
  0
VERTEX
  5
C4
100
AcDbEntity
  8
0
370
              15
  6
Continuous
 62
               7
100
AcDbVertex
100
AcDb2dVertex
 10
-64.05770595148978
 20
328.53277897410044
 30
0.0
  0
VERTEX
  5
C5
100
AcDbEntity
  8
0
370
              15
  6
Continuous
 62
               7
100
AcDbVertex
100
AcDb2dVertex
 10
-63.084291126089639
 20
328.13900129470039
 30
0.0
  0
SEQEND
  5
C6
100
AcDbEntity
  8
0
370
              15
  6
Continuous
 62
               7
  0
LINE
  5
C7
100
AcDbEntity
  8
0
370
              15
  6
Continuous
 62
               7
100
AcDbLine
 10
29.739900171910094
 20
-427.78100967489968
 30
0.0
 11
-15.650734625689793
 21
-444.52676470169968
 31
0.0
  0
LINE
  5
C8
100
AcDbEntity
  8
0
370
              15
  6
Continuous
 62
               7
100
AcDbLine
 10
-64.914487066689972
 20
424.91247875490035
 30
0.0
 11
-64.815383931089755
 21
424.89435491330028
 31
0.0
  0
ARC
  5
C9
100
AcDbEntity
  8
0
370
              15
  6
Continuous
 62
               7
100
AcDbCircle
 10
-64.329890148489895
 20
426.71156683170034
 30
0.0
 40
1.8916848217482953
100
AcDbArc
 50
145.22945380260066
 51
251.99891209730396
  0
POLYLINE
  5
CA
100
AcDbEntity
  8
0
370
              15
  6
Continuous
 62
               7
100
AcDb2dPolyline
 66
               1
 10
0.0
 20
0.0
 30
0.0
 75
               5
  0
VERTEX
  5
CB
100
AcDbEntity
  8
0
370
              15
  6
Continuous
 62
               7
100
AcDbVertex
100
AcDb2dVertex
 10
-68.541149188089904
 20
-432.32523350629953
 30
0.0
  0
VERTEX
  5
CC
100
AcDbEntity
  8
0
370
              15
  6
Continuous
 62
               7
100
AcDbVertex
100
AcDb2dVertex
 10
-68.581627954089882
 20
-432.31353635029967
 30
0.0
  0
VERTEX
  5
CD
100
AcDbEntity
  8
0
370
              15
  6
Continuous
 62
               7
100
AcDbVertex
100
AcDb2dVertex
 10
-68.613008408289616
 20
-432.29950640149963
 30
0.0
  0
VERTEX
  5
CE
100
AcDbEntity
  8
0
370
              15
  6
Continuous
 62
               7
100
AcDbVertex
100
AcDb2dVertex
 10
-68.634088315089585
 20
-432.2836832492996
 30
0.0
  0
VERTEX
  5
CF
100
AcDbEntity
  8
0
370
              15
  6
Continuous
 62
               7
100
AcDbVertex
100
AcDb2dVertex
 10
-68.644054938689706
 20
-432.26667559669971
 30
0.0
  0
VERTEX
  5
D0
100
AcDbEntity
  8
0
370
              15
  6
Continuous
 62
               7
100
AcDbVertex
100
AcDb2dVertex
 10
-68.644826498489593
 20
-432.26097335769958
 30
0.0
  0
SEQEND
  5
D1
100
AcDbEntity
  8
0
370
              15
  6
Continuous
 62
               7
  0
POLYLINE
  5
D2
100
AcDbEntity
  8
0
370
              15
  6
Continuous
 62
               7
100
AcDb2dPolyline
 66
               1
 10
0.0
 20
0.0
 30
0.0
 75
               5
  0
VERTEX
  5
D3
100
AcDbEntity
  8
0
370
              15
  6
Continuous
 62
               7
100
AcDbVertex
100
AcDb2dVertex
 10
29.812986159910551
 20
-427.72005234349967
 30
0.0
  0
VERTEX
  5
D4
100
AcDbEntity
  8
0
370
              15
  6
Continuous
 62
               7
100
AcDbVertex
100
AcDb2dVertex
 10
29.810687931510628
 20
-427.73188917269965
 30
0.0
  0
VERTEX
  5
D5
100
AcDbEntity
  8
0
370
              15
  6
Continuous
 62
               7
100
AcDbVertex
100
AcDb2dVertex
 10
29.797723950110239
 20
-427.74928641329961
 30
0.0
  0
VERTEX
  5
D6
100
AcDbEntity
  8
0
370
              15
  6
Continuous
 62
               7
100
AcDbVertex
100
AcDb2dVertex
 10
29.773823139110036
 20
-427.76587240349966
 30
0.0
  0
VERTEX
  5
D7
100
AcDbEntity
  8
0
370
              15
  6
Continuous
 62
               7
100
AcDbVertex
100
AcDb2dVertex
 10
29.739900171910094
 20
-427.78100967489968
 30
0.0
  0
SEQEND
  5
D8
100
AcDbEntity
  8
0
370
              15
  6
Continuous
 62
               7
  0
POLYLINE
  5
D9
100
AcDbEntity
  8
0
370
              15
  6
Continuous
 62
               7
100
AcDb2dPolyline
 66
               1
 10
0.0
 20
0.0
 30
0.0
 75
               5
  0
VERTEX
  5
DA
100
AcDbEntity
  8
0
370
              15
  6
Continuous
 62
               7
100
AcDbVertex
100
AcDb2dVertex
 10
-62.299437520689381
 20
328.42855367190032
 30
0.0
  0
VERTEX
  5
DB
100
AcDbEntity
  8
0
370
              15
  6
Continuous
 62
               7
100
AcDbVertex
100
AcDb2dVertex
 10
-61.33513510128968
 20
328.37098404450035
 30
0.0
  0
VERTEX
  5
DC
100
AcDbEntity
  8
0
370
              15
  6
Continuous
 62
               7
100
AcDbVertex
100
AcDb2dVertex
 10
-61.183096727889634
 20
328.39424213790039
 30
0.0
  0
SEQEND
  5
DD
100
AcDbEntity
  8
0
370
              15
  6
Continuous
 62
               7
  0
POLYLINE
  5
DE
100
AcDbEntity
  8
0
370
              15
  6
Continuous
 62
               7
100
AcDb2dPolyline
 66
               1
 10
0.0
 20
0.0
 30
0.0
 75
               5
  0
VERTEX
  5
DF
100
AcDbEntity
  8
0
370
              15
  6
Continuous
 62
               7
100
AcDbVertex
100
AcDb2dVertex
 10
-64.446357657889521
 20
337.23956209470043
 30
0.0
  0
VERTEX
  5
E0
100
AcDbEntity
  8
0
370
              15
  6
Continuous
 62
               7
100
AcDbVertex
100
AcDb2dVertex
 10
-64.783887312089419
 20
337.00595007170045
 30
0.0
  0
VERTEX
  5
E1
100
AcDbEntity
  8
0
370
              15
  6
Continuous
 62
               7
100
AcDbVertex
100
AcDb2dVertex
 10
-65.426948432489908
 20
336.25920122130037
 30
0.0
  0
VERTEX
  5
E2
100
AcDbEntity
  8
0
370
              15
  6
Continuous
 62
               7
100
AcDbVertex
100
AcDb2dVertex
 10
-65.8471686404895
 20
335.26789140010032
 30
0.0
  0
VERTEX
  5
E3
100
AcDbEntity
  8
0
370
              15
  6
Continuous
 62
               7
100
AcDbVertex
100
AcDb2dVertex
 10
-66.013381996489798
 20
334.10554117250035
 30
0.0
  0
VERTEX
  5
E4
100
AcDbEntity
  8
0
370
              15
  6
Continuous
 62
               7
100
AcDbVertex
100
AcDb2dVertex
 10
-65.913261691089602
 20
332.85835415850033
 30
0.0
  0
VERTEX
  5
E5
100
AcDbEntity
  8
0
370
              15
  6
Continuous
 62
               7
100
AcDbVertex
100
AcDb2dVertex
 10
-65.554232272089749
 20
331.61883033150025
 30
0.0
  0
VERTEX
  5
E6
100
AcDbEntity
  8
0
370
              15
  6
Continuous
 62
               7
100
AcDbVertex
100
AcDb2dVertex
 10
-64.962922129489371
 20
330.47889799090035
 30
0.0
  0
VERTEX
  5
E7
100
AcDbEntity
  8
0
370
              15
  6
Continuous
 62
               7
100
AcDbVertex
100
AcDb2dVertex
 10
-64.183185668889919
 20
329.52310824570031
 30
0.0
  0
VERTEX
  5
E8
100
AcDbEntity
  8
0
370
              15
  6
Continuous
 62
               7
100
AcDbVertex
100
AcDb2dVertex
 10
-63.272852346089522
 20
328.82233135130036
 30
0.0
  0
VERTEX
  5
E9
100
AcDbEntity
  8
0
370
              15
  6
Continuous
 62
               7
100
AcDbVertex
100
AcDb2dVertex
 10
-62.299437520689381
 20
328.42855367190032
 30
0.0
  0
SEQEND
  5
EA
100
AcDbEntity
  8
0
370
              15
  6
Continuous
 62
               7
  0
LINE
  5
EB
100
AcDbEntity
  8
0
370
              15
  6
Continuous
 62
               7
100
AcDbLine
 10
-55.811111767689809
 20
-295.59663883709965
 30
0.0
 11
-55.709219734689569
 21
-296.17797665949962
 31
0.0
  0
SPLINE
  5
EC
100
AcDbEntity
  8
0
370
              15
  6
Continuous
 62
               7
100
AcDbSpline
210
0.0
220
0.0
230
1.0
 70
               8
 71
               2
 72
              10
 73
               7
 74
               0
 42
0.000001
 43
0.000001
 40
0.0
 40
0.0
 40
0.0
 40
1.0
 40
1.0
 40
2.0
 40
2.0
 40
3.0
 40
3.0
 40
3.0
 10
-55.709220275222734
 20
-296.17795749122757
 30
0.0
 10
-55.706279482511619
 20
-296.20099783746241
 30
0.0
 10
-55.703338689800503
 20
-296.2240381836973
 30
0.0
 10
-55.492365925576806
 20
-297.8476709601573
 30
0.0
 10
-55.167755714893147
 20
-299.44581319108505
 30
0.0
 10
-55.163093185885273
 20
-299.46851028056881
 30
0.0
 10
-55.1584306568774
 20
-299.49120737005262
 30
0.0
  0
LINE
  5
ED
100
AcDbEntity
  8
0
370
              15
  6
Continuous
 62
               7
100
AcDbLine
 10
-55.158429998089915
 20
-299.49120137149964
 30
0.0
 11
-55.064337586489629
 21
-299.78476717209963
 31
0.0
  0
POLYLINE
  5
EE
100
AcDbEntity
  8
0
370
              15
  6
Continuous
 62
               7
100
AcDb2dPolyline
 66
               1
 10
0.0
 20
0.0
 30
0.0
 75
               5
  0
VERTEX
  5
EF
100
AcDbEntity
  8
0
370
              15
  6
Continuous
 62
               7
100
AcDbVertex
100
AcDb2dVertex
 10
-55.064337586489629
 20
-299.78476717209963
 30
0.0
  0
VERTEX
  5
F0
100
AcDbEntity
  8
0
370
              15
  6
Continuous
 62
               7
100
AcDbVertex
100
AcDb2dVertex
 10
-53.978133154689559
 20
-301.93930015589962
 30
0.0
  0
VERTEX
  5
F1
100
AcDbEntity
  8
0
370
              15
  6
Continuous
 62
               7
100
AcDbVertex
100
AcDb2dVertex
 10
-52.667344665289775
 20
-303.91196567749967
 30
0.0
  0
VERTEX
  5
F2
100
AcDbEntity
  8
0
370
              15
  6
Continuous
 62
               7
100
AcDbVertex
100
AcDb2dVertex
 10
-51.166301321689744
 20
-305.65107441969963
 30
0.0
  0
VERTEX
  5
F3
100
AcDbEntity
  8
0
370
              15
  6
Continuous
 62
               7
100
AcDbVertex
100
AcDb2dVertex
 10
-49.51431121188979
 20
-307.11112547669967
 30
0.0
  0
VERTEX
  5
F4
100
AcDbEntity
  8
0
370
              15
  6
Continuous
 62
               7
100
AcDbVertex
100
AcDb2dVertex
 10
-47.754637490289852
 20
-308.25389268989966
 30
0.0
  0
VERTEX
  5
F5
100
AcDbEntity
  8
0
370
              15
  6
Continuous
 62
               7
100
AcDbVertex
100
AcDb2dVertex
 10
-45.933364723489731
 20
-309.04942351989962
 30
0.0
  0
VERTEX
  5
F6
100
AcDbEntity
  8
0
370
              15
  6
Continuous
 62
               7
100
AcDbVertex
100
AcDb2dVertex
 10
-44.098189154689763
 20
-309.47688606789967
 30
0.0
  0
VERTEX
  5
F7
100
AcDbEntity
  8
0
370
              15
  6
Continuous
 62
               7
100
AcDbVertex
100
AcDb2dVertex
 10
-42.29717166088939
 20
-309.52508564169966
 30
0.0
  0
VERTEX
  5
F8
100
AcDbEntity
  8
0
370
              15
  6
Continuous
 62
               7
100
AcDbVertex
100
AcDb2dVertex
 10
-40.607019378889518
 20
-309.20198655369967
 30
0.0
  0
SEQEND
  5
F9
100
AcDbEntity
  8
0
370
              15
  6
Continuous
 62
               7
  0
ARC
  5
FA
100
AcDbEntity
  8
0
370
              15
  6
Continuous
 62
               7
100
AcDbCircle
 10
-38.141010240689766
 20
-291.75299662629965
 30
0.0
 40
18.083309249745302
100
AcDbArc
 50
170.8331254572
 51
192.27194369559999
  0
LINE
  5
FB
100
AcDbEntity
  8
0
370
              15
  6
Continuous
 62
               7
100
AcDbLine
 10
-55.921030566489563
 20
-288.36308058549963
 30
0.0
 11
-55.993369141489794
 21
-288.87213649489962
 31
0.0
  0
SPLINE
  5
FC
100
AcDbEntity
  8
0
370
              15
  6
Continuous
 62
               7
100
AcDbSpline
210
0.0
220
0.0
230
1.0
 70
               8
 71
               2
 72
              11
 73
               8
 74
               0
 42
0.000001
 43
0.000001
 40
0.0
 40
0.0
 40
0.0
 40
1.0
 40
1.0
 40
2.0
 40
3.0
 40
3.0
 40
4.0
 40
4.0
 40
4.0
 10
-55.528532133728177
 20
-285.83607672632763
 30
0.0
 10
-55.531789491883629
 20
-285.85029132398631
 30
0.0
 10
-55.53504685003908
 20
-285.86450592164499
 30
0.0
 10
-55.63170365256191
 20
-286.2938971297117
 30
0.0
 10
-55.834590509706132
 20
-287.47140257276226
 30
0.0
 10
-55.917792726433063
 20
-288.32871178928133
 30
0.0
 10
-55.919411756817581
 20
-288.34589250113356
 30
0.0
 10
-55.921030787202099
 20
-288.36307321298585
 30
0.0
  0
LINE
  5
FD
100
AcDbEntity
  8
0
370
              15
  6
Continuous
 62
               7
100
AcDbLine
 10
-55.448393785489671
 20
-285.61476814529965
 30
0.0
 11
-55.528531981889856
 21
-285.83605203249965
 31
0.0
  0
ARC
  5
FE
100
AcDbEntity
  8
0
370
              15
  6
Continuous
 62
               7
100
AcDbCircle
 10
-47.291460803289638
 20
-289.17681348829962
 30
0.0
 40
8.9007709048596144
100
AcDbArc
 50
114.50190329340035
 51
156.40962121740051
  0
POLYLINE
  5
FF
100
AcDbEntity
  8
0
370
              15
  6
Continuous
 62
               7
100
AcDb2dPolyline
 66
               1
 10
0.0
 20
0.0
 30
0.0
 75
               5
  0
VERTEX
  5
100
100
AcDbEntity
  8
0
370
              15
  6
Continuous
 62
               7
100
AcDbVertex
100
AcDb2dVertex
 10
-42.647767761489732
 20
-396.63236752309962
 30
0.0
  0
VERTEX
  5
101
100
AcDbEntity
  8
0
370
              15
  6
Continuous
 62
               7
100
AcDbVertex
100
AcDb2dVertex
 10
-41.519032537289959
 20
-396.72910003689964
 30
0.0
  0
VERTEX
  5
102
100
AcDbEntity
  8
0
370
              15
  6
Continuous
 62
               7
100
AcDbVertex
100
AcDb2dVertex
 10
-40.967611173289598
 20
-396.64755421869967
 30
0.0
  0
SEQEND
  5
103
100
AcDbEntity
  8
0
370
              15
  6
Continuous
 62
               7
  0
POLYLINE
  5
104
100
AcDbEntity
  8
0
370
              15
  6
Continuous
 62
               7
100
AcDb2dPolyline
 66
               1
 10
0.0
 20
0.0
 30
0.0
 75
               5
  0
VERTEX
  5
105
100
AcDbEntity
  8
0
370
              15
  6
Continuous
 62
               7
100
AcDbVertex
100
AcDb2dVertex
 10
-45.449034574289627
 20
-384.50028922149966
 30
0.0
  0
VERTEX
  5
106
100
AcDbEntity
  8
0
370
              15
  6
Continuous
 62
               7
100
AcDbVertex
100
AcDb2dVertex
 10
-45.65670539608972
 20
-384.61741949209966
 30
0.0
  0
VERTEX
  5
107
100
AcDbEntity
  8
0
370
              15
  6
Continuous
 62
               7
100
AcDbVertex
100
AcDb2dVertex
 10
-46.505655922089673
 20
-385.33966149689962
 30
0.0
  0
VERTEX
  5
108
100
AcDbEntity
  8
0
370
              15
  6
Continuous
 62
               7
100
AcDbVertex
100
AcDb2dVertex
 10
-47.15569086188988
 20
-386.33625448209966
 30
0.0
  0
VERTEX
  5
109
100
AcDbEntity
  8
0
370
              15
  6
Continuous
 62
               7
100
AcDbVertex
100
AcDb2dVertex
 10
-47.571767275689481
 20
-387.55346704829964
 30
0.0
  0
VERTEX
  5
10A
100
AcDbEntity
  8
0
370
              15
  6
Continuous
 62
               7
100
AcDbVertex
100
AcDb2dVertex
 10
-47.731452377289671
 20
-388.92575626689967
 30
0.0
  0
VERTEX
  5
10B
100
AcDbEntity
  8
0
370
              15
  6
Continuous
 62
               7
100
AcDbVertex
100
AcDb2dVertex
 10
-47.626138349289604
 20
-390.37910225789966
 30
0.0
  0
VERTEX
  5
10C
100
AcDbEntity
  8
0
370
              15
  6
Continuous
 62
               7
100
AcDbVertex
100
AcDb2dVertex
 10
-47.261504203489849
 20
-391.83508339089963
 30
0.0
  0
VERTEX
  5
10D
100
AcDbEntity
  8
0
370
              15
  6
Continuous
 62
               7
100
AcDbVertex
100
AcDb2dVertex
 10
-46.657205906489608
 20
-393.21530081709966
 30
0.0
  0
VERTEX
  5
10E
100
AcDbEntity
  8
0
370
              15
  6
Continuous
 62
               7
100
AcDbVertex
100
AcDb2dVertex
 10
-45.845821767889802
 20
-394.44529818129962
 30
0.0
  0
VERTEX
  5
10F
100
AcDbEntity
  8
0
370
              15
  6
Continuous
 62
               7
100
AcDbVertex
100
AcDb2dVertex
 10
-44.871092983889767
 20
-395.45881508469967
 30
0.0
  0
VERTEX
  5
110
100
AcDbEntity
  8
0
370
              15
  6
Continuous
 62
               7
100
AcDbVertex
100
AcDb2dVertex
 10
-43.785568369089916
 20
-396.20116189409964
 30
0.0
  0
VERTEX
  5
111
100
AcDbEntity
  8
0
370
              15
  6
Continuous
 62
               7
100
AcDbVertex
100
AcDb2dVertex
 10
-42.647767761489732
 20
-396.63236752309962
 30
0.0
  0
SEQEND
  5
112
100
AcDbEntity
  8
0
370
              15
  6
Continuous
 62
               7
  0
LINE
  5
113
100
AcDbEntity
  8
0
370
              15
  6
Continuous
 62
               7
100
AcDbLine
 10
-90.79505996648949
 20
523.67986175570036
 30
0.0
 11
-42.032135891489716
 21
512.32164398010036
 31
0.0
  0
ARC
  5
114
100
AcDbEntity
  8
0
370
              15
  6
Continuous
 62
               7
100
AcDbCircle
 10
-40.171848920089715
 20
509.05574901610038
 30
0.0
 40
3.7585552451973894
100
AcDbArc
 50
119.66627882439539
 51
184.89945428639732
  0
LINE
  5
115
100
AcDbEntity
  8
0
370
              15
  6
Continuous
 62
               7
100
AcDbLine
 10
-43.916670816889919
 20
508.73474045930033
 30
0.0
 11
-92.679594891689604
 21
520.09295823490038
 31
0.0
  0
ARC
  5
116
100
AcDbEntity
  8
0
370
              15
  6
Continuous
 62
               7
100
AcDbCircle
 10
-88.934772995089943
 20
520.41396679190029
 30
0.0
 40
3.75855524519858
100
AcDbArc
 50
119.666278824401
 51
184.89945428640067
  0
LINE
  5
117
100
AcDbEntity
  8
0
370
              15
  6
Continuous
 62
               7
100
AcDbLine
 10
-42.248315866889598
 20
447.17971781870028
 30
0.0
 11
-43.916670816889919
 21
508.73474045930033
 31
0.0
  0
LINE
  5
118
100
AcDbEntity
  8
0
370
              15
  6
Continuous
 62
               7
100
AcDbLine
 10
-91.011239941689738
 20
458.53793559430028
 30
0.0
 11
-42.248315866889598
 21
447.17971781870028
 31
0.0
  0
LINE
  5
119
100
AcDbEntity
  8
0
370
              15
  6
Continuous
 62
               7
100
AcDbLine
 10
-92.679594891689604
 20
520.09295823490038
 30
0.0
 11
-91.011239941689738
 21
458.53793559430028
 31
0.0
  0
LINE
  5
11A
100
AcDbEntity
  8
0
370
              15
  6
Continuous
 62
               7
100
AcDbLine
 10
0.1536838753105343
 20
527.88506155670029
 30
0.0
 11
-48.609240199489605
 21
539.24327933250038
 31
0.0
  0
LINE
  5
11B
100
AcDbEntity
  8
0
370
              15
  6
Continuous
 62
               7
100
AcDbLine
 10
-42.032135891489716
 20
512.32164398010036
 30
0.0
 11
0.1536838753105343
 21
527.88506155670029
 31
0.0
  0
LINE
  5
11C
100
AcDbEntity
  8
0
370
              15
  6
Continuous
 62
               7
100
AcDbLine
 10
-48.609240199489605
 20
539.24327933250038
 30
0.0
 11
-90.79505996648949
 21
523.67986175570036
 31
0.0
  0
ARC
  5
11D
100
AcDbEntity
  8
0
370
              15
  6
Continuous
 62
               7
100
AcDbCircle
 10
-43.245388582889419
 20
508.97563043010035
 30
0.0
 40
3.5591837222662588
100
AcDbArc
 50
359.27075458899969
 51
70.069534294302173
  0
ARC
  5
11E
100
AcDbEntity
  8
0
370
              15
  6
Continuous
 62
               7
100
AcDbCircle
 10
-42.179832161689674
 20
517.01321232430041
 30
0.0
 40
8.4587058665051718
100
AcDbArc
 50
258.15109532390073
 51
287.14350713679806
  0
LINE
  5
11F
100
AcDbEntity
  8
0
370
              15
  6
Continuous
 62
               7
100
AcDbLine
 10
-39.686493142089958
 20
508.93033131150031
 30
0.0
 11
-38.018138191889548
 21
447.37530867090027
 31
0.0
  0
ARC
  5
120
100
AcDbEntity
  8
0
370
              15
  6
Continuous
 62
               7
100
AcDbCircle
 10
-40.511477211689808
 20
455.45818968370031
 30
0.0
 40
8.4587058665034647
100
AcDbArc
 50
258.15109532390142
 51
287.14350713679818
  0
ARC
  5
121
100
AcDbEntity
  8
0
370
              15
  6
Continuous
 62
               7
100
AcDbCircle
 10
-1.0595688160896231
 20
524.53904800690043
 30
0.0
 40
3.5591837222671683
100
AcDbArc
 50
359.27075458899992
 51
70.069534294303423
  0
LINE
  5
122
100
AcDbEntity
  8
0
370
              15
  6
Continuous
 62
               7
100
AcDbLine
 10
2.4993266249103812
 20
524.4937488881003
 30
0.0
 11
-39.686493142089958
 21
508.93033131150031
 31
0.0
  0
LINE
  5
123
100
AcDbEntity
  8
0
370
              15
  6
Continuous
 62
               7
100
AcDbLine
 10
4.1676815749102474
 20
462.93872624750043
 30
0.0
 11
2.4993266249103812
 21
524.4937488881003
 31
0.0
  0
LINE
  5
124
100
AcDbEntity
  8
0
370
              15
  6
Continuous
 62
               7
100
AcDbLine
 10
-38.018138191889548
 20
447.37530867090027
 30
0.0
 11
4.1676815749102474
 21
462.93872624750043
 31
0.0
  0
ARC
  5
125
100
AcDbEntity
  8
0
370
              15
  6
Continuous
 62
               7
100
AcDbCircle
 10
-39.986521895689648
 20
444.13185540850031
 30
0.0
 40
2.6961087421817953
100
AcDbArc
 50
258.1511373682003
 51
287.14346509250674
  0
ARC
  5
126
100
AcDbEntity
  8
0
370
              15
  6
Continuous
 62
               7
100
AcDbCircle
 10
-39.91769143108958
 20
441.53986819510033
 30
0.0
 40
0.6241721153759947
100
AcDbArc
 50
119.58476778819711
 51
184.2884866506916
  0
ARC
  5
127
100
AcDbEntity
  8
0
370
              15
  6
Continuous
 62
               7
100
AcDbCircle
 10
-39.961686400089448
 20
443.3418044741004
 30
0.0
 40
1.2865521945753382
100
AcDbArc
 50
258.15128632700475
 51
287.14331613358951
  0
ARC
  5
128
100
AcDbEntity
  8
0
370
              15
  6
Continuous
 62
               7
100
AcDbCircle
 10
-39.78366464788941
 20
441.55580119670026
 30
0.0
 40
0.5918621510206706
100
AcDbArc
 50
359.97429305030761
 51
70.125917451828286
  0
ARC
  5
129
100
AcDbEntity
  8
0
370
              15
  6
Continuous
 62
               7
100
AcDbCircle
 10
-39.92492045868984
 20
441.84796065570026
 30
0.0
 40
2.8195922682125905
100
AcDbArc
 50
258.15120116119846
 51
287.14340129950489
  0
LINE
  5
12A
100
AcDbEntity
  8
0
370
              15
  6
Continuous
 62
               7
100
AcDbLine
 10
-40.503866435089904
 20
439.0884458223004
 30
0.0
 11
-40.540115976889766
 21
441.49319363730046
 31
0.0
  0
LINE
  5
12B
100
AcDbEntity
  8
0
370
              15
  6
Continuous
 62
               7
100
AcDbLine
 10
-39.19180255648952
 20
441.55553564550041
 30
0.0
 11
-39.093805459089609
 21
439.15364285410033
 31
0.0
  0
LINE
  5
12C
100
AcDbEntity
  8
0
370
              15
  6
Continuous
 62
               7
100
AcDbLine
 10
-40.540115976889766
 20
441.49319363730046
 30
0.0
 11
-92.705105963089764
 21
453.64384554690037
 31
0.0
  0
ARC
  5
12D
100
AcDbEntity
  8
0
370
              15
  6
Continuous
 62
               7
100
AcDbCircle
 10
-92.082681417290033
 20
453.69052010490032
 30
0.0
 40
0.6241721153747547
100
AcDbArc
 50
119.58476778816573
 51
184.28848665080503
  0
LINE
  5
12E
100
AcDbEntity
  8
0
370
              15
  6
Continuous
 62
               7
100
AcDbLine
 10
-92.390841864089808
 20
454.23331653850028
 30
0.0
 11
-40.225851878089443
 21
442.08266462890037
 31
0.0
  0
ARC
  5
12F
100
AcDbEntity
  8
0
370
              15
  6
Continuous
 62
               7
100
AcDbCircle
 10
-33.188278582489502
 20
482.52232689190026
 30
0.0
 40
33.155321668946193
100
AcDbArc
 50
285.11402805829971
 51
295.38656251949993
  0
ARC
  5
130
100
AcDbEntity
  8
0
370
              15
  6
Continuous
 62
               7
100
AcDbCircle
 10
-51.586726448289838
 20
493.55153372930039
 30
0.0
 40
45.26319299482266
100
AcDbArc
 50
249.4845103961004
 51
264.2085137705003
  0
POLYLINE
  5
131
100
AcDbEntity
  8
0
370
              15
  6
Continuous
 62
               7
100
AcDb2dPolyline
 66
               1
 10
0.0
 20
0.0
 30
0.0
 75
               5
  0
VERTEX
  5
132
100
AcDbEntity
  8
0
370
              15
  6
Continuous
 62
               7
100
AcDbVertex
100
AcDb2dVertex
 10
5.5465591063103687
 20
458.76165108910027
 30
0.0
  0
VERTEX
  5
133
100
AcDbEntity
  8
0
370
              15
  6
Continuous
 62
               7
100
AcDbVertex
100
AcDb2dVertex
 10
5.5981520361102497
 20
458.78467515590046
 30
0.0
  0
VERTEX
  5
134
100
AcDbEntity
  8
0
370
              15
  6
Continuous
 62
               7
100
AcDbVertex
100
AcDb2dVertex
 10
5.6345054423105552
 20
458.80990128810026
 30
0.0
  0
VERTEX
  5
135
100
AcDbEntity
  8
0
370
              15
  6
Continuous
 62
               7
100
AcDbVertex
100
AcDb2dVertex
 10
5.6542198641105728
 20
458.83636061350035
 30
0.0
  0
VERTEX
  5
136
100
AcDbEntity
  8
0
370
              15
  6
Continuous
 62
               7
100
AcDbVertex
100
AcDb2dVertex
 10
5.6565448001102681
 20
458.8630372147004
 30
0.0
  0
VERTEX
  5
137
100
AcDbEntity
  8
0
370
              15
  6
Continuous
 62
               7
100
AcDbVertex
100
AcDb2dVertex
 10
5.641382912510025
 20
458.88890527710032
 30
0.0
  0
VERTEX
  5
138
100
AcDbEntity
  8
0
370
              15
  6
Continuous
 62
               7
100
AcDbVertex
100
AcDb2dVertex
 10
5.609324990110153
 20
458.91297080290042
 30
0.0
  0
VERTEX
  5
139
100
AcDbEntity
  8
0
370
              15
  6
Continuous
 62
               7
100
AcDbVertex
100
AcDb2dVertex
 10
5.5615956129100681
 20
458.93430919710045
 30
0.0
  0
VERTEX
  5
13A
100
AcDbEntity
  8
0
370
              15
  6
Continuous
 62
               7
100
AcDbVertex
100
AcDb2dVertex
 10
5.5000310917103974
 20
458.95210119930039
 30
0.0
  0
SEQEND
  5
13B
100
AcDbEntity
  8
0
370
              15
  6
Continuous
 62
               7
  0
LINE
  5
13C
100
AcDbEntity
  8
0
370
              15
  6
Continuous
 62
               7
100
AcDbLine
 10
-39.582458635089452
 20
442.11241322170031
 30
0.0
 11
5.5465591063103687
 21
458.76165108910027
 31
0.0
  0
POLYLINE
  5
13D
100
AcDbEntity
  8
0
370
              15
  6
Continuous
 62
               7
100
AcDb2dPolyline
 66
               1
 10
0.0
 20
0.0
 30
0.0
 75
               5
  0
VERTEX
  5
13E
100
AcDbEntity
  8
0
370
              15
  6
Continuous
 62
               7
100
AcDbVertex
100
AcDb2dVertex
 10
-92.437369878689779
 20
454.42376664870039
 30
0.0
  0
VERTEX
  5
13F
100
AcDbEntity
  8
0
370
              15
  6
Continuous
 62
               7
100
AcDbVertex
100
AcDb2dVertex
 10
-92.488962808689749
 20
454.40074258190043
 30
0.0
  0
VERTEX
  5
140
100
AcDbEntity
  8
0
370
              15
  6
Continuous
 62
               7
100
AcDbVertex
100
AcDb2dVertex
 10
-92.525316214689511
 20
454.3755164497004
 30
0.0
  0
VERTEX
  5
141
100
AcDbEntity
  8
0
370
              15
  6
Continuous
 62
               7
100
AcDbVertex
100
AcDb2dVertex
 10
-92.545030636689617
 20
454.34905712430032
 30
0.0
  0
VERTEX
  5
142
100
AcDbEntity
  8
0
370
              15
  6
Continuous
 62
               7
100
AcDbVertex
100
AcDb2dVertex
 10
-92.547355572489678
 20
454.32238052310026
 30
0.0
  0
VERTEX
  5
143
100
AcDbEntity
  8
0
370
              15
  6
Continuous
 62
               7
100
AcDbVertex
100
AcDb2dVertex
 10
-92.53219368488989
 20
454.29651246090043
 30
0.0
  0
VERTEX
  5
144
100
AcDbEntity
  8
0
370
              15
  6
Continuous
 62
               7
100
AcDbVertex
100
AcDb2dVertex
 10
-92.500135762689652
 20
454.27244693490024
 30
0.0
  0
VERTEX
  5
145
100
AcDbEntity
  8
0
370
              15
  6
Continuous
 62
               7
100
AcDbVertex
100
AcDb2dVertex
 10
-92.452406385289933
 20
454.2511085409003
 30
0.0
  0
VERTEX
  5
146
100
AcDbEntity
  8
0
370
              15
  6
Continuous
 62
               7
100
AcDbVertex
100
AcDb2dVertex
 10
-92.390841864089808
 20
454.23331653850028
 30
0.0
  0
SEQEND
  5
147
100
AcDbEntity
  8
0
370
              15
  6
Continuous
 62
               7
  0
LINE
  5
148
100
AcDbEntity
  8
0
370
              15
  6
Continuous
 62
               7
100
AcDbLine
 10
5.9372151849103005
 20
458.20477351290037
 30
0.0
 11
-39.19180255648952
 21
441.55553564550041
 31
0.0
  0
ARC
  5
149
100
AcDbEntity
  8
0
370
              15
  6
Continuous
 62
               7
100
AcDbCircle
 10
5.3453530935104112
 20
458.20503906430031
 30
0.0
 40
0.5918621510211254
100
AcDbArc
 50
359.97429305030761
 51
70.125917451657074
  0
LINE
  5
14A
100
AcDbEntity
  8
0
370
              15
  6
Continuous
 62
               7
100
AcDbLine
 10
-92.668856421089359
 20
451.2390977319003
 30
0.0
 11
-40.503866435089904
 21
439.0884458223004
 31
0.0
  0
LINE
  5
14B
100
AcDbEntity
  8
0
370
              15
  6
Continuous
 62
               7
100
AcDbLine
 10
-92.705105963089764
 20
453.64384554690037
 30
0.0
 11
-92.668856421089359
 21
451.2390977319003
 31
0.0
  0
LINE
  5
14C
100
AcDbEntity
  8
0
370
              15
  6
Continuous
 62
               7
100
AcDbLine
 10
-39.093805459089609
 20
439.15364285410033
 30
0.0
 11
6.0352122823102121
 21
455.80288072150029
 31
0.0
  0
LINE
  5
14D
100
AcDbEntity
  8
0
370
              15
  6
Continuous
 62
               7
100
AcDbLine
 10
6.0352122823102121
 20
455.80288072150029
 30
0.0
 11
5.9372151849103005
 21
458.20477351290037
 31
0.0
  0
SPLINE
  5
14E
100
AcDbEntity
  8
0
370
              15
  6
Continuous
 62
               7
100
AcDbSpline
210
0.0
220
0.0
230
1.0
 70
               8
 71
               2
 72
              14
 73
              11
 74
               0
 42
0.000001
 43
0.000001
 40
0.0
 40
0.0
 40
0.0
 40
1.0
 40
1.0
 40
2.0
 40
3.0
 40
4.0
 40
5.0
 40
6.0
 40
6.0
 40
7.0
 40
7.0
 40
7.0
 10
-65.12288503753679
 20
427.38468981127767
 30
0.0
 10
-65.123543174462739
 20
427.37542218274427
 30
0.0
 10
-65.124201311388688
 20
427.36615455421088
 30
0.0
 10
-65.135257553275906
 20
427.15766498565358
 30
0.0
 10
-65.079639203679918
 20
426.782239445904
 30
0.0
 10
-64.97515760198111
 20
426.44683108495087
 30
0.0
 10
-64.821528800216939
 20
426.13213456895801
 30
0.0
 10
-64.630845336203848
 20
425.85807080417385
 30
0.0
 10
-64.511737661963608
 20
425.73383990055981
 30
0.0
 10
-64.505101131224038
 20
425.72717414294675
 30
0.0
 10
-64.498464600484468
 20
425.72050838533369
 30
0.0
  0
LINE
  5
14F
100
AcDbEntity
  8
0
370
              15
  6
Continuous
 62
               7
100
AcDbLine
 10
-93.035047622089579
 20
453.8413590623004
 30
0.0
 11
-93.035590621689508
 21
453.85021364810041
 31
0.0
  0
POLYLINE
  5
150
100
AcDbEntity
  8
0
370
              15
  6
Continuous
 62
               7
100
AcDb2dPolyline
 66
               1
 10
0.0
 20
0.0
 30
0.0
 75
               5
  0
VERTEX
  5
151
100
AcDbEntity
  8
0
370
              15
  6
Continuous
 62
               7
100
AcDbVertex
100
AcDb2dVertex
 10
-92.597496359289735
 20
454.41569035690031
 30
0.0
  0
VERTEX
  5
152
100
AcDbEntity
  8
0
370
              15
  6
Continuous
 62
               7
100
AcDbVertex
100
AcDb2dVertex
 10
-92.643183973489968
 20
454.39351197530027
 30
0.0
  0
VERTEX
  5
153
100
AcDbEntity
  8
0
370
              15
  6
Continuous
 62
               7
100
AcDbVertex
100
AcDb2dVertex
 10
-92.647749307089626
 20
454.39065138690034
 30
0.0
  0
SEQEND
  5
154
100
AcDbEntity
  8
0
370
              15
  6
Continuous
 62
               7
  0
POLYLINE
  5
155
100
AcDbEntity
  8
0
370
              15
  6
Continuous
 62
               7
100
AcDb2dPolyline
 66
               1
 10
0.0
 20
0.0
 30
0.0
 75
               5
  0
VERTEX
  5
156
100
AcDbEntity
  8
0
370
              15
  6
Continuous
 62
               7
100
AcDbVertex
100
AcDb2dVertex
 10
-92.668856421089359
 20
451.2390977319003
 30
0.0
  0
VERTEX
  5
157
100
AcDbEntity
  8
0
370
              15
  6
Continuous
 62
               7
100
AcDbVertex
100
AcDb2dVertex
 10
-92.803779576289699
 20
451.27808879470035
 30
0.0
  0
VERTEX
  5
158
100
AcDbEntity
  8
0
370
              15
  6
Continuous
 62
               7
100
AcDbVertex
100
AcDb2dVertex
 10
-92.908383653289448
 20
451.3248549099003
 30
0.0
  0
VERTEX
  5
159
100
AcDbEntity
  8
0
370
              15
  6
Continuous
 62
               7
100
AcDbVertex
100
AcDb2dVertex
 10
-92.978648817690001
 20
451.37759749570046
 30
0.0
  0
VERTEX
  5
15A
100
AcDbEntity
  8
0
370
              15
  6
Continuous
 62
               7
100
AcDbVertex
100
AcDb2dVertex
 10
-93.011875463489915
 20
451.43429024570037
 30
0.0
  0
VERTEX
  5
15B
100
AcDbEntity
  8
0
370
              15
  6
Continuous
 62
               7
100
AcDbVertex
100
AcDb2dVertex
 10
-93.014476400089634
 20
451.45491704890037
 30
0.0
  0
SEQEND
  5
15C
100
AcDbEntity
  8
0
370
              15
  6
Continuous
 62
               7
  0
LINE
  5
15D
100
AcDbEntity
  8
0
370
              15
  6
Continuous
 62
               7
100
AcDbLine
 10
5.6263895205103012
 20
458.96189411210025
 30
0.0
 11
5.6792838885099712
 21
458.94135528490028
 31
0.0
  0
LINE
  5
15E
100
AcDbEntity
  8
0
370
              15
  6
Continuous
 62
               7
100
AcDbLine
 10
6.169360123909982
 20
458.40867393290046
 30
0.0
 11
6.1701103503101962
 21
458.40061280090026
 31
0.0
  0
POLYLINE
  5
15F
100
AcDbEntity
  8
0
370
              15
  6
Continuous
 62
               7
100
AcDb2dPolyline
 66
               1
 10
0.0
 20
0.0
 30
0.0
 75
               5
  0
VERTEX
  5
160
100
AcDbEntity
  8
0
370
              15
  6
Continuous
 62
               7
100
AcDbVertex
100
AcDb2dVertex
 10
6.2787719071103396
 20
456.00768867210036
 30
0.0
  0
VERTEX
  5
161
100
AcDbEntity
  8
0
370
              15
  6
Continuous
 62
               7
100
AcDbVertex
100
AcDb2dVertex
 10
6.2711674199104976
 20
455.96661423030037
 30
0.0
  0
VERTEX
  5
162
100
AcDbEntity
  8
0
370
              15
  6
Continuous
 62
               7
100
AcDbVertex
100
AcDb2dVertex
 10
6.2279547077101682
 20
455.90862476470033
 30
0.0
  0
VERTEX
  5
163
100
AcDbEntity
  8
0
370
              15
  6
Continuous
 62
               7
100
AcDbVertex
100
AcDb2dVertex
 10
6.1482826477100474
 20
455.85333826830038
 30
0.0
  0
VERTEX
  5
164
100
AcDbEntity
  8
0
370
              15
  6
Continuous
 62
               7
100
AcDbVertex
100
AcDb2dVertex
 10
6.0352122823102121
 20
455.80288072150029
 30
0.0
  0
SEQEND
  5
165
100
AcDbEntity
  8
0
370
              15
  6
Continuous
 62
               7
  0
LINE
  5
166
100
AcDbEntity
  8
0
370
              15
  6
Continuous
 62
               7
100
AcDbLine
 10
-40.021802361489691
 20
439.03223415170032
 30
0.0
 11
-16.073753969089367
 21
-444.54632385989953
 31
0.0
  0
LINE
  5
167
100
AcDbEntity
  8
0
370
              15
  6
Continuous
 62
               7
100
AcDbLine
 10
-39.598674663489774
 20
439.04779548850047
 30
0.0
 11
-15.650734625689793
 21
-444.52676470169968
 31
0.0
  0
LINE
  5
168
100
AcDbEntity
  8
0
370
              15
  6
Continuous
 62
               7
100
AcDbLine
 10
-92.487668128289798
 20
451.19689438810042
 30
0.0
 11
-68.541149188089904
 21
-432.32523350629953
 31
0.0
  0
LINE
  5
169
100
AcDbEntity
  8
0
370
              15
  6
Continuous
 62
               7
100
AcDbLine
 10
5.7941179807099701
 20
455.71393539070027
 30
0.0
 11
29.739900171910094
 21
-427.78100967489968
 31
0.0
  0
LINE
  5
16A
100
AcDbEntity
  8
0
370
              15
  6
Continuous
 62
               7
100
AcDbLine
 10
-40.129372817889717
 20
-284.93455917909967
 30
0.0
 11
-39.487790353889423
 21
-308.60615441749962
 31
0.0
  0
LINE
  5
16B
100
AcDbEntity
  8
0
370
              15
  6
Continuous
 62
               7
100
AcDbLine
 10
-39.996196792089805
 20
-285.07825404829964
 30
0.0
 11
-39.360762754889393
 21
-308.52299915349965
 31
0.0
  0
LINE
  5
16C
100
AcDbEntity
  8
0
370
              15
  6
Continuous
 62
               7
100
AcDbLine
 10
-38.584817411089617
 20
-286.82772988029961
 30
0.0
 11
-38.026884692689592
 21
-307.41301426749965
 31
0.0
  0
LINE
  5
16D
100
AcDbEntity
  8
0
370
              15
  6
Continuous
 62
               7
100
AcDbLine
 10
-38.450343247089577
 20
-287.01932038949963
 30
0.0
 11
-37.901153690289803
 21
-307.28202024669963
 31
0.0
  0
LINE
  5
16E
100
AcDbEntity
  8
0
370
              15
  6
Continuous
 62
               7
100
AcDbLine
 10
-35.01301830688989
 20
-295.89670440849966
 30
0.0
 11
-34.904426423289706
 21
-299.90327139169966
 31
0.0
  0
LINE
  5
16F
100
AcDbEntity
  8
0
370
              15
  6
Continuous
 62
               7
100
AcDbLine
 10
-34.922856919089455
 20
-296.68142461329967
 30
0.0
 11
-34.85592725548976
 21
-299.15083734669963
 31
0.0
  0
ARC
  5
170
100
AcDbEntity
  8
0
370
              15
  6
Continuous
 62
               7
100
AcDbCircle
 10
-59.87088962208999
 20
334.22424779790026
 30
0.0
 40
0.3382362909086881
100
AcDbArc
 50
189.01710161570924
 51
239.37732759964851
  0
ARC
  5
171
100
AcDbEntity
  8
0
370
              15
  6
Continuous
 62
               7
100
AcDbCircle
 10
-88.890634860489982
 20
458.3018456849004
 30
0.0
 40
2.1337067172716315
100
AcDbArc
 50
173.64734147019945
 51
246.84438095530246
  0
ARC
  5
172
100
AcDbEntity
  8
0
370
              15
  6
Continuous
 62
               7
100
AcDbCircle
 10
-40.127710785689843
 20
446.94362790910031
 30
0.0
 40
2.1337067172716315
100
AcDbArc
 50
173.64734147019945
 51
246.84438095530246
  0
ARC
  5
173
100
AcDbEntity
  8
0
370
              15
  6
Continuous
 62
               7
100
AcDbCircle
 10
-40.229279332690012
 20
447.0907413475004
 30
0.0
 40
2.2293774255058199
100
AcDbArc
 50
296.11928652490781
 51
7.3334866053010046
  0
ARC
  5
174
100
AcDbEntity
  8
0
370
              15
  6
Continuous
 62
               7
100
AcDbCircle
 10
1.9565404343103268
 20
462.65415892430042
 30
0.0
 40
2.2293774255060277
100
AcDbArc
 50
296.11928652489217
 51
7.3334866052995267
  0
ARC
  5
175
100
AcDbEntity
  8
0
370
              15
  6
Continuous
 62
               7
100
AcDbCircle
 10
0.6281550061099637
 20
526.68379864150029
 30
0.0
 40
1.2915709215618194
100
AcDbArc
 50
77.311616838288757
 51
111.55287619218851
  0
ARC
  5
176
100
AcDbEntity
  8
0
370
              15
  6
Continuous
 62
               7
100
AcDbCircle
 10
-48.134769068689721
 20
538.04201641730037
 30
0.0
 40
1.2915709214859463
100
AcDbArc
 50
77.311616837303504
 51
111.55287619321534
  0
POLYLINE
  5
177
100
AcDbEntity
  8
0
370
              15
  6
Continuous
 62
               7
100
AcDb2dPolyline
 66
               1
 10
0.0
 20
0.0
 30
0.0
 75
               5
  0
VERTEX
  5
178
100
AcDbEntity
  8
0
370
              15
  6
Continuous
 62
               7
100
AcDbVertex
100
AcDb2dVertex
 10
-93.716362362689679
 20
520.73555840890026
 30
0.0
  0
VERTEX
  5
179
100
AcDbEntity
  8
0
370
              15
  6
Continuous
 62
               7
100
AcDbVertex
100
AcDb2dVertex
 10
-93.708649202489497
 20
520.67853512030047
 30
0.0
  0
VERTEX
  5
17A
100
AcDbEntity
  8
0
370
              15
  6
Continuous
 62
               7
100
AcDbVertex
100
AcDb2dVertex
 10
-93.608974517689958
 20
520.50845662710026
 30
0.0
  0
VERTEX
  5
17B
100
AcDbEntity
  8
0
370
              15
  6
Continuous
 62
               7
100
AcDbVertex
100
AcDb2dVertex
 10
-93.398181461289724
 20
520.35022797090028
 30
0.0
  0
VERTEX
  5
17C
100
AcDbEntity
  8
0
370
              15
  6
Continuous
 62
               7
100
AcDbVertex
100
AcDb2dVertex
 10
-93.084367173689671
 20
520.20993207930042
 30
0.0
  0
VERTEX
  5
17D
100
AcDbEntity
  8
0
370
              15
  6
Continuous
 62
               7
100
AcDbVertex
100
AcDb2dVertex
 10
-92.679594891689604
 20
520.09295823490038
 30
0.0
  0
SEQEND
  5
17E
100
AcDbEntity
  8
0
370
              15
  6
Continuous
 62
               7
  0
ARC
  5
17F
100
AcDbEntity
  8
0
370
              15
  6
Continuous
 62
               7
100
AcDbCircle
 10
-91.19620056148996
 20
522.08425378990046
 30
0.0
 40
1.6452594196363495
100
AcDbArc
 50
75.888125310988883
 51
109.88581542618581
  0
POLYLINE
  5
180
100
AcDbEntity
  8
0
370
              15
  6
Continuous
 62
               7
100
AcDb2dPolyline
 66
               1
 10
0.0
 20
0.0
 30
0.0
 75
               5
  0
VERTEX
  5
181
100
AcDbEntity
  8
0
370
              15
  6
Continuous
 62
               7
100
AcDbVertex
100
AcDb2dVertex
 10
-92.048007412689358
 20
459.18053576830039
 30
0.0
  0
VERTEX
  5
182
100
AcDbEntity
  8
0
370
              15
  6
Continuous
 62
               7
100
AcDbVertex
100
AcDb2dVertex
 10
-92.04029425248963
 20
459.12351247970037
 30
0.0
  0
VERTEX
  5
183
100
AcDbEntity
  8
0
370
              15
  6
Continuous
 62
               7
100
AcDbVertex
100
AcDb2dVertex
 10
-91.940619567689637
 20
458.95343398650039
 30
0.0
  0
VERTEX
  5
184
100
AcDbEntity
  8
0
370
              15
  6
Continuous
 62
               7
100
AcDbVertex
100
AcDb2dVertex
 10
-91.729826511089769
 20
458.7952053303004
 30
0.0
  0
VERTEX
  5
185
100
AcDbEntity
  8
0
370
              15
  6
Continuous
 62
               7
100
AcDbVertex
100
AcDb2dVertex
 10
-91.416012223689805
 20
458.65490943870032
 30
0.0
  0
VERTEX
  5
186
100
AcDbEntity
  8
0
370
              15
  6
Continuous
 62
               7
100
AcDbVertex
100
AcDb2dVertex
 10
-91.011239941689738
 20
458.53793559430028
 30
0.0
  0
SEQEND
  5
187
100
AcDbEntity
  8
0
370
              15
  6
Continuous
 62
               7
  0
ARC
  5
188
100
AcDbEntity
  8
0
370
              15
  6
Continuous
 62
               7
100
AcDbCircle
 10
-49.010380794689709
 20
537.64767136650039
 30
0.0
 40
1.6452594196393269
100
AcDbArc
 50
75.888125310998618
 51
109.88581542620086
  0
POLYLINE
  5
189
100
AcDbEntity
  8
0
370
              15
  6
Continuous
 62
               7
100
AcDb2dPolyline
 66
               1
 10
0.0
 20
0.0
 30
0.0
 75
               5
  0
VERTEX
  5
18A
100
AcDbEntity
  8
0
370
              15
  6
Continuous
 62
               7
100
AcDbVertex
100
AcDb2dVertex
 10
3.2301820115104505
 20
525.10331884890024
 30
0.0
  0
VERTEX
  5
18B
100
AcDbEntity
  8
0
370
              15
  6
Continuous
 62
               7
100
AcDbVertex
100
AcDb2dVertex
 10
3.207194854310373
 20
524.98494875850042
 30
0.0
  0
VERTEX
  5
18C
100
AcDbEntity
  8
0
370
              15
  6
Continuous
 62
               7
100
AcDbVertex
100
AcDb2dVertex
 10
3.0775595341102502
 20
524.81097970530027
 30
0.0
  0
VERTEX
  5
18D
100
AcDbEntity
  8
0
370
              15
  6
Continuous
 62
               7
100
AcDbVertex
100
AcDb2dVertex
 10
2.8385401579104013
 20
524.64512242710043
 30
0.0
  0
VERTEX
  5
18E
100
AcDbEntity
  8
0
370
              15
  6
Continuous
 62
               7
100
AcDbVertex
100
AcDb2dVertex
 10
2.4993266249103812
 20
524.4937488881003
 30
0.0
  0
SEQEND
  5
18F
100
AcDbEntity
  8
0
370
              15
  6
Continuous
 62
               7
  0
POLYLINE
  5
190
100
AcDbEntity
  8
0
370
              15
  6
Continuous
 62
               7
100
AcDb2dPolyline
 66
               1
 10
0.0
 20
0.0
 30
0.0
 75
               5
  0
VERTEX
  5
191
100
AcDbEntity
  8
0
370
              15
  6
Continuous
 62
               7
100
AcDbVertex
100
AcDb2dVertex
 10
4.1676815749102474
 20
462.93872624750043
 30
0.0
  0
VERTEX
  5
192
100
AcDbEntity
  8
0
370
              15
  6
Continuous
 62
               7
100
AcDbVertex
100
AcDb2dVertex
 10
4.5068951079102675
 20
463.09009978650033
 30
0.0
  0
VERTEX
  5
193
100
AcDbEntity
  8
0
370
              15
  6
Continuous
 62
               7
100
AcDbVertex
100
AcDb2dVertex
 10
4.7459144841101164
 20
463.2559570647004
 30
0.0
  0
VERTEX
  5
194
100
AcDbEntity
  8
0
370
              15
  6
Continuous
 62
               7
100
AcDbVertex
100
AcDb2dVertex
 10
4.8755498043102392
 20
463.42992611790032
 30
0.0
  0
VERTEX
  5
195
100
AcDbEntity
  8
0
370
              15
  6
Continuous
 62
               7
100
AcDbVertex
100
AcDb2dVertex
 10
4.8985369615103167
 20
463.54829620850046
 30
0.0
  0
SEQEND
  5
196
100
AcDbEntity
  8
0
370
              15
  6
Continuous
 62
               7
  0
LINE
  5
197
100
AcDbEntity
  8
0
370
              15
  6
Continuous
 62
               7
100
AcDbLine
 10
5.5000310917103974
 20
458.95210119930039
 30
0.0
 11
1.104365689510459
 21
459.97597181110041
 31
0.0
  0
LINE
  5
198
100
AcDbEntity
  8
0
370
              15
  6
Continuous
 62
               7
100
AcDbLine
 10
-88.205503113889691
 20
455.98500950130028
 30
0.0
 11
-92.437369878689779
 21
454.42376664870039
 31
0.0
  0
POLYLINE
  5
199
100
AcDbEntity
  8
0
370
              15
  6
Continuous
 62
               7
100
AcDb2dPolyline
 66
               1
 10
0.0
 20
0.0
 30
0.0
 75
               5
  0
VERTEX
  5
19A
100
AcDbEntity
  8
0
370
              15
  6
Continuous
 62
               7
100
AcDbVertex
100
AcDb2dVertex
 10
-92.705105963089764
 20
453.64384554690037
 30
0.0
  0
VERTEX
  5
19B
100
AcDbEntity
  8
0
370
              15
  6
Continuous
 62
               7
100
AcDbVertex
100
AcDb2dVertex
 10
-92.834121824690001
 20
453.68112922970045
 30
0.0
  0
VERTEX
  5
19C
100
AcDbEntity
  8
0
370
              15
  6
Continuous
 62
               7
100
AcDbVertex
100
AcDb2dVertex
 10
-92.934145819489814
 20
453.72584748650047
 30
0.0
  0
VERTEX
  5
19D
100
AcDbEntity
  8
0
370
              15
  6
Continuous
 62
               7
100
AcDbVertex
100
AcDb2dVertex
 10
-93.001331339689742
 20
453.77628021130045
 30
0.0
  0
VERTEX
  5
19E
100
AcDbEntity
  8
0
370
              15
  6
Continuous
 62
               7
100
AcDbVertex
100
AcDb2dVertex
 10
-93.033104192489546
 20
453.83049043350024
 30
0.0
  0
VERTEX
  5
19F
100
AcDbEntity
  8
0
370
              15
  6
Continuous
 62
               7
100
AcDbVertex
100
AcDb2dVertex
 10
-93.035047622089579
 20
453.8413590623004
 30
0.0
  0
SEQEND
  5
1A0
100
AcDbEntity
  8
0
370
              15
  6
Continuous
 62
               7
  0
ARC
  5
1A1
100
AcDbEntity
  8
0
370
              15
  6
Continuous
 62
               7
100
AcDbCircle
 10
-92.504218415089682
 20
454.15772409670035
 30
0.0
 40
0.2743125338432229
100
AcDbArc
 50
75.895286783108432
 51
109.87946884184694
  0
ARC
  5
1A2
100
AcDbEntity
  8
0
370
              15
  6
Continuous
 62
               7
100
AcDbCircle
 10
5.5790427213101879
 20
458.75271123670041
 30
0.0
 40
0.2144742287897917
100
AcDbArc
 50
77.246470227437385
 51
111.61678060398714
  0
POLYLINE
  5
1A3
100
AcDbEntity
  8
0
370
              15
  6
Continuous
 62
               7
100
AcDb2dPolyline
 66
               1
 10
0.0
 20
0.0
 30
0.0
 75
               5
  0
VERTEX
  5
1A4
100
AcDbEntity
  8
0
370
              15
  6
Continuous
 62
               7
100
AcDbVertex
100
AcDb2dVertex
 10
6.1701103503101962
 20
458.40061280090026
 30
0.0
  0
VERTEX
  5
1A5
100
AcDbEntity
  8
0
370
              15
  6
Continuous
 62
               7
100
AcDbVertex
100
AcDb2dVertex
 10
6.1628367575100214
 20
458.36133683050025
 30
0.0
  0
VERTEX
  5
1A6
100
AcDbEntity
  8
0
370
              15
  6
Continuous
 62
               7
100
AcDbVertex
100
AcDb2dVertex
 10
6.1215188745105564
 20
458.30588723030041
 30
0.0
  0
VERTEX
  5
1A7
100
AcDbEntity
  8
0
370
              15
  6
Continuous
 62
               7
100
AcDbVertex
100
AcDb2dVertex
 10
6.0453351497104535
 20
458.25302165210041
 30
0.0
  0
VERTEX
  5
1A8
100
AcDbEntity
  8
0
370
              15
  6
Continuous
 62
               7
100
AcDbVertex
100
AcDb2dVertex
 10
5.9372151849103005
 20
458.20477351290037
 30
0.0
  0
SEQEND
  5
1A9
100
AcDbEntity
  8
0
370
              15
  6
Continuous
 62
               7
  0
SPLINE
  5
1AA
100
AcDbEntity
  8
0
370
              15
  6
Continuous
 62
               7
100
AcDbSpline
210
0.0
220
0.0
230
1.0
 70
               8
 71
               2
 72
              11
 73
               8
 74
               0
 42
0.000001
 43
0.000001
 40
0.0
 40
0.0
 40
0.0
 40
1.0
 40
1.0
 40
2.0
 40
3.0
 40
3.0
 40
4.0
 40
4.0
 40
4.0
 10
-48.632606039373414
 20
505.02538508710171
 30
0.0
 10
-48.621175283461199
 20
504.88729528304185
 30
0.0
 10
-48.609744527548983
 20
504.74920547898199
 30
0.0
 10
-46.993048990065645
 20
484.2978507912357
 30
0.0
 10
-43.071767518520019
 20
456.96710516511394
 30
0.0
 10
-41.905565210650721
 20
449.44182498908958
 30
0.0
 10
-41.905459107102743
 20
449.44113556548893
 30
0.0
 10
-41.905353003554765
 20
449.44044614188829
 30
0.0
  0
SPLINE
  5
1AB
100
AcDbEntity
  8
0
370
              15
  6
Continuous
 62
               7
100
AcDbSpline
210
0.0
220
0.0
230
1.0
 70
               8
 71
               2
 72
              17
 73
              14
 74
               0
 42
0.000001
 43
0.000001
 40
0.0
 40
0.0
 40
0.0
 40
1.0
 40
1.0
 40
2.0
 40
3.0
 40
4.0
 40
5.0
 40
6.0
 40
7.0
 40
8.0
 40
9.0
 40
9.0
 40
10.0
 40
10.0
 40
10.0
 10
-22.481243739880838
 20
456.60649041197712
 30
0.0
 10
-22.480098428013108
 20
456.59628943194423
 30
0.0
 10
-22.478953116145377
 20
456.58608845191134
 30
0.0
 10
-22.435302247467362
 20
456.28032429171321
 30
0.0
 10
-22.467746019060897
 20
455.43097037109692
 30
0.0
 10
-23.515479421790943
 20
453.94211302361623
 30
0.0
 10
-26.605507679445864
 20
452.18340408568906
 30
0.0
 10
-30.218594092796494
 20
451.07860706915153
 30
0.0
 10
-33.292366035053774
 20
450.37878830016598
 30
0.0
 10
-37.449391937619012
 20
449.74185535006086
 30
0.0
 10
-40.811246724659114
 20
449.50215185283378
 30
0.0
 10
-41.837022782933118
 20
449.44438382701651
 30
0.0
 10
-41.871190519681832
 20
449.44241486301371
 30
0.0
 10
-41.905358256430546
 20
449.44044589901091
 30
0.0
  0
SPLINE
  5
1AC
100
AcDbEntity
  8
0
370
              15
  6
Continuous
 62
               7
100
AcDbSpline
210
0.0
220
0.0
230
1.0
 70
               8
 71
               2
 72
              11
 73
               8
 74
               0
 42
0.000001
 43
0.000001
 40
0.0
 40
0.0
 40
0.0
 40
1.0
 40
1.0
 40
2.0
 40
3.0
 40
3.0
 40
4.0
 40
4.0
 40
4.0
 10
-29.409118493604538
 20
508.99316915407707
 30
0.0
 10
-29.383893932502033
 20
508.86420816602589
 30
0.0
 10
-29.358669371399529
 20
508.73524717797471
 30
0.0
 10
-26.784532193716942
 20
495.89232793723835
 30
0.0
 10
-23.057566009214852
 20
469.97314069598519
 30
0.0
 10
-22.481298610548393
 20
456.60781753508172
 30
0.0
 10
-22.481271365149851
 20
456.60715475097834
 30
0.0
 10
-22.48124411975131
 20
456.60649196687496
 30
0.0
  0
SPLINE
  5
1AD
100
AcDbEntity
  8
0
370
              15
  6
Continuous
 62
               7
100
AcDbSpline
210
0.0
220
0.0
230
1.0
 70
               8
 71
               2
 72
              11
 73
               8
 74
               0
 42
0.000001
 43
0.000001
 40
0.0
 40
0.0
 40
0.0
 40
1.0
 40
1.0
 40
2.0
 40
3.0
 40
3.0
 40
4.0
 40
4.0
 40
4.0
 10
-38.950670121291651
 20
505.47304904897914
 30
0.0
 10
-38.904266648731337
 20
505.49069355865385
 30
0.0
 10
-38.857863176171023
 20
505.50833806832856
 30
0.0
 10
-35.414682715751397
 20
506.82703021858669
 30
0.0
 10
-30.859623905923755
 20
508.47528933551888
 30
0.0
 10
-29.499803090864489
 20
508.96076333029231
 30
0.0
 10
-29.454460792234514
 20
508.97696624218469
 30
0.0
 10
-29.409118493604538
 20
508.99316915407707
 30
0.0
  0
SPLINE
  5
1AE
100
AcDbEntity
  8
0
370
              15
  6
Continuous
 62
               7
100
AcDbSpline
210
0.0
220
0.0
230
1.0
 70
               8
 71
               2
 72
              12
 73
               9
 74
               0
 42
0.000001
 43
0.000001
 40
0.0
 40
0.0
 40
0.0
 40
1.0
 40
1.0
 40
2.0
 40
3.0
 40
4.0
 40
4.0
 40
5.0
 40
5.0
 40
5.0
 10
-41.905353003554765
 20
449.44044614188829
 30
0.0
 10
-41.905286392981353
 20
449.44114355127704
 30
0.0
 10
-41.90521978240794
 20
449.44184096066579
 30
0.0
 10
-41.343572498625136
 20
455.26830194854847
 30
0.0
 10
-39.28597347881022
 20
479.53639589598396
 30
0.0
 10
-38.979012226079604
 20
501.5900547110495
 30
0.0
 10
-38.952844664796785
 20
505.19571184801697
 30
0.0
 10
-38.951757393044218
 20
505.33438044849805
 30
0.0
 10
-38.950670121291651
 20
505.47304904897914
 30
0.0
  0
SPLINE
  5
1AF
100
AcDbEntity
  8
0
370
              15
  6
Continuous
 62
               7
100
AcDbSpline
210
0.0
220
0.0
230
1.0
 70
               8
 71
               2
 72
              16
 73
              13
 74
               0
 42
0.000001
 43
0.000001
 40
0.0
 40
0.0
 40
0.0
 40
1.0
 40
1.0
 40
2.0
 40
3.0
 40
4.0
 40
5.0
 40
6.0
 40
7.0
 40
8.0
 40
8.0
 40
9.0
 40
9.0
 40
9.0
 10
-40.484082242226933
 20
507.57171851256084
 30
0.0
 10
-40.495179152090159
 20
507.5683969429827
 30
0.0
 10
-40.506276061953386
 20
507.56507537340457
 30
0.0
 10
-40.793461533506516
 20
507.47814101617695
 30
0.0
 10
-41.703420675114458
 20
507.21962922396227
 30
0.0
 10
-42.725259227887719
 20
507.08289567423429
 30
0.0
 10
-43.907216281592255
 20
506.96710472764829
 30
0.0
 10
-45.342239921127103
 20
506.98725720275246
 30
0.0
 10
-46.439439791824398
 20
507.07048840070519
 30
0.0
 10
-47.181276871197852
 20
507.20849752884095
 30
0.0
 10
-47.386068451747988
 20
507.24925602498951
 30
0.0
 10
-47.39290955654441
 20
507.25060728455884
 30
0.0
 10
-47.399750661340832
 20
507.25195854412817
 30
0.0
  0
SPLINE
  5
1B0
100
AcDbEntity
  8
0
370
              15
  6
Continuous
 62
               7
100
AcDbSpline
210
0.0
220
0.0
230
1.0
 70
               8
 71
               2
 72
              16
 73
              13
 74
               0
 42
0.000001
 43
0.000001
 40
0.0
 40
0.0
 40
0.0
 40
1.0
 40
1.0
 40
2.0
 40
3.0
 40
4.0
 40
5.0
 40
6.0
 40
7.0
 40
8.0
 40
8.0
 40
9.0
 40
9.0
 40
9.0
 10
-48.632606039373414
 20
505.02538508710171
 30
0.0
 10
-48.62230008838641
 20
505.02363449913656
 30
0.0
 10
-48.611994137399407
 20
505.02188391117141
 30
0.0
 10
-48.304013591668891
 20
504.96882521312449
 30
0.0
 10
-47.067098999980217
 20
504.77490112535378
 30
0.0
 10
-45.249319091118551
 20
504.69932791403443
 30
0.0
 10
-43.806079610896532
 20
504.71874732144937
 30
0.0
 10
-42.364105408599144
 20
504.81417680754561
 30
0.0
 10
-40.744356921824775
 20
505.0209175913771
 30
0.0
 10
-39.484181603365315
 20
505.32724832115395
 30
0.0
 10
-38.984175436266369
 20
505.4639975648351
 30
0.0
 10
-38.96742277877901
 20
505.46852330690712
 30
0.0
 10
-38.950670121291651
 20
505.47304904897914
 30
0.0
  0
ARC
  5
1B1
100
AcDbEntity
  8
0
370
              15
  6
Continuous
 62
               7
100
AcDbCircle
 10
-46.1599856463571
 20
505.11089653580183
 30
0.0
 40
2.4740985864273113
100
AcDbArc
 50
120.07264728099473
 51
181.98068950349756
  0
SPLINE
  5
1B2
100
AcDbEntity
  8
0
370
              15
  6
Continuous
 62
               7
100
AcDbSpline
210
0.0
220
0.0
230
1.0
 70
               8
 71
               2
 72
              10
 73
               7
 74
               0
 42
0.000001
 43
0.000001
 40
0.0
 40
0.0
 40
0.0
 40
1.0
 40
1.0
 40
2.0
 40
2.0
 40
3.0
 40
3.0
 40
3.0
 10
-47.399750661340832
 20
507.25195854412817
 30
0.0
 10
-47.457526382073084
 20
507.26506900490739
 30
0.0
 10
-47.515302102805336
 20
507.27817946568661
 30
0.0
 10
-52.955703127128245
 20
508.50743709689817
 30
0.0
 10
-58.269986045568558
 20
509.78323918747327
 30
0.0
 10
-58.326621763675249
 20
509.7967783323158
 30
0.0
 10
-58.383257481781939
 20
509.81031747715832
 30
0.0
  0
SPLINE
  5
1B3
100
AcDbEntity
  8
0
370
              15
  6
Continuous
 62
               7
100
AcDbSpline
210
0.0
220
0.0
230
1.0
 70
               8
 71
               2
 72
              10
 73
               7
 74
               0
 42
0.000001
 43
0.000001
 40
0.0
 40
0.0
 40
0.0
 40
1.0
 40
1.0
 40
2.0
 40
2.0
 40
3.0
 40
3.0
 40
3.0
 10
-59.661761337253111
 20
507.59437679816364
 30
0.0
 10
-59.604849662765346
 20
507.58172261196222
 30
0.0
 10
-59.547937988277582
 20
507.5690684257608
 30
0.0
 10
-54.207132068431193
 20
506.39088988676343
 30
0.0
 10
-48.748556589976388
 20
505.05359714688797
 30
0.0
 10
-48.690581314674901
 20
505.03949111699484
 30
0.0
 10
-48.632606039373414
 20
505.02538508710171
 30
0.0
  0
ARC
  5
1B4
100
AcDbEntity
  8
0
370
              15
  6
Continuous
 62
               7
100
AcDbCircle
 10
-41.301908122156775
 20
505.36463096380174
 30
0.0
 40
2.3537363101587609
100
AcDbArc
 50
2.6400992446011329
 51
69.668050824504007
  0
SPLINE
  5
1B5
100
AcDbEntity
  8
0
370
              15
  6
Continuous
 62
               7
100
AcDbSpline
210
0.0
220
0.0
230
1.0
 70
               8
 71
               2
 72
              10
 73
               7
 74
               0
 42
0.000001
 43
0.000001
 40
0.0
 40
0.0
 40
0.0
 40
1.0
 40
1.0
 40
2.0
 40
2.0
 40
3.0
 40
3.0
 40
3.0
 10
-30.982022061747912
 20
511.0772692223731
 30
0.0
 10
-31.027084338344494
 20
511.06027427152395
 30
0.0
 10
-31.072146614941076
 20
511.0432793206748
 30
0.0
 10
-35.660510294606766
 20
509.30760986958552
 30
0.0
 10
-40.391474675659438
 20
507.60514300258541
 30
0.0
 10
-40.437778458943185
 20
507.58843075757312
 30
0.0
 10
-40.484082242226933
 20
507.57171851256084
 30
0.0
  0
POLYLINE
  5
1B6
100
AcDbEntity
  8
0
370
              15
  6
Continuous
 62
               7
100
AcDb2dPolyline
 66
               1
 10
0.0
 20
0.0
 30
0.0
 75
               5
  0
VERTEX
  5
1B7
100
AcDbEntity
  8
0
370
              15
  6
Continuous
 62
               7
100
AcDbVertex
100
AcDb2dVertex
 10
-64.357835093156964
 20
454.670244344602
 30
0.0
  0
VERTEX
  5
1B8
100
AcDbEntity
  8
0
370
              15
  6
Continuous
 62
               7
100
AcDbVertex
100
AcDb2dVertex
 10
-64.376345398957156
 20
455.48751624960187
 30
0.0
  0
VERTEX
  5
1B9
100
AcDbEntity
  8
0
370
              15
  6
Continuous
 62
               7
100
AcDbVertex
100
AcDb2dVertex
 10
-63.733361320356735
 20
456.71387766060184
 30
0.0
  0
VERTEX
  5
1BA
100
AcDbEntity
  8
0
370
              15
  6
Continuous
 62
               7
100
AcDbVertex
100
AcDb2dVertex
 10
-62.309727722756989
 20
457.89890743540195
 30
0.0
  0
VERTEX
  5
1BB
100
AcDbEntity
  8
0
370
              15
  6
Continuous
 62
               7
100
AcDbVertex
100
AcDb2dVertex
 10
-60.160155381956784
 20
458.99706610360181
 30
0.0
  0
VERTEX
  5
1BC
100
AcDbEntity
  8
0
370
              15
  6
Continuous
 62
               7
100
AcDbVertex
100
AcDb2dVertex
 10
-57.367250478956876
 20
459.96615185440191
 30
0.0
  0
VERTEX
  5
1BD
100
AcDbEntity
  8
0
370
              15
  6
Continuous
 62
               7
100
AcDbVertex
100
AcDb2dVertex
 10
-54.038342737756821
 20
460.76892329440193
 30
0.0
  0
VERTEX
  5
1BE
100
AcDbEntity
  8
0
370
              15
  6
Continuous
 62
               7
100
AcDbVertex
100
AcDb2dVertex
 10
-50.301360964156984
 20
461.37453037980185
 30
0.0
  0
VERTEX
  5
1BF
100
AcDbEntity
  8
0
370
              15
  6
Continuous
 62
               7
100
AcDbVertex
100
AcDb2dVertex
 10
-47.653764892357131
 20
461.65689897280186
 30
0.0
  0
VERTEX
  5
1C0
100
AcDbEntity
  8
0
370
              15
  6
Continuous
 62
               7
100
AcDbVertex
100
AcDb2dVertex
 10
-44.933720576557235
 20
461.83628885760186
 30
0.0
  0
SEQEND
  5
1C1
100
AcDbEntity
  8
0
370
              15
  6
Continuous
 62
               7
  0
POLYLINE
  5
1C2
100
AcDbEntity
  8
0
370
              15
  6
Continuous
 62
               7
100
AcDb2dPolyline
 66
               1
 10
0.0
 20
0.0
 30
0.0
 75
               5
  0
VERTEX
  5
1C3
100
AcDbEntity
  8
0
370
              15
  6
Continuous
 62
               7
100
AcDbVertex
100
AcDb2dVertex
 10
-44.933720576557235
 20
461.83628885760186
 30
0.0
  0
VERTEX
  5
1C4
100
AcDbEntity
  8
0
370
              15
  6
Continuous
 62
               7
100
AcDbVertex
100
AcDb2dVertex
 10
-42.187775951756876
 20
461.90963006760194
 30
0.0
  0
VERTEX
  5
1C5
100
AcDbEntity
  8
0
370
              15
  6
Continuous
 62
               7
100
AcDbVertex
100
AcDb2dVertex
 10
-38.122973254757099
 20
461.818559185602
 30
0.0
  0
VERTEX
  5
1C6
100
AcDbEntity
  8
0
370
              15
  6
Continuous
 62
               7
100
AcDbVertex
100
AcDb2dVertex
 10
-34.261715958757023
 20
461.48998674620179
 30
0.0
  0
VERTEX
  5
1C7
100
AcDbEntity
  8
0
370
              15
  6
Continuous
 62
               7
100
AcDbVertex
100
AcDb2dVertex
 10
-30.752388028356918
 20
460.93654005100188
 30
0.0
  0
VERTEX
  5
1C8
100
AcDbEntity
  8
0
370
              15
  6
Continuous
 62
               7
100
AcDbVertex
100
AcDb2dVertex
 10
-27.729851658157159
 20
460.17948752680195
 30
0.0
  0
VERTEX
  5
1C9
100
AcDbEntity
  8
0
370
              15
  6
Continuous
 62
               7
100
AcDbVertex
100
AcDb2dVertex
 10
-25.310261134757084
 20
459.24792226640193
 30
0.0
  0
VERTEX
  5
1CA
100
AcDbEntity
  8
0
370
              15
  6
Continuous
 62
               7
100
AcDbVertex
100
AcDb2dVertex
 10
-23.586599860956895
 20
458.17764402580201
 30
0.0
  0
VERTEX
  5
1CB
100
AcDbEntity
  8
0
370
              15
  6
Continuous
 62
               7
100
AcDbVertex
100
AcDb2dVertex
 10
-22.858015192557005
 20
457.40719974420199
 30
0.0
  0
VERTEX
  5
1CC
100
AcDbEntity
  8
0
370
              15
  6
Continuous
 62
               7
100
AcDbVertex
100
AcDb2dVertex
 10
-22.481243739957236
 20
456.6064904120019
 30
0.0
  0
SEQEND
  5
1CD
100
AcDbEntity
  8
0
370
              15
  6
Continuous
 62
               7
  0
POLYLINE
  5
1CE
100
AcDbEntity
  8
0
370
              15
  6
Continuous
 62
               7
100
AcDb2dPolyline
 66
               1
 10
0.0
 20
0.0
 30
0.0
 75
               5
  0
VERTEX
  5
1CF
100
AcDbEntity
  8
0
370
              15
  6
Continuous
 62
               7
100
AcDbVertex
100
AcDb2dVertex
 10
-41.905358256356877
 20
449.44044589900182
 30
0.0
  0
VERTEX
  5
1D0
100
AcDbEntity
  8
0
370
              15
  6
Continuous
 62
               7
100
AcDbVertex
100
AcDb2dVertex
 10
-44.651302881157235
 20
449.36710468900196
 30
0.0
  0
VERTEX
  5
1D1
100
AcDbEntity
  8
0
370
              15
  6
Continuous
 62
               7
100
AcDbVertex
100
AcDb2dVertex
 10
-48.716105578357102
 20
449.4581755710019
 30
0.0
  0
VERTEX
  5
1D2
100
AcDbEntity
  8
0
370
              15
  6
Continuous
 62
               7
100
AcDbVertex
100
AcDb2dVertex
 10
-52.577362874157089
 20
449.78674801040188
 30
0.0
  0
VERTEX
  5
1D3
100
AcDbEntity
  8
0
370
              15
  6
Continuous
 62
               7
100
AcDbVertex
100
AcDb2dVertex
 10
-56.086690804556738
 20
450.34019470560202
 30
0.0
  0
VERTEX
  5
1D4
100
AcDbEntity
  8
0
370
              15
  6
Continuous
 62
               7
100
AcDbVertex
100
AcDb2dVertex
 10
-59.109227174756953
 20
451.09724722980195
 30
0.0
  0
VERTEX
  5
1D5
100
AcDbEntity
  8
0
370
              15
  6
Continuous
 62
               7
100
AcDbVertex
100
AcDb2dVertex
 10
-61.528817698157027
 20
452.02881249020197
 30
0.0
  0
VERTEX
  5
1D6
100
AcDbEntity
  8
0
370
              15
  6
Continuous
 62
               7
100
AcDbVertex
100
AcDb2dVertex
 10
-63.252478971956762
 20
453.09909073080189
 30
0.0
  0
VERTEX
  5
1D7
100
AcDbEntity
  8
0
370
              15
  6
Continuous
 62
               7
100
AcDbVertex
100
AcDb2dVertex
 10
-63.981063640357107
 20
453.86953501220182
 30
0.0
  0
VERTEX
  5
1D8
100
AcDbEntity
  8
0
370
              15
  6
Continuous
 62
               7
100
AcDbVertex
100
AcDb2dVertex
 10
-64.357835093156964
 20
454.670244344602
 30
0.0
  0
SEQEND
  5
1D9
100
AcDbEntity
  8
0
370
              15
  6
Continuous
 62
               7
  0
SPLINE
  5
1DA
100
AcDbEntity
  8
0
370
              15
  6
Continuous
 62
               7
100
AcDbSpline
210
0.0
220
0.0
230
1.0
 70
               8
 71
               2
 72
              18
 73
              15
 74
               0
 42
0.000001
 43
0.000001
 40
0.0
 40
0.0
 40
0.0
 40
1.0
 40
1.0
 40
2.0
 40
3.0
 40
4.0
 40
5.0
 40
6.0
 40
7.0
 40
8.0
 40
9.0
 40
10.0
 40
10.0
 40
11.0
 40
11.0
 40
11.0
 10
-60.361926064621358
 20
510.46031575764658
 30
0.0
 10
-60.367790870364061
 20
510.45803369993331
 30
0.0
 10
-60.373655676106765
 20
510.45575164222004
 30
0.0
 10
-60.550460731880676
 20
510.38745589782133
 30
0.0
 10
-60.893526460903914
 20
510.24888979600877
 30
0.0
 10
-61.564730959455474
 20
509.92277641195341
 30
0.0
 10
-61.985361328789978
 20
509.39882882996875
 30
0.0
 10
-61.987826773565658
 20
508.90823195980278
 30
0.0
 10
-61.673852626299677
 20
508.50387374107135
 30
0.0
 10
-61.271980375583453
 20
508.21684918995919
 30
0.0
 10
-60.715643211496072
 20
507.95630772983048
 30
0.0
 10
-60.039967704385973
 20
507.71812954322735
 30
0.0
 10
-59.685288746408233
 20
507.6021316974722
 30
0.0
 10
-59.673525041830672
 20
507.59825424781792
 30
0.0
 10
-59.661761337253111
 20
507.59437679816364
 30
0.0
  0
SPLINE
  5
1DB
100
AcDbEntity
  8
0
370
              15
  6
Continuous
 62
               7
100
AcDbSpline
210
0.0
220
0.0
230
1.0
 70
               8
 71
               2
 72
              11
 73
               8
 74
               0
 42
0.000001
 43
0.000001
 40
0.0
 40
0.0
 40
0.0
 40
1.0
 40
1.0
 40
2.0
 40
3.0
 40
3.0
 40
4.0
 40
4.0
 40
4.0
 10
-60.361926064621358
 20
510.46031575764658
 30
0.0
 10
-60.38000478281937
 20
510.32560492944259
 30
0.0
 10
-60.398083501017382
 20
510.1908941012386
 30
0.0
 10
-62.261146399474811
 20
496.80146817608187
 30
0.0
 10
-64.533995825282446
 20
469.13487472732982
 30
0.0
 10
-64.357854924224185
 20
454.67167334700571
 30
0.0
 10
-64.357844818718277
 20
454.67095806834527
 30
0.0
 10
-64.35783471321237
 20
454.67024278968483
 30
0.0
  0
SPLINE
  5
1DC
100
AcDbEntity
  8
0
370
              15
  6
Continuous
 62
               7
100
AcDbSpline
210
0.0
220
0.0
230
1.0
 70
               8
 71
               2
 72
              11
 73
               8
 74
               0
 42
0.000001
 43
0.000001
 40
0.0
 40
0.0
 40
0.0
 40
1.0
 40
1.0
 40
2.0
 40
3.0
 40
3.0
 40
4.0
 40
4.0
 40
4.0
 10
-64.35783471321237
 20
454.67024278968483
 30
0.0
 10
-64.35783232861958
 20
454.67090694343244
 30
0.0
 10
-64.35782994402679
 20
454.67157109718005
 30
0.0
 10
-64.250439268870096
 20
468.06168279507165
 30
0.0
 10
-61.627882805690106
 20
494.28703122067685
 30
0.0
 10
-59.699729296152228
 20
507.33236603632957
 30
0.0
 10
-59.680745316702669
 20
507.46337141724661
 30
0.0
 10
-59.661761337253111
 20
507.59437679816364
 30
0.0
  0
ARC
  5
1DD
100
AcDbEntity
  8
0
370
              15
  6
Continuous
 62
               7
100
AcDbCircle
 10
-59.087663989357125
 20
510.59269028640182
 30
0.0
 40
1.2811193746684661
100
AcDbArc
 50
80.824375394698862
 51
185.93080022469766
  0
ARC
  5
1DE
100
AcDbEntity
  8
0
370
              15
  6
Continuous
 62
               7
100
AcDbCircle
 10
-57.222821485956857
 20
507.66400348040196
 30
0.0
 40
2.4399334977016993
100
AcDbArc
 50
118.39851990900486
 51
181.63523172460114
  0
SPLINE
  5
1DF
100
AcDbEntity
  8
0
370
              15
  6
Continuous
 62
               7
100
AcDbSpline
210
0.0
220
0.0
230
1.0
 70
               8
 71
               2
 72
              18
 73
              15
 74
               0
 42
0.000001
 43
0.000001
 40
0.0
 40
0.0
 40
0.0
 40
1.0
 40
1.0
 40
2.0
 40
3.0
 40
4.0
 40
5.0
 40
6.0
 40
7.0
 40
8.0
 40
9.0
 40
10.0
 40
10.0
 40
11.0
 40
11.0
 40
11.0
 10
-58.383257481781939
 20
509.81031747715832
 30
0.0
 10
-58.39042086628173
 20
509.81245375544034
 30
0.0
 10
-58.39758425078152
 20
509.81459003372237
 30
0.0
 10
-58.613706359419112
 20
509.87841048672198
 30
0.0
 10
-59.030706218801598
 20
510.0094053270563
 30
0.0
 10
-59.565500726995552
 20
510.21943882139834
 30
0.0
 10
-59.987761473887431
 20
510.56713900932954
 30
0.0
 10
-60.080346736595303
 20
510.95301628053716
 30
0.0
 10
-59.913350628445087
 20
511.24105394554721
 30
0.0
 10
-59.630684764993831
 20
511.51236763646847
 30
0.0
 10
-59.208277723141592
 20
511.71747147520722
 30
0.0
 10
-58.997968053736614
 20
511.80899671230276
 30
0.0
 10
-58.890522140010845
 20
511.85438801706749
 30
0.0
 10
-58.886948638707636
 20
511.85590236161664
 30
0.0
 10
-58.883375137404428
 20
511.85741670616579
 30
0.0
  0
SPLINE
  5
1E0
100
AcDbEntity
  8
0
370
              15
  6
Continuous
 62
               7
100
AcDbSpline
210
0.0
220
0.0
230
1.0
 70
               8
 71
               2
 72
              11
 73
               8
 74
               0
 42
0.000001
 43
0.000001
 40
0.0
 40
0.0
 40
0.0
 40
1.0
 40
1.0
 40
2.0
 40
3.0
 40
3.0
 40
4.0
 40
4.0
 40
4.0
 10
-22.48124411975131
 20
456.60649196687496
 30
0.0
 10
-22.481283855112807
 20
456.60720587532967
 30
0.0
 10
-22.481323590474304
 20
456.60791978378438
 30
0.0
 10
-23.33090961561301
 20
471.05142336925724
 30
0.0
 10
-27.415484175471093
 20
498.40690305200604
 30
0.0
 10
-30.057023316751739
 20
511.59377418526645
 30
0.0
 10
-30.083153268862262
 20
511.72644114941323
 30
0.0
 10
-30.109283220972785
 20
511.85910811356001
 30
0.0
  0
SPLINE
  5
1E1
100
AcDbEntity
  8
0
370
              15
  6
Continuous
 62
               7
100
AcDbSpline
210
0.0
220
0.0
230
1.0
 70
               8
 71
               2
 72
              18
 73
              15
 74
               0
 42
0.000001
 43
0.000001
 40
0.0
 40
0.0
 40
0.0
 40
1.0
 40
1.0
 40
2.0
 40
3.0
 40
4.0
 40
5.0
 40
6.0
 40
7.0
 40
8.0
 40
9.0
 40
10.0
 40
10.0
 40
11.0
 40
11.0
 40
11.0
 10
-29.409118493604538
 20
508.99316915407707
 30
0.0
 10
-29.403265142122464
 20
508.99587382405986
 30
0.0
 10
-29.39741179064039
 20
508.99857849404265
 30
0.0
 10
-29.220951836035411
 20
509.07960696674348
 30
0.0
 10
-28.878558245501964
 20
509.24297203949499
 30
0.0
 10
-28.208691213755984
 20
509.61843214660752
 30
0.0
 10
-27.789034468811579
 20
510.17830610565278
 30
0.0
 10
-27.786785959695763
 20
510.67690445614966
 30
0.0
 10
-28.100378800494937
 20
511.06719281287695
 30
0.0
 10
-28.50166178686176
 20
511.33247599137752
 30
0.0
 10
-29.057121940068001
 20
511.56065957315712
 30
0.0
 10
-29.731697081168377
 20
511.75823905236797
 30
0.0
 10
-30.08579436941308
 20
511.85277582140333
 30
0.0
 10
-30.097538795192932
 20
511.85594196748167
 30
0.0
 10
-30.109283220972785
 20
511.85910811356001
 30
0.0
  0
SPLINE
  5
1E2
100
AcDbEntity
  8
0
370
              15
  6
Continuous
 62
               7
100
AcDbSpline
210
0.0
220
0.0
230
1.0
 70
               8
 71
               2
 72
              11
 73
               8
 74
               0
 42
0.000001
 43
0.000001
 40
0.0
 40
0.0
 40
0.0
 40
1.0
 40
1.0
 40
2.0
 40
3.0
 40
3.0
 40
4.0
 40
4.0
 40
4.0
 10
-41.138438518852482
 20
514.42809982462177
 30
0.0
 10
-41.142722844601522
 20
514.30251751833123
 30
0.0
 10
-41.147007170350562
 20
514.17693521204069
 30
0.0
 10
-41.720064901070501
 20
495.67456572939835
 30
0.0
 10
-44.174552364328875
 20
469.3531109222522
 30
0.0
 10
-44.933588322870847
 20
461.83766589233846
 30
0.0
 10
-44.933657076139653
 20
461.8369772535051
 30
0.0
 10
-44.933725829408459
 20
461.83628861467173
 30
0.0
  0
SPLINE
  5
1E3
100
AcDbEntity
  8
0
370
              15
  6
Continuous
 62
               7
100
AcDbSpline
210
0.0
220
0.0
230
1.0
 70
               8
 71
               2
 72
              11
 73
               8
 74
               0
 42
0.000001
 43
0.000001
 40
0.0
 40
0.0
 40
0.0
 40
1.0
 40
1.0
 40
2.0
 40
3.0
 40
3.0
 40
4.0
 40
4.0
 40
4.0
 10
-30.109283220972785
 20
511.85910811356001
 30
0.0
 10
-30.166244608171283
 20
511.87359648201192
 30
0.0
 10
-30.223205995369781
 20
511.88808485046383
 30
0.0
 10
-33.746167427969695
 20
512.80545808815009
 30
0.0
 10
-39.052260969763111
 20
513.9882428210326
 30
0.0
 10
-41.022587378060862
 20
514.40355555338851
 30
0.0
 10
-41.080512948456672
 20
514.41582768900514
 30
0.0
 10
-41.138438518852482
 20
514.42809982462177
 30
0.0
  0
POLYLINE
  5
1E4
100
AcDbEntity
  8
0
370
              15
  6
Continuous
 62
               7
100
AcDb2dPolyline
 66
               1
 10
0.0
 20
0.0
 30
0.0
 75
               5
  0
VERTEX
  5
1E5
100
AcDbEntity
  8
0
370
              15
  6
Continuous
 62
               7
100
AcDbVertex
100
AcDb2dVertex
 10
-30.109283220956868
 20
511.85910811360185
 30
0.0
  0
VERTEX
  5
1E6
100
AcDbEntity
  8
0
370
              15
  6
Continuous
 62
               7
100
AcDbVertex
100
AcDb2dVertex
 10
-30.1629974449569
 20
512.19068866580187
 30
0.0
  0
VERTEX
  5
1E7
100
AcDbEntity
  8
0
370
              15
  6
Continuous
 62
               7
100
AcDbVertex
100
AcDb2dVertex
 10
-30.260118143757055
 20
512.48887872220189
 30
0.0
  0
VERTEX
  5
1E8
100
AcDbEntity
  8
0
370
              15
  6
Continuous
 62
               7
100
AcDbVertex
100
AcDb2dVertex
 10
-30.397319072157089
 20
512.74346604320181
 30
0.0
  0
VERTEX
  5
1E9
100
AcDbEntity
  8
0
370
              15
  6
Continuous
 62
               7
100
AcDbVertex
100
AcDb2dVertex
 10
-30.569901073757038
 20
512.945725331002
 30
0.0
  0
VERTEX
  5
1EA
100
AcDbEntity
  8
0
370
              15
  6
Continuous
 62
               7
100
AcDbVertex
100
AcDb2dVertex
 10
-30.771953898757047
 20
513.08873704460188
 30
0.0
  0
VERTEX
  5
1EB
100
AcDbEntity
  8
0
370
              15
  6
Continuous
 62
               7
100
AcDbVertex
100
AcDb2dVertex
 10
-30.996557900156759
 20
513.16760151860194
 30
0.0
  0
VERTEX
  5
1EC
100
AcDbEntity
  8
0
370
              15
  6
Continuous
 62
               7
100
AcDbVertex
100
AcDb2dVertex
 10
-31.236020152757092
 20
513.17961377800179
 30
0.0
  0
VERTEX
  5
1ED
100
AcDbEntity
  8
0
370
              15
  6
Continuous
 62
               7
100
AcDbVertex
100
AcDb2dVertex
 10
-31.482139717356759
 20
513.12436845140201
 30
0.0
  0
SEQEND
  5
1EE
100
AcDbEntity
  8
0
370
              15
  6
Continuous
 62
               7
  0
ARC
  5
1EF
100
AcDbEntity
  8
0
370
              15
  6
Continuous
 62
               7
100
AcDbCircle
 10
-31.738556879557009
 20
508.87070258540183
 30
0.0
 40
2.3326554083643671
100
AcDbArc
 50
3.0094650776004226
 51
71.075409371099028
  0
SPLINE
  5
1F0
100
AcDbEntity
  8
0
370
              15
  6
Continuous
 62
               7
100
AcDbSpline
210
0.0
220
0.0
230
1.0
 70
               8
 71
               2
 72
              18
 73
              15
 74
               0
 42
0.000001
 43
0.000001
 40
0.0
 40
0.0
 40
0.0
 40
1.0
 40
1.0
 40
2.0
 40
3.0
 40
4.0
 40
5.0
 40
6.0
 40
7.0
 40
8.0
 40
9.0
 40
10.0
 40
10.0
 40
11.0
 40
11.0
 40
11.0
 10
-31.482139717370401
 20
513.12436845138063
 30
0.0
 10
-31.474976332870838
 20
513.12223217309861
 30
0.0
 10
-31.467812948371275
 20
513.12009589481659
 30
0.0
 10
-31.251690839733683
 20
513.0562754418163
 30
0.0
 10
-30.834690980350743
 20
512.92528060148425
 30
0.0
 10
-30.299896472157698
 20
512.71524710713993
 30
0.0
 10
-29.877635725265364
 20
512.3675469192101
 30
0.0
 10
-29.785050462557948
 20
511.98166964800151
 30
0.0
 10
-29.952046570707708
 20
511.69363198299146
 30
0.0
 10
-30.23471243415942
 20
511.42231829207088
 30
0.0
 10
-30.657119476011204
 20
511.21721445333191
 30
0.0
 10
-30.867429145415727
 20
511.12568921623591
 30
0.0
 10
-30.974875059141951
 20
511.0802979114714
 30
0.0
 10
-30.978448560444932
 20
511.07878356692225
 30
0.0
 10
-30.982022061747912
 20
511.0772692223731
 30
0.0
  0
SPLINE
  5
1F1
100
AcDbEntity
  8
0
370
              15
  6
Continuous
 62
               7
100
AcDbSpline
210
0.0
220
0.0
230
1.0
 70
               8
 71
               2
 72
              11
 73
               8
 74
               0
 42
0.000001
 43
0.000001
 40
0.0
 40
0.0
 40
0.0
 40
1.0
 40
1.0
 40
2.0
 40
3.0
 40
3.0
 40
4.0
 40
4.0
 40
4.0
 10
-50.82037443693379
 20
513.98043586274457
 30
0.0
 10
-50.866823798150463
 20
513.96448444437806
 30
0.0
 10
-50.913273159367137
 20
513.94853302601155
 30
0.0
 10
-54.360684734533507
 20
512.78595055975347
 30
0.0
 10
-58.912928012775765
 20
511.03381060471105
 30
0.0
 10
-60.271333230264091
 20
510.49610723240352
 30
0.0
 10
-60.316629647442724
 20
510.47821149502505
 30
0.0
 10
-60.361926064621358
 20
510.46031575764658
 30
0.0
  0
SPLINE
  5
1F2
100
AcDbEntity
  8
0
370
              15
  6
Continuous
 62
               7
100
AcDbSpline
210
0.0
220
0.0
230
1.0
 70
               8
 71
               2
 72
              11
 73
               8
 74
               0
 42
0.000001
 43
0.000001
 40
0.0
 40
0.0
 40
0.0
 40
1.0
 40
1.0
 40
2.0
 40
3.0
 40
3.0
 40
4.0
 40
4.0
 40
4.0
 10
-44.933725829408459
 20
461.83628861467173
 30
0.0
 10
-44.933829790261271
 20
461.83696926771711
 30
0.0
 10
-44.933933751114083
 20
461.83764992076249
 30
0.0
 10
-46.365237976369727
 20
471.00693906164474
 30
0.0
 10
-49.753045264337189
 20
496.95421012430819
 30
0.0
 10
-50.80390703310276
 20
513.73042884300571
 30
0.0
 10
-50.812140735018275
 20
513.85543235287514
 30
0.0
 10
-50.82037443693379
 20
513.98043586274457
 30
0.0
  0
POLYLINE
  5
1F3
100
AcDbEntity
  8
0
370
              15
  6
Continuous
 62
               7
100
AcDb2dPolyline
 66
               1
 10
0.0
 20
0.0
 30
0.0
 75
               5
  0
VERTEX
  5
1F4
100
AcDbEntity
  8
0
370
              15
  6
Continuous
 62
               7
100
AcDbVertex
100
AcDb2dVertex
 10
-41.138438518756985
 20
514.42809982460199
 30
0.0
  0
VERTEX
  5
1F5
100
AcDbEntity
  8
0
370
              15
  6
Continuous
 62
               7
100
AcDbVertex
100
AcDb2dVertex
 10
-41.190627676757131
 20
514.75932514720193
 30
0.0
  0
VERTEX
  5
1F6
100
AcDbEntity
  8
0
370
              15
  6
Continuous
 62
               7
100
AcDbVertex
100
AcDb2dVertex
 10
-41.284711621557008
 20
515.05680786080188
 30
0.0
  0
VERTEX
  5
1F7
100
AcDbEntity
  8
0
370
              15
  6
Continuous
 62
               7
100
AcDbVertex
100
AcDb2dVertex
 10
-41.417469017557224
 20
515.31036016140183
 30
0.0
  0
VERTEX
  5
1F8
100
AcDbEntity
  8
0
370
              15
  6
Continuous
 62
               7
100
AcDbVertex
100
AcDb2dVertex
 10
-41.584352792356995
 20
515.51129217660196
 30
0.0
  0
VERTEX
  5
1F9
100
AcDbEntity
  8
0
370
              15
  6
Continuous
 62
               7
100
AcDbVertex
100
AcDb2dVertex
 10
-41.779647026156809
 20
515.65272962960194
 30
0.0
  0
VERTEX
  5
1FA
100
AcDbEntity
  8
0
370
              15
  6
Continuous
 62
               7
100
AcDbVertex
100
AcDb2dVertex
 10
-41.996664422957011
 20
515.72982697600196
 30
0.0
  0
VERTEX
  5
1FB
100
AcDbEntity
  8
0
370
              15
  6
Continuous
 62
               7
100
AcDbVertex
100
AcDb2dVertex
 10
-42.227971163556859
 20
515.739939593602
 30
0.0
  0
VERTEX
  5
1FC
100
AcDbEntity
  8
0
370
              15
  6
Continuous
 62
               7
100
AcDbVertex
100
AcDb2dVertex
 10
-42.465646537756939
 20
515.68272738440191
 30
0.0
  0
SEQEND
  5
1FD
100
AcDbEntity
  8
0
370
              15
  6
Continuous
 62
               7
  0
SPLINE
  5
1FE
100
AcDbEntity
  8
0
370
              15
  6
Continuous
 62
               7
100
AcDbSpline
210
0.0
220
0.0
230
1.0
 70
               8
 71
               2
 72
              10
 73
               7
 74
               0
 42
0.000001
 43
0.000001
 40
0.0
 40
0.0
 40
0.0
 40
1.0
 40
1.0
 40
2.0
 40
2.0
 40
3.0
 40
3.0
 40
3.0
 10
-42.465646537812418
 20
515.68272738441078
 30
0.0
 10
-42.407870817079939
 20
515.66961692363157
 30
0.0
 10
-42.350095096347459
 20
515.65650646285235
 30
0.0
 10
-36.909694072024095
 20
514.42724883164146
 30
0.0
 10
-31.595411153584237
 20
513.15144674106568
 30
0.0
 10
-31.538775435477319
 20
513.13790759622316
 30
0.0
 10
-31.482139717370401
 20
513.12436845138063
 30
0.0
  0
ARC
  5
1FF
100
AcDbEntity
  8
0
370
              15
  6
Continuous
 62
               7
100
AcDbCircle
 10
-49.582325337356806
 20
514.13198144400189
 30
0.0
 40
1.247289716231599
100
AcDbArc
 50
80.725898560400864
 51
186.97867422760433
  0
SPLINE
  5
200
100
AcDbEntity
  8
0
370
              15
  6
Continuous
 62
               7
100
AcDbSpline
210
0.0
220
0.0
230
1.0
 70
               8
 71
               2
 72
              10
 73
               7
 74
               0
 42
0.000001
 43
0.000001
 40
0.0
 40
0.0
 40
0.0
 40
1.0
 40
1.0
 40
2.0
 40
2.0
 40
3.0
 40
3.0
 40
3.0
 10
-58.883375137404428
 20
511.85741670616579
 30
0.0
 10
-58.838312860808301
 20
511.87441165701495
 30
0.0
 10
-58.793250584212174
 20
511.8914066078641
 30
0.0
 10
-54.204886904546029
 20
513.62707605895343
 30
0.0
 10
-49.473922523492902
 20
515.32954292595355
 30
0.0
 10
-49.42761874020961
 20
515.34625517096583
 30
0.0
 10
-49.381314956926317
 20
515.36296741597812
 30
0.0
  0
SPLINE
  5
201
100
AcDbEntity
  8
0
370
              15
  6
Continuous
 62
               7
100
AcDbSpline
210
0.0
220
0.0
230
1.0
 70
               8
 71
               2
 72
              16
 73
              13
 74
               0
 42
0.000001
 43
0.000001
 40
0.0
 40
0.0
 40
0.0
 40
1.0
 40
1.0
 40
2.0
 40
3.0
 40
4.0
 40
5.0
 40
6.0
 40
7.0
 40
8.0
 40
8.0
 40
9.0
 40
9.0
 40
9.0
 10
-41.138438518852482
 20
514.42809982462177
 30
0.0
 10
-41.148759448487809
 20
514.43040305940099
 30
0.0
 10
-41.159080378123136
 20
514.43270629418021
 30
0.0
 10
-41.467513575183958
 20
514.5024658524776
 30
0.0
 10
-42.706115950789254
 20
514.75866180703224
 30
0.0
 10
-44.524963853836553
 20
514.8736393467093
 30
0.0
 10
-45.968519519331849
 20
514.86588579711611
 30
0.0
 10
-47.410301863821488
 20
514.76337759454077
 30
0.0
 10
-49.029168244632629
 20
514.52409094718473
 30
0.0
 10
-50.287677096935013
 20
514.15627488297605
 30
0.0
 10
-50.786919543430841
 20
513.9913476793181
 30
0.0
 10
-50.803646990182315
 20
513.98589177103133
 30
0.0
 10
-50.82037443693379
 20
513.98043586274457
 30
0.0
  0
SPLINE
  5
202
100
AcDbEntity
  8
0
370
              15
  6
Continuous
 62
               7
100
AcDbSpline
210
0.0
220
0.0
230
1.0
 70
               8
 71
               2
 72
              16
 73
              13
 74
               0
 42
0.000001
 43
0.000001
 40
0.0
 40
0.0
 40
0.0
 40
1.0
 40
1.0
 40
2.0
 40
3.0
 40
4.0
 40
5.0
 40
6.0
 40
7.0
 40
8.0
 40
8.0
 40
9.0
 40
9.0
 40
9.0
 10
-49.381314956926317
 20
515.36296741597812
 30
0.0
 10
-49.370218047062863
 20
515.36628898555625
 30
0.0
 10
-49.359121137199409
 20
515.36961055513439
 30
0.0
 10
-49.071935665645825
 20
515.45654491236292
 30
0.0
 10
-48.161976524038337
 20
515.71505670457577
 30
0.0
 10
-47.140137971265531
 20
515.85179025430512
 30
0.0
 10
-45.95818091756054
 20
515.96758120088953
 30
0.0
 10
-44.523157278025238
 20
515.94742872578672
 30
0.0
 10
-43.425957407328852
 20
515.86419752783331
 30
0.0
 10
-42.684120327954943
 20
515.72618839969823
 30
0.0
 10
-42.479328747404352
 20
515.68542990354945
 30
0.0
 10
-42.472487642608385
 20
515.68407864398011
 30
0.0
 10
-42.465646537812418
 20
515.68272738441078
 30
0.0
  0
LINE
  5
203
100
AcDbEntity
  8
0
370
              15
  6
Continuous
 62
               7
100
AcDbLine
 10
-22.613313295756953
 20
455.32037650500183
 30
0.0
 11
-22.690244618357056
 21
460.4458840678019
 31
0.0
  0
SPLINE
  5
204
100
AcDbEntity
  8
0
370
              15
  6
Continuous
 62
               7
100
AcDbSpline
210
0.0
220
0.0
230
1.0
 70
               8
 71
               2
 72
              11
 73
               8
 74
               0
 42
0.000001
 43
0.000001
 40
0.0
 40
0.0
 40
0.0
 40
1.0
 40
1.0
 40
2.0
 40
3.0
 40
3.0
 40
4.0
 40
4.0
 40
4.0
 10
-61.942677426625679
 20
509.21568451110937
 30
0.0
 10
-61.953642456859271
 20
509.10945904184103
 30
0.0
 10
-61.964607487092863
 20
509.0032335725727
 30
0.0
 10
-62.595071690149226
 20
503.1122709550329
 30
0.0
 10
-64.378397176990248
 20
478.47631628131597
 30
0.0
 10
-64.357554590697319
 20
459.23591461336991
 30
0.0
 10
-64.357684137072638
 20
459.09261752108807
 30
0.0
 10
-64.357813683447958
 20
458.94932042880623
 30
0.0
  0
SPLINE
  5
205
100
AcDbEntity
  8
0
370
              15
  6
Continuous
 62
               7
100
AcDbSpline
210
0.0
220
0.0
230
1.0
 70
               8
 71
               2
 72
              17
 73
              14
 74
               0
 42
0.000001
 43
0.000001
 40
0.0
 40
0.0
 40
0.0
 40
1.0
 40
1.0
 40
2.0
 40
3.0
 40
4.0
 40
5.0
 40
6.0
 40
7.0
 40
8.0
 40
9.0
 40
9.0
 40
10.0
 40
10.0
 40
10.0
 10
-59.525043541937876
 20
511.81020730847075
 30
0.0
 10
-59.52655196369291
 20
511.80973000062323
 30
0.0
 10
-59.528060385447944
 20
511.80925269277571
 30
0.0
 10
-59.851039703410962
 20
511.71193051473932
 30
0.0
 10
-60.3489224929789
 20
511.46643013035776
 30
0.0
 10
-60.756516890117737
 20
511.19612423279017
 30
0.0
 10
-61.183789325314038
 20
510.84873131806438
 30
0.0
 10
-61.505509284103383
 20
510.47171978795262
 30
0.0
 10
-61.723204257671469
 20
510.13393793163613
 30
0.0
 10
-61.861709051824519
 20
509.75662906447377
 30
0.0
 10
-61.940987471288182
 20
509.4292653057127
 30
0.0
 10
-61.97585295312264
 20
509.2630008432638
 30
0.0
 10
-61.977031846585888
 20
509.25746771937867
 30
0.0
 10
-61.978210740049136
 20
509.25193459549354
 30
0.0
  0
SPLINE
  5
206
100
AcDbEntity
  8
0
370
              15
  6
Continuous
 62
               7
100
AcDbSpline
210
0.0
220
0.0
230
1.0
 70
               8
 71
               2
 72
              11
 73
               8
 74
               0
 42
0.000001
 43
0.000001
 40
0.0
 40
0.0
 40
0.0
 40
1.0
 40
1.0
 40
2.0
 40
3.0
 40
3.0
 40
4.0
 40
4.0
 40
4.0
 10
-22.636432023537409
 20
459.64390695224438
 30
0.0
 10
-22.640446409336064
 20
459.71963023498438
 30
0.0
 10
-22.644460795134719
 20
459.79535351772438
 30
0.0
 10
-23.614365059383445
 20
478.54296782647856
 30
0.0
 10
-26.720065175672417
 20
503.52682886082806
 30
0.0
 10
-27.798478081106069
 20
510.26861272993159
 30
0.0
 10
-27.818831435714301
 20
510.39809489667294
 30
0.0
 10
-27.839184790322534
 20
510.5275770634143
 30
0.0
  0
SPLINE
  5
207
100
AcDbEntity
  8
0
370
              15
  6
Continuous
 62
               7
100
AcDbSpline
210
0.0
220
0.0
230
1.0
 70
               8
 71
               2
 72
              17
 73
              14
 74
               0
 42
0.000001
 43
0.000001
 40
0.0
 40
0.0
 40
0.0
 40
1.0
 40
1.0
 40
2.0
 40
3.0
 40
4.0
 40
5.0
 40
6.0
 40
7.0
 40
8.0
 40
9.0
 40
9.0
 40
10.0
 40
10.0
 40
10.0
 10
-27.830214601542494
 20
510.53075791993905
 30
0.0
 10
-27.830300862863069
 20
510.53280833162756
 30
0.0
 10
-27.830387124183645
 20
510.53485874331608
 30
0.0
 10
-27.832759369108217
 20
510.59642078281621
 30
0.0
 10
-27.84764431524799
 20
510.865485291536
 30
0.0
 10
-27.994842962191697
 20
511.24008885902771
 30
0.0
 10
-28.424745089463968
 20
511.91490427481921
 30
0.0
 10
-29.180559642423205
 20
512.48796096060528
 30
0.0
 10
-29.846090951592387
 20
512.82357385621708
 30
0.0
 10
-30.39172168324275
 20
512.99738856178192
 30
0.0
 10
-30.774962594449235
 20
513.09606736924729
 30
0.0
 10
-30.969327839939425
 20
513.14301672406373
 30
0.0
 10
-30.975797058699428
 20
513.14459007144092
 30
0.0
 10
-30.982266277459431
 20
513.14616341881811
 30
0.0
  0
LINE
  5
208
100
AcDbEntity
  8
0
370
              15
  6
Continuous
 62
               7
100
AcDbLine
 10
-64.36415011915723
 20
459.78897154040192
 30
0.0
 11
-64.198932312557091
 21
456.01445621540188
 31
0.0
  0
SPLINE
  5
209
100
AcDbEntity
  8
0
370
              15
  6
Continuous
 62
               7
100
AcDbSpline
210
0.0
220
0.0
230
1.0
 70
               8
 71
               2
 72
              10
 73
               7
 74
               0
 42
0.000001
 43
0.000001
 40
0.0
 40
0.0
 40
0.0
 40
1.0
 40
1.0
 40
2.0
 40
2.0
 40
3.0
 40
3.0
 40
3.0
 10
-30.984512307020751
 20
513.15226620760018
 30
0.0
 10
-31.039666450117366
 20
513.16564366999842
 30
0.0
 10
-31.094820593213981
 20
513.17902113239666
 30
0.0
 10
-36.38698175612889
 20
514.46959266184376
 30
0.0
 10
-41.868087754352374
 20
515.69357810444194
 30
0.0
 10
-41.927569374036366
 20
515.70694145118523
 30
0.0
 10
-41.987050993720359
 20
515.72030479792852
 30
0.0
  0
SPLINE
  5
20A
100
AcDbEntity
  8
0
370
              15
  6
Continuous
 62
               7
100
AcDbSpline
210
0.0
220
0.0
230
1.0
 70
               8
 71
               2
 72
              11
 73
               8
 74
               0
 42
0.000001
 43
0.000001
 40
0.0
 40
0.0
 40
0.0
 40
1.0
 40
1.0
 40
2.0
 40
3.0
 40
3.0
 40
4.0
 40
4.0
 40
4.0
 10
-49.981314313034446
 20
515.3307536752834
 30
0.0
 10
-50.026158623697384
 20
515.31476600894405
 30
0.0
 10
-50.071002934360322
 20
515.29877834260469
 30
0.0
 10
-53.490804669683158
 20
514.08878804485244
 30
0.0
 10
-58.026407661456588
 20
512.3858569171507
 30
0.0
 10
-59.431939192911514
 20
511.85081387536792
 30
0.0
 10
-59.478817909558884
 20
511.83298575255839
 30
0.0
 10
-59.525696626206255
 20
511.81515762974885
 30
0.0
  0
SPLINE
  5
20B
100
AcDbEntity
  8
0
370
              15
  6
Continuous
 62
               7
100
AcDbSpline
210
0.0
220
0.0
230
1.0
 70
               8
 71
               2
 72
              15
 73
              12
 74
               0
 42
0.000001
 43
0.000001
 40
0.0
 40
0.0
 40
0.0
 40
1.0
 40
1.0
 40
2.0
 40
3.0
 40
4.0
 40
5.0
 40
6.0
 40
7.0
 40
7.0
 40
8.0
 40
8.0
 40
8.0
 10
-41.985944380173706
 20
515.71688388647544
 30
0.0
 10
-41.987581803926915
 20
515.71734543490766
 30
0.0
 10
-41.989219227680124
 20
515.71780698333987
 30
0.0
 10
-42.394457149247856
 20
515.83492006959204
 30
0.0
 10
-43.497838087728624
 20
515.97581603038361
 30
0.0
 10
-44.997943228898649
 20
516.0672816320573
 30
0.0
 10
-46.922761629859806
 20
515.99578074464966
 30
0.0
 10
-48.747318026726489
 20
515.72200319484887
 30
0.0
 10
-49.705107346490777
 20
515.42681277217503
 30
0.0
 10
-49.974707012069658
 20
515.33753630521824
 30
0.0
 10
-49.98371601084672
 20
515.3345750331805
 30
0.0
 10
-49.992725009623783
 20
515.33161376114276
 30
0.0
  0
ENDBLK
  5
20C
100
AcDbEntity
  8
一般
100
AcDbBlockEnd
  0
BLOCK
  5
20D
100
AcDbEntity
  8
一般
100
AcDbBlockBegin
  2
*U1
 70
               1
 10
0.0
 20
0.0
 30
0.0
  3
*U1
  1

  0
INSERT
  5
20E
100
AcDbEntity
  8
一般
 62
               7
100
AcDbBlockReference
  2
*U0
 10
0.0
 20
0.0
 30
0.0
  0
ENDBLK
  5
20F
100
AcDbEntity
  8
一般
100
AcDbBlockEnd
  0
ENDSEC
  0
SECTION
  2
ENTITIES
  0
MTEXT
  5
210
100
AcDbEntity
  8
0
 62
               7
100
AcDbMText
 10
261.04670212314932
 20
65.459043281508698
 30
0.0
 40
3.2756812689108266
 41
0.0
 71
               1
 72
               1
  1
HFD-D67P^I\PHFD-D67B^I\PHFD-D67E
  7
Arial
 73
               1
 44
0.9673603504928809
  0
INSERT
  5
211
100
AcDbEntity
  8
一般
 62
               7
100
AcDbBlockReference
  2
*U1
 10
210.0
 20
148.5
 30
0.0
 41
0.2
 42
0.2
 43
0.2
  0
ENDSEC
  0
SECTION
  2
OBJECTS
  0
DICTIONARY
  5
19
100
AcDbDictionary
280
               0
281
               1
  3
ACAD_GROUP
350
1A
  3
ACAD_MLINESTYLE
350
1B
  3
ACAD_LAYOUT
350
1E
  3
ACAD_PLOTSETTINGS
350
22
  3
ACAD_PLOTSTYLENAME
350
1F
  3
ACAD_WIPEOUT_VARS
350
23
  0
DICTIONARY
  5
1A
102
{ACAD_REACTORS
330
19
102
}
100
AcDbDictionary
280
               0
281
               1
  0
DICTIONARY
  5
1B
102
{ACAD_REACTORS
330
19
102
}
100
AcDbDictionary
280
               0
281
               1
  3
Standard
350
1C
  0
MLINESTYLE
  5
1C
102
{ACAD_REACTORS
330
1B
102
}
100
AcDbMlineStyle
  2
Standard
 70
               0
  3

 62
               0
 51
90.0
 52
90.0
 71
               2
 49
0.5
 62
             256
  6
ByLayer
 49
-0.5
 62
             256
  6
ByLayer
  0
ACDBDICTIONARYWDFLT
  5
1F
102
{ACAD_REACTORS
330
19
102
}
100
AcDbDictionary
281
               1
  3
Normal
350
1D
100
AcDbDictionaryWithDefault
340
1D
  0
ACDBPLACEHOLDER
  5
1D
102
{ACAD_REACTORS
330
1F
102
}
  0
LAYOUT
  5
20
102
{ACAD_REACTORS
330
1E
102
}
100
AcDbPlotSettings
  1

  2

  4

  6

 40
0.0
 41
0.0
 42
0.0
 43
0.0
 44
0.0
 45
0.0
 46
0.0
 47
0.0
 48
0.0
 49
0.0
140
0.0
141
0.0
142
1.0
143
1.0
 70
            1024
 72
               0
 73
               0
 74
               0
  7

 75
               0
147
1.0
148
0.0
149
0.0
100
AcDbLayout
  1
Model
 70
               0
 71
               0
 10
0.0
 20
0.0
 11
0.0
 21
0.0
 12
0.0
 22
0.0
 32
0.0
 14
0.0
 24
0.0
 34
0.0
 15
0.0
 25
0.0
 35
0.0
146
0.0
 13
0.0
 23
0.0
 33
0.0
 16
0.0
 26
0.0
 36
0.0
 17
0.0
 27
0.0
 37
0.0
 76
               0
330
A
331
0
345
0
346
0
  0
LAYOUT
  5
21
102
{ACAD_REACTORS
330
1E
102
}
100
AcDbPlotSettings
  1

  2

  4

  6

 40
0.0
 41
0.0
 42
0.0
 43
0.0
 44
0.0
 45
0.0
 46
0.0
 47
0.0
 48
0.0
 49
0.0
140
0.0
141
0.0
142
1.0
143
1.0
 70
               0
 72
               0
 73
               0
 74
               0
  7

 75
               0
147
1.0
148
0.0
149
0.0
100
AcDbLayout
  1
Layout1
 70
               0
 71
               0
 10
0.0
 20
0.0
 11
0.0
 21
0.0
 12
0.0
 22
0.0
 32
0.0
 14
0.0
 24
0.0
 34
0.0
 15
0.0
 25
0.0
 35
0.0
146
0.0
 13
0.0
 23
0.0
 33
0.0
 16
0.0
 26
0.0
 36
0.0
 17
0.0
 27
0.0
 37
0.0
 76
               0
330
B
331
0
345
0
346
0
  0
DICTIONARY
  5
1E
102
{ACAD_REACTORS
330
19
102
}
100
AcDbDictionary
280
               0
281
               1
  3
Layout1
350
21
  3
Model
350
20
  0
DICTIONARY
  5
22
102
{ACAD_REACTORS
330
19
102
}
100
AcDbDictionary
280
               0
281
               1
  0
WIPEOUTVARIABLES
  5
23
100
AcDbWipeoutVariables
 70
               1
  0
ENDSEC
  0
EOF
