  0
SECTION
  2
HEADER
  9
$ACADVER
  1
AC1015
  9
$ACADMAINTVER
 70
               6
  9
$DWGCODEPAGE
  3
ANSI_932
  9
$INSBASE
 10
0.0
 20
0.0
 30
0.0
  9
$EXTMIN
 10
261.04670212314932
 20
50.519554381625213
 30
0.0
  9
$EXTMAX
 10
293.66152224336128
 20
66.299999999999997
 30
0.0
  9
$LIMMIN
 10
0.0
 20
0.0
  9
$LIMMAX
 10
0.0
 20
0.0
  9
$ORTHOMODE
 70
               0
  9
$REGENMODE
 70
               1
  9
$FILLMODE
 70
               1
  9
$QTEXTMODE
 70
               0
  9
$MIRRTEXT
 70
               1
  9
$LTSCALE
 40
5.0800000000000001
  9
$ATTMODE
 70
               1
  9
$TEXTSIZE
 40
0.2
  9
$TRACEWID
 40
1.0
  9
$TEXTSTYLE
  7
Standard
  9
$CLAYER
  8
0
  9
$CELTYPE
  6
Continuous
  9
$CECOLOR
 62
             256
  9
$CELTSCALE
 40
1.0
  9
$DISPSILH
 70
               0
  9
$DIMSCALE
 40
1.0
  9
$DIMASZ
 40
0.18
  9
$DIMEXO
 40
0.0625
  9
$DIMDLI
 40
0.38
  9
$DIMRND
 40
0.0
  9
$DIMDLE
 40
0.0
  9
$DIMEXE
 40
0.18
  9
$DIMTP
 40
0.0
  9
$DIMTM
 40
0.0
  9
$DIMTXT
 40
0.18
  9
$DIMCEN
 40
0.09
  9
$DIMTSZ
 40
0.0
  9
$DIMTOL
 70
               0
  9
$DIMLIM
 70
               0
  9
$DIMTIH
 70
               1
  9
$DIMTOH
 70
               1
  9
$DIMSE1
 70
               0
  9
$DIMSE2
 70
               0
  9
$DIMTAD
 70
               0
  9
$DIMZIN
 70
               0
  9
$DIMBLK
  1

  9
$DIMASO
 70
               1
  9
$DIMSHO
 70
               1
  9
$DIMPOST
  1

  9
$DIMAPOST
  1

  9
$DIMALT
 70
               0
  9
$DIMALTD
 70
               2
  9
$DIMALTF
 40
25.399999999999999
  9
$DIMLFAC
 40
1.0
  9
$DIMTOFL
 70
               0
  9
$DIMTVP
 40
0.0
  9
$DIMTIX
 70
               0
  9
$DIMSOXD
 70
               0
  9
$DIMSAH
 70
               0
  9
$DIMBLK1
  1

  9
$DIMBLK2
  1

  9
$DIMSTYLE
  2
Standard
  9
$DIMCLRD
 70
               0
  9
$DIMCLRE
 70
               0
  9
$DIMCLRT
 70
               0
  9
$DIMTFAC
 40
1.0
  9
$DIMGAP
 40
0.09
  9
$DIMJUST
 70
               0
  9
$DIMSD1
 70
               0
  9
$DIMSD2
 70
               0
  9
$DIMTOLJ
 70
               1
  9
$DIMTZIN
 70
               0
  9
$DIMALTZ
 70
               0
  9
$DIMALTTZ
 70
               0
  9
$DIMUPT
 70
               0
  9
$DIMDEC
 70
               4
  9
$DIMTDEC
 70
               4
  9
$DIMALTU
 70
               2
  9
$DIMALTTD
 70
               2
  9
$DIMTXSTY
  7
Standard
  9
$DIMAUNIT
 70
               0
  9
$DIMADEC
 70
               0
  9
$DIMALTRND
 40
0.0
  9
$DIMAZIN
 70
               0
  9
$DIMDSEP
 70
               0
  9
$DIMATFIT
 70
               3
  9
$DIMFRAC
 70
               0
  9
$DIMLDRBLK
  1

  9
$DIMLUNIT
 70
               2
  9
$DIMLWD
 70
               0
  9
$DIMLWE
 70
               0
  9
$DIMTMOVE
 70
               0
  9
$LUNITS
 70
               2
  9
$LUPREC
 70
               4
  9
$SKETCHINC
 40
0.1
  9
$FILLETRAD
 40
0.0
  9
$AUNITS
 70
               0
  9
$AUPREC
 70
               0
  9
$MENU
  1
acad
  9
$ELEVATION
 40
0.0
  9
$PELEVATION
 40
0.0
  9
$THICKNESS
 40
0.0
  9
$LIMCHECK
 70
               0
  9
$CHAMFERA
 40
0.0
  9
$CHAMFERB
 40
0.0
  9
$CHAMFERC
 40
0.0
  9
$CHAMFERD
 40
0.0
  9
$SKPOLY
 70
               0
  9
$TDCREATE
 40
2458068.671261574
  9
$TDUCREATE
 40
0.000000000
  9
$TDUPDATE
 40
2458068.671261574
  9
$TDUUPDATE
 40
0.000000000
  9
$TDINDWG
 40
0.0000000000
  9
$TDUSRTIMER
 40
0.0000000000
  9
$USRTIMER
 70
               1
  9
$ANGBASE
 50
0.0
  9
$ANGDIR
 70
               0
  9
$PDMODE
 70
               1
  9
$PDSIZE
 40
-2.0
  9
$PLINEWID
 40
0.0
  9
$SPLFRAME
 70
               0
  9
$SPLINETYPE
 70
               6
  9
$SPLINESEGS
 70
               8
  9
$HANDSEED
  5
1DF
  9
$SURFTAB1
 70
               6
  9
$SURFTAB2
 70
               6
  9
$SURFTYPE
 70
               6
  9
$SURFU
 70
               6
  9
$SURFV
 70
               6
  9
$UCSBASE
  2

  9
$UCSNAME
  2

  9
$UCSORG
 10
0.0
 20
0.0
 30
0.0
  9
$UCSXDIR
 10
1.0
 20
0.0
 30
0.0
  9
$UCSYDIR
 10
0.0
 20
1.0
 30
0.0
  9
$UCSORTHOREF
  2

  9
$UCSORTHOVIEW
 70
               0
  9
$UCSORGTOP
 10
0.0
 20
0.0
 30
0.0
  9
$UCSORGBOTTOM
 10
0.0
 20
0.0
 30
0.0
  9
$UCSORGLEFT
 10
0.0
 20
0.0
 30
0.0
  9
$UCSORGRIGHT
 10
0.0
 20
0.0
 30
0.0
  9
$UCSORGFRONT
 10
0.0
 20
0.0
 30
0.0
  9
$UCSORGBACK
 10
0.0
 20
0.0
 30
0.0
  9
$PUCSBASE
  2

  9
$PUCSNAME
  2

  9
$PUCSORG
 10
0.0
 20
0.0
 30
0.0
  9
$PUCSXDIR
 10
1.0
 20
0.0
 30
0.0
  9
$PUCSYDIR
 10
0.0
 20
1.0
 30
0.0
  9
$PUCSORTHOREF
  2

  9
$PUCSORTHOVIEW
 70
               0
  9
$PUCSORGTOP
 10
0.0
 20
0.0
 30
0.0
  9
$PUCSORGBOTTOM
 10
0.0
 20
0.0
 30
0.0
  9
$PUCSORGLEFT
 10
0.0
 20
0.0
 30
0.0
  9
$PUCSORGRIGHT
 10
0.0
 20
0.0
 30
0.0
  9
$PUCSORGFRONT
 10
0.0
 20
0.0
 30
0.0
  9
$PUCSORGBACK
 10
0.0
 20
0.0
 30
0.0
  9
$USERI1
 70
               0
  9
$USERI2
 70
               0
  9
$USERI3
 70
               0
  9
$USERI4
 70
               0
  9
$USERI5
 70
               0
  9
$USERR1
 40
0.0
  9
$USERR2
 40
0.0
  9
$USERR3
 40
0.0
  9
$USERR4
 40
0.0
  9
$USERR5
 40
0.0
  9
$WORLDVIEW
 70
               1
  9
$SHADEDGE
 70
               3
  9
$SHADEDIF
 70
              70
  9
$TILEMODE
 70
               1
  9
$MAXACTVP
 70
              16
  9
$PINSBASE
 10
0.0
 20
0.0
 30
0.0
  9
$PLIMCHECK
 70
               0
  9
$PEXTMIN
 10
1.0000000000000000E+20
 20
1.0000000000000000E+20
 30
1.0000000000000000E+20
  9
$PEXTMAX
 10
-1.0000000000000000E+20
 20
-1.0000000000000000E+20
 30
-1.0000000000000000E+20
  9
$PLIMMIN
 10
0.0
 20
0.0
  9
$PLIMMAX
 10
12.0
 20
9.0
  9
$UNITMODE
 70
               0
  9
$VISRETAIN
 70
               0
  9
$PLINEGEN
 70
               1
  9
$PSLTSCALE
 70
               0
  9
$TREEDEPTH
 70
            3020
  9
$CMLSTYLE
  2
Standard
  9
$CMLJUST
 70
               0
  9
$CMLSCALE
 40
1.0
  9
$PROXYGRAPHICS
 70
               0
  9
$MEASUREMENT
 70
               1
  9
$CELWEIGHT
370
               0
  9
$ENDCAPS
280
               0
  9
$JOINSTYLE
280
               0
  9
$LWDISPLAY
290
               1
  9
$INSUNITS
 70
               4
  9
$HYPERLINKBASE
  1

  9
$STYLESHEET
  1

  9
$XEDIT
290
               1
  9
$CEPSNTYPE
380
               0
  9
$PSTYLEMODE
290
               1
  9
$FINGERPRINTGUID
  2

  9
$VERSIONGUID
  2

  9
$EXTNAMES
290
               1
  9
$PSVPSCALE
 40
0.0
  0
ENDSEC
  0
SECTION
  2
CLASSES
  0
CLASS
  1
LWPOLYLINE
  2
AcDbPolyline
  3
AutoCAD 2000
 90
    32768
280
               0
281
               1
  0
CLASS
  1
IMAGE
  2
AcDbRasterImage
  3
ISM
 90
    32895
280
               0
281
               1
  0
CLASS
  1
OLE2FRAME
  2
AcDbOle2Frame
  3
AutoCAD 2000
 90
    32768
280
               0
281
               1
  0
CLASS
  1
HATCH
  2
AcDbHatch
  3
AutoCAD 2000
 90
    32768
280
               0
281
               1
  0
CLASS
  1
DICTIONARYVAR
  2
AcDbDictionaryVar
  3
AutoCAD 2000
 90
    32768
280
               0
281
               0
  0
CLASS
  1
RASTERVARIABLES
  2
AcDbRasterVariables
  3
ISM
 90
    32768
280
               0
281
               0
  0
CLASS
  1
IMAGEDEF
  2
AcDbRasterImageDef
  3
ISM
 90
    32768
280
               0
281
               0
  0
CLASS
  1
IMAGEDEF_REACTOR
  2
AcDbRasterImageDefReactor
  3
ISM
 90
    32769
280
               0
281
               0
  0
CLASS
  1
IDBUFFER
  2
AcDbIdBuffer
  3
AutoCAD 2000
 90
    32768
280
               0
281
               0
  0
CLASS
  1
SPATIAL_FILTER
  2
AcDbSpatialFilter
  3
AutoCAD 2000
 90
    32768
280
               0
281
               0
  0
CLASS
  1
XRECORD
  2
AcDbXrecord
  3
AutoCAD 2000
 90
    32768
280
               0
281
               0
  0
CLASS
  1
SORTENTSTABLE
  2
AcDbSortentsTable
  3
AutoCAD 2000
 90
    32768
280
               0
281
               0
  0
CLASS
  1
LAYER_INDEX
  2
AcDbLayerIndex
  3
AutoCAD 2000
 90
    32768
280
               0
281
               0
  0
CLASS
  1
SPATIAL_INDEX
  2
AcDbSpatialIndex
  3
AutoCAD 2000
 90
    32768
280
               0
281
               0
  0
CLASS
  1
OBJECT_PTR
  2
CAseDLPNTableRecord
  3
"ASE-LPNTableRecord"
 90
    32769
280
               0
281
               0
  0
CLASS
  1
LAYOUT
  2
AcDbLayout
  3
AutoCAD 2000
 90
        0
280
               0
281
               0
  0
CLASS
  1
PLOTSETTINGS
  2
AcDbPlotSettings
  3
AutoCAD 2000
 90
    32768
280
               0
281
               0
  0
CLASS
  1
ACDBDICTIONARYWDFLT
  2
AcDbDictionaryWithDefault
  3
AutoCAD 2000
 90
        0
280
               0
281
               0
  0
CLASS
  1
ACDBPLACEHOLDER
  2
AcDbPlaceHolder
  3
AutoCAD 2000
 90
        0
280
               0
281
               0
  0
CLASS
  1
VBA_PROJECT
  2
AcDbVbaProject
  3
acadvba
 90
    32768
280
               0
281
               0
  0
CLASS
  1
WIPEOUT
  2
AcDbWipeout
  3
WipeOut|AutoCAD Express Tool|expresstools@autodesk.com
 90
    32895
280
               0
281
               1
  0
CLASS
  1
WIPEOUTVARIABLES
  2
AcDbWipeoutVariables
  3
WipeOut|AutoCAD Express Tool|expresstools@autodesk.com
 90
        0
280
               0
281
               0
  0
CLASS
  1
RTEXT
  2
RText
  3
RText|AutoCAD Express Tool|expresstools@autodesk.com
 90
    32768
280
               0
281
               1
  0
CLASS
  1
ARCALIGNEDTEXT
  2
AcDbArcAlignedText
  3
ATEXT|AutoCAD Express Tool|expresstools@autodesk.com
 90
    32768
280
               0
281
               1
  0
ENDSEC
  0
SECTION
  2
TABLES
  0
TABLE
  2
VPORT
  5
7
100
AcDbSymbolTable
 70
               1
  0
VPORT
  5
15
100
AcDbSymbolTableRecord
100
AcDbViewportTableRecord
  2
*ACTIVE
 70
               0
 10
0.0
 20
0.0
 11
1.0
 21
1.0
 12
277.35411218325532
 22
58.409777190812605
 13
0.0
 23
0.0
 14
1.0
 24
1.0
 15
0.0
 25
0.0
 16
0.0
 26
0.0
 36
1.0
 17
0.0
 27
0.0
 37
0.0
 40
15.780445618374785
 41
0.688564
 42
50.0
 43
0.0
 44
0.0
 50
0.0
 51
0.0
 71
               0
 72
             100
 73
               1
 74
               1
 75
               0
 76
               0
 77
               0
 78
               0
281
               0
 65
               0
110
0.0
120
0.0
130
0.0
111
1.0
121
0.0
131
0.0
112
0.0
122
1.0
132
0.0
345
0
346
0
 79
               0
146
0.0
  0
ENDTAB
  0
TABLE
  2
LTYPE
  5
4
100
AcDbSymbolTable
 70
              14
  0
LTYPE
  5
11
100
AcDbSymbolTableRecord
100
AcDbLinetypeTableRecord
  2
ByBlock
 70
              64
  3

 72
              65
 73
               0
 40
0.0
  0
LTYPE
  5
12
100
AcDbSymbolTableRecord
100
AcDbLinetypeTableRecord
  2
ByLayer
 70
              64
  3

 72
              65
 73
               0
 40
0.0
  0
LTYPE
  5
13
100
AcDbSymbolTableRecord
100
AcDbLinetypeTableRecord
  2
Continuous
 70
              64
  3
Solid line
 72
              65
 73
               0
 40
0.0
  0
LTYPE
  5
26
100
AcDbSymbolTableRecord
100
AcDbLinetypeTableRecord
  2
STYLE_01
 70
               0
  3

 72
              65
 73
               2
 40
0.075
 49
0.05
 74
               0
 49
-0.025
 74
               0
  0
LTYPE
  5
27
100
AcDbSymbolTableRecord
100
AcDbLinetypeTableRecord
  2
STYLE_02
 70
               0
  3

 72
              65
 73
               6
 40
0.4999999999999999
 49
0.25
 74
               0
 49
-0.05
 74
               0
 49
0.05
 74
               0
 49
-0.05
 74
               0
 49
0.05
 74
               0
 49
-0.05
 74
               0
  0
LTYPE
  5
28
100
AcDbSymbolTableRecord
100
AcDbLinetypeTableRecord
  2
STYLE_03
 70
               0
  3

 72
              65
 73
               4
 40
0.3999999999999999
 49
0.25
 74
               0
 49
-0.05
 74
               0
 49
0.05
 74
               0
 49
-0.05
 74
               0
  0
LTYPE
  5
29
100
AcDbSymbolTableRecord
100
AcDbLinetypeTableRecord
  2
STYLE_04
 70
               0
  3

 72
              65
 73
               4
 40
0.7999999999999998
 49
0.4999999999999999
 74
               0
 49
-0.1
 74
               0
 49
0.1
 74
               0
 49
-0.1
 74
               0
  0
LTYPE
  5
2A
100
AcDbSymbolTableRecord
100
AcDbLinetypeTableRecord
  2
STYLE_05
 70
               0
  3

 72
              65
 73
               2
 40
0.025
 49
0.0005
 74
               0
 49
-0.0245
 74
               0
  0
LTYPE
  5
2B
100
AcDbSymbolTableRecord
100
AcDbLinetypeTableRecord
  2
STYLE_06
 70
               0
  3

 72
              65
 73
               4
 40
1.0416400000000001
 49
0.625
 74
               0
 49
-0.20828
 74
               0
 49
0.06943
 74
               0
 49
-0.13893
 74
               0
  0
LTYPE
  5
2C
100
AcDbSymbolTableRecord
100
AcDbLinetypeTableRecord
  2
STYLE_07
 70
               0
  3

 72
              65
 73
               6
 40
1.875
 49
0.625
 74
               0
 49
-0.20828
 74
               0
 49
0.6250000000000001
 74
               0
 49
-0.2083599999999999
 74
               0
 49
0.06943
 74
               0
 49
-0.1389299999999999
 74
               0
  0
LTYPE
  5
2D
100
AcDbSymbolTableRecord
100
AcDbLinetypeTableRecord
  2
STYLE_08
 70
               0
  3

 72
              65
 73
               6
 40
1.25
 49
0.625
 74
               0
 49
-0.20828
 74
               0
 49
0.06943
 74
               0
 49
-0.13893
 74
               0
 49
0.0694299999999999
 74
               0
 49
-0.13893
 74
               0
  0
LTYPE
  5
2E
100
AcDbSymbolTableRecord
100
AcDbLinetypeTableRecord
  2
STYLE_09
 70
               0
  3

 72
              65
 73
               4
 40
5.0
 49
3.75
 74
               0
 49
-0.2777849999999998
 74
               0
 49
0.6944300000000003
 74
               0
 49
-0.2777849999999998
 74
               0
  0
LTYPE
  5
2F
100
AcDbSymbolTableRecord
100
AcDbLinetypeTableRecord
  2
STYLE_10
 70
               0
  3

 72
              65
 73
               6
 40
5.9375
 49
3.75
 74
               0
 49
-0.2777849999999998
 74
               0
 49
0.6944300000000003
 74
               0
 49
-0.2777849999999998
 74
               0
 49
0.625
 74
               0
 49
-0.3125
 74
               0
  0
LTYPE
  5
30
100
AcDbSymbolTableRecord
100
AcDbLinetypeTableRecord
  2
STYLE_11
 70
               0
  3

 72
              65
 73
               2
 40
0.1875
 49
0.125
 74
               0
 49
-0.0625
 74
               0
  0
ENDTAB
  0
TABLE
  2
LAYER
  5
2
100
AcDbSymbolTable
 70
               6
  0
LAYER
  5
14
100
AcDbSymbolTableRecord
100
AcDbLayerTableRecord
  2
0
 70
               0
 62
               7
  6
Continuous
290
               1
370
              15
390
1D
  0
LAYER
  5
31
100
AcDbSymbolTableRecord
100
AcDbLayerTableRecord
  2
Defpoints
 70
               0
 62
               7
  6
Continuous
290
               0
370
              -3
390
1D
  0
LAYER
  5
32
100
AcDbSymbolTableRecord
100
AcDbLayerTableRecord
  2
一般
 70
               0
 62
               7
  6
Continuous
290
               1
370
               5
390
1D
  0
LAYER
  5
33
100
AcDbSymbolTableRecord
100
AcDbLayerTableRecord
  2
寸法
 70
               0
 62
               7
  6
Continuous
290
               1
370
               5
390
1D
  0
LAYER
  5
34
100
AcDbSymbolTableRecord
100
AcDbLayerTableRecord
  2
レイヤー_1
 70
               0
 62
              19
  6
Continuous
290
               1
370
              15
390
1D
  0
LAYER
  5
35
100
AcDbSymbolTableRecord
100
AcDbLayerTableRecord
  2
FORMAT
 70
               0
 62
               7
  6
Continuous
290
               1
370
              15
390
1D
  0
ENDTAB
  0
TABLE
  2
STYLE
  5
3
100
AcDbSymbolTable
 70
               2
  0
STYLE
  5
17
100
AcDbSymbolTableRecord
100
AcDbTextStyleTableRecord
  2
Standard
 70
               0
 40
0.0
 41
1.0
 50
0.0
 71
               0
 42
0.0
  3
txt
  4
BIGFONT.SHX
  0
STYLE
  5
25
100
AcDbSymbolTableRecord
100
AcDbTextStyleTableRecord
  2
Arial
 70
               0
 40
0.0
 41
1.0
 50
0.0
 71
               0
 42
0.0
  3
Arial
  4

1001
ACAD
1000
Arial
1071
        0
  0
ENDTAB
  0
TABLE
  2
VIEW
  5
5
100
AcDbSymbolTable
 70
               0
  0
ENDTAB
  0
TABLE
  2
UCS
  5
6
100
AcDbSymbolTable
 70
               0
  0
ENDTAB
  0
TABLE
  2
APPID
  5
8
100
AcDbSymbolTable
 70
               1
  0
APPID
  5
16
100
AcDbSymbolTableRecord
100
AcDbRegAppTableRecord
  2
ACAD
 70
               0
  0
ENDTAB
  0
TABLE
  2
DIMSTYLE
  5
9
100
AcDbSymbolTable
 70
               1
100
AcDbDimStyleTable
 71
               0
  0
DIMSTYLE
105
18
100
AcDbSymbolTableRecord
100
AcDbDimStyleTableRecord
  2
Standard
 70
               0
  3

  4

 40
1.0
 41
0.18
 42
0.0625
 43
0.38
 44
0.18
 45
0.0
 46
0.0
 47
0.0
 48
0.0
 71
               0
 72
               0
 73
               1
 74
               1
 75
               0
 76
               0
 77
               0
 78
               0
 79
               0
140
0.18
141
0.09
142
0.0
143
25.399999999999999
144
1.0
145
0.0
146
1.0
147
0.09
148
0.0
170
               0
171
               2
172
               0
173
               0
174
               0
175
               0
176
               0
177
               0
178
               0
179
               0
271
               4
272
               4
273
               2
274
               2
275
               0
276
               0
277
               2
278
              46
279
               0
280
               0
281
               0
282
               0
283
               1
284
               0
285
               0
286
               0
288
               0
340
17
341
0
342
0
343
0
344
0
371
              -2
372
              -2
  0
ENDTAB
  0
TABLE
  2
BLOCK_RECORD
  5
1
100
AcDbSymbolTable
 70
               1
  0
BLOCK_RECORD
  5
A
100
AcDbSymbolTableRecord
100
AcDbBlockTableRecord
  2
*MODEL_SPACE
340
20
  0
BLOCK_RECORD
  5
B
100
AcDbSymbolTableRecord
100
AcDbBlockTableRecord
  2
*PAPER_SPACE
340
21
  0
BLOCK_RECORD
  5
24
100
AcDbSymbolTableRecord
100
AcDbBlockTableRecord
  2
*U0
340
0
102
{BLKREFS
331
1DE
102
}
  0
ENDTAB
  0
ENDSEC
  0
SECTION
  2
BLOCKS
  0
BLOCK
  5
D
100
AcDbEntity
  8
0
100
AcDbBlockBegin
  2
*MODEL_SPACE
 70
               0
 10
0.0
 20
0.0
 30
0.0
  3
*MODEL_SPACE
  1

  0
ENDBLK
  5
E
100
AcDbEntity
  8
0
100
AcDbBlockEnd
  0
BLOCK
  5
F
100
AcDbEntity
 67
               1
  8
0
100
AcDbBlockBegin
  2
*PAPER_SPACE
 70
               0
 10
0.0
 20
0.0
 30
0.0
  3
*PAPER_SPACE
  1

  0
ENDBLK
  5
10
100
AcDbEntity
 67
               1
  8
0
100
AcDbBlockEnd
  0
BLOCK
  5
36
100
AcDbEntity
  8
一般
100
AcDbBlockBegin
  2
*U0
 70
               1
 10
0.0
 20
0.0
 30
0.0
  3
*U0
  1

  0
LINE
  5
37
100
AcDbEntity
  8
0
370
              15
  6
Continuous
 62
               7
100
AcDbLine
 10
-26.962301316499406
 20
285.34053133360027
 30
0.0
 11
-6.896772615499458
 21
-454.98998014199987
 31
0.0
  0
LINE
  5
38
100
AcDbEntity
  8
0
370
              15
  6
Continuous
 62
               7
100
AcDbLine
 10
91.561040042900572
 20
-450.44905912759987
 30
0.0
 11
71.496066275100588
 21
289.86097773500006
 31
0.0
  0
LINE
  5
39
100
AcDbEntity
  8
0
370
              15
  6
Continuous
 62
               7
100
AcDbLine
 10
-24.101721923899504
 20
290.45977223940014
 30
0.0
 11
24.661202150900635
 21
279.10155446360005
 31
0.0
  0
ARC
  5
3A
100
AcDbEntity
  8
0
370
              15
  6
Continuous
 62
               7
100
AcDbCircle
 10
25.341767175700625
 20
282.02334001300011
 30
0.0
 40
3.0000000000001212
100
AcDbArc
 50
256.88804076829996
 51
290.25029528890008
  0
LINE
  5
3B
100
AcDbEntity
  8
0
370
              15
  6
Continuous
 62
               7
100
AcDbLine
 10
26.380135056900599
 20
279.20877150660027
 30
0.0
 11
68.565954823700508
 21
294.7721890832002
 31
0.0
  0
LINE
  5
3C
100
AcDbEntity
  8
0
370
              15
  6
Continuous
 62
               7
100
AcDbLine
 10
66.539796580100528
 20
362.0635705398002
 30
0.0
 11
17.776872505300616
 21
373.42178831540014
 31
0.0
  0
ARC
  5
3D
100
AcDbEntity
  8
0
370
              15
  6
Continuous
 62
               7
100
AcDbCircle
 10
-25.089514433299428
 20
354.93658160360025
 30
0.0
 40
3.0000000000000298
100
AcDbArc
 50
110.25029528890084
 51
181.55253457639799
  0
LINE
  5
3E
100
AcDbEntity
  8
0
370
              15
  6
Continuous
 62
               7
100
AcDbLine
 10
-28.088412285899494
 20
354.85530071220006
 30
0.0
 11
-26.420057335899401
 21
293.30027807160019
 31
0.0
  0
LINE
  5
3F
100
AcDbEntity
  8
0
370
              15
  6
Continuous
 62
               7
100
AcDbLine
 10
16.057939629500538
 20
373.31457016160016
 30
0.0
 11
-26.127880137299371
 21
357.7511525848002
 31
0.0
  0
ARC
  5
40
100
AcDbEntity
  8
0
370
              15
  6
Continuous
 62
               7
100
AcDbCircle
 10
65.859234198900594
 20
359.14178162600007
 30
0.0
 40
3.0000000000000493
100
AcDbArc
 50
1.5525345763980067
 51
76.888040768299717
  0
LINE
  5
41
100
AcDbEntity
  8
0
370
              15
  6
Continuous
 62
               7
100
AcDbLine
 10
70.526487038500591
 20
297.66803851180026
 30
0.0
 11
68.858132088300522
 21
359.22306115220005
 31
0.0
  0
ARC
  5
42
100
AcDbEntity
  8
0
370
              15
  6
Continuous
 62
               7
100
AcDbCircle
 10
-23.421159467699454
 20
293.3815583870001
 30
0.0
 40
3.0000000000000493
100
AcDbArc
 50
181.55253457639802
 51
256.88804076829973
  0
ARC
  5
43
100
AcDbEntity
  8
0
370
              15
  6
Continuous
 62
               7
100
AcDbCircle
 10
67.527589164500569
 20
297.58675840960024
 30
0.0
 40
2.9999999999999907
100
AcDbArc
 50
290.25029528889883
 51
1.5525345763981024
  0
ARC
  5
44
100
AcDbEntity
  8
0
370
              15
  6
Continuous
 62
               7
100
AcDbCircle
 10
17.096307555500516
 20
370.5
 30
0.0
 40
2.9999999999998996
100
AcDbArc
 50
76.888040768298993
 51
110.25029528889679
  0
SPLINE
  5
45
100
AcDbEntity
  8
0
370
              15
  6
Continuous
 62
               7
100
AcDbSpline
210
0.0
220
0.0
230
1.0
 70
               8
 71
               2
 72
              16
 73
              13
 74
               0
 42
0.000001
 43
0.000001
 40
0.0
 40
0.0
 40
0.0
 40
1.0
 40
1.0
 40
2.0
 40
3.0
 40
4.0
 40
5.0
 40
6.0
 40
7.0
 40
8.0
 40
8.0
 40
9.0
 40
9.0
 40
9.0
 10
-27.01921601017284
 20
288.51076566197395
 30
0.0
 10
-27.019872262982858
 20
288.51039092923696
 30
0.0
 10
-27.020528515792876
 20
288.51001619649998
 30
0.0
 10
-27.061441501992931
 20
288.48695376976463
 30
0.0
 10
-27.165759234258303
 20
288.42435779827707
 30
0.0
 10
-27.278274434924356
 20
288.31854794238626
 30
0.0
 10
-27.346954487548601
 20
288.21590832236012
 30
0.0
 10
-27.384497630192755
 20
288.13197172774613
 30
0.0
 10
-27.397519193028756
 20
288.06602906219956
 30
0.0
 10
-27.404628488792014
 20
288.00433490969959
 30
0.0
 10
-27.407018229670712
 20
287.96250137115527
 30
0.0
 10
-27.40706152887094
 20
287.96182714565413
 30
0.0
 10
-27.407104828071169
 20
287.96115292015298
 30
0.0
  0
LINE
  5
46
100
AcDbEntity
  8
0
370
              15
  6
Continuous
 62
               7
100
AcDbLine
 10
-27.407640544699461
 20
287.96995595140021
 30
0.0
 11
-27.386526323299449
 21
285.57465935220017
 31
0.0
  0
LINE
  5
47
100
AcDbEntity
  8
0
370
              15
  6
Continuous
 62
               7
100
AcDbLine
 10
-22.662289246499427
 20
290.12448889340027
 30
0.0
 11
-26.969546282299461
 21
288.53543266020012
 31
0.0
  0
SPLINE
  5
48
100
AcDbEntity
  8
0
370
              15
  6
Continuous
 62
               7
100
AcDbSpline
210
0.0
220
0.0
230
1.0
 70
               8
 71
               2
 72
              16
 73
              13
 74
               0
 42
0.000001
 43
0.000001
 40
0.0
 40
0.0
 40
0.0
 40
1.0
 40
1.0
 40
2.0
 40
3.0
 40
4.0
 40
5.0
 40
6.0
 40
7.0
 40
8.0
 40
8.0
 40
9.0
 40
9.0
 40
9.0
 10
71.797398419963315
 20
292.52777246080774
 30
0.0
 10
71.797260732381062
 20
292.52849545914165
 30
0.0
 10
71.797123044798809
 20
292.52921845747557
 30
0.0
 10
71.789109661163138
 20
292.57413951218456
 30
0.0
 10
71.772514252150017
 20
292.63994080133676
 30
0.0
 10
71.742259400996318
 20
292.7262361037404
 30
0.0
 10
71.667382550522007
 20
292.82569410339107
 30
0.0
 10
71.592824424702599
 20
292.89991258980109
 30
0.0
 10
71.482217219067024
 20
292.98253227866286
 30
0.0
 10
71.356263753049461
 20
293.04043795208855
 30
0.0
 10
71.30838357694256
 20
293.06065800934294
 30
0.0
 10
71.307613869127465
 20
293.06098680643828
 30
0.0
 10
71.30684416131237
 20
293.06131560353361
 30
0.0
  0
LINE
  5
49
100
AcDbEntity
  8
0
370
              15
  6
Continuous
 62
               7
100
AcDbLine
 10
71.9067219841005
 20
290.12743097540016
 30
0.0
 11
71.798060427300584
 21
292.52035510420006
 31
0.0
  0
LINE
  5
4A
100
AcDbEntity
  8
0
370
              15
  6
Continuous
 62
               7
100
AcDbLine
 10
71.254339597500575
 20
293.08163641540006
 30
0.0
 11
66.797489900300548
 21
294.11975852180018
 31
0.0
  0
ARC
  5
4B
100
AcDbEntity
  8
0
370
              15
  6
Continuous
 62
               7
100
AcDbCircle
 10
45.847984498300548
 20
-466.44748192939983
 30
0.0
 40
0.8458722299548679
100
AcDbArc
 50
258.15106891789998
 51
287.14353354279899
  0
LINE
  5
4C
100
AcDbEntity
  8
0
370
              15
  6
Continuous
 62
               7
100
AcDbLine
 10
45.674299913900541
 20
-467.27533064399984
 30
0.0
 11
-6.7930953050994276
 21
-455.05424029059986
 31
0.0
  0
POLYLINE
  5
4D
100
AcDbEntity
  8
0
370
              15
  6
Continuous
 62
               7
100
AcDb2dPolyline
 66
               1
 10
0.0
 20
0.0
 30
0.0
 75
               5
  0
VERTEX
  5
4E
100
AcDbEntity
  8
0
370
              15
  6
Continuous
 62
               7
100
AcDbVertex
100
AcDb2dVertex
 10
15.948696809100511
 20
-332.32869946419981
 30
0.0
  0
VERTEX
  5
4F
100
AcDbEntity
  8
0
370
              15
  6
Continuous
 62
               7
100
AcDbVertex
100
AcDb2dVertex
 10
17.675225976100592
 20
-332.56416580939987
 30
0.0
  0
VERTEX
  5
50
100
AcDbEntity
  8
0
370
              15
  6
Continuous
 62
               7
100
AcDbVertex
100
AcDb2dVertex
 10
19.352192064900578
 20
-332.45855222279982
 30
0.0
  0
VERTEX
  5
51
100
AcDbEntity
  8
0
370
              15
  6
Continuous
 62
               7
100
AcDbVertex
100
AcDb2dVertex
 10
20.940288240700511
 20
-332.01434702739988
 30
0.0
  0
VERTEX
  5
52
100
AcDbEntity
  8
0
370
              15
  6
Continuous
 62
               7
100
AcDbVertex
100
AcDb2dVertex
 10
22.402294055700622
 20
-331.24204222379984
 30
0.0
  0
VERTEX
  5
53
100
AcDbEntity
  8
0
370
              15
  6
Continuous
 62
               7
100
AcDbVertex
100
AcDb2dVertex
 10
23.70393605250058
 20
-330.15959913539979
 30
0.0
  0
VERTEX
  5
54
100
AcDbEntity
  8
0
370
              15
  6
Continuous
 62
               7
100
AcDbVertex
100
AcDb2dVertex
 10
24.814708158900544
 20
-328.79246992979989
 30
0.0
  0
VERTEX
  5
55
100
AcDbEntity
  8
0
370
              15
  6
Continuous
 62
               7
100
AcDbVertex
100
AcDb2dVertex
 10
25.708575842300547
 20
-327.17274420039979
 30
0.0
  0
VERTEX
  5
56
100
AcDbEntity
  8
0
370
              15
  6
Continuous
 62
               7
100
AcDbVertex
100
AcDb2dVertex
 10
26.364585695900587
 20
-325.33833004859986
 30
0.0
  0
VERTEX
  5
57
100
AcDbEntity
  8
0
370
              15
  6
Continuous
 62
               7
100
AcDbVertex
100
AcDb2dVertex
 10
26.767360392700539
 20
-323.33216498519988
 30
0.0
  0
VERTEX
  5
58
100
AcDbEntity
  8
0
370
              15
  6
Continuous
 62
               7
100
AcDbVertex
100
AcDb2dVertex
 10
26.907461972500528
 20
-321.20139616559987
 30
0.0
  0
VERTEX
  5
59
100
AcDbEntity
  8
0
370
              15
  6
Continuous
 62
               7
100
AcDbVertex
100
AcDb2dVertex
 10
26.781605800900479
 20
-318.99590407639988
 30
0.0
  0
VERTEX
  5
5A
100
AcDbEntity
  8
0
370
              15
  6
Continuous
 62
               7
100
AcDbVertex
100
AcDb2dVertex
 10
26.3927399745005
 20
-316.76736012259988
 30
0.0
  0
VERTEX
  5
5B
100
AcDbEntity
  8
0
370
              15
  6
Continuous
 62
               7
100
AcDbVertex
100
AcDb2dVertex
 10
25.749979851500484
 20
-314.5680243711999
 30
0.0
  0
VERTEX
  5
5C
100
AcDbEntity
  8
0
370
              15
  6
Continuous
 62
               7
100
AcDbVertex
100
AcDb2dVertex
 10
24.868394019700531
 20
-312.44950869299981
 30
0.0
  0
VERTEX
  5
5D
100
AcDbEntity
  8
0
370
              15
  6
Continuous
 62
               7
100
AcDbVertex
100
AcDb2dVertex
 10
23.768642003100581
 20
-310.46133579639985
 30
0.0
  0
VERTEX
  5
5E
100
AcDbEntity
  8
0
370
              15
  6
Continuous
 62
               7
100
AcDbVertex
100
AcDb2dVertex
 10
22.476503868300597
 20
-308.65020789459987
 30
0.0
  0
VERTEX
  5
5F
100
AcDbEntity
  8
0
370
              15
  6
Continuous
 62
               7
100
AcDbVertex
100
AcDb2dVertex
 10
21.022265294100634
 20
-307.05856341879979
 30
0.0
  0
VERTEX
  5
60
100
AcDbEntity
  8
0
370
              15
  6
Continuous
 62
               7
100
AcDbVertex
100
AcDb2dVertex
 10
19.440012095700467
 20
-305.7236778799998
 30
0.0
  0
VERTEX
  5
61
100
AcDbEntity
  8
0
370
              15
  6
Continuous
 62
               7
100
AcDbVertex
100
AcDb2dVertex
 10
17.766831193300504
 20
-304.67685598799989
 30
0.0
  0
VERTEX
  5
62
100
AcDbEntity
  8
0
370
              15
  6
Continuous
 62
               7
100
AcDbVertex
100
AcDb2dVertex
 10
16.041941305900536
 20
-303.94266392599985
 30
0.0
  0
VERTEX
  5
63
100
AcDbEntity
  8
0
370
              15
  6
Continuous
 62
               7
100
AcDbVertex
100
AcDb2dVertex
 10
14.305771280900558
 20
-303.53826247519982
 30
0.0
  0
VERTEX
  5
64
100
AcDbEntity
  8
0
370
              15
  6
Continuous
 62
               7
100
AcDbVertex
100
AcDb2dVertex
 10
12.599015243700478
 20
-303.47313040979981
 30
0.0
  0
VERTEX
  5
65
100
AcDbEntity
  8
0
370
              15
  6
Continuous
 62
               7
100
AcDbVertex
100
AcDb2dVertex
 10
10.961679607100564
 20
-303.74884251879979
 30
0.0
  0
VERTEX
  5
66
100
AcDbEntity
  8
0
370
              15
  6
Continuous
 62
               7
100
AcDbVertex
100
AcDb2dVertex
 10
9.4321413045005329
 20
-304.35890676739979
 30
0.0
  0
VERTEX
  5
67
100
AcDbEntity
  8
0
370
              15
  6
Continuous
 62
               7
100
AcDbVertex
100
AcDb2dVertex
 10
8.0462507873005507
 20
-305.28900755319984
 30
0.0
  0
VERTEX
  5
68
100
AcDbEntity
  8
0
370
              15
  6
Continuous
 62
               7
100
AcDbVertex
100
AcDb2dVertex
 10
6.836493552700631
 20
-306.51737564299987
 30
0.0
  0
VERTEX
  5
69
100
AcDbEntity
  8
0
370
              15
  6
Continuous
 62
               7
100
AcDbVertex
100
AcDb2dVertex
 10
5.8312250315004803
 20
-308.01523172339984
 30
0.0
  0
VERTEX
  5
6A
100
AcDbEntity
  8
0
370
              15
  6
Continuous
 62
               7
100
AcDbVertex
100
AcDb2dVertex
 10
5.0540051963005226
 20
-309.74736622419988
 30
0.0
  0
VERTEX
  5
6B
100
AcDbEntity
  8
0
370
              15
  6
Continuous
 62
               7
100
AcDbVertex
100
AcDb2dVertex
 10
4.5230545513005609
 20
-311.67331265859985
 30
0.0
  0
VERTEX
  5
6C
100
AcDbEntity
  8
0
370
              15
  6
Continuous
 62
               7
100
AcDbVertex
100
AcDb2dVertex
 10
4.2508176569006082
 20
-313.74786771979979
 30
0.0
  0
VERTEX
  5
6D
100
AcDbEntity
  8
0
370
              15
  6
Continuous
 62
               7
100
AcDbVertex
100
AcDb2dVertex
 10
4.2436748387005991
 20
-315.92238070919979
 30
0.0
  0
VERTEX
  5
6E
100
AcDbEntity
  8
0
370
              15
  6
Continuous
 62
               7
100
AcDbVertex
100
AcDb2dVertex
 10
4.5017929089005975
 20
-318.14590576919983
 30
0.0
  0
VERTEX
  5
6F
100
AcDbEntity
  8
0
370
              15
  6
Continuous
 62
               7
100
AcDbVertex
100
AcDb2dVertex
 10
5.0191244501005485
 20
-320.36638872339989
 30
0.0
  0
VERTEX
  5
70
100
AcDbEntity
  8
0
370
              15
  6
Continuous
 62
               7
100
AcDbVertex
100
AcDb2dVertex
 10
5.7835396379005033
 20
-322.53165868939988
 30
0.0
  0
VERTEX
  5
71
100
AcDbEntity
  8
0
370
              15
  6
Continuous
 62
               7
100
AcDbVertex
100
AcDb2dVertex
 10
6.7771234545004972
 20
-324.59102345979983
 30
0.0
  0
VERTEX
  5
72
100
AcDbEntity
  8
0
370
              15
  6
Continuous
 62
               7
100
AcDbVertex
100
AcDb2dVertex
 10
7.9765883115005636
 20
-326.49626999619983
 30
0.0
  0
VERTEX
  5
73
100
AcDbEntity
  8
0
370
              15
  6
Continuous
 62
               7
100
AcDbVertex
100
AcDb2dVertex
 10
9.3538183379005204
 20
-328.20269559599984
 30
0.0
  0
VERTEX
  5
74
100
AcDbEntity
  8
0
370
              15
  6
Continuous
 62
               7
100
AcDbVertex
100
AcDb2dVertex
 10
10.876531386900524
 20
-329.67022299979982
 30
0.0
  0
VERTEX
  5
75
100
AcDbEntity
  8
0
370
              15
  6
Continuous
 62
               7
100
AcDbVertex
100
AcDb2dVertex
 10
12.50903869070055
 20
-330.86459476899989
 30
0.0
  0
VERTEX
  5
76
100
AcDbEntity
  8
0
370
              15
  6
Continuous
 62
               7
100
AcDbVertex
100
AcDb2dVertex
 10
14.213074507500551
 20
-331.75773610679988
 30
0.0
  0
VERTEX
  5
77
100
AcDbEntity
  8
0
370
              15
  6
Continuous
 62
               7
100
AcDbVertex
100
AcDb2dVertex
 10
15.948696809100511
 20
-332.32869946419981
 30
0.0
  0
SEQEND
  5
78
100
AcDbEntity
  8
0
370
              15
  6
Continuous
 62
               7
  0
POLYLINE
  5
79
100
AcDbEntity
  8
0
370
              15
  6
Continuous
 62
               7
100
AcDb2dPolyline
 66
               1
 10
0.0
 20
0.0
 30
0.0
 75
               5
  0
VERTEX
  5
7A
100
AcDbEntity
  8
0
370
              15
  6
Continuous
 62
               7
100
AcDbVertex
100
AcDb2dVertex
 10
18.3154325161006
 20
-419.65092668439985
 30
0.0
  0
VERTEX
  5
7B
100
AcDbEntity
  8
0
370
              15
  6
Continuous
 62
               7
100
AcDbVertex
100
AcDb2dVertex
 10
19.444169282100574
 20
-419.74771608159983
 30
0.0
  0
VERTEX
  5
7C
100
AcDbEntity
  8
0
370
              15
  6
Continuous
 62
               7
100
AcDbVertex
100
AcDb2dVertex
 10
20.502991100900545
 20
-419.50484616439985
 30
0.0
  0
VERTEX
  5
7D
100
AcDbEntity
  8
0
370
              15
  6
Continuous
 62
               7
100
AcDbVertex
100
AcDb2dVertex
 10
21.434816570700605
 20
-418.93541785559984
 30
0.0
  0
VERTEX
  5
7E
100
AcDbEntity
  8
0
370
              15
  6
Continuous
 62
               7
100
AcDbVertex
100
AcDb2dVertex
 10
22.189412558100571
 20
-418.07018006319981
 30
0.0
  0
VERTEX
  5
7F
100
AcDbEntity
  8
0
370
              15
  6
Continuous
 62
               7
100
AcDbVertex
100
AcDb2dVertex
 10
22.726096662500595
 20
-416.95572862299986
 30
0.0
  0
VERTEX
  5
80
100
AcDbEntity
  8
0
370
              15
  6
Continuous
 62
               7
100
AcDbVertex
100
AcDb2dVertex
 10
23.015936770300527
 20
-415.65213590699983
 30
0.0
  0
VERTEX
  5
81
100
AcDbEntity
  8
0
370
              15
  6
Continuous
 62
               7
100
AcDbVertex
100
AcDb2dVertex
 10
23.043308544100569
 20
-414.22975258979983
 30
0.0
  0
VERTEX
  5
82
100
AcDbEntity
  8
0
370
              15
  6
Continuous
 62
               7
100
AcDbVertex
100
AcDb2dVertex
 10
22.806734191100531
 20
-412.76516371399987
 30
0.0
  0
VERTEX
  5
83
100
AcDbEntity
  8
0
370
              15
  6
Continuous
 62
               7
100
AcDbVertex
100
AcDb2dVertex
 10
22.318970329300555
 20
-411.33742204459986
 30
0.0
  0
VERTEX
  5
84
100
AcDbEntity
  8
0
370
              15
  6
Continuous
 62
               7
100
AcDbVertex
100
AcDb2dVertex
 10
21.606310241100573
 20
-410.02342014299984
 30
0.0
  0
VERTEX
  5
85
100
AcDbEntity
  8
0
370
              15
  6
Continuous
 62
               7
100
AcDbVertex
100
AcDb2dVertex
 10
20.707173259700539
 20
-408.89400077999983
 30
0.0
  0
VERTEX
  5
86
100
AcDbEntity
  8
0
370
              15
  6
Continuous
 62
               7
100
AcDbVertex
100
AcDb2dVertex
 10
19.670033585900569
 20
-408.01008305679983
 30
0.0
  0
VERTEX
  5
87
100
AcDbEntity
  8
0
370
              15
  6
Continuous
 62
               7
100
AcDbVertex
100
AcDb2dVertex
 10
18.550803849100475
 20
-407.41933980819982
 30
0.0
  0
VERTEX
  5
88
100
AcDbEntity
  8
0
370
              15
  6
Continuous
 62
               7
100
AcDbVertex
100
AcDb2dVertex
 10
17.409821007500568
 20
-407.15357371979985
 30
0.0
  0
VERTEX
  5
89
100
AcDbEntity
  8
0
370
              15
  6
Continuous
 62
               7
100
AcDbVertex
100
AcDb2dVertex
 10
16.308595615100558
 20
-407.22711228059984
 30
0.0
  0
VERTEX
  5
8A
100
AcDbEntity
  8
0
370
              15
  6
Continuous
 62
               7
100
AcDbVertex
100
AcDb2dVertex
 10
15.306496423100498
 20
-407.63603553679985
 30
0.0
  0
VERTEX
  5
8B
100
AcDbEntity
  8
0
370
              15
  6
Continuous
 62
               7
100
AcDbVertex
100
AcDb2dVertex
 10
14.457545897300633
 20
-408.35827754159982
 30
0.0
  0
VERTEX
  5
8C
100
AcDbEntity
  8
0
370
              15
  6
Continuous
 62
               7
100
AcDbVertex
100
AcDb2dVertex
 10
13.80751095750054
 20
-409.35487052679986
 30
0.0
  0
VERTEX
  5
8D
100
AcDbEntity
  8
0
370
              15
  6
Continuous
 62
               7
100
AcDbVertex
100
AcDb2dVertex
 10
13.391434543700598
 20
-410.57208309279986
 30
0.0
  0
VERTEX
  5
8E
100
AcDbEntity
  8
0
370
              15
  6
Continuous
 62
               7
100
AcDbVertex
100
AcDb2dVertex
 10
13.231749442100636
 20
-411.94437231139983
 30
0.0
  0
VERTEX
  5
8F
100
AcDbEntity
  8
0
370
              15
  6
Continuous
 62
               7
100
AcDbVertex
100
AcDb2dVertex
 10
13.3370619283005
 20
-413.39766141919984
 30
0.0
  0
VERTEX
  5
90
100
AcDbEntity
  8
0
370
              15
  6
Continuous
 62
               7
100
AcDbVertex
100
AcDb2dVertex
 10
13.701697615700596
 20
-414.85369943559982
 30
0.0
  0
VERTEX
  5
91
100
AcDbEntity
  8
0
370
              15
  6
Continuous
 62
               7
100
AcDbVertex
100
AcDb2dVertex
 10
14.30599591270061
 20
-416.23391686179986
 30
0.0
  0
VERTEX
  5
92
100
AcDbEntity
  8
0
370
              15
  6
Continuous
 62
               7
100
AcDbVertex
100
AcDb2dVertex
 10
15.117380051500504
 20
-417.46391422599982
 30
0.0
  0
VERTEX
  5
93
100
AcDbEntity
  8
0
370
              15
  6
Continuous
 62
               7
100
AcDbVertex
100
AcDb2dVertex
 10
16.092108835500539
 20
-418.47743112919983
 30
0.0
  0
VERTEX
  5
94
100
AcDbEntity
  8
0
370
              15
  6
Continuous
 62
               7
100
AcDbVertex
100
AcDb2dVertex
 10
17.177633450300618
 20
-419.21977793879984
 30
0.0
  0
VERTEX
  5
95
100
AcDbEntity
  8
0
370
              15
  6
Continuous
 62
               7
100
AcDbVertex
100
AcDb2dVertex
 10
18.3154325161006
 20
-419.65092668439985
 30
0.0
  0
SEQEND
  5
96
100
AcDbEntity
  8
0
370
              15
  6
Continuous
 62
               7
  0
LINE
  5
97
100
AcDbEntity
  8
0
370
              15
  6
Continuous
 62
               7
100
AcDbLine
 10
91.48795405490057
 20
-450.51001645899981
 30
0.0
 11
46.097319257300569
 21
-467.25577148599984
 31
0.0
  0
POLYLINE
  5
98
100
AcDbEntity
  8
0
370
              15
  6
Continuous
 62
               7
100
AcDb2dPolyline
 66
               1
 10
0.0
 20
0.0
 30
0.0
 75
               5
  0
VERTEX
  5
99
100
AcDbEntity
  8
0
370
              15
  6
Continuous
 62
               7
100
AcDbVertex
100
AcDb2dVertex
 10
-6.7930953050994276
 20
-455.05424029059986
 30
0.0
  0
VERTEX
  5
9A
100
AcDbEntity
  8
0
370
              15
  6
Continuous
 62
               7
100
AcDbVertex
100
AcDb2dVertex
 10
-6.8335740710995196
 20
-455.04254313439986
 30
0.0
  0
VERTEX
  5
9B
100
AcDbEntity
  8
0
370
              15
  6
Continuous
 62
               7
100
AcDbVertex
100
AcDb2dVertex
 10
-6.8649545252994812
 20
-455.02851318579985
 30
0.0
  0
VERTEX
  5
9C
100
AcDbEntity
  8
0
370
              15
  6
Continuous
 62
               7
100
AcDbVertex
100
AcDb2dVertex
 10
-6.8860344322994251
 20
-455.01269003339985
 30
0.0
  0
VERTEX
  5
9D
100
AcDbEntity
  8
0
370
              15
  6
Continuous
 62
               7
100
AcDbVertex
100
AcDb2dVertex
 10
-6.8960010558994327
 20
-454.99568238079985
 30
0.0
  0
VERTEX
  5
9E
100
AcDbEntity
  8
0
370
              15
  6
Continuous
 62
               7
100
AcDbVertex
100
AcDb2dVertex
 10
-6.896772615499458
 20
-454.98998014199987
 30
0.0
  0
SEQEND
  5
9F
100
AcDbEntity
  8
0
370
              15
  6
Continuous
 62
               7
  0
POLYLINE
  5
A0
100
AcDbEntity
  8
0
370
              15
  6
Continuous
 62
               7
100
AcDb2dPolyline
 66
               1
 10
0.0
 20
0.0
 30
0.0
 75
               5
  0
VERTEX
  5
A1
100
AcDbEntity
  8
0
370
              15
  6
Continuous
 62
               7
100
AcDbVertex
100
AcDb2dVertex
 10
91.561040042900572
 20
-450.44905912759987
 30
0.0
  0
VERTEX
  5
A2
100
AcDbEntity
  8
0
370
              15
  6
Continuous
 62
               7
100
AcDbVertex
100
AcDb2dVertex
 10
91.558741814500536
 20
-450.46089595699982
 30
0.0
  0
VERTEX
  5
A3
100
AcDbEntity
  8
0
370
              15
  6
Continuous
 62
               7
100
AcDbVertex
100
AcDb2dVertex
 10
91.545777833100601
 20
-450.47829319759984
 30
0.0
  0
VERTEX
  5
A4
100
AcDbEntity
  8
0
370
              15
  6
Continuous
 62
               7
100
AcDbVertex
100
AcDb2dVertex
 10
91.521877022100512
 20
-450.49487918779982
 30
0.0
  0
VERTEX
  5
A5
100
AcDbEntity
  8
0
370
              15
  6
Continuous
 62
               7
100
AcDbVertex
100
AcDb2dVertex
 10
91.48795405490057
 20
-450.51001645899981
 30
0.0
  0
SEQEND
  5
A6
100
AcDbEntity
  8
0
370
              15
  6
Continuous
 62
               7
  0
LINE
  5
A7
100
AcDbEntity
  8
0
370
              15
  6
Continuous
 62
               7
100
AcDbLine
 10
5.9369436569005529
 20
-318.32570250439989
 30
0.0
 11
6.0388341483005661
 21
-318.90698344379979
 31
0.0
  0
SPLINE
  5
A8
100
AcDbEntity
  8
0
370
              15
  6
Continuous
 62
               7
100
AcDbSpline
210
0.0
220
0.0
230
1.0
 70
               8
 71
               2
 72
              10
 73
               7
 74
               0
 42
0.000001
 43
0.000001
 40
0.0
 40
0.0
 40
0.0
 40
1.0
 40
1.0
 40
2.0
 40
2.0
 40
3.0
 40
3.0
 40
3.0
 10
6.0388345327676234
 20
-318.90699840532767
 30
0.0
 10
6.0417753254786248
 20
-318.93003875156256
 30
0.0
 10
6.0447161181896263
 20
-318.95307909779746
 30
0.0
 10
6.2556888824128691
 20
-320.5767118742578
 30
0.0
 10
6.5802990930972101
 20
-322.17485410518537
 30
0.0
 10
6.5849616221050269
 20
-322.19755119466913
 30
0.0
 10
6.5896241511128437
 20
-322.22024828415289
 30
0.0
  0
LINE
  5
A9
100
AcDbEntity
  8
0
370
              15
  6
Continuous
 62
               7
100
AcDbLine
 10
6.5896254265005609
 20
-322.2202650389998
 30
0.0
 11
6.6837178381006197
 21
-322.51383083939987
 31
0.0
  0
POLYLINE
  5
AA
100
AcDbEntity
  8
0
370
              15
  6
Continuous
 62
               7
100
AcDb2dPolyline
 66
               1
 10
0.0
 20
0.0
 30
0.0
 75
               5
  0
VERTEX
  5
AB
100
AcDbEntity
  8
0
370
              15
  6
Continuous
 62
               7
100
AcDbVertex
100
AcDb2dVertex
 10
6.6837178381006197
 20
-322.51383083939987
 30
0.0
  0
VERTEX
  5
AC
100
AcDbEntity
  8
0
370
              15
  6
Continuous
 62
               7
100
AcDbVertex
100
AcDb2dVertex
 10
7.7699207283005762
 20
-324.66830694019978
 30
0.0
  0
VERTEX
  5
AD
100
AcDbEntity
  8
0
370
              15
  6
Continuous
 62
               7
100
AcDbVertex
100
AcDb2dVertex
 10
9.080709217700587
 20
-326.6409724615998
 30
0.0
  0
VERTEX
  5
AE
100
AcDbEntity
  8
0
370
              15
  6
Continuous
 62
               7
100
AcDbVertex
100
AcDb2dVertex
 10
10.581754102900504
 20
-328.38013808699981
 30
0.0
  0
VERTEX
  5
AF
100
AcDbEntity
  8
0
370
              15
  6
Continuous
 62
               7
100
AcDbVertex
100
AcDb2dVertex
 10
12.233744212700572
 20
-329.84018914399979
 30
0.0
  0
VERTEX
  5
B0
100
AcDbEntity
  8
0
370
              15
  6
Continuous
 62
               7
100
AcDbVertex
100
AcDb2dVertex
 10
13.993417934300624
 20
-330.98295635739981
 30
0.0
  0
VERTEX
  5
B1
100
AcDbEntity
  8
0
370
              15
  6
Continuous
 62
               7
100
AcDbVertex
100
AcDb2dVertex
 10
15.814690701300606
 20
-331.77848718739989
 30
0.0
  0
VERTEX
  5
B2
100
AcDbEntity
  8
0
370
              15
  6
Continuous
 62
               7
100
AcDbVertex
100
AcDb2dVertex
 10
17.649866270100574
 20
-332.20594973519979
 30
0.0
  0
VERTEX
  5
B3
100
AcDbEntity
  8
0
370
              15
  6
Continuous
 62
               7
100
AcDbVertex
100
AcDb2dVertex
 10
19.450883763700631
 20
-332.25414930919982
 30
0.0
  0
VERTEX
  5
B4
100
AcDbEntity
  8
0
370
              15
  6
Continuous
 62
               7
100
AcDbVertex
100
AcDb2dVertex
 10
21.141034152100474
 20
-331.93099325579982
 30
0.0
  0
SEQEND
  5
B5
100
AcDbEntity
  8
0
370
              15
  6
Continuous
 62
               7
  0
ARC
  5
B6
100
AcDbEntity
  8
0
370
              15
  6
Continuous
 62
               7
100
AcDbCircle
 10
23.607045183900482
 20
-314.48206029359989
 30
0.0
 40
18.083309249738161
100
AcDbArc
 50
170.8331254572
 51
192.27194369560007
  0
LINE
  5
B7
100
AcDbEntity
  8
0
370
              15
  6
Continuous
 62
               7
100
AcDbLine
 10
5.8270233163004832
 20
-311.0920873697998
 30
0.0
 11
5.7546862831005683
 21
-311.60120016219986
 31
0.0
  0
SPLINE
  5
B8
100
AcDbEntity
  8
0
370
              15
  6
Continuous
 62
               7
100
AcDbSpline
210
0.0
220
0.0
230
1.0
 70
               8
 71
               2
 72
              11
 73
               8
 74
               0
 42
0.000001
 43
0.000001
 40
0.0
 40
0.0
 40
0.0
 40
1.0
 40
1.0
 40
2.0
 40
3.0
 40
3.0
 40
4.0
 40
4.0
 40
4.0
 10
6.2195226742622935
 20
-308.56511764042767
 30
0.0
 10
6.2162653161066714
 20
-308.57933223808635
 30
0.0
 10
6.2130079579510493
 20
-308.59354683574503
 30
0.0
 10
6.1163511554285606
 20
-309.02293804381139
 30
0.0
 10
5.9134642982828609
 20
-310.20044348686218
 30
0.0
 10
5.8302620815572936
 20
-311.05775270338114
 30
0.0
 10
5.8286430511727758
 20
-311.07493341523343
 30
0.0
 10
5.827024020788258
 20
-311.09211412708572
 30
0.0
  0
LINE
  5
B9
100
AcDbEntity
  8
0
370
              15
  6
Continuous
 62
               7
100
AcDbLine
 10
6.2996600975005776
 20
-308.34377492939979
 30
0.0
 11
6.2195234427006199
 21
-308.56511569999981
 31
0.0
  0
ARC
  5
BA
100
AcDbEntity
  8
0
370
              15
  6
Continuous
 62
               7
100
AcDbCircle
 10
14.456935550900539
 20
-311.90615690559986
 30
0.0
 40
8.9012194763118302
100
AcDbArc
 50
114.50301241120047
 51
156.40851765140008
  0
POLYLINE
  5
BB
100
AcDbEntity
  8
0
370
              15
  6
Continuous
 62
               7
100
AcDb2dPolyline
 66
               1
 10
0.0
 20
0.0
 30
0.0
 75
               5
  0
VERTEX
  5
BC
100
AcDbEntity
  8
0
370
              15
  6
Continuous
 62
               7
100
AcDbVertex
100
AcDb2dVertex
 10
19.100286121500631
 20
-419.36137430739984
 30
0.0
  0
VERTEX
  5
BD
100
AcDbEntity
  8
0
370
              15
  6
Continuous
 62
               7
100
AcDbVertex
100
AcDb2dVertex
 10
20.229022887500605
 20
-419.45816370439985
 30
0.0
  0
VERTEX
  5
BE
100
AcDbEntity
  8
0
370
              15
  6
Continuous
 62
               7
100
AcDbVertex
100
AcDb2dVertex
 10
20.780442885700495
 20
-419.37656104379982
 30
0.0
  0
SEQEND
  5
BF
100
AcDbEntity
  8
0
370
              15
  6
Continuous
 62
               7
  0
POLYLINE
  5
C0
100
AcDbEntity
  8
0
370
              15
  6
Continuous
 62
               7
100
AcDb2dPolyline
 66
               1
 10
0.0
 20
0.0
 30
0.0
 75
               5
  0
VERTEX
  5
C1
100
AcDbEntity
  8
0
370
              15
  6
Continuous
 62
               7
100
AcDbVertex
100
AcDb2dVertex
 10
16.299020850300622
 20
-407.22935288899981
 30
0.0
  0
VERTEX
  5
C2
100
AcDbEntity
  8
0
370
              15
  6
Continuous
 62
               7
100
AcDbVertex
100
AcDb2dVertex
 10
16.091350028500528
 20
-407.34648315959981
 30
0.0
  0
VERTEX
  5
C3
100
AcDbEntity
  8
0
370
              15
  6
Continuous
 62
               7
100
AcDbVertex
100
AcDb2dVertex
 10
15.24239950270055
 20
-408.06872516439984
 30
0.0
  0
VERTEX
  5
C4
100
AcDbEntity
  8
0
370
              15
  6
Continuous
 62
               7
100
AcDbVertex
100
AcDb2dVertex
 10
14.592364562700595
 20
-409.06531814959982
 30
0.0
  0
VERTEX
  5
C5
100
AcDbEntity
  8
0
370
              15
  6
Continuous
 62
               7
100
AcDbVertex
100
AcDb2dVertex
 10
14.176288148900539
 20
-410.28253071559982
 30
0.0
  0
VERTEX
  5
C6
100
AcDbEntity
  8
0
370
              15
  6
Continuous
 62
               7
100
AcDbVertex
100
AcDb2dVertex
 10
14.016603047500553
 20
-411.65481993419985
 30
0.0
  0
VERTEX
  5
C7
100
AcDbEntity
  8
0
370
              15
  6
Continuous
 62
               7
100
AcDbVertex
100
AcDb2dVertex
 10
14.12191553370053
 20
-413.10810904199985
 30
0.0
  0
VERTEX
  5
C8
100
AcDbEntity
  8
0
370
              15
  6
Continuous
 62
               7
100
AcDbVertex
100
AcDb2dVertex
 10
14.486551221100626
 20
-414.56414705839984
 30
0.0
  0
VERTEX
  5
C9
100
AcDbEntity
  8
0
370
              15
  6
Continuous
 62
               7
100
AcDbVertex
100
AcDb2dVertex
 10
15.090849518100526
 20
-415.94436448459982
 30
0.0
  0
VERTEX
  5
CA
100
AcDbEntity
  8
0
370
              15
  6
Continuous
 62
               7
100
AcDbVertex
100
AcDb2dVertex
 10
15.902233656900535
 20
-417.17436184879983
 30
0.0
  0
VERTEX
  5
CB
100
AcDbEntity
  8
0
370
              15
  6
Continuous
 62
               7
100
AcDbVertex
100
AcDb2dVertex
 10
16.87696244090057
 20
-418.18787875199985
 30
0.0
  0
VERTEX
  5
CC
100
AcDbEntity
  8
0
370
              15
  6
Continuous
 62
               7
100
AcDbVertex
100
AcDb2dVertex
 10
17.962487055700535
 20
-418.93022556159985
 30
0.0
  0
VERTEX
  5
CD
100
AcDbEntity
  8
0
370
              15
  6
Continuous
 62
               7
100
AcDbVertex
100
AcDb2dVertex
 10
19.100286121500631
 20
-419.36137430739984
 30
0.0
  0
SEQEND
  5
CE
100
AcDbEntity
  8
0
370
              15
  6
Continuous
 62
               7
  0
LINE
  5
CF
100
AcDbEntity
  8
0
370
              15
  6
Continuous
 62
               7
100
AcDbLine
 10
-25.167109889499443
 20
357.79960405900016
 30
0.0
 11
23.595814185300469
 21
346.44138628340016
 31
0.0
  0
ARC
  5
D0
100
AcDbEntity
  8
0
370
              15
  6
Continuous
 62
               7
100
AcDbCircle
 10
25.45610115670047
 20
343.17549131940024
 30
0.0
 40
3.7585552451977624
100
AcDbArc
 50
119.66627882440014
 51
184.89945428639828
  0
LINE
  5
D1
100
AcDbEntity
  8
0
370
              15
  6
Continuous
 62
               7
100
AcDbLine
 10
21.711279260100582
 20
342.85448276260018
 30
0.0
 11
-27.051644814699443
 21
354.21270053820018
 31
0.0
  0
ARC
  5
D2
100
AcDbEntity
  8
0
370
              15
  6
Continuous
 62
               7
100
AcDbCircle
 10
-23.306822918099442
 20
354.53370909520009
 30
0.0
 40
3.7585552451977624
100
AcDbArc
 50
119.66627882440014
 51
184.89945428639828
  0
LINE
  5
D3
100
AcDbEntity
  8
0
370
              15
  6
Continuous
 62
               7
100
AcDbLine
 10
23.379634210100562
 20
281.29946012200008
 30
0.0
 11
21.711279260100582
 21
342.85448276260018
 31
0.0
  0
LINE
  5
D4
100
AcDbEntity
  8
0
370
              15
  6
Continuous
 62
               7
100
AcDbLine
 10
-25.383289864699464
 20
292.65767789760008
 30
0.0
 11
23.379634210100562
 21
281.29946012200008
 31
0.0
  0
LINE
  5
D5
100
AcDbEntity
  8
0
370
              15
  6
Continuous
 62
               7
100
AcDbLine
 10
-27.051644814699443
 20
354.21270053820018
 30
0.0
 11
-25.383289864699464
 21
292.65767789760008
 31
0.0
  0
LINE
  5
D6
100
AcDbEntity
  8
0
370
              15
  6
Continuous
 62
               7
100
AcDbLine
 10
65.781633952100606
 20
362.0048038600001
 30
0.0
 11
17.01870987730058
 21
373.36302163580012
 31
0.0
  0
LINE
  5
D7
100
AcDbEntity
  8
0
370
              15
  6
Continuous
 62
               7
100
AcDbLine
 10
23.595814185300469
 20
346.44138628340016
 30
0.0
 11
65.781633952100606
 21
362.0048038600001
 31
0.0
  0
LINE
  5
D8
100
AcDbEntity
  8
0
370
              15
  6
Continuous
 62
               7
100
AcDbLine
 10
17.01870987730058
 20
373.36302163580012
 30
0.0
 11
-25.167109889499443
 21
357.79960405900016
 31
0.0
  0
ARC
  5
D9
100
AcDbEntity
  8
0
370
              15
  6
Continuous
 62
               7
100
AcDbCircle
 10
22.382561494100628
 20
343.09537273340021
 30
0.0
 40
3.5591837222662588
100
AcDbArc
 50
359.27075458899969
 51
70.069534294301491
  0
ARC
  5
DA
100
AcDbEntity
  8
0
370
              15
  6
Continuous
 62
               7
100
AcDbCircle
 10
23.4481179153006
 20
351.13295462760021
 30
0.0
 40
8.4587058665051611
100
AcDbArc
 50
258.15109532389909
 51
287.14350713679954
  0
LINE
  5
DB
100
AcDbEntity
  8
0
370
              15
  6
Continuous
 62
               7
100
AcDbLine
 10
25.941456934900543
 20
343.05007361480017
 30
0.0
 11
27.609811884900637
 21
281.49505097420007
 31
0.0
  0
ARC
  5
DC
100
AcDbEntity
  8
0
370
              15
  6
Continuous
 62
               7
100
AcDbCircle
 10
25.11647286530058
 20
289.57793198700011
 30
0.0
 40
8.4587058665023278
100
AcDbArc
 50
258.15109532390062
 51
287.14350713679983
  0
ARC
  5
DD
100
AcDbEntity
  8
0
370
              15
  6
Continuous
 62
               7
100
AcDbCircle
 10
64.568381260900537
 20
358.65879031020023
 30
0.0
 40
3.5591837222678504
100
AcDbArc
 50
359.27075458900009
 51
70.069534294301036
  0
LINE
  5
DE
100
AcDbEntity
  8
0
370
              15
  6
Continuous
 62
               7
100
AcDbLine
 10
68.127276701700566
 20
358.6134911914001
 30
0.0
 11
25.941456934900543
 21
343.05007361480017
 31
0.0
  0
LINE
  5
DF
100
AcDbEntity
  8
0
370
              15
  6
Continuous
 62
               7
100
AcDbLine
 10
69.795631651700546
 20
297.05846855080023
 30
0.0
 11
68.127276701700566
 21
358.6134911914001
 31
0.0
  0
LINE
  5
E0
100
AcDbEntity
  8
0
370
              15
  6
Continuous
 62
               7
100
AcDbLine
 10
27.609811884900637
 20
281.49505097420007
 30
0.0
 11
69.795631651700546
 21
297.05846855080023
 31
0.0
  0
ARC
  5
E1
100
AcDbEntity
  8
0
370
              15
  6
Continuous
 62
               7
100
AcDbCircle
 10
25.641428181300626
 20
278.25159771180012
 30
0.0
 40
2.6961087421808818
100
AcDbArc
 50
258.15113736819865
 51
287.14346509249793
  0
ARC
  5
E2
100
AcDbEntity
  8
0
370
              15
  6
Continuous
 62
               7
100
AcDbCircle
 10
25.710258645900581
 20
275.65961049840013
 30
0.0
 40
0.6241721153754869
100
AcDbArc
 50
119.58476778819957
 51
184.28848665069629
  0
ARC
  5
E3
100
AcDbEntity
  8
0
370
              15
  6
Continuous
 62
               7
100
AcDbCircle
 10
25.66626367670051
 20
277.4615467774002
 30
0.0
 40
1.2865521945744014
100
AcDbArc
 50
258.15128632700635
 51
287.14331613360218
  0
ARC
  5
E4
100
AcDbEntity
  8
0
370
              15
  6
Continuous
 62
               7
100
AcDbCircle
 10
25.844285429100637
 20
275.67554350000006
 30
0.0
 40
0.5918621510213529
100
AcDbArc
 50
359.97429305030761
 51
70.125917451709711
  0
ARC
  5
E5
100
AcDbEntity
  8
0
370
              15
  6
Continuous
 62
               7
100
AcDbCircle
 10
25.703029618100572
 20
275.96770295900006
 30
0.0
 40
2.8195922682114074
100
AcDbArc
 50
258.1512011612005
 51
287.14340129950034
  0
LINE
  5
E6
100
AcDbEntity
  8
0
370
              15
  6
Continuous
 62
               7
100
AcDbLine
 10
25.124083641900597
 20
273.2081881256002
 30
0.0
 11
25.087834099900533
 21
275.61293594060027
 31
0.0
  0
LINE
  5
E7
100
AcDbEntity
  8
0
370
              15
  6
Continuous
 62
               7
100
AcDbLine
 10
26.436147520500526
 20
275.67527794880021
 30
0.0
 11
26.534144617900552
 21
273.27338515740013
 31
0.0
  0
LINE
  5
E8
100
AcDbEntity
  8
0
370
              15
  6
Continuous
 62
               7
100
AcDbLine
 10
25.087834099900533
 20
275.61293594060027
 30
0.0
 11
-27.07715588609949
 21
287.76358785020017
 31
0.0
  0
ARC
  5
E9
100
AcDbEntity
  8
0
370
              15
  6
Continuous
 62
               7
100
AcDbCircle
 10
-26.454731340299531
 20
287.81026240820012
 30
0.0
 40
0.6241721153760482
100
AcDbArc
 50
119.58476778829034
 51
184.28848665069236
  0
LINE
  5
EA
100
AcDbEntity
  8
0
370
              15
  6
Continuous
 62
               7
100
AcDbLine
 10
-26.762891787299395
 20
288.35305884180008
 30
0.0
 11
25.402098198900603
 21
276.20240693220018
 31
0.0
  0
ARC
  5
EB
100
AcDbEntity
  8
0
370
              15
  6
Continuous
 62
               7
100
AcDbCircle
 10
32.439671494300569
 20
316.64206919520012
 30
0.0
 40
33.155321668935912
100
AcDbArc
 50
285.11402805829982
 51
295.38656251950005
  0
ARC
  5
EC
100
AcDbEntity
  8
0
370
              15
  6
Continuous
 62
               7
100
AcDbCircle
 10
14.041223628500575
 20
327.67127603260025
 30
0.0
 40
45.263192994816031
100
AcDbArc
 50
249.48451039610006
 51
264.20851377050002
  0
POLYLINE
  5
ED
100
AcDbEntity
  8
0
370
              15
  6
Continuous
 62
               7
100
AcDb2dPolyline
 66
               1
 10
0.0
 20
0.0
 30
0.0
 75
               5
  0
VERTEX
  5
EE
100
AcDbEntity
  8
0
370
              15
  6
Continuous
 62
               7
100
AcDbVertex
100
AcDb2dVertex
 10
71.174509183100554
 20
292.88139339240007
 30
0.0
  0
VERTEX
  5
EF
100
AcDbEntity
  8
0
370
              15
  6
Continuous
 62
               7
100
AcDbVertex
100
AcDb2dVertex
 10
71.226102113100524
 20
292.90441745920026
 30
0.0
  0
VERTEX
  5
F0
100
AcDbEntity
  8
0
370
              15
  6
Continuous
 62
               7
100
AcDbVertex
100
AcDb2dVertex
 10
71.262455519300602
 20
292.92964359140007
 30
0.0
  0
VERTEX
  5
F1
100
AcDbEntity
  8
0
370
              15
  6
Continuous
 62
               7
100
AcDbVertex
100
AcDb2dVertex
 10
71.282169941100506
 20
292.95610291680015
 30
0.0
  0
VERTEX
  5
F2
100
AcDbEntity
  8
0
370
              15
  6
Continuous
 62
               7
100
AcDbVertex
100
AcDb2dVertex
 10
71.284494877100542
 20
292.9827795180002
 30
0.0
  0
VERTEX
  5
F3
100
AcDbEntity
  8
0
370
              15
  6
Continuous
 62
               7
100
AcDbVertex
100
AcDb2dVertex
 10
71.269332989300551
 20
293.00864758040012
 30
0.0
  0
VERTEX
  5
F4
100
AcDbEntity
  8
0
370
              15
  6
Continuous
 62
               7
100
AcDbVertex
100
AcDb2dVertex
 10
71.237275067100541
 20
293.03271310620022
 30
0.0
  0
VERTEX
  5
F5
100
AcDbEntity
  8
0
370
              15
  6
Continuous
 62
               7
100
AcDbVertex
100
AcDb2dVertex
 10
71.189545689900569
 20
293.05405150040025
 30
0.0
  0
VERTEX
  5
F6
100
AcDbEntity
  8
0
370
              15
  6
Continuous
 62
               7
100
AcDbVertex
100
AcDb2dVertex
 10
71.127981168700558
 20
293.07184350260019
 30
0.0
  0
SEQEND
  5
F7
100
AcDbEntity
  8
0
370
              15
  6
Continuous
 62
               7
  0
LINE
  5
F8
100
AcDbEntity
  8
0
370
              15
  6
Continuous
 62
               7
100
AcDbLine
 10
26.045491441900595
 20
276.23215552500011
 30
0.0
 11
71.174509183100554
 21
292.88139339240007
 31
0.0
  0
POLYLINE
  5
F9
100
AcDbEntity
  8
0
370
              15
  6
Continuous
 62
               7
100
AcDb2dPolyline
 66
               1
 10
0.0
 20
0.0
 30
0.0
 75
               5
  0
VERTEX
  5
FA
100
AcDbEntity
  8
0
370
              15
  6
Continuous
 62
               7
100
AcDbVertex
100
AcDb2dVertex
 10
-26.809419801699505
 20
288.5435089520002
 30
0.0
  0
VERTEX
  5
FB
100
AcDbEntity
  8
0
370
              15
  6
Continuous
 62
               7
100
AcDbVertex
100
AcDb2dVertex
 10
-26.861012731699475
 20
288.52048488520023
 30
0.0
  0
VERTEX
  5
FC
100
AcDbEntity
  8
0
370
              15
  6
Continuous
 62
               7
100
AcDbVertex
100
AcDb2dVertex
 10
-26.897366137899439
 20
288.4952587530002
 30
0.0
  0
VERTEX
  5
FD
100
AcDbEntity
  8
0
370
              15
  6
Continuous
 62
               7
100
AcDbVertex
100
AcDb2dVertex
 10
-26.917080559699457
 20
288.46879942760012
 30
0.0
  0
VERTEX
  5
FE
100
AcDbEntity
  8
0
370
              15
  6
Continuous
 62
               7
100
AcDbVertex
100
AcDb2dVertex
 10
-26.919405495699493
 20
288.44212282640007
 30
0.0
  0
VERTEX
  5
FF
100
AcDbEntity
  8
0
370
              15
  6
Continuous
 62
               7
100
AcDbVertex
100
AcDb2dVertex
 10
-26.904243607899389
 20
288.41625476420023
 30
0.0
  0
VERTEX
  5
100
100
AcDbEntity
  8
0
370
              15
  6
Continuous
 62
               7
100
AcDbVertex
100
AcDb2dVertex
 10
-26.872185685699378
 20
288.39218923820005
 30
0.0
  0
VERTEX
  5
101
100
AcDbEntity
  8
0
370
              15
  6
Continuous
 62
               7
100
AcDbVertex
100
AcDb2dVertex
 10
-26.824456308499521
 20
288.37085084420011
 30
0.0
  0
VERTEX
  5
102
100
AcDbEntity
  8
0
370
              15
  6
Continuous
 62
               7
100
AcDbVertex
100
AcDb2dVertex
 10
-26.762891787299395
 20
288.35305884180008
 30
0.0
  0
SEQEND
  5
103
100
AcDbEntity
  8
0
370
              15
  6
Continuous
 62
               7
  0
LINE
  5
104
100
AcDbEntity
  8
0
370
              15
  6
Continuous
 62
               7
100
AcDbLine
 10
71.565165261900574
 20
292.32451581620018
 30
0.0
 11
26.436147520500526
 21
275.67527794880021
 31
0.0
  0
ARC
  5
105
100
AcDbEntity
  8
0
370
              15
  6
Continuous
 62
               7
100
AcDbCircle
 10
70.973303170500571
 20
292.32478136760011
 30
0.0
 40
0.5918621510221487
100
AcDbArc
 50
359.97429305030761
 51
70.125917451702946
  0
LINE
  5
106
100
AcDbEntity
  8
0
370
              15
  6
Continuous
 62
               7
100
AcDbLine
 10
-27.040906344099426
 20
285.3588400352001
 30
0.0
 11
25.124083641900597
 21
273.2081881256002
 31
0.0
  0
LINE
  5
107
100
AcDbEntity
  8
0
370
              15
  6
Continuous
 62
               7
100
AcDbLine
 10
-27.07715588609949
 20
287.76358785020017
 30
0.0
 11
-27.040906344099426
 21
285.3588400352001
 31
0.0
  0
LINE
  5
108
100
AcDbEntity
  8
0
370
              15
  6
Continuous
 62
               7
100
AcDbLine
 10
26.534144617900552
 20
273.27338515740013
 30
0.0
 11
71.663162359100511
 21
289.92262302480009
 31
0.0
  0
LINE
  5
109
100
AcDbEntity
  8
0
370
              15
  6
Continuous
 62
               7
100
AcDbLine
 10
71.663162359100511
 20
289.92262302480009
 30
0.0
 11
71.565165261900574
 21
292.32451581620018
 31
0.0
  0
LINE
  5
10A
100
AcDbEntity
  8
0
370
              15
  6
Continuous
 62
               7
100
AcDbLine
 10
-27.407097545299393
 20
287.9611013656002
 30
0.0
 11
-27.407640544699461
 21
287.96995595140021
 31
0.0
  0
POLYLINE
  5
10B
100
AcDbEntity
  8
0
370
              15
  6
Continuous
 62
               7
100
AcDb2dPolyline
 66
               1
 10
0.0
 20
0.0
 30
0.0
 75
               5
  0
VERTEX
  5
10C
100
AcDbEntity
  8
0
370
              15
  6
Continuous
 62
               7
100
AcDbVertex
100
AcDb2dVertex
 10
-26.969546282299461
 20
288.53543266020012
 30
0.0
  0
VERTEX
  5
10D
100
AcDbEntity
  8
0
370
              15
  6
Continuous
 62
               7
100
AcDbVertex
100
AcDb2dVertex
 10
-27.015233896499467
 20
288.51325427860007
 30
0.0
  0
VERTEX
  5
10E
100
AcDbEntity
  8
0
370
              15
  6
Continuous
 62
               7
100
AcDbVertex
100
AcDb2dVertex
 10
-27.019799230099466
 20
288.51039369020015
 30
0.0
  0
SEQEND
  5
10F
100
AcDbEntity
  8
0
370
              15
  6
Continuous
 62
               7
  0
POLYLINE
  5
110
100
AcDbEntity
  8
0
370
              15
  6
Continuous
 62
               7
100
AcDb2dPolyline
 66
               1
 10
0.0
 20
0.0
 30
0.0
 75
               5
  0
VERTEX
  5
111
100
AcDbEntity
  8
0
370
              15
  6
Continuous
 62
               7
100
AcDbVertex
100
AcDb2dVertex
 10
-27.040906344099426
 20
285.3588400352001
 30
0.0
  0
VERTEX
  5
112
100
AcDbEntity
  8
0
370
              15
  6
Continuous
 62
               7
100
AcDbVertex
100
AcDb2dVertex
 10
-27.175829499299425
 20
285.39783109800015
 30
0.0
  0
VERTEX
  5
113
100
AcDbEntity
  8
0
370
              15
  6
Continuous
 62
               7
100
AcDbVertex
100
AcDb2dVertex
 10
-27.280433576299401
 20
285.4445972132001
 30
0.0
  0
VERTEX
  5
114
100
AcDbEntity
  8
0
370
              15
  6
Continuous
 62
               7
100
AcDbVertex
100
AcDb2dVertex
 10
-27.350698740699499
 20
285.49733979900026
 30
0.0
  0
VERTEX
  5
115
100
AcDbEntity
  8
0
370
              15
  6
Continuous
 62
               7
100
AcDbVertex
100
AcDb2dVertex
 10
-27.383925386499413
 20
285.55403254900017
 30
0.0
  0
VERTEX
  5
116
100
AcDbEntity
  8
0
370
              15
  6
Continuous
 62
               7
100
AcDbVertex
100
AcDb2dVertex
 10
-27.386526323299449
 20
285.57465935220017
 30
0.0
  0
SEQEND
  5
117
100
AcDbEntity
  8
0
370
              15
  6
Continuous
 62
               7
  0
LINE
  5
118
100
AcDbEntity
  8
0
370
              15
  6
Continuous
 62
               7
100
AcDbLine
 10
71.254339597500575
 20
293.08163641540006
 30
0.0
 11
71.307233965300497
 21
293.06109758820008
 31
0.0
  0
LINE
  5
119
100
AcDbEntity
  8
0
370
              15
  6
Continuous
 62
               7
100
AcDbLine
 10
71.797310200900597
 20
292.52841623620026
 30
0.0
 11
71.798060427300584
 21
292.52035510420006
 31
0.0
  0
POLYLINE
  5
11A
100
AcDbEntity
  8
0
370
              15
  6
Continuous
 62
               7
100
AcDb2dPolyline
 66
               1
 10
0.0
 20
0.0
 30
0.0
 75
               5
  0
VERTEX
  5
11B
100
AcDbEntity
  8
0
370
              15
  6
Continuous
 62
               7
100
AcDbVertex
100
AcDb2dVertex
 10
71.9067219841005
 20
290.12743097540016
 30
0.0
  0
VERTEX
  5
11C
100
AcDbEntity
  8
0
370
              15
  6
Continuous
 62
               7
100
AcDbVertex
100
AcDb2dVertex
 10
71.899117496900544
 20
290.08635653360017
 30
0.0
  0
VERTEX
  5
11D
100
AcDbEntity
  8
0
370
              15
  6
Continuous
 62
               7
100
AcDbVertex
100
AcDb2dVertex
 10
71.855904784700556
 20
290.02836706800014
 30
0.0
  0
VERTEX
  5
11E
100
AcDbEntity
  8
0
370
              15
  6
Continuous
 62
               7
100
AcDbVertex
100
AcDb2dVertex
 10
71.776232724700549
 20
289.97308057160018
 30
0.0
  0
VERTEX
  5
11F
100
AcDbEntity
  8
0
370
              15
  6
Continuous
 62
               7
100
AcDbVertex
100
AcDb2dVertex
 10
71.663162359100511
 20
289.92262302480009
 30
0.0
  0
SEQEND
  5
120
100
AcDbEntity
  8
0
370
              15
  6
Continuous
 62
               7
  0
LINE
  5
121
100
AcDbEntity
  8
0
370
              15
  6
Continuous
 62
               7
100
AcDbLine
 10
25.606147715300494
 20
273.15197645500012
 30
0.0
 11
45.674299913900541
 21
-467.27533064399984
 31
0.0
  0
LINE
  5
122
100
AcDbEntity
  8
0
370
              15
  6
Continuous
 62
               7
100
AcDbLine
 10
26.0292754135005
 20
273.16753779180027
 30
0.0
 11
46.097319257300569
 21
-467.25577148599984
 31
0.0
  0
LINE
  5
123
100
AcDbEntity
  8
0
370
              15
  6
Continuous
 62
               7
100
AcDbLine
 10
-26.859718051499385
 20
285.31663669140022
 30
0.0
 11
-6.7930953050994276
 21
-455.05424029059986
 31
0.0
  0
LINE
  5
124
100
AcDbEntity
  8
0
370
              15
  6
Continuous
 62
               7
100
AcDbLine
 10
71.422068057700585
 20
289.83367769400007
 30
0.0
 11
91.48795405490057
 21
-450.51001645899981
 31
0.0
  0
LINE
  5
125
100
AcDbEntity
  8
0
370
              15
  6
Continuous
 62
               7
100
AcDbLine
 10
21.618681065100532
 20
-307.66356596339989
 30
0.0
 11
22.260263529100484
 21
-331.33516120179985
 31
0.0
  0
LINE
  5
126
100
AcDbEntity
  8
0
370
              15
  6
Continuous
 62
               7
100
AcDbLine
 10
21.751858632500557
 20
-307.8073177157998
 30
0.0
 11
22.387292669700628
 21
-331.25206282099981
 31
0.0
  0
LINE
  5
127
100
AcDbEntity
  8
0
370
              15
  6
Continuous
 62
               7
100
AcDbLine
 10
23.163236471900518
 20
-309.5567366645999
 30
0.0
 11
23.721170731900543
 21
-330.1420779349998
 31
0.0
  0
LINE
  5
128
100
AcDbEntity
  8
0
370
              15
  6
Continuous
 62
               7
100
AcDbLine
 10
23.297712177500557
 20
-309.74838405679981
 30
0.0
 11
23.846900192700559
 21
-330.01102703099986
 31
0.0
  0
LINE
  5
129
100
AcDbEntity
  8
0
370
              15
  6
Continuous
 62
               7
100
AcDbLine
 10
26.735037117700585
 20
-318.62576807599982
 30
0.0
 11
26.843629001500631
 21
-322.63233505899979
 31
0.0
  0
LINE
  5
12A
100
AcDbEntity
  8
0
370
              15
  6
Continuous
 62
               7
100
AcDbLine
 10
26.825198505500566
 20
-319.41048828079983
 30
0.0
 11
26.892128169100488
 21
-321.87990101399981
 31
0.0
  0
ARC
  5
12B
100
AcDbEntity
  8
0
370
              15
  6
Continuous
 62
               7
100
AcDbCircle
 10
-23.262684783699456
 20
292.4215879882002
 30
0.0
 40
2.1337067172719708
100
AcDbArc
 50
173.64734147020047
 51
246.84438095530274
  0
ARC
  5
12C
100
AcDbEntity
  8
0
370
              15
  6
Continuous
 62
               7
100
AcDbCircle
 10
25.500239291300545
 20
281.06337021240012
 30
0.0
 40
2.1337067172716315
100
AcDbArc
 50
173.64734147019945
 51
246.84438095529907
  0
ARC
  5
12D
100
AcDbEntity
  8
0
370
              15
  6
Continuous
 62
               7
100
AcDbCircle
 10
25.398670744300489
 20
281.2104836508002
 30
0.0
 40
2.2293774255059238
100
AcDbArc
 50
296.11928652490008
 51
7.3334866053002097
  0
ARC
  5
12E
100
AcDbEntity
  8
0
370
              15
  6
Continuous
 62
               7
100
AcDbCircle
 10
67.584490511100512
 20
296.77390122760022
 30
0.0
 40
2.2293774255061778
100
AcDbArc
 50
296.11928652490008
 51
7.3334866052995267
  0
ARC
  5
12F
100
AcDbEntity
  8
0
370
              15
  6
Continuous
 62
               7
100
AcDbCircle
 10
66.256105083100579
 20
360.80354094480009
 30
0.0
 40
1.2915709215615228
100
AcDbArc
 50
77.311616838301305
 51
111.55287619220063
  0
ARC
  5
130
100
AcDbEntity
  8
0
370
              15
  6
Continuous
 62
               7
100
AcDbCircle
 10
17.493181008300553
 20
372.16175872060012
 30
0.0
 40
1.2915709215592046
100
AcDbArc
 50
77.311616838298832
 51
111.55287619220113
  0
POLYLINE
  5
131
100
AcDbEntity
  8
0
370
              15
  6
Continuous
 62
               7
100
AcDb2dPolyline
 66
               1
 10
0.0
 20
0.0
 30
0.0
 75
               5
  0
VERTEX
  5
132
100
AcDbEntity
  8
0
370
              15
  6
Continuous
 62
               7
100
AcDbVertex
100
AcDb2dVertex
 10
-28.088412285899494
 20
354.85530071220006
 30
0.0
  0
VERTEX
  5
133
100
AcDbEntity
  8
0
370
              15
  6
Continuous
 62
               7
100
AcDbVertex
100
AcDb2dVertex
 10
-28.08069912549945
 20
354.79827742360027
 30
0.0
  0
VERTEX
  5
134
100
AcDbEntity
  8
0
370
              15
  6
Continuous
 62
               7
100
AcDbVertex
100
AcDb2dVertex
 10
-27.981024440899432
 20
354.62819893040006
 30
0.0
  0
VERTEX
  5
135
100
AcDbEntity
  8
0
370
              15
  6
Continuous
 62
               7
100
AcDbVertex
100
AcDb2dVertex
 10
-27.77023138429945
 20
354.46997027420008
 30
0.0
  0
VERTEX
  5
136
100
AcDbEntity
  8
0
370
              15
  6
Continuous
 62
               7
100
AcDbVertex
100
AcDb2dVertex
 10
-27.456417096699397
 20
354.32967438260022
 30
0.0
  0
VERTEX
  5
137
100
AcDbEntity
  8
0
370
              15
  6
Continuous
 62
               7
100
AcDbVertex
100
AcDb2dVertex
 10
-27.051644814699443
 20
354.21270053820018
 30
0.0
  0
SEQEND
  5
138
100
AcDbEntity
  8
0
370
              15
  6
Continuous
 62
               7
  0
ARC
  5
139
100
AcDbEntity
  8
0
370
              15
  6
Continuous
 62
               7
100
AcDbCircle
 10
-25.568250484699433
 20
356.20399609320026
 30
0.0
 40
1.6452594196374244
100
AcDbArc
 50
75.888125311002383
 51
109.8858154261994
  0
POLYLINE
  5
13A
100
AcDbEntity
  8
0
370
              15
  6
Continuous
 62
               7
100
AcDb2dPolyline
 66
               1
 10
0.0
 20
0.0
 30
0.0
 75
               5
  0
VERTEX
  5
13B
100
AcDbEntity
  8
0
370
              15
  6
Continuous
 62
               7
100
AcDbVertex
100
AcDb2dVertex
 10
-26.420057335899401
 20
293.30027807160019
 30
0.0
  0
VERTEX
  5
13C
100
AcDbEntity
  8
0
370
              15
  6
Continuous
 62
               7
100
AcDbVertex
100
AcDb2dVertex
 10
-26.41234417549947
 20
293.24325478300017
 30
0.0
  0
VERTEX
  5
13D
100
AcDbEntity
  8
0
370
              15
  6
Continuous
 62
               7
100
AcDbVertex
100
AcDb2dVertex
 10
-26.312669490699363
 20
293.07317628980019
 30
0.0
  0
VERTEX
  5
13E
100
AcDbEntity
  8
0
370
              15
  6
Continuous
 62
               7
100
AcDbVertex
100
AcDb2dVertex
 10
-26.10187643429947
 20
292.91494763360021
 30
0.0
  0
VERTEX
  5
13F
100
AcDbEntity
  8
0
370
              15
  6
Continuous
 62
               7
100
AcDbVertex
100
AcDb2dVertex
 10
-25.788062146699531
 20
292.77465174200012
 30
0.0
  0
VERTEX
  5
140
100
AcDbEntity
  8
0
370
              15
  6
Continuous
 62
               7
100
AcDbVertex
100
AcDb2dVertex
 10
-25.383289864699464
 20
292.65767789760008
 30
0.0
  0
SEQEND
  5
141
100
AcDbEntity
  8
0
370
              15
  6
Continuous
 62
               7
  0
ARC
  5
142
100
AcDbEntity
  8
0
370
              15
  6
Continuous
 62
               7
100
AcDbCircle
 10
16.617569282300565
 20
371.76741366980013
 30
0.0
 40
1.6452594196402646
100
AcDbArc
 50
75.888125310998674
 51
109.88581542620126
  0
POLYLINE
  5
143
100
AcDbEntity
  8
0
370
              15
  6
Continuous
 62
               7
100
AcDb2dPolyline
 66
               1
 10
0.0
 20
0.0
 30
0.0
 75
               5
  0
VERTEX
  5
144
100
AcDbEntity
  8
0
370
              15
  6
Continuous
 62
               7
100
AcDbVertex
100
AcDb2dVertex
 10
68.858132088300522
 20
359.22306115220005
 30
0.0
  0
VERTEX
  5
145
100
AcDbEntity
  8
0
370
              15
  6
Continuous
 62
               7
100
AcDbVertex
100
AcDb2dVertex
 10
68.835144931100558
 20
359.10469106180022
 30
0.0
  0
VERTEX
  5
146
100
AcDbEntity
  8
0
370
              15
  6
Continuous
 62
               7
100
AcDbVertex
100
AcDb2dVertex
 10
68.705509610900549
 20
358.93072200860007
 30
0.0
  0
VERTEX
  5
147
100
AcDbEntity
  8
0
370
              15
  6
Continuous
 62
               7
100
AcDbVertex
100
AcDb2dVertex
 10
68.466490234900562
 20
358.76486473040023
 30
0.0
  0
VERTEX
  5
148
100
AcDbEntity
  8
0
370
              15
  6
Continuous
 62
               7
100
AcDbVertex
100
AcDb2dVertex
 10
68.127276701700566
 20
358.6134911914001
 30
0.0
  0
SEQEND
  5
149
100
AcDbEntity
  8
0
370
              15
  6
Continuous
 62
               7
  0
POLYLINE
  5
14A
100
AcDbEntity
  8
0
370
              15
  6
Continuous
 62
               7
100
AcDb2dPolyline
 66
               1
 10
0.0
 20
0.0
 30
0.0
 75
               5
  0
VERTEX
  5
14B
100
AcDbEntity
  8
0
370
              15
  6
Continuous
 62
               7
100
AcDbVertex
100
AcDb2dVertex
 10
69.795631651700546
 20
297.05846855080023
 30
0.0
  0
VERTEX
  5
14C
100
AcDbEntity
  8
0
370
              15
  6
Continuous
 62
               7
100
AcDbVertex
100
AcDb2dVertex
 10
70.134845184900541
 20
297.20984208980013
 30
0.0
  0
VERTEX
  5
14D
100
AcDbEntity
  8
0
370
              15
  6
Continuous
 62
               7
100
AcDbVertex
100
AcDb2dVertex
 10
70.373864561100504
 20
297.3756993680002
 30
0.0
  0
VERTEX
  5
14E
100
AcDbEntity
  8
0
370
              15
  6
Continuous
 62
               7
100
AcDbVertex
100
AcDb2dVertex
 10
70.503499881100538
 20
297.54966842120012
 30
0.0
  0
VERTEX
  5
14F
100
AcDbEntity
  8
0
370
              15
  6
Continuous
 62
               7
100
AcDbVertex
100
AcDb2dVertex
 10
70.526487038500591
 20
297.66803851180026
 30
0.0
  0
SEQEND
  5
150
100
AcDbEntity
  8
0
370
              15
  6
Continuous
 62
               7
  0
LINE
  5
151
100
AcDbEntity
  8
0
370
              15
  6
Continuous
 62
               7
100
AcDbLine
 10
71.127981168700558
 20
293.07184350260019
 30
0.0
 11
66.732315766500506
 21
294.09571411440021
 31
0.0
  0
LINE
  5
152
100
AcDbEntity
  8
0
370
              15
  6
Continuous
 62
               7
100
AcDbLine
 10
-22.577553036899417
 20
290.10475180460008
 30
0.0
 11
-26.809419801699505
 21
288.5435089520002
 31
0.0
  0
POLYLINE
  5
153
100
AcDbEntity
  8
0
370
              15
  6
Continuous
 62
               7
100
AcDb2dPolyline
 66
               1
 10
0.0
 20
0.0
 30
0.0
 75
               5
  0
VERTEX
  5
154
100
AcDbEntity
  8
0
370
              15
  6
Continuous
 62
               7
100
AcDbVertex
100
AcDb2dVertex
 10
-27.07715588609949
 20
287.76358785020017
 30
0.0
  0
VERTEX
  5
155
100
AcDbEntity
  8
0
370
              15
  6
Continuous
 62
               7
100
AcDbVertex
100
AcDb2dVertex
 10
-27.2061717476995
 20
287.80087153300025
 30
0.0
  0
VERTEX
  5
156
100
AcDbEntity
  8
0
370
              15
  6
Continuous
 62
               7
100
AcDbVertex
100
AcDb2dVertex
 10
-27.306195742699401
 20
287.84558978980027
 30
0.0
  0
VERTEX
  5
157
100
AcDbEntity
  8
0
370
              15
  6
Continuous
 62
               7
100
AcDbVertex
100
AcDb2dVertex
 10
-27.373381262899443
 20
287.89602251460025
 30
0.0
  0
VERTEX
  5
158
100
AcDbEntity
  8
0
370
              15
  6
Continuous
 62
               7
100
AcDbVertex
100
AcDb2dVertex
 10
-27.405154115499499
 20
287.95023273680005
 30
0.0
  0
VERTEX
  5
159
100
AcDbEntity
  8
0
370
              15
  6
Continuous
 62
               7
100
AcDbVertex
100
AcDb2dVertex
 10
-27.407097545299393
 20
287.9611013656002
 30
0.0
  0
SEQEND
  5
15A
100
AcDbEntity
  8
0
370
              15
  6
Continuous
 62
               7
  0
ARC
  5
15B
100
AcDbEntity
  8
0
370
              15
  6
Continuous
 62
               7
100
AcDbCircle
 10
-26.876268338099408
 20
288.27746640000015
 30
0.0
 40
0.2743125338447389
100
AcDbArc
 50
75.895286783212484
 51
109.87946884172987
  0
ARC
  5
15C
100
AcDbEntity
  8
0
370
              15
  6
Continuous
 62
               7
100
AcDbCircle
 10
71.206992798300575
 20
292.87245354000021
 30
0.0
 40
0.2144742287892729
100
AcDbArc
 50
77.246470227499429
 51
111.61678060410516
  0
POLYLINE
  5
15D
100
AcDbEntity
  8
0
370
              15
  6
Continuous
 62
               7
100
AcDb2dPolyline
 66
               1
 10
0.0
 20
0.0
 30
0.0
 75
               5
  0
VERTEX
  5
15E
100
AcDbEntity
  8
0
370
              15
  6
Continuous
 62
               7
100
AcDbVertex
100
AcDb2dVertex
 10
71.798060427300584
 20
292.52035510420006
 30
0.0
  0
VERTEX
  5
15F
100
AcDbEntity
  8
0
370
              15
  6
Continuous
 62
               7
100
AcDbVertex
100
AcDb2dVertex
 10
71.790786834300548
 20
292.48107913380005
 30
0.0
  0
VERTEX
  5
160
100
AcDbEntity
  8
0
370
              15
  6
Continuous
 62
               7
100
AcDbVertex
100
AcDb2dVertex
 10
71.749468951300514
 20
292.42562953360022
 30
0.0
  0
VERTEX
  5
161
100
AcDbEntity
  8
0
370
              15
  6
Continuous
 62
               7
100
AcDbVertex
100
AcDb2dVertex
 10
71.6732852267005
 20
292.37276395540022
 30
0.0
  0
VERTEX
  5
162
100
AcDbEntity
  8
0
370
              15
  6
Continuous
 62
               7
100
AcDbVertex
100
AcDb2dVertex
 10
71.565165261900574
 20
292.32451581620018
 30
0.0
  0
SEQEND
  5
163
100
AcDbEntity
  8
0
370
              15
  6
Continuous
 62
               7
  0
SPLINE
  5
164
100
AcDbEntity
  8
0
370
              15
  6
Continuous
 62
               7
100
AcDbSpline
210
0.0
220
0.0
230
1.0
 70
               8
 71
               2
 72
              11
 73
               8
 74
               0
 42
0.000001
 43
0.000001
 40
0.0
 40
0.0
 40
0.0
 40
1.0
 40
1.0
 40
2.0
 40
3.0
 40
3.0
 40
4.0
 40
4.0
 40
4.0
 10
17.028297486274141
 20
339.13725250807505
 30
0.0
 10
17.039728242186243
 20
338.99916270401519
 30
0.0
 10
17.051158998098344
 20
338.86107289995533
 30
0.0
 10
18.667854535581569
 20
318.40971821220904
 30
0.0
 10
22.589136007127308
 20
291.07897258608722
 30
0.0
 10
23.755338314996493
 20
283.55369241006287
 30
0.0
 10
23.755444418544414
 20
283.55300298646222
 30
0.0
 10
23.755550522092335
 20
283.55231356286157
 30
0.0
  0
SPLINE
  5
165
100
AcDbEntity
  8
0
370
              15
  6
Continuous
 62
               7
100
AcDbSpline
210
0.0
220
0.0
230
1.0
 70
               8
 71
               2
 72
              17
 73
              14
 74
               0
 42
0.000001
 43
0.000001
 40
0.0
 40
0.0
 40
0.0
 40
1.0
 40
1.0
 40
2.0
 40
3.0
 40
4.0
 40
5.0
 40
6.0
 40
7.0
 40
8.0
 40
9.0
 40
9.0
 40
10.0
 40
10.0
 40
10.0
 10
43.179659785766376
 20
290.7183578329504
 30
0.0
 10
43.18080509763422
 20
290.70815685291751
 30
0.0
 10
43.181950409502065
 20
290.69795587288462
 30
0.0
 10
43.225601278180079
 20
290.3921917126865
 30
0.0
 10
43.193157506586203
 20
289.5428377920702
 30
0.0
 10
42.145424103856499
 20
288.05398044458951
 30
0.0
 10
39.055395846201236
 20
286.29527150666235
 30
0.0
 10
35.442309432850834
 20
285.19047449012481
 30
0.0
 10
32.368537490593326
 20
284.49065572113926
 30
0.0
 10
28.211511588028429
 20
283.85372277103414
 30
0.0
 10
24.8496568009881
 20
283.61401927380706
 30
0.0
 10
23.823880742714209
 20
283.55625124798979
 30
0.0
 10
23.789713005965382
 20
283.55428228398699
 30
0.0
 10
23.755545269216555
 20
283.55231331998419
 30
0.0
  0
SPLINE
  5
166
100
AcDbEntity
  8
0
370
              15
  6
Continuous
 62
               7
100
AcDbSpline
210
0.0
220
0.0
230
1.0
 70
               8
 71
               2
 72
              11
 73
               8
 74
               0
 42
0.000001
 43
0.000001
 40
0.0
 40
0.0
 40
0.0
 40
1.0
 40
1.0
 40
2.0
 40
3.0
 40
3.0
 40
4.0
 40
4.0
 40
4.0
 10
36.25178503204279
 20
343.10503657505041
 30
0.0
 10
36.277009593145294
 20
342.97607558699923
 30
0.0
 10
36.302234154247799
 20
342.84711459894805
 30
0.0
 10
38.8763713319305
 20
330.00419535821169
 30
0.0
 10
42.603337516432475
 20
304.08500811695848
 30
0.0
 10
43.179604915098707
 20
290.719684956055
 30
0.0
 10
43.17963216049742
 20
290.71902217195162
 30
0.0
 10
43.179659405896132
 20
290.71835938784824
 30
0.0
  0
SPLINE
  5
167
100
AcDbEntity
  8
0
370
              15
  6
Continuous
 62
               7
100
AcDbSpline
210
0.0
220
0.0
230
1.0
 70
               8
 71
               2
 72
              11
 73
               8
 74
               0
 42
0.000001
 43
0.000001
 40
0.0
 40
0.0
 40
0.0
 40
1.0
 40
1.0
 40
2.0
 40
3.0
 40
3.0
 40
4.0
 40
4.0
 40
4.0
 10
26.710233404355563
 20
339.58491646995247
 30
0.0
 10
26.756636876915991
 20
339.60256097962719
 30
0.0
 10
26.803040349476419
 20
339.6202054893019
 30
0.0
 10
30.246220809895817
 20
340.93889763956003
 30
0.0
 10
34.801279619723573
 20
342.58715675649222
 30
0.0
 10
36.161100434782952
 20
343.07263075126565
 30
0.0
 10
36.206442733412871
 20
343.08883366315803
 30
0.0
 10
36.25178503204279
 20
343.10503657505041
 30
0.0
  0
SPLINE
  5
168
100
AcDbEntity
  8
0
370
              15
  6
Continuous
 62
               7
100
AcDbSpline
210
0.0
220
0.0
230
1.0
 70
               8
 71
               2
 72
              12
 73
               9
 74
               0
 42
0.000001
 43
0.000001
 40
0.0
 40
0.0
 40
0.0
 40
1.0
 40
1.0
 40
2.0
 40
3.0
 40
4.0
 40
4.0
 40
5.0
 40
5.0
 40
5.0
 10
23.755550522092335
 20
283.55231356286157
 30
0.0
 10
23.755617132665918
 20
283.55301097225032
 30
0.0
 10
23.755683743239501
 20
283.55370838163907
 30
0.0
 10
24.317331027021964
 20
289.38016936952175
 30
0.0
 10
26.37493004683688
 20
313.6482633169573
 30
0.0
 10
26.681891299567724
 20
335.70192213202284
 30
0.0
 10
26.708058860850542
 20
339.30757926899031
 30
0.0
 10
26.709146132603053
 20
339.44624786947139
 30
0.0
 10
26.710233404355563
 20
339.58491646995247
 30
0.0
  0
SPLINE
  5
169
100
AcDbEntity
  8
0
370
              15
  6
Continuous
 62
               7
100
AcDbSpline
210
0.0
220
0.0
230
1.0
 70
               8
 71
               2
 72
              16
 73
              13
 74
               0
 42
0.000001
 43
0.000001
 40
0.0
 40
0.0
 40
0.0
 40
1.0
 40
1.0
 40
2.0
 40
3.0
 40
4.0
 40
5.0
 40
6.0
 40
7.0
 40
8.0
 40
8.0
 40
9.0
 40
9.0
 40
9.0
 10
25.176821283420622
 20
341.68358593353418
 30
0.0
 10
25.165724373557339
 20
341.68026436395604
 30
0.0
 10
25.154627463694055
 20
341.67694279437791
 30
0.0
 10
24.867441992140812
 20
341.59000843715029
 30
0.0
 10
23.957482850532642
 20
341.33149664493561
 30
0.0
 10
22.935644297759836
 20
341.19476309520763
 30
0.0
 10
21.7536872440553
 20
341.07897214862163
 30
0.0
 10
20.318663604519998
 20
341.0991246237258
 30
0.0
 10
19.221463733823157
 20
341.18235582167853
 30
0.0
 10
18.479626654449476
 20
341.32036494981429
 30
0.0
 10
18.274835073899112
 20
341.36112344596285
 30
0.0
 10
18.267993969102918
 20
341.36247470553218
 30
0.0
 10
18.261152864306723
 20
341.36382596510151
 30
0.0
  0
SPLINE
  5
16A
100
AcDbEntity
  8
0
370
              15
  6
Continuous
 62
               7
100
AcDbSpline
210
0.0
220
0.0
230
1.0
 70
               8
 71
               2
 72
              16
 73
              13
 74
               0
 42
0.000001
 43
0.000001
 40
0.0
 40
0.0
 40
0.0
 40
1.0
 40
1.0
 40
2.0
 40
3.0
 40
4.0
 40
5.0
 40
6.0
 40
7.0
 40
8.0
 40
8.0
 40
9.0
 40
9.0
 40
9.0
 10
17.028297486274141
 20
339.13725250807505
 30
0.0
 10
17.038603437261031
 20
339.1355019201099
 30
0.0
 10
17.048909388247921
 20
339.13375133214475
 30
0.0
 10
17.35688993397855
 20
339.08069263409783
 30
0.0
 10
18.59380452566711
 20
338.88676854632712
 30
0.0
 10
20.411584434528891
 20
338.81119533500777
 30
0.0
 10
21.854823914750909
 20
338.83061474242271
 30
0.0
 10
23.296798117048297
 20
338.92604422851895
 30
0.0
 10
24.916546603822667
 20
339.13278501235044
 30
0.0
 10
26.176721922282013
 20
339.43911574212729
 30
0.0
 10
26.676728089380958
 20
339.57586498580844
 30
0.0
 10
26.693480746868261
 20
339.58039072788046
 30
0.0
 10
26.710233404355563
 20
339.58491646995247
 30
0.0
  0
ARC
  5
16B
100
AcDbEntity
  8
0
370
              15
  6
Continuous
 62
               7
100
AcDbCircle
 10
19.500917879290341
 20
339.22276395677517
 30
0.0
 40
2.4740985864274254
100
AcDbArc
 50
120.07264728099928
 51
181.98068950349744
  0
SPLINE
  5
16C
100
AcDbEntity
  8
0
370
              15
  6
Continuous
 62
               7
100
AcDbSpline
210
0.0
220
0.0
230
1.0
 70
               8
 71
               2
 72
              10
 73
               7
 74
               0
 42
0.000001
 43
0.000001
 40
0.0
 40
0.0
 40
0.0
 40
1.0
 40
1.0
 40
2.0
 40
2.0
 40
3.0
 40
3.0
 40
3.0
 10
18.261152864306723
 20
341.36382596510151
 30
0.0
 10
18.203377143574357
 20
341.37693642588073
 30
0.0
 10
18.145601422841992
 20
341.39004688665995
 30
0.0
 10
12.705200398518855
 20
342.61930451787151
 30
0.0
 10
7.3909174800787696
 20
343.89510660844661
 30
0.0
 10
7.3342817619719654
 20
343.90864575328914
 30
0.0
 10
7.2776460438651611
 20
343.92218489813166
 30
0.0
  0
SPLINE
  5
16D
100
AcDbEntity
  8
0
370
              15
  6
Continuous
 62
               7
100
AcDbSpline
210
0.0
220
0.0
230
1.0
 70
               8
 71
               2
 72
              10
 73
               7
 74
               0
 42
0.000001
 43
0.000001
 40
0.0
 40
0.0
 40
0.0
 40
1.0
 40
1.0
 40
2.0
 40
2.0
 40
3.0
 40
3.0
 40
3.0
 10
5.9991421883943303
 20
341.70624421913698
 30
0.0
 10
6.0560538628821519
 20
341.69359003293556
 30
0.0
 10
6.1129655373699734
 20
341.68093584673414
 30
0.0
 10
11.453771457216249
 20
340.50275730773677
 30
0.0
 10
16.912346935671053
 20
339.16546456786131
 30
0.0
 10
16.970322210972597
 20
339.15135853796818
 30
0.0
 10
17.028297486274141
 20
339.13725250807505
 30
0.0
  0
ARC
  5
16E
100
AcDbEntity
  8
0
370
              15
  6
Continuous
 62
               7
100
AcDbCircle
 10
24.358995403490326
 20
339.47649838477508
 30
0.0
 40
2.3537363101589883
100
AcDbArc
 50
2.640099244600878
 51
69.668050824499787
  0
SPLINE
  5
16F
100
AcDbEntity
  8
0
370
              15
  6
Continuous
 62
               7
100
AcDbSpline
210
0.0
220
0.0
230
1.0
 70
               8
 71
               2
 72
              10
 73
               7
 74
               0
 42
0.000001
 43
0.000001
 40
0.0
 40
0.0
 40
0.0
 40
1.0
 40
1.0
 40
2.0
 40
2.0
 40
3.0
 40
3.0
 40
3.0
 10
34.678881463899188
 20
345.18913664334644
 30
0.0
 10
34.633819187302834
 20
345.17214169249729
 30
0.0
 10
34.588756910706479
 20
345.15514674164814
 30
0.0
 10
30.000393231040448
 20
343.41947729055886
 30
0.0
 10
25.269428849987662
 20
341.71701042355875
 30
0.0
 10
25.223125066704142
 20
341.70029817854646
 30
0.0
 10
25.176821283420622
 20
341.68358593353418
 30
0.0
  0
POLYLINE
  5
170
100
AcDbEntity
  8
0
370
              15
  6
Continuous
 62
               7
100
AcDb2dPolyline
 66
               1
 10
0.0
 20
0.0
 30
0.0
 75
               5
  0
VERTEX
  5
171
100
AcDbEntity
  8
0
370
              15
  6
Continuous
 62
               7
100
AcDbVertex
100
AcDb2dVertex
 10
1.3030684324903632
 20
288.78211176557528
 30
0.0
  0
VERTEX
  5
172
100
AcDbEntity
  8
0
370
              15
  6
Continuous
 62
               7
100
AcDbVertex
100
AcDb2dVertex
 10
1.2845581266903991
 20
289.59938367057515
 30
0.0
  0
VERTEX
  5
173
100
AcDbEntity
  8
0
370
              15
  6
Continuous
 62
               7
100
AcDbVertex
100
AcDb2dVertex
 10
1.927542205290365
 20
290.82574508157512
 30
0.0
  0
VERTEX
  5
174
100
AcDbEntity
  8
0
370
              15
  6
Continuous
 62
               7
100
AcDbVertex
100
AcDb2dVertex
 10
3.3511758028903387
 20
292.01077485637524
 30
0.0
  0
VERTEX
  5
175
100
AcDbEntity
  8
0
370
              15
  6
Continuous
 62
               7
100
AcDbVertex
100
AcDb2dVertex
 10
5.5007481436903163
 20
293.10893352457509
 30
0.0
  0
VERTEX
  5
176
100
AcDbEntity
  8
0
370
              15
  6
Continuous
 62
               7
100
AcDbVertex
100
AcDb2dVertex
 10
8.2936530466903378
 20
294.0780192753752
 30
0.0
  0
VERTEX
  5
177
100
AcDbEntity
  8
0
370
              15
  6
Continuous
 62
               7
100
AcDbVertex
100
AcDb2dVertex
 10
11.622560787890393
 20
294.88079071537521
 30
0.0
  0
VERTEX
  5
178
100
AcDbEntity
  8
0
370
              15
  6
Continuous
 62
               7
100
AcDbVertex
100
AcDb2dVertex
 10
15.359542561490343
 20
295.48639780077514
 30
0.0
  0
VERTEX
  5
179
100
AcDbEntity
  8
0
370
              15
  6
Continuous
 62
               7
100
AcDbVertex
100
AcDb2dVertex
 10
18.007138633290424
 20
295.76876639377514
 30
0.0
  0
VERTEX
  5
17A
100
AcDbEntity
  8
0
370
              15
  6
Continuous
 62
               7
100
AcDbVertex
100
AcDb2dVertex
 10
20.72718294909032
 20
295.94815627857514
 30
0.0
  0
SEQEND
  5
17B
100
AcDbEntity
  8
0
370
              15
  6
Continuous
 62
               7
  0
POLYLINE
  5
17C
100
AcDbEntity
  8
0
370
              15
  6
Continuous
 62
               7
100
AcDb2dPolyline
 66
               1
 10
0.0
 20
0.0
 30
0.0
 75
               5
  0
VERTEX
  5
17D
100
AcDbEntity
  8
0
370
              15
  6
Continuous
 62
               7
100
AcDbVertex
100
AcDb2dVertex
 10
20.72718294909032
 20
295.94815627857514
 30
0.0
  0
VERTEX
  5
17E
100
AcDbEntity
  8
0
370
              15
  6
Continuous
 62
               7
100
AcDbVertex
100
AcDb2dVertex
 10
23.473127573890338
 20
296.02149748857522
 30
0.0
  0
VERTEX
  5
17F
100
AcDbEntity
  8
0
370
              15
  6
Continuous
 62
               7
100
AcDbVertex
100
AcDb2dVertex
 10
27.537930270890342
 20
295.93042660657528
 30
0.0
  0
VERTEX
  5
180
100
AcDbEntity
  8
0
370
              15
  6
Continuous
 62
               7
100
AcDbVertex
100
AcDb2dVertex
 10
31.399187566890305
 20
295.60185416717508
 30
0.0
  0
VERTEX
  5
181
100
AcDbEntity
  8
0
370
              15
  6
Continuous
 62
               7
100
AcDbVertex
100
AcDb2dVertex
 10
34.908515497290409
 20
295.04840747197517
 30
0.0
  0
VERTEX
  5
182
100
AcDbEntity
  8
0
370
              15
  6
Continuous
 62
               7
100
AcDbVertex
100
AcDb2dVertex
 10
37.931051867490396
 20
294.29135494777523
 30
0.0
  0
VERTEX
  5
183
100
AcDbEntity
  8
0
370
              15
  6
Continuous
 62
               7
100
AcDbVertex
100
AcDb2dVertex
 10
40.350642390890357
 20
293.35978968737521
 30
0.0
  0
VERTEX
  5
184
100
AcDbEntity
  8
0
370
              15
  6
Continuous
 62
               7
100
AcDbVertex
100
AcDb2dVertex
 10
42.074303664690433
 20
292.28951144677529
 30
0.0
  0
VERTEX
  5
185
100
AcDbEntity
  8
0
370
              15
  6
Continuous
 62
               7
100
AcDbVertex
100
AcDb2dVertex
 10
42.802888333090323
 20
291.51906716517527
 30
0.0
  0
VERTEX
  5
186
100
AcDbEntity
  8
0
370
              15
  6
Continuous
 62
               7
100
AcDbVertex
100
AcDb2dVertex
 10
43.179659785690319
 20
290.71835783297519
 30
0.0
  0
SEQEND
  5
187
100
AcDbEntity
  8
0
370
              15
  6
Continuous
 62
               7
  0
POLYLINE
  5
188
100
AcDbEntity
  8
0
370
              15
  6
Continuous
 62
               7
100
AcDb2dPolyline
 66
               1
 10
0.0
 20
0.0
 30
0.0
 75
               5
  0
VERTEX
  5
189
100
AcDbEntity
  8
0
370
              15
  6
Continuous
 62
               7
100
AcDbVertex
100
AcDb2dVertex
 10
23.755545269290337
 20
283.5523133199751
 30
0.0
  0
VERTEX
  5
18A
100
AcDbEntity
  8
0
370
              15
  6
Continuous
 62
               7
100
AcDbVertex
100
AcDb2dVertex
 10
21.00960064449032
 20
283.47897210997525
 30
0.0
  0
VERTEX
  5
18B
100
AcDbEntity
  8
0
370
              15
  6
Continuous
 62
               7
100
AcDbVertex
100
AcDb2dVertex
 10
16.94479794729034
 20
283.57004299197519
 30
0.0
  0
VERTEX
  5
18C
100
AcDbEntity
  8
0
370
              15
  6
Continuous
 62
               7
100
AcDbVertex
100
AcDb2dVertex
 10
13.083540651490353
 20
283.89861543137516
 30
0.0
  0
VERTEX
  5
18D
100
AcDbEntity
  8
0
370
              15
  6
Continuous
 62
               7
100
AcDbVertex
100
AcDb2dVertex
 10
9.5742127210903618
 20
284.4520621265753
 30
0.0
  0
VERTEX
  5
18E
100
AcDbEntity
  8
0
370
              15
  6
Continuous
 62
               7
100
AcDbVertex
100
AcDb2dVertex
 10
6.551676350890375
 20
285.20911465077523
 30
0.0
  0
VERTEX
  5
18F
100
AcDbEntity
  8
0
370
              15
  6
Continuous
 62
               7
100
AcDbVertex
100
AcDb2dVertex
 10
4.1320858274903003
 20
286.14067991117525
 30
0.0
  0
VERTEX
  5
190
100
AcDbEntity
  8
0
370
              15
  6
Continuous
 62
               7
100
AcDbVertex
100
AcDb2dVertex
 10
2.4084245536903381
 20
287.21095815177517
 30
0.0
  0
VERTEX
  5
191
100
AcDbEntity
  8
0
370
              15
  6
Continuous
 62
               7
100
AcDbVertex
100
AcDb2dVertex
 10
1.6798398852903347
 20
287.98140243317511
 30
0.0
  0
VERTEX
  5
192
100
AcDbEntity
  8
0
370
              15
  6
Continuous
 62
               7
100
AcDbVertex
100
AcDb2dVertex
 10
1.3030684324903632
 20
288.78211176557528
 30
0.0
  0
SEQEND
  5
193
100
AcDbEntity
  8
0
370
              15
  6
Continuous
 62
               7
  0
SPLINE
  5
194
100
AcDbEntity
  8
0
370
              15
  6
Continuous
 62
               7
100
AcDbSpline
210
0.0
220
0.0
230
1.0
 70
               8
 71
               2
 72
              18
 73
              15
 74
               0
 42
0.000001
 43
0.000001
 40
0.0
 40
0.0
 40
0.0
 40
1.0
 40
1.0
 40
2.0
 40
3.0
 40
4.0
 40
5.0
 40
6.0
 40
7.0
 40
8.0
 40
9.0
 40
10.0
 40
10.0
 40
11.0
 40
11.0
 40
11.0
 10
5.2989774610261975
 20
344.57218317861992
 30
0.0
 10
5.2931126552833803
 20
344.56990112090665
 30
0.0
 10
5.287247849540563
 20
344.56761906319338
 30
0.0
 10
5.1104427937665378
 20
344.49932331879467
 30
0.0
 10
4.7673770647434139
 20
344.36075721698211
 30
0.0
 10
4.0961725661920809
 20
344.03464383292675
 30
0.0
 10
3.6755421968571227
 20
343.51069625094209
 30
0.0
 10
3.6730767520816698
 20
343.02009938077612
 30
0.0
 10
3.9870508993476506
 20
342.61574116204469
 30
0.0
 10
4.3889231500638743
 20
342.32871661093253
 30
0.0
 10
4.9452603141513691
 20
342.06817515080382
 30
0.0
 10
5.6209358212614688
 20
341.82999696420069
 30
0.0
 10
5.9756147792389811
 20
341.71399911844554
 30
0.0
 10
5.9873784838166557
 20
341.71012166879126
 30
0.0
 10
5.9991421883943303
 20
341.70624421913698
 30
0.0
  0
SPLINE
  5
195
100
AcDbEntity
  8
0
370
              15
  6
Continuous
 62
               7
100
AcDbSpline
210
0.0
220
0.0
230
1.0
 70
               8
 71
               2
 72
              11
 73
               8
 74
               0
 42
0.000001
 43
0.000001
 40
0.0
 40
0.0
 40
0.0
 40
1.0
 40
1.0
 40
2.0
 40
3.0
 40
3.0
 40
4.0
 40
4.0
 40
4.0
 10
5.2989774610261975
 20
344.57218317861992
 30
0.0
 10
5.2808987428281853
 20
344.43747235041593
 30
0.0
 10
5.2628200246301731
 20
344.30276152221194
 30
0.0
 10
3.3997571261727444
 20
330.91333559705521
 30
0.0
 10
1.1269077003649954
 20
303.2467421483031
 30
0.0
 10
1.3030486014230291
 20
288.78354076797899
 30
0.0
 10
1.3030587069289936
 20
288.78282548931855
 30
0.0
 10
1.3030688124349581
 20
288.78211021065812
 30
0.0
  0
SPLINE
  5
196
100
AcDbEntity
  8
0
370
              15
  6
Continuous
 62
               7
100
AcDbSpline
210
0.0
220
0.0
230
1.0
 70
               8
 71
               2
 72
              11
 73
               8
 74
               0
 42
0.000001
 43
0.000001
 40
0.0
 40
0.0
 40
0.0
 40
1.0
 40
1.0
 40
2.0
 40
3.0
 40
3.0
 40
4.0
 40
4.0
 40
4.0
 10
1.3030688124349581
 20
288.78211021065812
 30
0.0
 10
1.303071197027748
 20
288.78277436440573
 30
0.0
 10
1.3030735816205379
 20
288.78343851815333
 30
0.0
 10
1.410464256777118
 20
302.17355021604493
 30
0.0
 10
4.0330207199571078
 20
328.39889864165019
 30
0.0
 10
5.9611742294951
 20
341.44423345730291
 30
0.0
 10
5.9801582089447152
 20
341.57523883821995
 30
0.0
 10
5.9991421883943303
 20
341.70624421913698
 30
0.0
  0
ARC
  5
197
100
AcDbEntity
  8
0
370
              15
  6
Continuous
 62
               7
100
AcDbCircle
 10
6.5732395362904299
 20
344.70455770737516
 30
0.0
 40
1.2811193746684479
100
AcDbArc
 50
80.824375394703893
 51
185.93080022469766
  0
ARC
  5
198
100
AcDbEntity
  8
0
370
              15
  6
Continuous
 62
               7
100
AcDbCircle
 10
8.4380820396903573
 20
341.7758709013753
 30
0.0
 40
2.439933497701591
100
AcDbArc
 50
118.39851990900017
 51
181.63523172460114
  0
SPLINE
  5
199
100
AcDbEntity
  8
0
370
              15
  6
Continuous
 62
               7
100
AcDbSpline
210
0.0
220
0.0
230
1.0
 70
               8
 71
               2
 72
              18
 73
              15
 74
               0
 42
0.000001
 43
0.000001
 40
0.0
 40
0.0
 40
0.0
 40
1.0
 40
1.0
 40
2.0
 40
3.0
 40
4.0
 40
5.0
 40
6.0
 40
7.0
 40
8.0
 40
9.0
 40
10.0
 40
10.0
 40
11.0
 40
11.0
 40
11.0
 10
7.2776460438651611
 20
343.92218489813166
 30
0.0
 10
7.2704826593655412
 20
343.92432117641368
 30
0.0
 10
7.2633192748659212
 20
343.92645745469571
 30
0.0
 10
7.0471971662282158
 20
343.99027790769532
 30
0.0
 10
6.6301973068456164
 20
344.12127274802964
 30
0.0
 10
6.0954027986518895
 20
344.33130624237168
 30
0.0
 10
5.67314205176001
 20
344.67900643030288
 30
0.0
 10
5.5805567890522525
 20
345.0648837015105
 30
0.0
 10
5.7475528972022403
 20
345.35292136652055
 30
0.0
 10
6.0302187606536108
 20
345.62423505744181
 30
0.0
 10
6.4526258025057359
 20
345.82933889618056
 30
0.0
 10
6.6629354719104867
 20
345.9208641332761
 30
0.0
 10
6.7703813856365969
 20
345.96625543804083
 30
0.0
 10
6.7739548869396913
 20
345.96776978258998
 30
0.0
 10
6.7775283882427857
 20
345.96928412713913
 30
0.0
  0
SPLINE
  5
19A
100
AcDbEntity
  8
0
370
              15
  6
Continuous
 62
               7
100
AcDbSpline
210
0.0
220
0.0
230
1.0
 70
               8
 71
               2
 72
              11
 73
               8
 74
               0
 42
0.000001
 43
0.000001
 40
0.0
 40
0.0
 40
0.0
 40
1.0
 40
1.0
 40
2.0
 40
3.0
 40
3.0
 40
4.0
 40
4.0
 40
4.0
 10
43.179659405896132
 20
290.71835938784824
 30
0.0
 10
43.179619670534521
 20
290.71907329630295
 30
0.0
 10
43.17957993517291
 20
290.71978720475767
 30
0.0
 10
42.329993910034204
 20
305.16329079023052
 30
0.0
 10
38.245419350176235
 20
332.51877047297938
 30
0.0
 10
35.603880208895589
 20
345.70564160623979
 30
0.0
 10
35.577750256785066
 20
345.83830857038657
 30
0.0
 10
35.551620304674543
 20
345.97097553453335
 30
0.0
  0
SPLINE
  5
19B
100
AcDbEntity
  8
0
370
              15
  6
Continuous
 62
               7
100
AcDbSpline
210
0.0
220
0.0
230
1.0
 70
               8
 71
               2
 72
              18
 73
              15
 74
               0
 42
0.000001
 43
0.000001
 40
0.0
 40
0.0
 40
0.0
 40
1.0
 40
1.0
 40
2.0
 40
3.0
 40
4.0
 40
5.0
 40
6.0
 40
7.0
 40
8.0
 40
9.0
 40
10.0
 40
10.0
 40
11.0
 40
11.0
 40
11.0
 10
36.25178503204279
 20
343.10503657505041
 30
0.0
 10
36.257638383524977
 20
343.1077412450332
 30
0.0
 10
36.263491735007165
 20
343.11044591501599
 30
0.0
 10
36.43995168961203
 20
343.19147438771682
 30
0.0
 10
36.782345280145364
 20
343.35483946046833
 30
0.0
 10
37.452212311891344
 20
343.73029956758086
 30
0.0
 10
37.871869056835749
 20
344.29017352662612
 30
0.0
 10
37.874117565951565
 20
344.788771877123
 30
0.0
 10
37.560524725152504
 20
345.17906023385029
 30
0.0
 10
37.159241738785681
 20
345.44434341235086
 30
0.0
 10
36.603781585579327
 20
345.67252699413046
 30
0.0
 10
35.92920644447895
 20
345.87010647334131
 30
0.0
 10
35.575109156234021
 20
345.96464324237667
 30
0.0
 10
35.563364730454282
 20
345.96780938845501
 30
0.0
 10
35.551620304674543
 20
345.97097553453335
 30
0.0
  0
SPLINE
  5
19C
100
AcDbEntity
  8
0
370
              15
  6
Continuous
 62
               7
100
AcDbSpline
210
0.0
220
0.0
230
1.0
 70
               8
 71
               2
 72
              11
 73
               8
 74
               0
 42
0.000001
 43
0.000001
 40
0.0
 40
0.0
 40
0.0
 40
1.0
 40
1.0
 40
2.0
 40
3.0
 40
3.0
 40
4.0
 40
4.0
 40
4.0
 10
24.522465006794732
 20
348.53996724559505
 30
0.0
 10
24.518180681045749
 20
348.41438493930451
 30
0.0
 10
24.513896355296765
 20
348.28880263301397
 30
0.0
 10
23.940838624576713
 20
329.78643315037169
 30
0.0
 10
21.486351161318453
 20
303.46497834322548
 30
0.0
 10
20.727315202776253
 20
295.94953331331175
 30
0.0
 10
20.727246449507504
 20
295.94884467447838
 30
0.0
 10
20.727177696238755
 20
295.94815603564501
 30
0.0
  0
SPLINE
  5
19D
100
AcDbEntity
  8
0
370
              15
  6
Continuous
 62
               7
100
AcDbSpline
210
0.0
220
0.0
230
1.0
 70
               8
 71
               2
 72
              11
 73
               8
 74
               0
 42
0.000001
 43
0.000001
 40
0.0
 40
0.0
 40
0.0
 40
1.0
 40
1.0
 40
2.0
 40
3.0
 40
3.0
 40
4.0
 40
4.0
 40
4.0
 10
35.551620304674543
 20
345.97097553453335
 30
0.0
 10
35.494658917475931
 20
345.98546390298526
 30
0.0
 10
35.437697530277319
 20
345.99995227143717
 30
0.0
 10
31.914736097677633
 20
346.91732550912337
 30
0.0
 10
26.608642555883989
 20
348.10011024200588
 30
0.0
 10
24.638316147586465
 20
348.5154229743618
 30
0.0
 10
24.580390577190599
 20
348.52769510997842
 30
0.0
 10
24.522465006794732
 20
348.53996724559505
 30
0.0
  0
POLYLINE
  5
19E
100
AcDbEntity
  8
0
370
              15
  6
Continuous
 62
               7
100
AcDb2dPolyline
 66
               1
 10
0.0
 20
0.0
 30
0.0
 75
               5
  0
VERTEX
  5
19F
100
AcDbEntity
  8
0
370
              15
  6
Continuous
 62
               7
100
AcDbVertex
100
AcDb2dVertex
 10
35.551620304690346
 20
345.97097553457519
 30
0.0
  0
VERTEX
  5
1A0
100
AcDbEntity
  8
0
370
              15
  6
Continuous
 62
               7
100
AcDbVertex
100
AcDb2dVertex
 10
35.497906080690427
 20
346.30255608677516
 30
0.0
  0
VERTEX
  5
1A1
100
AcDbEntity
  8
0
370
              15
  6
Continuous
 62
               7
100
AcDbVertex
100
AcDb2dVertex
 10
35.400785381890387
 20
346.60074614317517
 30
0.0
  0
VERTEX
  5
1A2
100
AcDbEntity
  8
0
370
              15
  6
Continuous
 62
               7
100
AcDbVertex
100
AcDb2dVertex
 10
35.263584453490353
 20
346.85533346417509
 30
0.0
  0
VERTEX
  5
1A3
100
AcDbEntity
  8
0
370
              15
  6
Continuous
 62
               7
100
AcDbVertex
100
AcDb2dVertex
 10
35.091002451890404
 20
347.05759275197528
 30
0.0
  0
VERTEX
  5
1A4
100
AcDbEntity
  8
0
370
              15
  6
Continuous
 62
               7
100
AcDbVertex
100
AcDb2dVertex
 10
34.888949626890394
 20
347.20060446557517
 30
0.0
  0
VERTEX
  5
1A5
100
AcDbEntity
  8
0
370
              15
  6
Continuous
 62
               7
100
AcDbVertex
100
AcDb2dVertex
 10
34.664345625490341
 20
347.27946893957522
 30
0.0
  0
VERTEX
  5
1A6
100
AcDbEntity
  8
0
370
              15
  6
Continuous
 62
               7
100
AcDbVertex
100
AcDb2dVertex
 10
34.424883372890349
 20
347.29148119897508
 30
0.0
  0
VERTEX
  5
1A7
100
AcDbEntity
  8
0
370
              15
  6
Continuous
 62
               7
100
AcDbVertex
100
AcDb2dVertex
 10
34.178763808290341
 20
347.23623587237529
 30
0.0
  0
SEQEND
  5
1A8
100
AcDbEntity
  8
0
370
              15
  6
Continuous
 62
               7
  0
ARC
  5
1A9
100
AcDbEntity
  8
0
370
              15
  6
Continuous
 62
               7
100
AcDbCircle
 10
33.922346646090318
 20
342.98257000637517
 30
0.0
 40
2.3326554083643671
100
AcDbArc
 50
3.0094650776004226
 51
71.075409371098118
  0
SPLINE
  5
1AA
100
AcDbEntity
  8
0
370
              15
  6
Continuous
 62
               7
100
AcDbSpline
210
0.0
220
0.0
230
1.0
 70
               8
 71
               2
 72
              18
 73
              15
 74
               0
 42
0.000001
 43
0.000001
 40
0.0
 40
0.0
 40
0.0
 40
1.0
 40
1.0
 40
2.0
 40
3.0
 40
4.0
 40
5.0
 40
6.0
 40
7.0
 40
8.0
 40
9.0
 40
10.0
 40
10.0
 40
11.0
 40
11.0
 40
11.0
 10
34.178763808276813
 20
347.23623587235392
 30
0.0
 10
34.185927192776376
 20
347.23409959407189
 30
0.0
 10
34.193090577275939
 20
347.23196331578987
 30
0.0
 10
34.409212685913531
 20
347.16814286278958
 30
0.0
 10
34.826212545296585
 20
347.03714802245753
 30
0.0
 10
35.361007053489857
 20
346.82711452811321
 30
0.0
 10
35.783267800381964
 20
346.47941434018338
 30
0.0
 10
35.875853063089608
 20
346.09353706897485
 30
0.0
 10
35.708856954939506
 20
345.8054994039648
 30
0.0
 10
35.426191091487908
 20
345.53418571304422
 30
0.0
 10
35.003784049636124
 20
345.32908187430525
 30
0.0
 10
34.793474380231373
 20
345.23755663720925
 30
0.0
 10
34.686028466505377
 20
345.19216533244474
 30
0.0
 10
34.682454965202282
 20
345.19065098789559
 30
0.0
 10
34.678881463899188
 20
345.18913664334644
 30
0.0
  0
SPLINE
  5
1AB
100
AcDbEntity
  8
0
370
              15
  6
Continuous
 62
               7
100
AcDbSpline
210
0.0
220
0.0
230
1.0
 70
               8
 71
               2
 72
              11
 73
               8
 74
               0
 42
0.000001
 43
0.000001
 40
0.0
 40
0.0
 40
0.0
 40
1.0
 40
1.0
 40
2.0
 40
3.0
 40
3.0
 40
4.0
 40
4.0
 40
4.0
 10
14.840529088713424
 20
348.09230328371785
 30
0.0
 10
14.794079727496865
 20
348.07635186535134
 30
0.0
 10
14.747630366280305
 20
348.06040044698483
 30
0.0
 10
11.300218791113934
 20
346.89781798072676
 30
0.0
 10
6.7479755128714487
 20
345.14567802568439
 30
0.0
 10
5.389570295383237
 20
344.60797465337686
 30
0.0
 10
5.3442738782047172
 20
344.59007891599839
 30
0.0
 10
5.2989774610261975
 20
344.57218317861992
 30
0.0
  0
SPLINE
  5
1AC
100
AcDbEntity
  8
0
370
              15
  6
Continuous
 62
               7
100
AcDbSpline
210
0.0
220
0.0
230
1.0
 70
               8
 71
               2
 72
              11
 73
               8
 74
               0
 42
0.000001
 43
0.000001
 40
0.0
 40
0.0
 40
0.0
 40
1.0
 40
1.0
 40
2.0
 40
3.0
 40
3.0
 40
4.0
 40
4.0
 40
4.0
 10
20.727177696238755
 20
295.94815603564501
 30
0.0
 10
20.727073735386
 20
295.94883668869039
 30
0.0
 10
20.726969774533245
 20
295.94951734173577
 30
0.0
 10
19.295665549277487
 20
305.11880648261803
 30
0.0
 10
15.907858261310025
 20
331.06607754528153
 30
0.0
 10
14.856996492544681
 20
347.84229626397899
 30
0.0
 10
14.848762790629053
 20
347.96729977384842
 30
0.0
 10
14.840529088713424
 20
348.09230328371785
 30
0.0
  0
POLYLINE
  5
1AD
100
AcDbEntity
  8
0
370
              15
  6
Continuous
 62
               7
100
AcDb2dPolyline
 66
               1
 10
0.0
 20
0.0
 30
0.0
 75
               5
  0
VERTEX
  5
1AE
100
AcDbEntity
  8
0
370
              15
  6
Continuous
 62
               7
100
AcDbVertex
100
AcDb2dVertex
 10
24.522465006890343
 20
348.53996724557527
 30
0.0
  0
VERTEX
  5
1AF
100
AcDbEntity
  8
0
370
              15
  6
Continuous
 62
               7
100
AcDbVertex
100
AcDb2dVertex
 10
24.470275848890424
 20
348.87119256817522
 30
0.0
  0
VERTEX
  5
1B0
100
AcDbEntity
  8
0
370
              15
  6
Continuous
 62
               7
100
AcDbVertex
100
AcDb2dVertex
 10
24.376191904090319
 20
349.16867528177517
 30
0.0
  0
VERTEX
  5
1B1
100
AcDbEntity
  8
0
370
              15
  6
Continuous
 62
               7
100
AcDbVertex
100
AcDb2dVertex
 10
24.243434508090331
 20
349.42222758237511
 30
0.0
  0
VERTEX
  5
1B2
100
AcDbEntity
  8
0
370
              15
  6
Continuous
 62
               7
100
AcDbVertex
100
AcDb2dVertex
 10
24.076550733290333
 20
349.62315959757524
 30
0.0
  0
VERTEX
  5
1B3
100
AcDbEntity
  8
0
370
              15
  6
Continuous
 62
               7
100
AcDbVertex
100
AcDb2dVertex
 10
23.881256499490405
 20
349.76459705057522
 30
0.0
  0
VERTEX
  5
1B4
100
AcDbEntity
  8
0
370
              15
  6
Continuous
 62
               7
100
AcDbVertex
100
AcDb2dVertex
 10
23.664239102690317
 20
349.84169439697524
 30
0.0
  0
VERTEX
  5
1B5
100
AcDbEntity
  8
0
370
              15
  6
Continuous
 62
               7
100
AcDbVertex
100
AcDb2dVertex
 10
23.432932362090355
 20
349.85180701457529
 30
0.0
  0
VERTEX
  5
1B6
100
AcDbEntity
  8
0
370
              15
  6
Continuous
 62
               7
100
AcDbVertex
100
AcDb2dVertex
 10
23.195256987890389
 20
349.7945948053752
 30
0.0
  0
SEQEND
  5
1B7
100
AcDbEntity
  8
0
370
              15
  6
Continuous
 62
               7
  0
SPLINE
  5
1B8
100
AcDbEntity
  8
0
370
              15
  6
Continuous
 62
               7
100
AcDbSpline
210
0.0
220
0.0
230
1.0
 70
               8
 71
               2
 72
              10
 73
               7
 74
               0
 42
0.000001
 43
0.000001
 40
0.0
 40
0.0
 40
0.0
 40
1.0
 40
1.0
 40
2.0
 40
2.0
 40
3.0
 40
3.0
 40
3.0
 10
23.195256987835137
 20
349.79459480538407
 30
0.0
 10
23.253032708567559
 20
349.78148434460485
 30
0.0
 10
23.310808429299982
 20
349.76837388382563
 30
0.0
 10
28.751209453623005
 20
348.53911625261475
 30
0.0
 10
34.06549237206309
 20
347.26331416203897
 30
0.0
 10
34.122128090169952
 20
347.24977501719644
 30
0.0
 10
34.178763808276813
 20
347.23623587235392
 30
0.0
  0
ARC
  5
1B9
100
AcDbEntity
  8
0
370
              15
  6
Continuous
 62
               7
100
AcDbCircle
 10
16.078578188290408
 20
348.24384886497518
 30
0.0
 40
1.247289716231599
100
AcDbArc
 50
80.725898560400864
 51
186.97867422760493
  0
SPLINE
  5
1BA
100
AcDbEntity
  8
0
370
              15
  6
Continuous
 62
               7
100
AcDbSpline
210
0.0
220
0.0
230
1.0
 70
               8
 71
               2
 72
              10
 73
               7
 74
               0
 42
0.000001
 43
0.000001
 40
0.0
 40
0.0
 40
0.0
 40
1.0
 40
1.0
 40
2.0
 40
2.0
 40
3.0
 40
3.0
 40
3.0
 10
6.7775283882427857
 20
345.96928412713913
 30
0.0
 10
6.8225906648390833
 20
345.98627907798829
 30
0.0
 10
6.8676529414353809
 20
346.00327402883744
 30
0.0
 10
11.456016621101298
 20
347.73894347992672
 30
0.0
 10
16.186981002154198
 20
349.44141034692683
 30
0.0
 10
16.233284785437718
 20
349.45812259193912
 30
0.0
 10
16.279588568721238
 20
349.4748348369514
 30
0.0
  0
SPLINE
  5
1BB
100
AcDbEntity
  8
0
370
              15
  6
Continuous
 62
               7
100
AcDbSpline
210
0.0
220
0.0
230
1.0
 70
               8
 71
               2
 72
              16
 73
              13
 74
               0
 42
0.000001
 43
0.000001
 40
0.0
 40
0.0
 40
0.0
 40
1.0
 40
1.0
 40
2.0
 40
3.0
 40
4.0
 40
5.0
 40
6.0
 40
7.0
 40
8.0
 40
8.0
 40
9.0
 40
9.0
 40
9.0
 10
24.522465006794732
 20
348.53996724559505
 30
0.0
 10
24.512144077159348
 20
348.54227048037427
 30
0.0
 10
24.501823147523965
 20
348.54457371515349
 30
0.0
 10
24.193389950463484
 20
348.61433327345088
 30
0.0
 10
22.954787574858074
 20
348.87052922800552
 30
0.0
 10
21.135939671810775
 20
348.98550676768258
 30
0.0
 10
19.692384006315706
 20
348.97775321808939
 30
0.0
 10
18.25060166182584
 20
348.87524501551405
 30
0.0
 10
16.631735281014471
 20
348.63595836815801
 30
0.0
 10
15.373226428712428
 20
348.26814230394933
 30
0.0
 10
14.8739839822166
 20
348.10321510029138
 30
0.0
 10
14.857256535465012
 20
348.09775919200462
 30
0.0
 10
14.840529088713424
 20
348.09230328371785
 30
0.0
  0
SPLINE
  5
1BC
100
AcDbEntity
  8
0
370
              15
  6
Continuous
 62
               7
100
AcDbSpline
210
0.0
220
0.0
230
1.0
 70
               8
 71
               2
 72
              16
 73
              13
 74
               0
 42
0.000001
 43
0.000001
 40
0.0
 40
0.0
 40
0.0
 40
1.0
 40
1.0
 40
2.0
 40
3.0
 40
4.0
 40
5.0
 40
6.0
 40
7.0
 40
8.0
 40
8.0
 40
9.0
 40
9.0
 40
9.0
 10
16.279588568721238
 20
349.4748348369514
 30
0.0
 10
16.290685478584521
 20
349.47815640652954
 30
0.0
 10
16.301782388447805
 20
349.48147797610767
 30
0.0
 10
16.588967860001276
 20
349.5684123333362
 30
0.0
 10
17.498927001609104
 20
349.82692412554906
 30
0.0
 10
18.520765554382024
 20
349.9636576752784
 30
0.0
 10
19.702722608086674
 20
350.07944862186281
 30
0.0
 10
21.137746247621862
 20
350.05929614676
 30
0.0
 10
22.234946118318703
 20
349.9760649488066
 30
0.0
 10
22.976783197692157
 20
349.83805582067151
 30
0.0
 10
23.181574778242862
 20
349.79729732452273
 30
0.0
 10
23.188415883038999
 20
349.7959460649534
 30
0.0
 10
23.195256987835137
 20
349.79459480538407
 30
0.0
  0
LINE
  5
1BD
100
AcDbEntity
  8
0
370
              15
  6
Continuous
 62
               7
100
AcDbLine
 10
43.047590229890375
 20
289.43224392597511
 30
0.0
 11
42.970658907290385
 21
294.55775148877518
 31
0.0
  0
SPLINE
  5
1BE
100
AcDbEntity
  8
0
370
              15
  6
Continuous
 62
               7
100
AcDbSpline
210
0.0
220
0.0
230
1.0
 70
               8
 71
               2
 72
              11
 73
               8
 74
               0
 42
0.000001
 43
0.000001
 40
0.0
 40
0.0
 40
0.0
 40
1.0
 40
1.0
 40
2.0
 40
3.0
 40
3.0
 40
4.0
 40
4.0
 40
4.0
 10
3.7182260990216491
 20
343.32755193208271
 30
0.0
 10
3.7072610687879433
 20
343.22132646281437
 30
0.0
 10
3.6962960385542374
 20
343.11510099354604
 30
0.0
 10
3.065831835498102
 20
337.22413837600624
 30
0.0
 10
1.2825063486568524
 20
312.58818370228931
 30
0.0
 10
1.3033489349497813
 20
293.3477820343432
 30
0.0
 10
1.3032193885746324
 20
293.20448494206136
 30
0.0
 10
1.3030898421994834
 20
293.06118784977951
 30
0.0
  0
SPLINE
  5
1BF
100
AcDbEntity
  8
0
370
              15
  6
Continuous
 62
               7
100
AcDbSpline
210
0.0
220
0.0
230
1.0
 70
               8
 71
               2
 72
              17
 73
              14
 74
               0
 42
0.000001
 43
0.000001
 40
0.0
 40
0.0
 40
0.0
 40
1.0
 40
1.0
 40
2.0
 40
3.0
 40
4.0
 40
5.0
 40
6.0
 40
7.0
 40
8.0
 40
9.0
 40
9.0
 40
10.0
 40
10.0
 40
10.0
 10
6.1358599837094516
 20
345.92207472944409
 30
0.0
 10
6.1343515619544178
 20
345.92159742159657
 30
0.0
 10
6.1328431401993839
 20
345.92112011374905
 30
0.0
 10
5.8098638222363661
 20
345.82379793571266
 30
0.0
 10
5.3119810326684274
 20
345.5782975513311
 30
0.0
 10
4.9043866355295904
 20
345.30799165376351
 30
0.0
 10
4.4771142003332898
 20
344.96059873903772
 30
0.0
 10
4.1553942415439451
 20
344.58358720892596
 30
0.0
 10
3.9376992679759724
 20
344.24580535260947
 30
0.0
 10
3.7991944738228085
 20
343.86849648544711
 30
0.0
 10
3.7199160543591461
 20
343.54113272668604
 30
0.0
 10
3.6850505725248013
 20
343.37486826423714
 30
0.0
 10
3.683871679061383
 20
343.36933514035201
 30
0.0
 10
3.6826927855979648
 20
343.36380201646688
 30
0.0
  0
SPLINE
  5
1C0
100
AcDbEntity
  8
0
370
              15
  6
Continuous
 62
               7
100
AcDbSpline
210
0.0
220
0.0
230
1.0
 70
               8
 71
               2
 72
              11
 73
               8
 74
               0
 42
0.000001
 43
0.000001
 40
0.0
 40
0.0
 40
0.0
 40
1.0
 40
1.0
 40
2.0
 40
3.0
 40
3.0
 40
4.0
 40
4.0
 40
4.0
 10
43.024471502109805
 20
293.75577437321766
 30
0.0
 10
43.020457116311206
 20
293.83149765595766
 30
0.0
 10
43.016442730512608
 20
293.90722093869766
 30
0.0
 10
42.046538466263996
 20
312.6548352474519
 30
0.0
 10
38.940838349975138
 20
337.6386962818014
 30
0.0
 10
37.862425444541486
 20
344.38048015090493
 30
0.0
 10
37.84207208993314
 20
344.50996231764628
 30
0.0
 10
37.821718735324794
 20
344.63944448438764
 30
0.0
  0
SPLINE
  5
1C1
100
AcDbEntity
  8
0
370
              15
  6
Continuous
 62
               7
100
AcDbSpline
210
0.0
220
0.0
230
1.0
 70
               8
 71
               2
 72
              17
 73
              14
 74
               0
 42
0.000001
 43
0.000001
 40
0.0
 40
0.0
 40
0.0
 40
1.0
 40
1.0
 40
2.0
 40
3.0
 40
4.0
 40
5.0
 40
6.0
 40
7.0
 40
8.0
 40
9.0
 40
9.0
 40
10.0
 40
10.0
 40
10.0
 10
37.830688924104834
 20
344.64262534091239
 30
0.0
 10
37.830602662784145
 20
344.6446757526009
 30
0.0
 10
37.830516401463456
 20
344.64672616428942
 30
0.0
 10
37.828144156539111
 20
344.70828820378955
 30
0.0
 10
37.813259210399337
 20
344.97735271250934
 30
0.0
 10
37.66606056345563
 20
345.35195628000105
 30
0.0
 10
37.236158436183246
 20
346.02677169579255
 30
0.0
 10
36.48034388322435
 20
346.59982838157856
 30
0.0
 10
35.814812574054827
 20
346.93544127719036
 30
0.0
 10
35.26918184240435
 20
347.1092559827552
 30
0.0
 10
34.885940931197979
 20
347.20793479022058
 30
0.0
 10
34.691575685707789
 20
347.25488414503701
 30
0.0
 10
34.6851064669479
 20
347.2564574924142
 30
0.0
 10
34.678637248188011
 20
347.25803083979139
 30
0.0
  0
LINE
  5
1C2
100
AcDbEntity
  8
0
370
              15
  6
Continuous
 62
               7
100
AcDbLine
 10
1.2967534064903248
 20
293.9008389613752
 30
0.0
 11
1.4619712130903508
 21
290.12632363637516
 31
0.0
  0
SPLINE
  5
1C3
100
AcDbEntity
  8
0
370
              15
  6
Continuous
 62
               7
100
AcDbSpline
210
0.0
220
0.0
230
1.0
 70
               8
 71
               2
 72
              10
 73
               7
 74
               0
 42
0.000001
 43
0.000001
 40
0.0
 40
0.0
 40
0.0
 40
1.0
 40
1.0
 40
2.0
 40
2.0
 40
3.0
 40
3.0
 40
3.0
 10
34.676391218626577
 20
347.26413362857346
 30
0.0
 10
34.621237075529848
 20
347.2775110909717
 30
0.0
 10
34.566082932433119
 20
347.29088855336994
 30
0.0
 10
29.273921769518324
 20
348.58146008281705
 30
0.0
 10
23.792815771294954
 20
349.80544552541522
 30
0.0
 10
23.733334151610961
 20
349.81880887215851
 30
0.0
 10
23.673852531926968
 20
349.8321722189018
 30
0.0
  0
SPLINE
  5
1C4
100
AcDbEntity
  8
0
370
              15
  6
Continuous
 62
               7
100
AcDbSpline
210
0.0
220
0.0
230
1.0
 70
               8
 71
               2
 72
              11
 73
               8
 74
               0
 42
0.000001
 43
0.000001
 40
0.0
 40
0.0
 40
0.0
 40
1.0
 40
1.0
 40
2.0
 40
3.0
 40
3.0
 40
4.0
 40
4.0
 40
4.0
 10
15.679589212613109
 20
349.44262109625669
 30
0.0
 10
15.634744901950057
 20
349.42663342991733
 30
0.0
 10
15.589900591287005
 20
349.41064576357797
 30
0.0
 10
12.17009885596417
 20
348.20065546582572
 30
0.0
 10
7.6344958641907397
 20
346.49772433812399
 30
0.0
 10
6.2289643327355861
 20
345.96268129634126
 30
0.0
 10
6.1820856160883295
 20
345.94485317353173
 30
0.0
 10
6.1352068994410729
 20
345.92702505072219
 30
0.0
  0
SPLINE
  5
1C5
100
AcDbEntity
  8
0
370
              15
  6
Continuous
 62
               7
100
AcDbSpline
210
0.0
220
0.0
230
1.0
 70
               8
 71
               2
 72
              15
 73
              12
 74
               0
 42
0.000001
 43
0.000001
 40
0.0
 40
0.0
 40
0.0
 40
1.0
 40
1.0
 40
2.0
 40
3.0
 40
4.0
 40
5.0
 40
6.0
 40
7.0
 40
7.0
 40
8.0
 40
8.0
 40
8.0
 10
23.674959145473622
 20
349.82875130744873
 30
0.0
 10
23.67332172172047
 20
349.82921285588094
 30
0.0
 10
23.671684297967317
 20
349.82967440431315
 30
0.0
 10
23.266446376399472
 20
349.94678749056533
 30
0.0
 10
22.163065437918476
 20
350.0876834513569
 30
0.0
 10
20.662960296748565
 20
350.17914905303059
 30
0.0
 10
18.738141895787521
 20
350.10764816562295
 30
0.0
 10
16.913585498920952
 20
349.83387061582215
 30
0.0
 10
15.95579617915655
 20
349.53868019314831
 30
0.0
 10
15.68619651357767
 20
349.44940372619152
 30
0.0
 10
15.677187514800494
 20
349.44644245415378
 30
0.0
 10
15.668178516023318
 20
349.44348118211605
 30
0.0
  0
POLYLINE
  5
1C6
100
AcDbEntity
  8
0
370
              15
  6
Continuous
 62
               7
100
AcDb2dPolyline
 66
               1
 10
0.0
 20
0.0
 30
0.0
 75
               5
  0
VERTEX
  5
1C7
100
AcDbEntity
  8
0
370
              15
  6
Continuous
 62
               7
100
AcDbVertex
100
AcDb2dVertex
 10
-0.1567482905594488
 20
261.89199543324077
 30
0.0
  0
VERTEX
  5
1C8
100
AcDbEntity
  8
0
370
              15
  6
Continuous
 62
               7
100
AcDbVertex
100
AcDb2dVertex
 10
0.3238688276404673
 20
261.66093975384075
 30
0.0
  0
VERTEX
  5
1C9
100
AcDbEntity
  8
0
370
              15
  6
Continuous
 62
               7
100
AcDbVertex
100
AcDb2dVertex
 10
0.7378138628399711
 20
261.22533028744084
 30
0.0
  0
VERTEX
  5
1CA
100
AcDbEntity
  8
0
370
              15
  6
Continuous
 62
               7
100
AcDbVertex
100
AcDb2dVertex
 10
1.0220673190405023
 20
260.65148780204078
 30
0.0
  0
VERTEX
  5
1CB
100
AcDbEntity
  8
0
370
              15
  6
Continuous
 62
               7
100
AcDbVertex
100
AcDb2dVertex
 10
1.1333542552400786
 20
260.02677298404075
 30
0.0
  0
VERTEX
  5
1CC
100
AcDbEntity
  8
0
370
              15
  6
Continuous
 62
               7
100
AcDbVertex
100
AcDb2dVertex
 10
1.0547322810401738
 20
259.44629314164087
 30
0.0
  0
VERTEX
  5
1CD
100
AcDbEntity
  8
0
370
              15
  6
Continuous
 62
               7
100
AcDbVertex
100
AcDb2dVertex
 10
0.7981708344403842
 20
258.99842122824094
 30
0.0
  0
VERTEX
  5
1CE
100
AcDbEntity
  8
0
370
              15
  6
Continuous
 62
               7
100
AcDbVertex
100
AcDb2dVertex
 10
0.4027290868401678
 20
258.75134006544096
 30
0.0
  0
VERTEX
  5
1CF
100
AcDbEntity
  8
0
370
              15
  6
Continuous
 62
               7
100
AcDbVertex
100
AcDb2dVertex
 10
-0.071390595159869
 20
258.74266868104093
 30
0.0
  0
VERTEX
  5
1D0
100
AcDbEntity
  8
0
370
              15
  6
Continuous
 62
               7
100
AcDbVertex
100
AcDb2dVertex
 10
-0.5520077133597852
 20
258.97372436044094
 30
0.0
  0
VERTEX
  5
1D1
100
AcDbEntity
  8
0
370
              15
  6
Continuous
 62
               7
100
AcDbVertex
100
AcDb2dVertex
 10
-0.9659527485597437
 20
259.40933382664076
 30
0.0
  0
VERTEX
  5
1D2
100
AcDbEntity
  8
0
370
              15
  6
Continuous
 62
               7
100
AcDbVertex
100
AcDb2dVertex
 10
-1.2502062045597313
 20
259.98317631224091
 30
0.0
  0
VERTEX
  5
1D3
100
AcDbEntity
  8
0
370
              15
  6
Continuous
 62
               7
100
AcDbVertex
100
AcDb2dVertex
 10
-1.3614931409598512
 20
260.60789113024094
 30
0.0
  0
VERTEX
  5
1D4
100
AcDbEntity
  8
0
370
              15
  6
Continuous
 62
               7
100
AcDbVertex
100
AcDb2dVertex
 10
-1.2828711667599464
 20
261.18837097244096
 30
0.0
  0
VERTEX
  5
1D5
100
AcDbEntity
  8
0
370
              15
  6
Continuous
 62
               7
100
AcDbVertex
100
AcDb2dVertex
 10
-1.026309720159702
 20
261.63624288604075
 30
0.0
  0
VERTEX
  5
1D6
100
AcDbEntity
  8
0
370
              15
  6
Continuous
 62
               7
100
AcDbVertex
100
AcDb2dVertex
 10
-0.6308679725599404
 20
261.88332404884096
 30
0.0
  0
VERTEX
  5
1D7
100
AcDbEntity
  8
0
370
              15
  6
Continuous
 62
               7
100
AcDbVertex
100
AcDb2dVertex
 10
-0.1567482905594488
 20
261.89199543324077
 30
0.0
  0
SEQEND
  5
1D8
100
AcDbEntity
  8
0
370
              15
  6
Continuous
 62
               7
  0
LINE
  5
1D9
100
AcDbEntity
  8
0
370
              15
  6
Continuous
 62
               7
100
AcDbLine
 10
0.7134630102399342
 20
259.03222105824085
 30
0.0
 11
0.812566145840151
 21
259.01409721664078
 31
0.0
  0
ARC
  5
1DA
100
AcDbEntity
  8
0
370
              15
  6
Continuous
 62
               7
100
AcDbCircle
 10
1.2980599284400114
 20
260.83130913504084
 30
0.0
 40
1.8916848217482953
100
AcDbArc
 50
145.22945380260066
 51
251.99891209730396
  0
SPLINE
  5
1DB
100
AcDbEntity
  8
0
370
              15
  6
Continuous
 62
               7
100
AcDbSpline
210
0.0
220
0.0
230
1.0
 70
               8
 71
               2
 72
              14
 73
              11
 74
               0
 42
0.000001
 43
0.000001
 40
0.0
 40
0.0
 40
0.0
 40
1.0
 40
1.0
 40
2.0
 40
3.0
 40
4.0
 40
5.0
 40
6.0
 40
6.0
 40
7.0
 40
7.0
 40
7.0
 10
0.5050650393931164
 20
261.50443211461817
 30
0.0
 10
0.5044069024671671
 20
261.49516448608478
 30
0.0
 10
0.5037487655412178
 20
261.48589685755138
 30
0.0
 10
0.4926925236540001
 20
261.27740728899408
 30
0.0
 10
0.5483108732499886
 20
260.9019817492445
 30
0.0
 10
0.6527924749487966
 20
260.56657338829137
 30
0.0
 10
0.8064212767129675
 20
260.25187687229851
 30
0.0
 10
0.9971047407260585
 20
259.97781310751435
 30
0.0
 10
1.1162124149662986
 20
259.85358220390032
 30
0.0
 10
1.1228489457058686
 20
259.84691644628725
 30
0.0
 10
1.1294854764454385
 20
259.84025068867419
 30
0.0
  0
ENDBLK
  5
1DC
100
AcDbEntity
  8
一般
100
AcDbBlockEnd
  0
ENDSEC
  0
SECTION
  2
ENTITIES
  0
MTEXT
  5
1DD
100
AcDbEntity
  8
0
 62
               7
100
AcDbMText
 10
261.04670212314932
 20
65.459043281508698
 30
0.0
 40
3.2756812689108266
 41
0.0
 71
               1
 72
               1
  1
HFD-D68P^I\PHFD-D68B^I\PHFD-D68E
  7
Arial
 73
               1
 44
0.9673603504928809
  0
INSERT
  5
1DE
100
AcDbEntity
  8
一般
 62
               7
100
AcDbBlockReference
  2
*U0
 10
210.0
 20
148.5
 30
0.0
 41
0.2
 42
0.2
 43
0.2
  0
ENDSEC
  0
SECTION
  2
OBJECTS
  0
DICTIONARY
  5
19
100
AcDbDictionary
280
               0
281
               1
  3
ACAD_GROUP
350
1A
  3
ACAD_MLINESTYLE
350
1B
  3
ACAD_LAYOUT
350
1E
  3
ACAD_PLOTSETTINGS
350
22
  3
ACAD_PLOTSTYLENAME
350
1F
  3
ACAD_WIPEOUT_VARS
350
23
  0
DICTIONARY
  5
1A
102
{ACAD_REACTORS
330
19
102
}
100
AcDbDictionary
280
               0
281
               1
  0
DICTIONARY
  5
1B
102
{ACAD_REACTORS
330
19
102
}
100
AcDbDictionary
280
               0
281
               1
  3
Standard
350
1C
  0
MLINESTYLE
  5
1C
102
{ACAD_REACTORS
330
1B
102
}
100
AcDbMlineStyle
  2
Standard
 70
               0
  3

 62
               0
 51
90.0
 52
90.0
 71
               2
 49
0.5
 62
             256
  6
ByLayer
 49
-0.5
 62
             256
  6
ByLayer
  0
ACDBDICTIONARYWDFLT
  5
1F
102
{ACAD_REACTORS
330
19
102
}
100
AcDbDictionary
281
               1
  3
Normal
350
1D
100
AcDbDictionaryWithDefault
340
1D
  0
ACDBPLACEHOLDER
  5
1D
102
{ACAD_REACTORS
330
1F
102
}
  0
LAYOUT
  5
20
102
{ACAD_REACTORS
330
1E
102
}
100
AcDbPlotSettings
  1

  2

  4

  6

 40
0.0
 41
0.0
 42
0.0
 43
0.0
 44
0.0
 45
0.0
 46
0.0
 47
0.0
 48
0.0
 49
0.0
140
0.0
141
0.0
142
1.0
143
1.0
 70
            1024
 72
               0
 73
               0
 74
               0
  7

 75
               0
147
1.0
148
0.0
149
0.0
100
AcDbLayout
  1
Model
 70
               0
 71
               0
 10
0.0
 20
0.0
 11
0.0
 21
0.0
 12
0.0
 22
0.0
 32
0.0
 14
0.0
 24
0.0
 34
0.0
 15
0.0
 25
0.0
 35
0.0
146
0.0
 13
0.0
 23
0.0
 33
0.0
 16
0.0
 26
0.0
 36
0.0
 17
0.0
 27
0.0
 37
0.0
 76
               0
330
A
331
0
345
0
346
0
  0
LAYOUT
  5
21
102
{ACAD_REACTORS
330
1E
102
}
100
AcDbPlotSettings
  1

  2

  4

  6

 40
0.0
 41
0.0
 42
0.0
 43
0.0
 44
0.0
 45
0.0
 46
0.0
 47
0.0
 48
0.0
 49
0.0
140
0.0
141
0.0
142
1.0
143
1.0
 70
               0
 72
               0
 73
               0
 74
               0
  7

 75
               0
147
1.0
148
0.0
149
0.0
100
AcDbLayout
  1
Layout1
 70
               0
 71
               0
 10
0.0
 20
0.0
 11
0.0
 21
0.0
 12
0.0
 22
0.0
 32
0.0
 14
0.0
 24
0.0
 34
0.0
 15
0.0
 25
0.0
 35
0.0
146
0.0
 13
0.0
 23
0.0
 33
0.0
 16
0.0
 26
0.0
 36
0.0
 17
0.0
 27
0.0
 37
0.0
 76
               0
330
B
331
0
345
0
346
0
  0
DICTIONARY
  5
1E
102
{ACAD_REACTORS
330
19
102
}
100
AcDbDictionary
280
               0
281
               1
  3
Layout1
350
21
  3
Model
350
20
  0
DICTIONARY
  5
22
102
{ACAD_REACTORS
330
19
102
}
100
AcDbDictionary
280
               0
281
               1
  0
WIPEOUTVARIABLES
  5
23
100
AcDbWipeoutVariables
 70
               1
  0
ENDSEC
  0
EOF
