  0
SECTION
  2
HEADER
  9
$ACADVER
  1
AC1014
  9
$ACADMAINTVER
 70
               0
  9
$DWGCODEPAGE
  3
ANSI_932
  9
$INSBASE
 10
0.0
 20
0.0
 30
0.0
  9
$EXTMIN
 10
126.41115036840002
 20
72.588678471587542
 30
0.0
  9
$EXTMAX
 10
146.01148284045948
 20
97.988678471587548
 30
0.0
  9
$LIMMIN
 10
0.0
 20
0.0
  9
$LIMMAX
 10
0.0
 20
0.0
  9
$ORTHOMODE
 70
               0
  9
$REGENMODE
 70
               1
  9
$FILLMODE
 70
               1
  9
$QTEXTMODE
 70
               0
  9
$MIRRTEXT
 70
               1
  9
$DRAGMODE
 70
               2
  9
$LTSCALE
 40
12.699999999999999
  9
$OSMODE
 70
               0
  9
$ATTMODE
 70
               1
  9
$TEXTSIZE
 40
0.2
  9
$TRACEWID
 40
1.0
  9
$TEXTSTYLE
  7
STANDARD
  9
$CLAYER
  8
0
  9
$CELTYPE
  6
CONTINUOUS
  9
$CECOLOR
 62
             256
  9
$CELTSCALE
 40
1.0
  9
$DELOBJ
 70
               1
  9
$DISPSILH
 70
               0
  9
$DIMSCALE
 40
1.0
  9
$DIMASZ
 40
0.18
  9
$DIMEXO
 40
0.0625
  9
$DIMDLI
 40
0.38
  9
$DIMRND
 40
0.0
  9
$DIMDLE
 40
0.0
  9
$DIMEXE
 40
0.18
  9
$DIMTP
 40
0.0
  9
$DIMTM
 40
0.0
  9
$DIMTXT
 40
0.18
  9
$DIMCEN
 40
0.09
  9
$DIMTSZ
 40
0.0
  9
$DIMTOL
 70
               0
  9
$DIMLIM
 70
               0
  9
$DIMTIH
 70
               1
  9
$DIMTOH
 70
               1
  9
$DIMSE1
 70
               0
  9
$DIMSE2
 70
               0
  9
$DIMTAD
 70
               0
  9
$DIMZIN
 70
               0
  9
$DIMBLK
  1

  9
$DIMASO
 70
               1
  9
$DIMSHO
 70
               1
  9
$DIMPOST
  1

  9
$DIMAPOST
  1

  9
$DIMALT
 70
               0
  9
$DIMALTD
 70
               2
  9
$DIMALTF
 40
25.399999999999999
  9
$DIMLFAC
 40
1.0
  9
$DIMTOFL
 70
               0
  9
$DIMTVP
 40
0.0
  9
$DIMTIX
 70
               0
  9
$DIMSOXD
 70
               0
  9
$DIMSAH
 70
               0
  9
$DIMBLK1
  1

  9
$DIMBLK2
  1

  9
$DIMSTYLE
  2
STANDARD
  9
$DIMCLRD
 70
               0
  9
$DIMCLRE
 70
               0
  9
$DIMCLRT
 70
               0
  9
$DIMTFAC
 40
1.0
  9
$DIMGAP
 40
0.09
  9
$DIMJUST
 70
               0
  9
$DIMSD1
 70
               0
  9
$DIMSD2
 70
               0
  9
$DIMTOLJ
 70
               1
  9
$DIMTZIN
 70
               0
  9
$DIMALTZ
 70
               0
  9
$DIMALTTZ
 70
               0
  9
$DIMFIT
 70
               3
  9
$DIMUPT
 70
               0
  9
$DIMUNIT
 70
               2
  9
$DIMDEC
 70
               4
  9
$DIMTDEC
 70
               4
  9
$DIMALTU
 70
               2
  9
$DIMALTTD
 70
               2
  9
$DIMTXSTY
  7
STANDARD
  9
$DIMAUNIT
 70
               0
  9
$LUNITS
 70
               2
  9
$LUPREC
 70
               4
  9
$SKETCHINC
 40
0.1
  9
$FILLETRAD
 40
0.0
  9
$AUNITS
 70
               0
  9
$AUPREC
 70
               0
  9
$MENU
  1
acad
  9
$ELEVATION
 40
0.0
  9
$PELEVATION
 40
0.0
  9
$THICKNESS
 40
0.0
  9
$LIMCHECK
 70
               0
  9
$BLIPMODE
 70
               0
  9
$CHAMFERA
 40
0.0
  9
$CHAMFERB
 40
0.0
  9
$CHAMFERC
 40
0.0
  9
$CHAMFERD
 40
0.0
  9
$SKPOLY
 70
               0
  9
$TDCREATE
 40
2458461.656504630
  9
$TDUPDATE
 40
2458461.656504630
  9
$TDINDWG
 40
0.0000000000
  9
$TDUSRTIMER
 40
0.0000000000
  9
$USRTIMER
 70
               1
  9
$ANGBASE
 50
0.0
  9
$ANGDIR
 70
               0
  9
$PDMODE
 70
               1
  9
$PDSIZE
 40
-2.0
  9
$PLINEWID
 40
0.0
  9
$COORDS
 70
               0
  9
$SPLFRAME
 70
               0
  9
$SPLINETYPE
 70
               6
  9
$SPLINESEGS
 70
               8
  9
$ATTDIA
 70
               0
  9
$ATTREQ
 70
               1
  9
$HANDLING
 70
               1
  9
$HANDSEED
  5
215
  9
$SURFTAB1
 70
               6
  9
$SURFTAB2
 70
               6
  9
$SURFTYPE
 70
               6
  9
$SURFU
 70
               6
  9
$SURFV
 70
               6
  9
$UCSNAME
  2

  9
$UCSORG
 10
0.0
 20
0.0
 30
0.0
  9
$UCSXDIR
 10
1.0
 20
0.0
 30
0.0
  9
$UCSYDIR
 10
0.0
 20
1.0
 30
0.0
  9
$PUCSNAME
  2

  9
$PUCSORG
 10
0.0
 20
0.0
 30
0.0
  9
$PUCSXDIR
 10
1.0
 20
0.0
 30
0.0
  9
$PUCSYDIR
 10
0.0
 20
1.0
 30
0.0
  9
$USERI1
 70
               0
  9
$USERI2
 70
               0
  9
$USERI3
 70
               0
  9
$USERI4
 70
               0
  9
$USERI5
 70
               0
  9
$USERR1
 40
0.0
  9
$USERR2
 40
0.0
  9
$USERR3
 40
0.0
  9
$USERR4
 40
0.0
  9
$USERR5
 40
0.0
  9
$WORLDVIEW
 70
               1
  9
$SHADEDGE
 70
               3
  9
$SHADEDIF
 70
              70
  9
$TILEMODE
 70
               1
  9
$MAXACTVP
 70
              16
  9
$PINSBASE
 10
0.0
 20
0.0
 30
0.0
  9
$PLIMCHECK
 70
               0
  9
$PEXTMIN
 10
1.0000000000000000E+20
 20
1.0000000000000000E+20
 30
1.0000000000000000E+20
  9
$PEXTMAX
 10
-1.0000000000000000E+20
 20
-1.0000000000000000E+20
 30
-1.0000000000000000E+20
  9
$PLIMMIN
 10
0.0
 20
0.0
  9
$PLIMMAX
 10
12.0
 20
9.0
  9
$UNITMODE
 70
               0
  9
$VISRETAIN
 70
               0
  9
$PLINEGEN
 70
               1
  9
$PSLTSCALE
 70
               0
  9
$TREEDEPTH
 70
            3020
  9
$PICKSTYLE
 70
               1
  9
$CMLSTYLE
  2
STANDARD
  9
$CMLJUST
 70
               0
  9
$CMLSCALE
 40
1.0
  9
$PROXYGRAPHICS
 70
               0
  9
$MEASUREMENT
 70
               1
  0
ENDSEC
  0
SECTION
  2
CLASSES
  0
CLASS
  1
LWPOLYLINE
  2
AcDbPolyline
  3
"AutoCAD"
 90
        0
280
               0
281
               1
  0
CLASS
  1
IMAGE
  2
AcDbRasterImage
  3
ISM
 90
      127
280
               0
281
               1
  0
CLASS
  1
OLE2FRAME
  2
AcDbOle2Frame
  3
""
 90
        0
280
               0
281
               1
  0
CLASS
  1
HATCH
  2
AcDbHatch
  3
"ACAD_SEDONA"
 90
        0
280
               0
281
               1
  0
CLASS
  1
DICTIONARYVAR
  2
AcDbDictionaryVar
  3
"AutoCAD"
 90
        0
280
               0
281
               0
  0
CLASS
  1
RASTERVARIABLES
  2
AcDbRasterVariables
  3
ISM
 90
        0
280
               0
281
               0
  0
CLASS
  1
IMAGEDEF
  2
AcDbRasterImageDef
  3
ISM
 90
        0
280
               0
281
               0
  0
CLASS
  1
IMAGEDEF_REACTOR
  2
AcDbRasterImageDefReactor
  3
ISM
 90
        1
280
               0
281
               0
  0
CLASS
  1
IDBUFFER
  2
AcDbIdBuffer
  3
"Acad"
 90
        0
280
               0
281
               0
  0
CLASS
  1
SPATIAL_FILTER
  2
AcDbSpatialFilter
  3
"Acad"
 90
        0
280
               0
281
               0
  0
CLASS
  1
XRECORD
  2
AcDbXrecord
  3
"<Built In>"
 90
        0
280
               0
281
               0
  0
CLASS
  1
SORTENTSTABLE
  2
AcDbSortentsTable
  3
"AutoCAD"
 90
        0
280
               0
281
               0
  0
CLASS
  1
LAYER_INDEX
  2
AcDbLayerIndex
  3
"Acad"
 90
        0
280
               0
281
               0
  0
CLASS
  1
SPATIAL_INDEX
  2
AcDbSpatialIndex
  3
"Acad"
 90
        0
280
               0
281
               0
  0
CLASS
  1
OBJECT_PTR
  2
CAseDLPNTableRecord
  3
"ASE-LPNTableRecord"
 90
        1
280
               0
281
               0
  0
CLASS
  1
LAYOUT
  2
AcDbLayout
  3
"AutoCAD 2000"
 90
        1
280
               0
281
               0
  0
CLASS
  1
PLOTSETTINGS
  2
AcDbPlotSettings
  3
"AutoCAD 2000"
 90
        1
280
               0
281
               0
  0
CLASS
  1
ACDBDICTIONARYWDFLT
  2
AcDbDictionaryWithDefault
  3
"AutoCAD 2000"
 90
        1
280
               0
281
               0
  0
CLASS
  1
ACDBPLACEHOLDER
  2
AcDbPlaceHolder
  3
"AutoCAD 2000"
 90
        1
280
               0
281
               0
  0
ENDSEC
  0
SECTION
  2
TABLES
  0
TABLE
  2
VPORT
  5
7
100
AcDbSymbolTable
 70
               1
  0
VPORT
  5
15
100
AcDbSymbolTableRecord
100
AcDbViewportTableRecord
  2
*ACTIVE
 70
               0
 10
0.0
 20
0.0
 11
1.0
 21
1.0
 12
136.21131660442975
 22
85.288678471587545
 13
0.0
 23
0.0
 14
1.0
 24
1.0
 15
0.0
 25
0.0
 16
0.0
 26
0.0
 36
1.0
 17
0.0
 27
0.0
 37
0.0
 40
25.400000000000006
 41
0.688564
 42
50.0
 43
0.0
 44
0.0
 50
0.0
 51
0.0
 71
               0
 72
             100
 73
               1
 74
               1
 75
               0
 76
               0
 77
               0
 78
               0
  0
ENDTAB
  0
TABLE
  2
LTYPE
  5
4
100
AcDbSymbolTable
 70
              13
  0
LTYPE
  5
11
100
AcDbSymbolTableRecord
100
AcDbLinetypeTableRecord
  2
BYBLOCK
 70
              64
  3

 72
              65
 73
               0
 40
0.0
  0
LTYPE
  5
12
100
AcDbSymbolTableRecord
100
AcDbLinetypeTableRecord
  2
BYLAYER
 70
              64
  3

 72
              65
 73
               0
 40
0.0
  0
LTYPE
  5
13
100
AcDbSymbolTableRecord
100
AcDbLinetypeTableRecord
  2
CONTINUOUS
 70
              64
  3
Solid line
 72
              65
 73
               0
 40
0.0
  0
LTYPE
  5
1F
100
AcDbSymbolTableRecord
100
AcDbLinetypeTableRecord
  2
STYLE_01
 70
               0
  3

 72
              65
 73
               2
 40
0.15
 49
0.1
 74
               0
 49
-0.05
 74
               0
  0
LTYPE
  5
20
100
AcDbSymbolTableRecord
100
AcDbLinetypeTableRecord
  2
STYLE_02
 70
               0
  3

 72
              65
 73
               6
 40
0.9999999999999999
 49
0.4999999999999999
 74
               0
 49
-0.1
 74
               0
 49
0.1
 74
               0
 49
-0.1
 74
               0
 49
0.1
 74
               0
 49
-0.1
 74
               0
  0
LTYPE
  5
21
100
AcDbSymbolTableRecord
100
AcDbLinetypeTableRecord
  2
STYLE_03
 70
               0
  3

 72
              65
 73
               4
 40
0.7999999999999999
 49
0.4999999999999999
 74
               0
 49
-0.1
 74
               0
 49
0.1
 74
               0
 49
-0.1
 74
               0
  0
LTYPE
  5
22
100
AcDbSymbolTableRecord
100
AcDbLinetypeTableRecord
  2
STYLE_04
 70
               0
  3

 72
              65
 73
               4
 40
1.5999999999999999
 49
0.9999999999999999
 74
               0
 49
-0.2000000000000001
 74
               0
 49
0.2
 74
               0
 49
-0.2
 74
               0
  0
LTYPE
  5
23
100
AcDbSymbolTableRecord
100
AcDbLinetypeTableRecord
  2
STYLE_05
 70
               0
  3

 72
              65
 73
               2
 40
0.05
 49
0.0002
 74
               0
 49
-0.0498
 74
               0
  0
LTYPE
  5
24
100
AcDbSymbolTableRecord
100
AcDbLinetypeTableRecord
  2
STYLE_06
 70
               0
  3

 72
              65
 73
               4
 40
0.416656
 49
0.25
 74
               0
 49
-0.083312
 74
               0
 49
0.027772
 74
               0
 49
-0.055572
 74
               0
  0
LTYPE
  5
25
100
AcDbSymbolTableRecord
100
AcDbLinetypeTableRecord
  2
STYLE_07
 70
               0
  3

 72
              65
 73
               6
 40
0.75
 49
0.25
 74
               0
 49
-0.083312
 74
               0
 49
0.2500000000000001
 74
               0
 49
-0.083344
 74
               0
 49
0.027772
 74
               0
 49
-0.055572
 74
               0
  0
LTYPE
  5
26
100
AcDbSymbolTableRecord
100
AcDbLinetypeTableRecord
  2
STYLE_08
 70
               0
  3

 72
              65
 73
               6
 40
0.5
 49
0.25
 74
               0
 49
-0.083312
 74
               0
 49
0.027772
 74
               0
 49
-0.055572
 74
               0
 49
0.027772
 74
               0
 49
-0.055572
 74
               0
  0
LTYPE
  5
27
100
AcDbSymbolTableRecord
100
AcDbLinetypeTableRecord
  2
STYLE_09
 70
               0
  3

 72
              65
 73
               4
 40
2.0
 49
1.5
 74
               0
 49
-0.1111139999999999
 74
               0
 49
0.2777720000000001
 74
               0
 49
-0.1111139999999999
 74
               0
  0
LTYPE
  5
28
100
AcDbSymbolTableRecord
100
AcDbLinetypeTableRecord
  2
STYLE_10
 70
               0
  3

 72
              65
 73
               6
 40
2.375
 49
1.5
 74
               0
 49
-0.1111139999999999
 74
               0
 49
0.2777720000000001
 74
               0
 49
-0.1111139999999999
 74
               0
 49
0.25
 74
               0
 49
-0.125
 74
               0
  0
ENDTAB
  0
TABLE
  2
LAYER
  5
2
100
AcDbSymbolTable
 70
               6
  0
LAYER
  5
14
100
AcDbSymbolTableRecord
100
AcDbLayerTableRecord
  2
0
 70
               0
 62
               7
  6
CONTINUOUS
  0
LAYER
  5
29
100
AcDbSymbolTableRecord
100
AcDbLayerTableRecord
  2
DEFPOINTS
 70
               0
 62
               7
  6
CONTINUOUS
  0
LAYER
  5
2A
100
AcDbSymbolTableRecord
100
AcDbLayerTableRecord
  2
__
 70
               0
 62
               7
  6
CONTINUOUS
  0
LAYER
  5
2B
100
AcDbSymbolTableRecord
100
AcDbLayerTableRecord
  2
__-1
 70
               0
 62
               7
  6
CONTINUOUS
  0
LAYER
  5
2C
100
AcDbSymbolTableRecord
100
AcDbLayerTableRecord
  2
_____1
 70
               0
 62
              19
  6
CONTINUOUS
  0
LAYER
  5
2D
100
AcDbSymbolTableRecord
100
AcDbLayerTableRecord
  2
FORMAT
 70
               0
 62
               7
  6
CONTINUOUS
  0
ENDTAB
  0
TABLE
  2
STYLE
  5
3
100
AcDbSymbolTable
 70
               2
  0
STYLE
  5
17
100
AcDbSymbolTableRecord
100
AcDbTextStyleTableRecord
  2
STANDARD
 70
               0
 40
0.0
 41
1.0
 50
0.0
 71
               0
 42
0.0
  3
txt
  4
BIGFONT.SHX
  0
STYLE
  5
1E
100
AcDbSymbolTableRecord
100
AcDbTextStyleTableRecord
  2
________
 70
               0
 40
0.0
 41
1.0
 50
0.0
 71
               0
 42
0.0
  3
ＭＳ Ｐゴシック
  4

1001
ACAD
1000
ＭＳ Ｐゴシック
1071
        0
  0
ENDTAB
  0
TABLE
  2
VIEW
  5
5
100
AcDbSymbolTable
 70
               0
  0
ENDTAB
  0
TABLE
  2
UCS
  5
6
100
AcDbSymbolTable
 70
               0
  0
ENDTAB
  0
TABLE
  2
APPID
  5
8
100
AcDbSymbolTable
 70
               1
  0
APPID
  5
16
100
AcDbSymbolTableRecord
100
AcDbRegAppTableRecord
  2
ACAD
 70
               0
  0
ENDTAB
  0
TABLE
  2
DIMSTYLE
  5
9
100
AcDbSymbolTable
 70
               1
  0
DIMSTYLE
105
18
100
AcDbSymbolTableRecord
100
AcDbDimStyleTableRecord
  2
STANDARD
 70
               0
  3

  4

  5

  6

  7

 40
1.0
 41
0.18
 42
0.0625
 43
0.38
 44
0.18
 45
0.0
 46
0.0
 47
0.0
 48
0.0
 71
               0
 72
               0
 73
               1
 74
               1
 75
               0
 76
               0
 77
               0
 78
               0
140
0.18
141
0.09
142
0.0
143
25.399999999999999
144
1.0
145
0.0
146
1.0
147
0.09
170
               0
171
               2
172
               0
173
               0
174
               0
175
               0
176
               0
177
               0
178
               0
270
               2
271
               4
272
               4
273
               2
274
               2
275
               0
280
               0
281
               0
282
               0
283
               1
284
               0
285
               0
286
               0
287
               0
288
               0
340
17
  0
ENDTAB
  0
TABLE
  2
BLOCK_RECORD
  5
1
100
AcDbSymbolTable
 70
               1
  0
BLOCK_RECORD
  5
A
100
AcDbSymbolTableRecord
100
AcDbBlockTableRecord
  2
*MODEL_SPACE
  0
BLOCK_RECORD
  5
B
100
AcDbSymbolTableRecord
100
AcDbBlockTableRecord
  2
*PAPER_SPACE
  0
BLOCK_RECORD
  5
1D
100
AcDbSymbolTableRecord
100
AcDbBlockTableRecord
  2
*U0
  0
ENDTAB
  0
ENDSEC
  0
SECTION
  2
BLOCKS
  0
BLOCK
  5
D
100
AcDbEntity
  8
0
100
AcDbBlockBegin
  2
*MODEL_SPACE
 70
               0
 10
0.0
 20
0.0
 30
0.0
  3
*MODEL_SPACE
  1

  0
ENDBLK
  5
E
100
AcDbEntity
  8
0
100
AcDbBlockEnd
  0
BLOCK
  5
F
100
AcDbEntity
 67
               1
  8
0
100
AcDbBlockBegin
  2
*PAPER_SPACE
 70
               0
 10
0.0
 20
0.0
 30
0.0
  3
*PAPER_SPACE
  1

  0
ENDBLK
  5
10
100
AcDbEntity
 67
               1
  8
0
100
AcDbBlockEnd
  0
BLOCK
  5
2E
100
AcDbEntity
  8
__
100
AcDbBlockBegin
  2
*U0
 70
               1
 10
0.0
 20
0.0
 30
0.0
  3
*U0
  1

  0
LINE
  5
2F
100
AcDbEntity
  8
0
  6
CONTINUOUS
 62
               7
100
AcDbLine
 10
57.581846995962053
 20
-303.93110918659988
 30
0.0
 11
29.136669786962045
 21
-320.82470712469984
 31
0.0
  0
LINE
  5
30
100
AcDbEntity
  8
0
  6
CONTINUOUS
 62
               7
100
AcDbLine
 10
-43.829885233937944
 20
-364.1595626045999
 30
0.0
 11
-114.26829564913791
 21
-405.99295236379987
 31
0.0
  0
LINE
  5
31
100
AcDbEntity
  8
0
  6
CONTINUOUS
 62
               7
100
AcDbLine
 10
-108.14068627153799
 20
-416.31048711739987
 30
0.0
 11
-37.702275856337963
 21
-374.47709735819984
 31
0.0
  0
LINE
  5
32
100
AcDbEntity
  8
0
  6
CONTINUOUS
 62
               7
100
AcDbLine
 10
29.466117719462062
 20
-334.58577142689984
 30
0.0
 11
63.709456373562062
 21
-314.24864394019988
 31
0.0
  0
SPLINE
  5
33
100
AcDbEntity
  8
0
  6
CONTINUOUS
 62
               7
100
AcDbSpline
210
0.0
220
0.0
230
1.0
 70
               8
 71
               2
 72
              18
 73
              15
 74
               0
 42
0.000001
 43
0.000001
 40
0.0
 40
0.0
 40
0.0
 40
1.0
 40
1.0
 40
2.0
 40
3.0
 40
4.0
 40
5.0
 40
6.0
 40
7.0
 40
8.0
 40
9.0
 40
10.0
 40
10.0
 40
11.0
 40
11.0
 40
11.0
 10
7.7967897586346453
 20
-246.14470013340622
 30
0.0
 10
7.8020901743882405
 20
-246.14622094293838
 30
0.0
 10
7.8073905901418357
 20
-246.14774175247055
 30
0.0
 10
8.0081535434677278
 20
-246.21081861445725
 30
0.0
 10
8.434671521206468
 20
-246.27968188582713
 30
0.0
 10
8.869041275884598
 20
-246.20954251857819
 30
0.0
 10
9.5666470205493965
 20
-245.97441393756429
 30
0.0
 10
10.444719242839028
 20
-245.25554098365836
 30
0.0
 10
11.030469942286885
 20
-244.36110209227485
 30
0.0
 10
11.341080332792956
 20
-243.65537014085425
 30
0.0
 10
11.642269347377379
 20
-242.73469351677039
 30
0.0
 10
11.718470824767991
 20
-241.79032693075141
 30
0.0
 10
11.724888592747732
 20
-241.44622373163787
 30
0.0
 10
11.725110555923735
 20
-241.43716265339572
 30
0.0
 10
11.725332519099737
 20
-241.42810157515356
 30
0.0
  0
SPLINE
  5
34
100
AcDbEntity
  8
0
  6
CONTINUOUS
 62
               7
100
AcDbSpline
210
0.0
220
0.0
230
1.0
 70
               8
 71
               2
 72
              15
 73
              12
 74
               0
 42
0.000001
 43
0.000001
 40
0.0
 40
0.0
 40
0.0
 40
1.0
 40
1.0
 40
2.0
 40
3.0
 40
4.0
 40
5.0
 40
6.0
 40
7.0
 40
7.0
 40
8.0
 40
8.0
 40
8.0
 10
11.725332519099737
 20
-241.42810157515356
 30
0.0
 10
11.725013778112896
 20
-241.42277194042265
 30
0.0
 10
11.724695037126054
 20
-241.41744230569174
 30
0.0
 10
11.715652965952387
 20
-241.25736522753567
 30
0.0
 10
11.663982415623565
 20
-240.5512285018952
 30
0.0
 10
11.289645087287994
 20
-239.56018944360767
 30
0.0
 10
10.795869119877608
 20
-238.98070975875237
 30
0.0
 10
10.377099275040649
 20
-238.6557441398694
 30
0.0
 10
9.9485833115202524
 20
-238.51187285552675
 30
0.0
 10
9.7902156843306614
 20
-238.46742342458464
 30
0.0
 10
9.7849504155635145
 20
-238.46591492003904
 30
0.0
 10
9.7796851467963677
 20
-238.46440641549344
 30
0.0
  0
LINE
  5
35
100
AcDbEntity
  8
0
  6
CONTINUOUS
 62
               7
100
AcDbLine
 10
9.8015227647620407
 20
-238.44356090779991
 30
0.0
 11
9.4946139604620328
 21
-238.3636537980999
 31
0.0
  0
LINE
  5
36
100
AcDbEntity
  8
0
  6
CONTINUOUS
 62
               7
100
AcDbLine
 10
7.4789255205620577
 20
-246.10551519749987
 30
0.0
 11
7.7858343248620656
 21
-246.18542230729986
 31
0.0
  0
LINE
  5
37
100
AcDbEntity
  8
0
  6
CONTINUOUS
 62
               7
100
AcDbLine
 10
9.8281194934620544
 20
-243.46660419739987
 30
0.0
 11
9.0414249225620438
 21
-243.26177954429988
 31
0.0
  0
LINE
  5
38
100
AcDbEntity
  8
0
  6
CONTINUOUS
 62
               7
100
AcDbLine
 10
9.9077762669620313
 20
-241.72177488009987
 30
0.0
 11
10.677975550262062
 21
-241.9223048021999
 31
0.0
  0
LINE
  5
39
100
AcDbEntity
  8
0
  6
CONTINUOUS
 62
               7
100
AcDbLine
 10
-7.3866298975379721
 20
374.82857333670012
 30
0.0
 11
-6.7347974276379716
 21
374.65886152660011
 31
0.0
  0
LINE
  5
3A
100
AcDbEntity
  8
0
  6
CONTINUOUS
 62
               7
100
AcDbLine
 10
-4.7191098045379647
 20
382.40075704350016
 30
0.0
 11
-5.3709422744379651
 21
382.57046885360018
 31
0.0
  0
LINE
  5
3B
100
AcDbEntity
  8
0
  6
CONTINUOUS
 62
               7
100
AcDbLine
 10
-118.51526617013795
 20
382.87880599720012
 30
0.0
 11
-103.16734692703798
 21
-258.20361427309984
 31
0.0
  0
LINE
  5
3C
100
AcDbEntity
  8
0
  6
CONTINUOUS
 62
               7
100
AcDbLine
 10
40.170507954962062
 20
-237.21150225979989
 30
0.0
 11
24.822588711762052
 21
403.87091801050013
 31
0.0
  0
LINE
  5
3D
100
AcDbEntity
  8
0
  6
CONTINUOUS
 62
               7
100
AcDbLine
 10
-77.854193899137925
 20
-212.8854219614999
 30
0.0
 11
-73.931448047937948
 21
-376.73847360579987
 31
0.0
  0
LINE
  5
3E
100
AcDbEntity
  8
0
  6
CONTINUOUS
 62
               7
100
AcDbLine
 10
30.248954219562052
 20
-367.28484270619987
 30
0.0
 11
27.273712157762048
 21
-243.0090140632999
 31
0.0
  0
ARC
  5
3F
100
AcDbEntity
  8
0
  6
CONTINUOUS
 62
               7
100
AcDbCircle
 10
-117.58133069683797
 20
385.6502316582002
 30
0.0
 40
0.9999999999999645
100
AcDbArc
 50
120.70608709080088
 51
181.37143528180283
  0
LINE
  5
40
100
AcDbEntity
  8
0
  6
CONTINUOUS
 62
               7
100
AcDbLine
 10
-118.58104293653795
 20
385.62630081680021
 30
0.0
 11
-118.51526617013795
 21
382.87880599720012
 31
0.0
  0
LINE
  5
41
100
AcDbEntity
  8
0
  6
CONTINUOUS
 62
               7
100
AcDbLine
 10
-50.497577119037913
 20
426.65435699630012
 30
0.0
 11
-118.09196916283796
 21
386.51003046710019
 31
0.0
  0
ARC
  5
42
100
AcDbEntity
  8
0
  6
CONTINUOUS
 62
               7
100
AcDbCircle
 10
23.757099621162041
 20
406.59447718380017
 30
0.0
 40
1.0000000000000209
100
AcDbArc
 50
1.3714352818026962
 51
75.406406782698085
  0
LINE
  5
43
100
AcDbEntity
  8
0
  6
CONTINUOUS
 62
               7
100
AcDbLine
 10
24.822588711762052
 20
403.87091801050013
 30
0.0
 11
24.756811945362045
 21
406.61841283010011
 31
0.0
  0
LINE
  5
44
100
AcDbEntity
  8
0
  6
CONTINUOUS
 62
               7
100
AcDbLine
 10
24.009061854962056
 20
407.56221168450014
 30
0.0
 11
-49.734981052437973
 21
426.76229081000014
 31
0.0
  0
ARC
  5
45
100
AcDbEntity
  8
0
  6
CONTINUOUS
 62
               7
100
AcDbCircle
 10
-49.986942263637928
 20
425.79455604310016
 30
0.0
 40
1.0000000000000924
100
AcDbArc
 50
75.406406782699733
 51
120.70608709080314
  0
POLYLINE
  5
46
100
AcDbEntity
  8
0
  6
CONTINUOUS
 62
               7
100
AcDb2dPolyline
 66
               1
 10
0.0
 20
0.0
 30
0.0
 75
               5
  0
VERTEX
  5
47
100
AcDbEntity
  8
0
  6
CONTINUOUS
 62
               7
100
AcDbVertex
100
AcDb2dVertex
 10
65.463309960462055
 20
-309.39010077959989
 30
0.0
  0
VERTEX
  5
48
100
AcDbEntity
  8
0
  6
CONTINUOUS
 62
               7
100
AcDbVertex
100
AcDb2dVertex
 10
65.066116872662036
 20
-307.97948309809988
 30
0.0
  0
VERTEX
  5
49
100
AcDbEntity
  8
0
  6
CONTINUOUS
 62
               7
100
AcDbVertex
100
AcDb2dVertex
 10
64.391170889362058
 20
-306.63867804389986
 30
0.0
  0
VERTEX
  5
4A
100
AcDbEntity
  8
0
  6
CONTINUOUS
 62
               7
100
AcDbVertex
100
AcDb2dVertex
 10
63.480881023862054
 20
-305.45190726609985
 30
0.0
  0
VERTEX
  5
4B
100
AcDbEntity
  8
0
  6
CONTINUOUS
 62
               7
100
AcDbVertex
100
AcDb2dVertex
 10
62.392442112962044
 20
-304.49368017039984
 30
0.0
  0
VERTEX
  5
4C
100
AcDbEntity
  8
0
  6
CONTINUOUS
 62
               7
100
AcDbVertex
100
AcDb2dVertex
 10
61.194247435962041
 20
-303.82427956449988
 30
0.0
  0
VERTEX
  5
4D
100
AcDbEntity
  8
0
  6
CONTINUOUS
 62
               7
100
AcDbVertex
100
AcDb2dVertex
 10
59.961581382162052
 20
-303.48571082649988
 30
0.0
  0
VERTEX
  5
4E
100
AcDbEntity
  8
0
  6
CONTINUOUS
 62
               7
100
AcDbVertex
100
AcDb2dVertex
 10
58.77189738226204
 20
-303.49933326249987
 30
0.0
  0
VERTEX
  5
4F
100
AcDbEntity
  8
0
  6
CONTINUOUS
 62
               7
100
AcDbVertex
100
AcDb2dVertex
 10
57.699947997362045
 20
-303.8641581908999
 30
0.0
  0
VERTEX
  5
50
100
AcDbEntity
  8
0
  6
CONTINUOUS
 62
               7
100
AcDbVertex
100
AcDb2dVertex
 10
57.581846995962053
 20
-303.93110918659988
 30
0.0
  0
SEQEND
  5
51
100
AcDbEntity
  8
0
  6
CONTINUOUS
 62
               7
  0
ARC
  5
52
100
AcDbEntity
  8
0
  6
CONTINUOUS
 62
               7
100
AcDbCircle
 10
61.09094102286204
 20
-310.55757565669984
 30
0.0
 40
4.5255505427848517
100
AcDbArc
 50
305.35262795319943
 51
14.949886935499535
  0
POLYLINE
  5
53
100
AcDbEntity
  8
0
  6
CONTINUOUS
 62
               7
100
AcDb2dPolyline
 66
               1
 10
0.0
 20
0.0
 30
0.0
 75
               5
  0
VERTEX
  5
54
100
AcDbEntity
  8
0
  6
CONTINUOUS
 62
               7
100
AcDbVertex
100
AcDb2dVertex
 10
-106.38683268463794
 20
-411.45194395669984
 30
0.0
  0
VERTEX
  5
55
100
AcDbEntity
  8
0
  6
CONTINUOUS
 62
               7
100
AcDbVertex
100
AcDb2dVertex
 10
-106.78402577253794
 20
-410.04132627519988
 30
0.0
  0
VERTEX
  5
56
100
AcDbEntity
  8
0
  6
CONTINUOUS
 62
               7
100
AcDbVertex
100
AcDb2dVertex
 10
-107.45897175583795
 20
-408.7005212210999
 30
0.0
  0
VERTEX
  5
57
100
AcDbEntity
  8
0
  6
CONTINUOUS
 62
               7
100
AcDbVertex
100
AcDb2dVertex
 10
-108.36926162133793
 20
-407.51375044319985
 30
0.0
  0
VERTEX
  5
58
100
AcDbEntity
  8
0
  6
CONTINUOUS
 62
               7
100
AcDbVertex
100
AcDb2dVertex
 10
-109.45770053213798
 20
-406.55552334759983
 30
0.0
  0
VERTEX
  5
59
100
AcDbEntity
  8
0
  6
CONTINUOUS
 62
               7
100
AcDbVertex
100
AcDb2dVertex
 10
-110.65589520923797
 20
-405.88612274169986
 30
0.0
  0
VERTEX
  5
5A
100
AcDbEntity
  8
0
  6
CONTINUOUS
 62
               7
100
AcDbVertex
100
AcDb2dVertex
 10
-111.88856126293794
 20
-405.54755400359983
 30
0.0
  0
VERTEX
  5
5B
100
AcDbEntity
  8
0
  6
CONTINUOUS
 62
               7
100
AcDbVertex
100
AcDb2dVertex
 10
-113.07824526283795
 20
-405.56117643959988
 30
0.0
  0
VERTEX
  5
5C
100
AcDbEntity
  8
0
  6
CONTINUOUS
 62
               7
100
AcDbVertex
100
AcDb2dVertex
 10
-114.15019464773795
 20
-405.92600136809989
 30
0.0
  0
VERTEX
  5
5D
100
AcDbEntity
  8
0
  6
CONTINUOUS
 62
               7
100
AcDbVertex
100
AcDb2dVertex
 10
-115.03705326453795
 20
-406.61920550689985
 30
0.0
  0
VERTEX
  5
5E
100
AcDbEntity
  8
0
  6
CONTINUOUS
 62
               7
100
AcDbVertex
100
AcDb2dVertex
 10
-115.68309774653798
 20
-407.59719788889987
 30
0.0
  0
VERTEX
  5
5F
100
AcDbEntity
  8
0
  6
CONTINUOUS
 62
               7
100
AcDbVertex
100
AcDb2dVertex
 10
-116.04773437343792
 20
-408.79856099359989
 30
0.0
  0
VERTEX
  5
60
100
AcDbEntity
  8
0
  6
CONTINUOUS
 62
               7
100
AcDbVertex
100
AcDb2dVertex
 10
-116.10805623423798
 20
-410.14772476889988
 30
0.0
  0
VERTEX
  5
61
100
AcDbEntity
  8
0
  6
CONTINUOUS
 62
               7
100
AcDbVertex
100
AcDb2dVertex
 10
-115.86026622293795
 20
-411.56002089669988
 30
0.0
  0
VERTEX
  5
62
100
AcDbEntity
  8
0
  6
CONTINUOUS
 62
               7
100
AcDbVertex
100
AcDb2dVertex
 10
-115.31993399993794
 20
-412.94666091539983
 30
0.0
  0
VERTEX
  5
63
100
AcDbEntity
  8
0
  6
CONTINUOUS
 62
               7
100
AcDbVertex
100
AcDb2dVertex
 10
-114.52101717123796
 20
-414.22052432039987
 30
0.0
  0
VERTEX
  5
64
100
AcDbEntity
  8
0
  6
CONTINUOUS
 62
               7
100
AcDbVertex
100
AcDb2dVertex
 10
-113.51370901153794
 20
-415.30154696879987
 30
0.0
  0
VERTEX
  5
65
100
AcDbEntity
  8
0
  6
CONTINUOUS
 62
               7
100
AcDbVertex
100
AcDb2dVertex
 10
-112.36130416683793
 20
-416.12182268699991
 30
0.0
  0
VERTEX
  5
66
100
AcDbEntity
  8
0
  6
CONTINUOUS
 62
               7
100
AcDbVertex
100
AcDb2dVertex
 10
-111.13621270383791
 20
-416.62978741759986
 30
0.0
  0
VERTEX
  5
67
100
AcDbEntity
  8
0
  6
CONTINUOUS
 62
               7
100
AcDbVertex
100
AcDb2dVertex
 10
-109.91541161783798
 20
-416.7935733729999
 30
0.0
  0
VERTEX
  5
68
100
AcDbEntity
  8
0
  6
CONTINUOUS
 62
               7
100
AcDbVertex
100
AcDb2dVertex
 10
-108.77560763093797
 20
-416.60286517779986
 30
0.0
  0
VERTEX
  5
69
100
AcDbEntity
  8
0
  6
CONTINUOUS
 62
               7
100
AcDbVertex
100
AcDb2dVertex
 10
-107.78842132893791
 20
-416.06961125639987
 30
0.0
  0
VERTEX
  5
6A
100
AcDbEntity
  8
0
  6
CONTINUOUS
 62
               7
100
AcDbVertex
100
AcDb2dVertex
 10
-107.01587738203793
 20
-415.2273535862999
 30
0.0
  0
VERTEX
  5
6B
100
AcDbEntity
  8
0
  6
CONTINUOUS
 62
               7
100
AcDbVertex
100
AcDb2dVertex
 10
-106.50651960613797
 20
-414.12903857729987
 30
0.0
  0
VERTEX
  5
6C
100
AcDbEntity
  8
0
  6
CONTINUOUS
 62
               7
100
AcDbVertex
100
AcDb2dVertex
 10
-106.29235233493793
 20
-412.84363635479986
 30
0.0
  0
VERTEX
  5
6D
100
AcDbEntity
  8
0
  6
CONTINUOUS
 62
               7
100
AcDbVertex
100
AcDb2dVertex
 10
-106.38683268463794
 20
-411.45194395669984
 30
0.0
  0
SEQEND
  5
6E
100
AcDbEntity
  8
0
  6
CONTINUOUS
 62
               7
  0
POLYLINE
  5
6F
100
AcDbEntity
  8
0
  6
CONTINUOUS
 62
               7
100
AcDb2dPolyline
 66
               1
 10
0.0
 20
0.0
 30
0.0
 75
               5
  0
VERTEX
  5
70
100
AcDbEntity
  8
0
  6
CONTINUOUS
 62
               7
100
AcDbVertex
100
AcDb2dVertex
 10
-107.18977565753798
 20
-411.40188852389986
 30
0.0
  0
VERTEX
  5
71
100
AcDbEntity
  8
0
  6
CONTINUOUS
 62
               7
100
AcDbVertex
100
AcDb2dVertex
 10
-107.56090197673794
 20
-410.12586492499986
 30
0.0
  0
VERTEX
  5
72
100
AcDbEntity
  8
0
  6
CONTINUOUS
 62
               7
100
AcDbVertex
100
AcDb2dVertex
 10
-108.20225925693794
 20
-408.92595217929983
 30
0.0
  0
VERTEX
  5
73
100
AcDbEntity
  8
0
  6
CONTINUOUS
 62
               7
100
AcDbVertex
100
AcDb2dVertex
 10
-109.06627692243794
 20
-407.89113340369988
 30
0.0
  0
VERTEX
  5
74
100
AcDbEntity
  8
0
  6
CONTINUOUS
 62
               7
100
AcDbVertex
100
AcDb2dVertex
 10
-110.08887388183794
 20
-407.09809064969983
 30
0.0
  0
VERTEX
  5
75
100
AcDbEntity
  8
0
  6
CONTINUOUS
 62
               7
100
AcDbVertex
100
AcDb2dVertex
 10
-111.19421235513798
 20
-406.60573588059987
 30
0.0
  0
VERTEX
  5
76
100
AcDbEntity
  8
0
  6
CONTINUOUS
 62
               7
100
AcDbVertex
100
AcDb2dVertex
 10
-112.30031643083791
 20
-406.45049326249983
 30
0.0
  0
VERTEX
  5
77
100
AcDbEntity
  8
0
  6
CONTINUOUS
 62
               7
100
AcDbVertex
100
AcDb2dVertex
 10
-113.32514331503793
 20
-406.64395898099986
 30
0.0
  0
VERTEX
  5
78
100
AcDbEntity
  8
0
  6
CONTINUOUS
 62
               7
100
AcDbVertex
100
AcDb2dVertex
 10
-114.19269428873795
 20
-407.17168991889986
 30
0.0
  0
VERTEX
  5
79
100
AcDbEntity
  8
0
  6
CONTINUOUS
 62
               7
100
AcDbVertex
100
AcDb2dVertex
 10
-114.83862294863795
 20
-407.99461861059984
 30
0.0
  0
VERTEX
  5
7A
100
AcDbEntity
  8
0
  6
CONTINUOUS
 62
               7
100
AcDbVertex
100
AcDb2dVertex
 10
-115.21502498753793
 20
-409.05171199589989
 30
0.0
  0
VERTEX
  5
7B
100
AcDbEntity
  8
0
  6
CONTINUOUS
 62
               7
100
AcDbVertex
100
AcDb2dVertex
 10
-115.29398306213793
 20
-410.26458172779991
 30
0.0
  0
VERTEX
  5
7C
100
AcDbEntity
  8
0
  6
CONTINUOUS
 62
               7
100
AcDbVertex
100
AcDb2dVertex
 10
-115.06964171883791
 20
-411.5431824147999
 30
0.0
  0
VERTEX
  5
7D
100
AcDbEntity
  8
0
  6
CONTINUOUS
 62
               7
100
AcDbVertex
100
AcDb2dVertex
 10
-114.55864057353799
 20
-412.79280527179986
 30
0.0
  0
VERTEX
  5
7E
100
AcDbEntity
  8
0
  6
CONTINUOUS
 62
               7
100
AcDbVertex
100
AcDb2dVertex
 10
-113.79887910513796
 20
-413.92069243919985
 30
0.0
  0
VERTEX
  5
7F
100
AcDbEntity
  8
0
  6
CONTINUOUS
 62
               7
100
AcDbVertex
100
AcDb2dVertex
 10
-112.84670247933795
 20
-414.84322514799987
 30
0.0
  0
VERTEX
  5
80
100
AcDbEntity
  8
0
  6
CONTINUOUS
 62
               7
100
AcDbVertex
100
AcDb2dVertex
 10
-111.77272900703795
 20
-415.49194661679991
 30
0.0
  0
VERTEX
  5
81
100
AcDbEntity
  8
0
  6
CONTINUOUS
 62
               7
100
AcDbVertex
100
AcDb2dVertex
 10
-110.65661402613793
 20
-415.81877691259984
 30
0.0
  0
VERTEX
  5
82
100
AcDbEntity
  8
0
  6
CONTINUOUS
 62
               7
100
AcDbVertex
100
AcDb2dVertex
 10
-109.58113304713797
 20
-415.79950638179986
 30
0.0
  0
VERTEX
  5
83
100
AcDbEntity
  8
0
  6
CONTINUOUS
 62
               7
100
AcDbVertex
100
AcDb2dVertex
 10
-108.62604682413794
 20
-415.4355014425999
 30
0.0
  0
VERTEX
  5
84
100
AcDbEntity
  8
0
  6
CONTINUOUS
 62
               7
100
AcDbVertex
100
AcDb2dVertex
 10
-107.86219226783791
 20
-414.75383264369987
 30
0.0
  0
VERTEX
  5
85
100
AcDbEntity
  8
0
  6
CONTINUOUS
 62
               7
100
AcDbVertex
100
AcDb2dVertex
 10
-107.34622346973796
 20
-413.8049550616999
 30
0.0
  0
VERTEX
  5
86
100
AcDbEntity
  8
0
  6
CONTINUOUS
 62
               7
100
AcDbVertex
100
AcDb2dVertex
 10
-107.11639968823792
 20
-412.6593566430999
 30
0.0
  0
VERTEX
  5
87
100
AcDbEntity
  8
0
  6
CONTINUOUS
 62
               7
100
AcDbVertex
100
AcDb2dVertex
 10
-107.18977565753798
 20
-411.40188852389986
 30
0.0
  0
SEQEND
  5
88
100
AcDbEntity
  8
0
  6
CONTINUOUS
 62
               7
  0
POLYLINE
  5
89
100
AcDbEntity
  8
0
  6
CONTINUOUS
 62
               7
100
AcDb2dPolyline
 66
               1
 10
0.0
 20
0.0
 30
0.0
 75
               5
  0
VERTEX
  5
8A
100
AcDbEntity
  8
0
  6
CONTINUOUS
 62
               7
100
AcDbVertex
100
AcDb2dVertex
 10
11.632016006062059
 20
-241.64472200299986
 30
0.0
  0
VERTEX
  5
8B
100
AcDbEntity
  8
0
  6
CONTINUOUS
 62
               7
100
AcDbVertex
100
AcDb2dVertex
 10
11.497854576262029
 20
-240.75840958669988
 30
0.0
  0
VERTEX
  5
8C
100
AcDbEntity
  8
0
  6
CONTINUOUS
 62
               7
100
AcDbVertex
100
AcDb2dVertex
 10
11.159085415962039
 20
-240.12405131719987
 30
0.0
  0
VERTEX
  5
8D
100
AcDbEntity
  8
0
  6
CONTINUOUS
 62
               7
100
AcDbVertex
100
AcDb2dVertex
 10
10.66146239486207
 20
-239.82736113839991
 30
0.0
  0
VERTEX
  5
8E
100
AcDbEntity
  8
0
  6
CONTINUOUS
 62
               7
100
AcDbVertex
100
AcDb2dVertex
 10
10.072194825462049
 20
-239.90842439019985
 30
0.0
  0
VERTEX
  5
8F
100
AcDbEntity
  8
0
  6
CONTINUOUS
 62
               7
100
AcDbVertex
100
AcDb2dVertex
 10
9.470863901562069
 20
-240.35618583199988
 30
0.0
  0
VERTEX
  5
90
100
AcDbEntity
  8
0
  6
CONTINUOUS
 62
               7
100
AcDbVertex
100
AcDb2dVertex
 10
8.9386883533620392
 20
-241.11028492529988
 30
0.0
  0
VERTEX
  5
91
100
AcDbEntity
  8
0
  6
CONTINUOUS
 62
               7
100
AcDbVertex
100
AcDb2dVertex
 10
8.5475346728620423
 20
-242.0688560353999
 30
0.0
  0
VERTEX
  5
92
100
AcDbEntity
  8
0
  6
CONTINUOUS
 62
               7
100
AcDbVertex
100
AcDb2dVertex
 10
8.3502332004620428
 20
-243.10241821679989
 30
0.0
  0
VERTEX
  5
93
100
AcDbEntity
  8
0
  6
CONTINUOUS
 62
               7
100
AcDbVertex
100
AcDb2dVertex
 10
8.3734300990620625
 20
-244.07135242169988
 30
0.0
  0
VERTEX
  5
94
100
AcDbEntity
  8
0
  6
CONTINUOUS
 62
               7
100
AcDbVertex
100
AcDb2dVertex
 10
8.6139928073620524
 20
-244.84481159139989
 30
0.0
  0
VERTEX
  5
95
100
AcDbEntity
  8
0
  6
CONTINUOUS
 62
               7
100
AcDbVertex
100
AcDb2dVertex
 10
9.0394334643620482
 20
-245.31840711789988
 30
0.0
  0
VERTEX
  5
96
100
AcDbEntity
  8
0
  6
CONTINUOUS
 62
               7
100
AcDbVertex
100
AcDb2dVertex
 10
9.5922888843620342
 20
-245.4281060447999
 30
0.0
  0
VERTEX
  5
97
100
AcDbEntity
  8
0
  6
CONTINUOUS
 62
               7
100
AcDbVertex
100
AcDb2dVertex
 10
10.19789979946205
 20
-245.15911978719987
 30
0.0
  0
VERTEX
  5
98
100
AcDbEntity
  8
0
  6
CONTINUOUS
 62
               7
100
AcDbVertex
100
AcDb2dVertex
 10
10.774471150762054
 20
-244.54773564519991
 30
0.0
  0
VERTEX
  5
99
100
AcDbEntity
  8
0
  6
CONTINUOUS
 62
               7
100
AcDbVertex
100
AcDb2dVertex
 10
11.244135047962033
 20
-243.67657352099985
 30
0.0
  0
VERTEX
  5
9A
100
AcDbEntity
  8
0
  6
CONTINUOUS
 62
               7
100
AcDbVertex
100
AcDb2dVertex
 10
11.543459025562044
 20
-242.66330693949988
 30
0.0
  0
VERTEX
  5
9B
100
AcDbEntity
  8
0
  6
CONTINUOUS
 62
               7
100
AcDbVertex
100
AcDb2dVertex
 10
11.632016006062059
 20
-241.64472200299986
 30
0.0
  0
SEQEND
  5
9C
100
AcDbEntity
  8
0
  6
CONTINUOUS
 62
               7
  0
ARC
  5
9D
100
AcDbEntity
  8
0
  6
CONTINUOUS
 62
               7
100
AcDbCircle
 10
5.9551871650620285
 20
-237.38836855449989
 30
0.0
 40
8.2716226667384518
100
AcDbArc
 50
298.39801577610018
 51
303.0141584055001
  0
ARC
  5
9E
100
AcDbEntity
  8
0
  6
CONTINUOUS
 62
               7
100
AcDbCircle
 10
0.0220744744620447
 20
-242.85205680949986
 30
0.0
 40
10.54319003639803
100
AcDbArc
 50
351.97236079879985
 51
356.81966125709982
  0
SPLINE
  5
9F
100
AcDbEntity
  8
0
  6
CONTINUOUS
 62
               7
100
AcDbSpline
210
0.0
220
0.0
230
1.0
 70
               8
 71
               2
 72
              16
 73
              13
 74
               0
 42
0.000001
 43
0.000001
 40
0.0
 40
0.0
 40
0.0
 40
1.0
 40
1.0
 40
2.0
 40
3.0
 40
4.0
 40
5.0
 40
6.0
 40
7.0
 40
8.0
 40
8.0
 40
9.0
 40
9.0
 40
9.0
 10
10.82448069893556
 20
-242.80894039186637
 30
0.0
 10
10.824038771837252
 20
-242.8093309027845
 30
0.0
 10
10.823596844738944
 20
-242.80972141370262
 30
0.0
 10
10.799691198665528
 20
-242.830399906899
 30
0.0
 10
10.736313696905313
 20
-242.89224012134457
 30
0.0
 10
10.685838709912389
 20
-242.97483235762144
 30
0.0
 10
10.630554839644276
 20
-243.07947330798777
 30
0.0
 10
10.582437080385972
 20
-243.22693364489896
 30
0.0
 10
10.561010315571679
 20
-243.3257591186952
 30
0.0
 10
10.552111024592733
 20
-243.40202379996936
 30
0.0
 10
10.549126457839492
 20
-243.43588717498352
 30
0.0
 10
10.549076493949372
 20
-243.43643419598217
 30
0.0
 10
10.549026530059251
 20
-243.43698121698083
 30
0.0
  0
ARC
  5
A0
100
AcDbEntity
  8
0
  6
CONTINUOUS
 62
               7
100
AcDbCircle
 10
7.4841343017620545
 20
-238.1292777857999
 30
0.0
 40
5.749535299433278
100
AcDbArc
 50
305.51927218690037
 51
311.42582418180018
  0
ARC
  5
A1
100
AcDbEntity
  8
0
  6
CONTINUOUS
 62
               7
100
AcDbCircle
 10
-0.2751866048379554
 20
-242.25901864059989
 30
0.0
 40
11.564922012978826
100
AcDbArc
 50
359.10157987200006
 51
3.6412906917000787
  0
ARC
  5
A2
100
AcDbEntity
  8
0
  6
CONTINUOUS
 62
               7
100
AcDbCircle
 10
7.4622089852620377
 20
-237.21345755169989
 30
0.0
 40
5.7495352994325843
100
AcDbArc
 50
305.51927218690048
 51
311.42582418180007
  0
SPLINE
  5
A3
100
AcDbEntity
  8
0
  6
CONTINUOUS
 62
               7
100
AcDbSpline
210
0.0
220
0.0
230
1.0
 70
               8
 71
               2
 72
              17
 73
              14
 74
               0
 42
0.000001
 43
0.000001
 40
0.0
 40
0.0
 40
0.0
 40
1.0
 40
1.0
 40
2.0
 40
3.0
 40
4.0
 40
5.0
 40
6.0
 40
7.0
 40
8.0
 40
9.0
 40
9.0
 40
10.0
 40
10.0
 40
10.0
 10
10.505174590107657
 20
-241.60528616096963
 30
0.0
 10
10.505281786804431
 20
-241.60596038182925
 30
0.0
 10
10.505388983501206
 20
-241.60663460268887
 30
0.0
 10
10.51103579003356
 20
-241.64322814530783
 30
0.0
 10
10.523155839264405
 20
-241.70883430410049
 30
0.0
 10
10.539310242475068
 20
-241.76625658794131
 30
0.0
 10
10.564902158826413
 20
-241.82409679871682
 30
0.0
 10
10.618865057530513
 20
-241.89910868348591
 30
0.0
 10
10.685988631431428
 20
-241.92690107972385
 30
0.0
 10
10.740269395627308
 20
-241.92652114099496
 30
0.0
 10
10.786042824699763
 20
-241.90290788899006
 30
0.0
 10
10.802039304646343
 20
-241.89342098881934
 30
0.0
 10
10.802297343519896
 20
-241.89327057330075
 30
0.0
 10
10.80255538239345
 20
-241.89312015778216
 30
0.0
  0
ARC
  5
A4
100
AcDbEntity
  8
0
  6
CONTINUOUS
 62
               7
100
AcDbCircle
 10
-2.3112961745379437
 20
-242.90130169429989
 30
0.0
 40
12.881831357502801
100
AcDbArc
 50
5.7741839765000558
 51
10.014945612100099
  0
ARC
  5
A5
100
AcDbEntity
  8
0
  6
CONTINUOUS
 62
               7
100
AcDbCircle
 10
5.8674845920620555
 20
-233.72503303029987
 30
0.0
 40
8.271622666690039
100
AcDbArc
 50
298.39801577609995
 51
303.01415840550015
  0
ARC
  5
A6
100
AcDbEntity
  8
0
  6
CONTINUOUS
 62
               7
100
AcDbCircle
 10
-2.8841268677379333
 20
-243.24150598789987
 30
0.0
 40
12.881831357496997
100
AcDbArc
 50
5.7741839764998701
 51
10.014945612100059
  0
SPLINE
  5
A7
100
AcDbEntity
  8
0
  6
CONTINUOUS
 62
               7
100
AcDbSpline
210
0.0
220
0.0
230
1.0
 70
               8
 71
               2
 72
              16
 73
              13
 74
               0
 42
0.000001
 43
0.000001
 40
0.0
 40
0.0
 40
0.0
 40
1.0
 40
1.0
 40
2.0
 40
3.0
 40
4.0
 40
5.0
 40
6.0
 40
7.0
 40
8.0
 40
8.0
 40
9.0
 40
9.0
 40
9.0
 10
9.6568897280136525
 20
-242.57353127965251
 30
0.0
 10
9.6574455900883294
 20
-242.57317043762006
 30
0.0
 10
9.6580014521630062
 20
-242.57280959558761
 30
0.0
 10
9.6881528729152819
 20
-242.55375754848166
 30
0.0
 10
9.766786572842193
 20
-242.49588907808965
 30
0.0
 10
9.8232465383735246
 20
-242.41485393760649
 30
0.0
 10
9.8824877850224482
 20
-242.31126851309614
 30
0.0
 10
9.9236575467608645
 20
-242.16202895313126
 30
0.0
 10
9.935853686669077
 20
-242.06078945960115
 30
0.0
 10
9.9344166609670026
 20
-241.98180778311922
 30
0.0
 10
9.9324039420743304
 20
-241.9466266872119
 30
0.0
 10
9.9323739194821314
 20
-241.94605857087495
 30
0.0
 10
9.9323438968899325
 20
-241.945490454538
 30
0.0
  0
ARC
  5
A8
100
AcDbEntity
  8
0
  6
CONTINUOUS
 62
               7
100
AcDbCircle
 10
4.4733396240620493
 20
-232.14060656589987
 30
0.0
 40
11.649682818128964
100
AcDbArc
 50
292.7321517565
 51
296.42027016829991
  0
ARC
  5
A9
100
AcDbEntity
  8
0
  6
CONTINUOUS
 62
               7
100
AcDbCircle
 10
-2.5665221816379642
 20
-243.61984341899989
 30
0.0
 40
11.564922012995142
100
AcDbArc
 50
359.10157987200017
 51
3.6412906917000787
  0
ARC
  5
AA
100
AcDbEntity
  8
0
  6
CONTINUOUS
 62
               7
100
AcDbCircle
 10
4.4952649405620662
 20
-233.05642679999988
 30
0.0
 40
11.649682818128341
100
AcDbArc
 50
292.73215175649995
 51
296.42027016829991
  0
SPLINE
  5
AB
100
AcDbEntity
  8
0
  6
CONTINUOUS
 62
               7
100
AcDbSpline
210
0.0
220
0.0
230
1.0
 70
               8
 71
               2
 72
              17
 73
              14
 74
               0
 42
0.000001
 43
0.000001
 40
0.0
 40
0.0
 40
0.0
 40
1.0
 40
1.0
 40
2.0
 40
3.0
 40
4.0
 40
5.0
 40
6.0
 40
7.0
 40
8.0
 40
9.0
 40
9.0
 40
10.0
 40
10.0
 40
10.0
 10
9.9761958368415549
 20
-243.77718551054937
 30
0.0
 10
9.9761862800146446
 20
-243.77653673802254
 30
0.0
 10
9.9761767231877343
 20
-243.77588796549571
 30
0.0
 10
9.975873049003809
 20
-243.74067495737137
 30
0.0
 10
9.9733082879412791
 20
-243.68766544003893
 30
0.0
 10
9.9667834709630085
 20
-243.63001353951734
 30
0.0
 10
9.9440270819789021
 20
-243.56553842877861
 30
0.0
 10
9.8939496915370739
 20
-243.49160019661292
 30
0.0
 10
9.820477389782809
 20
-243.46214920141034
 30
0.0
 10
9.7571540544323909
 20
-243.46011959512612
 30
0.0
 10
9.6997441638580426
 20
-243.48070824848395
 30
0.0
 10
9.6794682816482975
 20
-243.48908623719865
 30
0.0
 10
9.6791416631019729
 20
-243.48921887546774
 30
0.0
 10
9.6788150445556482
 20
-243.48935151373684
 30
0.0
  0
ARC
  5
AC
100
AcDbEntity
  8
0
  6
CONTINUOUS
 62
               7
100
AcDbCircle
 10
-0.5507562187379449
 20
-243.19226110299991
 30
0.0
 40
10.543190036413643
100
AcDbArc
 50
351.97236079879997
 51
356.81966125709988
  0
LINE
  5
AD
100
AcDbEntity
  8
0
  6
CONTINUOUS
 62
               7
100
AcDbLine
 10
10.622983397662068
 20
-242.26712757449985
 30
0.0
 11
10.61433062776203
 21
-241.90570146909988
 31
0.0
  0
LINE
  5
AE
100
AcDbEntity
  8
0
  6
CONTINUOUS
 62
               7
100
AcDbLine
 10
10.050148436462052
 20
-242.60733440279989
 30
0.0
 11
10.622983397662068
 21
-242.26712757449985
 31
0.0
  0
ARC
  5
AF
100
AcDbEntity
  8
0
  6
CONTINUOUS
 62
               7
100
AcDbCircle
 10
10.528039184962068
 20
-243.1913603495999
 30
0.0
 40
0.7546296270557029
100
AcDbArc
 50
129.29242361869913
 51
183.34375798999903
  0
LINE
  5
B0
100
AcDbEntity
  8
0
  6
CONTINUOUS
 62
               7
100
AcDbLine
 10
9.7799308857620701
 20
-243.45410871289988
 30
0.0
 11
9.7746942675620687
 21
-243.23537522789991
 31
0.0
  0
LINE
  5
B1
100
AcDbEntity
  8
0
  6
CONTINUOUS
 62
               7
100
AcDbLine
 10
9.9451199056620396
 20
-244.1898591669999
 30
0.0
 11
10.461949863362037
 21
-244.32442157629987
 31
0.0
  0
LINE
  5
B2
100
AcDbEntity
  8
0
  6
CONTINUOUS
 62
               7
100
AcDbLine
 10
10.050148436462052
 20
-242.60733440279989
 30
0.0
 11
10.824480698962049
 21
-242.80894039189985
 31
0.0
  0
LINE
  5
B3
100
AcDbEntity
  8
0
  6
CONTINUOUS
 62
               7
100
AcDbLine
 10
10.549026530062036
 20
-243.43698121699987
 30
0.0
 11
9.7746942675620687
 21
-243.23537522789991
 31
0.0
  0
LINE
  5
B4
100
AcDbEntity
  8
0
  6
CONTINUOUS
 62
               7
100
AcDbLine
 10
10.622983397662068
 20
-242.26712757449985
 30
0.0
 11
11.288313676862032
 21
-242.44035368879986
 31
0.0
  0
LINE
  5
B5
100
AcDbEntity
  8
0
  6
CONTINUOUS
 62
               7
100
AcDbLine
 10
-5.788782991037948
 20
377.42984064840022
 30
0.0
 11
-6.328615830837947
 21
377.7629302768002
 31
0.0
  0
LINE
  5
B6
100
AcDbEntity
  8
0
  6
CONTINUOUS
 62
               7
100
AcDbLine
 10
-5.1871229919379687
 20
378.19672180110018
 30
0.0
 11
-5.788782991037948
 21
377.42984064840022
 31
0.0
  0
LINE
  5
B7
100
AcDbEntity
  8
0
  6
CONTINUOUS
 62
               7
100
AcDbLine
 10
-5.1252914012379449
 20
379.29668829340011
 30
0.0
 11
-5.1871229919379687
 21
378.19672180110018
 31
0.0
  0
LINE
  5
B8
100
AcDbEntity
  8
0
  6
CONTINUOUS
 62
               7
100
AcDbLine
 10
-5.6651242410379439
 20
379.62977792170017
 30
0.0
 11
-5.1252914012379449
 21
379.29668829340011
 31
0.0
  0
LINE
  5
B9
100
AcDbEntity
  8
0
  6
CONTINUOUS
 62
               7
100
AcDbLine
 10
-6.2667842401379517
 20
378.86289676910013
 30
0.0
 11
-5.6651242410379439
 21
379.62977792170017
 31
0.0
  0
LINE
  5
BA
100
AcDbEntity
  8
0
  6
CONTINUOUS
 62
               7
100
AcDbLine
 10
-6.328615830837947
 20
377.7629302768002
 30
0.0
 11
-6.2667842401379517
 21
378.86289676910013
 31
0.0
  0
POLYLINE
  5
BB
100
AcDbEntity
  8
0
  6
CONTINUOUS
 62
               7
100
AcDb2dPolyline
 66
               1
 10
0.0
 20
0.0
 30
0.0
 75
               5
  0
VERTEX
  5
BC
100
AcDbEntity
  8
0
  6
CONTINUOUS
 62
               7
100
AcDbVertex
100
AcDb2dVertex
 10
-4.7709533334379444
 20
375.66369918810011
 30
0.0
  0
VERTEX
  5
BD
100
AcDbEntity
  8
0
  6
CONTINUOUS
 62
               7
100
AcDbVertex
100
AcDb2dVertex
 10
-5.4618003679379683
 20
374.98306258930012
 30
0.0
  0
VERTEX
  5
BE
100
AcDbEntity
  8
0
  6
CONTINUOUS
 62
               7
100
AcDbVertex
100
AcDb2dVertex
 10
-6.1786068138379449
 20
374.64960131060019
 30
0.0
  0
VERTEX
  5
BF
100
AcDbEntity
  8
0
  6
CONTINUOUS
 62
               7
100
AcDbVertex
100
AcDb2dVertex
 10
-6.8511993438379477
 20
374.69596005780016
 30
0.0
  0
VERTEX
  5
C0
100
AcDbEntity
  8
0
  6
CONTINUOUS
 62
               7
100
AcDbVertex
100
AcDb2dVertex
 10
-7.4137435153379556
 20
375.11760417730017
 30
0.0
  0
VERTEX
  5
C1
100
AcDbEntity
  8
0
  6
CONTINUOUS
 62
               7
100
AcDbVertex
100
AcDb2dVertex
 10
-7.7266449006379503
 20
375.64926853360015
 30
0.0
  0
SEQEND
  5
C2
100
AcDbEntity
  8
0
  6
CONTINUOUS
 62
               7
  0
POLYLINE
  5
C3
100
AcDbEntity
  8
0
  6
CONTINUOUS
 62
               7
100
AcDb2dPolyline
 66
               1
 10
0.0
 20
0.0
 30
0.0
 75
               5
  0
VERTEX
  5
C4
100
AcDbEntity
  8
0
  6
CONTINUOUS
 62
               7
100
AcDbVertex
100
AcDb2dVertex
 10
-6.0680052234379502
 20
382.01979120350012
 30
0.0
  0
VERTEX
  5
C5
100
AcDbEntity
  8
0
  6
CONTINUOUS
 62
               7
100
AcDbVertex
100
AcDb2dVertex
 10
-5.992106864237968
 20
382.0765559809002
 30
0.0
  0
VERTEX
  5
C6
100
AcDbEntity
  8
0
  6
CONTINUOUS
 62
               7
100
AcDbVertex
100
AcDb2dVertex
 10
-5.275300418237947
 20
382.41001725960012
 30
0.0
  0
VERTEX
  5
C7
100
AcDbEntity
  8
0
  6
CONTINUOUS
 62
               7
100
AcDbVertex
100
AcDb2dVertex
 10
-4.6027078882379442
 20
382.36365851240015
 30
0.0
  0
VERTEX
  5
C8
100
AcDbEntity
  8
0
  6
CONTINUOUS
 62
               7
100
AcDbVertex
100
AcDb2dVertex
 10
-4.0401637167379647
 20
381.9420143928001
 30
0.0
  0
VERTEX
  5
C9
100
AcDbEntity
  8
0
  6
CONTINUOUS
 62
               7
100
AcDbVertex
100
AcDb2dVertex
 10
-3.6427334715379516
 20
381.18635465950018
 30
0.0
  0
VERTEX
  5
CA
100
AcDbEntity
  8
0
  6
CONTINUOUS
 62
               7
100
AcDbVertex
100
AcDb2dVertex
 10
-3.4493236032379571
 20
380.17066044110021
 30
0.0
  0
VERTEX
  5
CB
100
AcDbEntity
  8
0
  6
CONTINUOUS
 62
               7
100
AcDbVertex
100
AcDb2dVertex
 10
-3.478862401337949
 20
378.99434207920018
 30
0.0
  0
VERTEX
  5
CC
100
AcDbEntity
  8
0
  6
CONTINUOUS
 62
               7
100
AcDbVertex
100
AcDb2dVertex
 10
-3.7284579699379492
 20
377.77255789010013
 30
0.0
  0
VERTEX
  5
CD
100
AcDbEntity
  8
0
  6
CONTINUOUS
 62
               7
100
AcDbVertex
100
AcDb2dVertex
 10
-4.1736813541379547
 20
376.62489709190021
 30
0.0
  0
VERTEX
  5
CE
100
AcDbEntity
  8
0
  6
CONTINUOUS
 62
               7
100
AcDbVertex
100
AcDb2dVertex
 10
-4.7709533334379444
 20
375.66369918810011
 30
0.0
  0
SEQEND
  5
CF
100
AcDbEntity
  8
0
  6
CONTINUOUS
 62
               7
  0
LINE
  5
D0
100
AcDbEntity
  8
0
  6
CONTINUOUS
 62
               7
100
AcDbLine
 10
-5.7905606321379537
 20
379.46989851300015
 30
0.0
 11
-5.1252914012379449
 21
379.29668829340011
 31
0.0
  0
LINE
  5
D1
100
AcDbEntity
  8
0
  6
CONTINUOUS
 62
               7
100
AcDbLine
 10
-6.2881193327379492
 20
378.48337840450012
 30
0.0
 11
-5.1871229919379687
 21
378.19672180110018
 31
0.0
  0
LINE
  5
D2
100
AcDbEntity
  8
0
  6
CONTINUOUS
 62
               7
100
AcDbLine
 10
-115.63024959273795
 20
381.92253207640016
 30
0.0
 11
-118.08838434363795
 21
382.56253471060012
 31
0.0
  0
ARC
  5
D3
100
AcDbEntity
  8
0
  6
CONTINUOUS
 62
               7
100
AcDbCircle
 10
-118.05577162093797
 20
383.05277709250021
 30
0.0
 40
0.4913259434861453
100
AcDbArc
 50
200.7373701670987
 51
266.19408206699882
  0
LINE
  5
D4
100
AcDbEntity
  8
0
  6
CONTINUOUS
 62
               7
100
AcDbLine
 10
-110.39442378103794
 20
347.09047999430021
 30
0.0
 11
-110.75766220473795
 21
346.94037411840014
 31
0.0
  0
LINE
  5
D5
100
AcDbEntity
  8
0
  6
CONTINUOUS
 62
               7
100
AcDbLine
 10
-77.912409193637956
 20
-212.91999964999991
 30
0.0
 11
-91.199770555037929
 21
342.09294025420019
 31
0.0
  0
LINE
  5
D6
100
AcDbEntity
  8
0
  6
CONTINUOUS
 62
               7
100
AcDbLine
 10
-77.912409193637956
 20
-212.91999964999991
 30
0.0
 11
-83.724143549937963
 21
-215.32164533029987
 31
0.0
  0
LINE
  5
D7
100
AcDbEntity
  8
0
  6
CONTINUOUS
 62
               7
100
AcDbLine
 10
-94.257917997237968
 20
-219.67463182379987
 30
0.0
 11
-83.724143549937963
 21
-215.32164533029987
 31
0.0
  0
LINE
  5
D8
100
AcDbEntity
  8
0
  6
CONTINUOUS
 62
               7
100
AcDbLine
 10
-94.257917997237968
 20
-219.67463182379987
 30
0.0
 11
-97.163791481937977
 21
-220.87545849089986
 31
0.0
  0
LINE
  5
D9
100
AcDbEntity
  8
0
  6
CONTINUOUS
 62
               7
100
AcDbLine
 10
-97.163791481937977
 20
-220.87545849089986
 30
0.0
 11
-96.28676705843796
 21
-257.50875914479985
 31
0.0
  0
LINE
  5
DA
100
AcDbEntity
  8
0
  6
CONTINUOUS
 62
               7
100
AcDbLine
 10
-96.28676705843796
 20
-257.50875914479985
 30
0.0
 11
-100.28233034963793
 21
-259.15988819389986
 31
0.0
  0
LINE
  5
DB
100
AcDbEntity
  8
0
  6
CONTINUOUS
 62
               7
100
AcDbLine
 10
-100.28233034963793
 20
-259.15988819389986
 30
0.0
 11
-115.63024959273795
 21
381.92253207640016
 31
0.0
  0
LINE
  5
DC
100
AcDbEntity
  8
0
  6
CONTINUOUS
 62
               7
100
AcDbLine
 10
-110.75766220473795
 20
346.94037411840014
 30
0.0
 11
-111.56984770263793
 21
380.86535355320012
 31
0.0
  0
LINE
  5
DD
100
AcDbEntity
  8
0
  6
CONTINUOUS
 62
               7
100
AcDbLine
 10
-100.28233034963793
 20
-259.15988819389986
 30
0.0
 11
-102.74046510053799
 21
-258.51988555969984
 31
0.0
  0
LINE
  5
DE
100
AcDbEntity
  8
0
  6
CONTINUOUS
 62
               7
100
AcDbLine
 10
-118.08838434363795
 20
382.56253471060012
 30
0.0
 11
-102.74046510053799
 21
-258.51988555969984
 31
0.0
  0
POLYLINE
  5
DF
100
AcDbEntity
  8
0
  6
CONTINUOUS
 62
               7
100
AcDb2dPolyline
 66
               1
 10
0.0
 20
0.0
 30
0.0
 75
               5
  0
VERTEX
  5
E0
100
AcDbEntity
  8
0
  6
CONTINUOUS
 62
               7
100
AcDbVertex
100
AcDb2dVertex
 10
-102.74046510053799
 20
-258.51988555969984
 30
0.0
  0
VERTEX
  5
E1
100
AcDbEntity
  8
0
  6
CONTINUOUS
 62
               7
100
AcDbVertex
100
AcDb2dVertex
 10
-102.88931499973793
 20
-258.47173160509988
 30
0.0
  0
VERTEX
  5
E2
100
AcDbEntity
  8
0
  6
CONTINUOUS
 62
               7
100
AcDbVertex
100
AcDb2dVertex
 10
-103.01042610133797
 20
-258.41235129819989
 30
0.0
  0
VERTEX
  5
E3
100
AcDbEntity
  8
0
  6
CONTINUOUS
 62
               7
100
AcDbVertex
100
AcDb2dVertex
 10
-103.09915489913791
 20
-258.34403282539989
 30
0.0
  0
VERTEX
  5
E4
100
AcDbEntity
  8
0
  6
CONTINUOUS
 62
               7
100
AcDbVertex
100
AcDb2dVertex
 10
-103.15208002293795
 20
-258.26939515389989
 30
0.0
  0
VERTEX
  5
E5
100
AcDbEntity
  8
0
  6
CONTINUOUS
 62
               7
100
AcDbVertex
100
AcDb2dVertex
 10
-103.16734692703798
 20
-258.20361427309984
 30
0.0
  0
SEQEND
  5
E6
100
AcDbEntity
  8
0
  6
CONTINUOUS
 62
               7
  0
LINE
  5
E7
100
AcDbEntity
  8
0
  6
CONTINUOUS
 62
               7
100
AcDbLine
 10
-83.724143549937963
 20
-215.32164533029987
 30
0.0
 11
-92.030233415037941
 21
-220.2546342016999
 31
0.0
  0
LINE
  5
E8
100
AcDbEntity
  8
0
  6
CONTINUOUS
 62
               7
100
AcDbLine
 10
-76.958105243637959
 20
-250.31514252009987
 30
0.0
 11
-91.109358358437959
 21
-258.71957532379986
 31
0.0
  0
LINE
  5
E9
100
AcDbEntity
  8
0
  6
CONTINUOUS
 62
               7
100
AcDbLine
 10
-92.030233415037941
 20
-220.2546342016999
 30
0.0
 11
-91.109358358437959
 21
-258.71957532379986
 31
0.0
  0
LINE
  5
EA
100
AcDbEntity
  8
0
  6
CONTINUOUS
 62
               7
100
AcDbLine
 10
-77.140707635237931
 20
-247.6370650712999
 30
0.0
 11
-77.930029485637959
 21
-214.66709994149988
 31
0.0
  0
LINE
  5
EB
100
AcDbEntity
  8
0
  6
CONTINUOUS
 62
               7
100
AcDbLine
 10
-90.818786236237969
 20
-222.32173583519989
 30
0.0
 11
-77.930029485637959
 21
-214.66709994149988
 31
0.0
  0
LINE
  5
EC
100
AcDbEntity
  8
0
  6
CONTINUOUS
 62
               7
100
AcDbLine
 10
-90.818786236237969
 20
-222.32173583519989
 30
0.0
 11
-90.029464385737953
 21
-255.29170096499985
 31
0.0
  0
LINE
  5
ED
100
AcDbEntity
  8
0
  6
CONTINUOUS
 62
               7
100
AcDbLine
 10
-90.029464385737953
 20
-255.29170096499985
 30
0.0
 11
-77.140707635237931
 21
-247.6370650712999
 31
0.0
  0
LINE
  5
EE
100
AcDbEntity
  8
0
  6
CONTINUOUS
 62
               7
100
AcDbLine
 10
-76.766739271337968
 20
-212.23958599339988
 30
0.0
 11
-77.912409193637956
 21
-212.91999964999991
 31
0.0
  0
LINE
  5
EF
100
AcDbEntity
  8
0
  6
CONTINUOUS
 62
               7
100
AcDbLine
 10
-90.030522945537967
 20
341.78851417340019
 30
0.0
 11
-76.766739271337968
 21
-212.23958599339988
 31
0.0
  0
LINE
  5
F0
100
AcDbEntity
  8
0
  6
CONTINUOUS
 62
               7
100
AcDbLine
 10
-92.030233415037941
 20
-220.2546342016999
 30
0.0
 11
-94.257917997237968
 21
-219.67463182379987
 31
0.0
  0
LINE
  5
F1
100
AcDbEntity
  8
0
  6
CONTINUOUS
 62
               7
100
AcDbLine
 10
-96.718952392537943
 20
-220.69162618739989
 30
0.0
 11
-95.881864533937943
 21
-255.65677696149987
 31
0.0
  0
LINE
  5
F2
100
AcDbEntity
  8
0
  6
CONTINUOUS
 62
               7
100
AcDbLine
 10
-91.109358358437959
 20
-258.71957532379986
 30
0.0
 11
-93.56749310933796
 21
-258.07957268959984
 31
0.0
  0
LINE
  5
F3
100
AcDbEntity
  8
0
  6
CONTINUOUS
 62
               7
100
AcDbLine
 10
-93.56749310933796
 20
-258.07957268959984
 30
0.0
 11
-93.611343742437924
 21
-256.24793222149987
 31
0.0
  0
LINE
  5
F4
100
AcDbEntity
  8
0
  6
CONTINUOUS
 62
               7
100
AcDbLine
 10
-93.611343742437924
 20
-256.24793222149987
 30
0.0
 11
-95.881864533937943
 21
-255.65677696149987
 31
0.0
  0
LINE
  5
F5
100
AcDbEntity
  8
0
  6
CONTINUOUS
 62
               7
100
AcDbLine
 10
-96.326703544937942
 20
-255.84060340979988
 30
0.0
 11
-95.881864533937943
 21
-255.65677696149987
 31
0.0
  0
LINE
  5
F6
100
AcDbEntity
  8
0
  6
CONTINUOUS
 62
               7
100
AcDbLine
 10
-83.744957744637958
 20
-249.83237413509988
 30
0.0
 11
-84.493514476337936
 21
-218.56516757719987
 31
0.0
  0
LINE
  5
F7
100
AcDbEntity
  8
0
  6
CONTINUOUS
 62
               7
100
AcDbLine
 10
-90.096669052437932
 20
-252.48475685069985
 30
0.0
 11
-83.744957744637958
 21
-249.83237413509988
 31
0.0
  0
LINE
  5
F8
100
AcDbEntity
  8
0
  6
CONTINUOUS
 62
               7
100
AcDbLine
 10
-79.162286591237915
 20
-247.11072457809991
 30
0.0
 11
-79.910843322837962
 21
-215.84351802029988
 31
0.0
  0
LINE
  5
F9
100
AcDbEntity
  8
0
  6
CONTINUOUS
 62
               7
100
AcDbLine
 10
-83.744957744637958
 20
-249.83237413509988
 30
0.0
 11
-79.162286591237915
 21
-247.11072457809991
 31
0.0
  0
LINE
  5
FA
100
AcDbEntity
  8
0
  6
CONTINUOUS
 62
               7
100
AcDbLine
 10
-79.162286591237915
 20
-247.11072457809991
 30
0.0
 11
-77.140707635237931
 21
-247.6370650712999
 31
0.0
  0
ARC
  5
FB
100
AcDbEntity
  8
0
  6
CONTINUOUS
 62
               7
100
AcDbCircle
 10
24.541506408862034
 20
403.89738613370019
 30
0.0
 40
0.2823257384531122
100
AcDbArc
 50
290.90743150290052
 51
354.62060362099913
  0
LINE
  5
FC
100
AcDbEntity
  8
0
  6
CONTINUOUS
 62
               7
100
AcDbLine
 10
22.923756320962042
 20
402.61303128100013
 30
0.0
 11
24.642256936562063
 21
403.6336492312002
 31
0.0
  0
LINE
  5
FD
100
AcDbEntity
  8
0
  6
CONTINUOUS
 62
               7
100
AcDbLine
 10
-42.952135107337938
 20
363.48932270200015
 30
0.0
 11
-41.233630223837963
 21
364.50994318690022
 31
0.0
  0
ARC
  5
FE
100
AcDbEntity
  8
0
  6
CONTINUOUS
 62
               7
100
AcDbCircle
 10
-43.82432645143794
 20
365.35823445150021
 30
0.0
 40
2.0624133601538199
100
AcDbArc
 50
255.39587254319986
 51
295.01771235089979
  0
LINE
  5
FF
100
AcDbEntity
  8
0
  6
CONTINUOUS
 62
               7
100
AcDbLine
 10
-46.802475042437948
 20
364.00245792120012
 30
0.0
 11
-44.344341436237954
 21
363.36245558510012
 31
0.0
  0
LINE
  5
100
100
AcDbEntity
  8
0
  6
CONTINUOUS
 62
               7
100
AcDbLine
 10
-42.952135107337938
 20
363.48932270200015
 30
0.0
 11
-27.604215864137956
 21
-277.59309756819988
 31
0.0
  0
ARC
  5
101
100
AcDbEntity
  8
0
  6
CONTINUOUS
 62
               7
100
AcDbCircle
 10
-28.476407208337946
 20
-275.72418581869988
 30
0.0
 40
2.0624133601525863
100
AcDbArc
 50
255.39587254319991
 51
295.01771235090024
  0
LINE
  5
102
100
AcDbEntity
  8
0
  6
CONTINUOUS
 62
               7
100
AcDbLine
 10
-28.99642219313796
 20
-277.71996468519984
 30
0.0
 11
-44.344341436237954
 21
363.36245558510012
 31
0.0
  0
LINE
  5
103
100
AcDbEntity
  8
0
  6
CONTINUOUS
 62
               7
100
AcDbLine
 10
-46.802475042437948
 20
364.00245792120012
 30
0.0
 11
-31.454555799337953
 21
-277.07996234899986
 31
0.0
  0
LINE
  5
104
100
AcDbEntity
  8
0
  6
CONTINUOUS
 62
               7
100
AcDbLine
 10
-31.454555799337953
 20
-277.07996234899986
 30
0.0
 11
-28.99642219313796
 21
-277.71996468519984
 31
0.0
  0
LINE
  5
105
100
AcDbEntity
  8
0
  6
CONTINUOUS
 62
               7
100
AcDbLine
 10
-25.885710980637953
 20
-276.57247708329987
 30
0.0
 11
-41.233630223837963
 21
364.50994318690022
 31
0.0
  0
LINE
  5
106
100
AcDbEntity
  8
0
  6
CONTINUOUS
 62
               7
100
AcDbLine
 10
-27.604215864137956
 20
-277.59309756819988
 30
0.0
 11
-25.885710980637953
 21
-276.57247708329987
 31
0.0
  0
LINE
  5
107
100
AcDbEntity
  8
0
  6
CONTINUOUS
 62
               7
100
AcDbLine
 10
-16.560880952637945
 20
-268.23460509099988
 30
0.0
 11
-31.842709617837954
 21
370.08721245390012
 31
0.0
  0
LINE
  5
108
100
AcDbEntity
  8
0
  6
CONTINUOUS
 62
               7
100
AcDbLine
 10
-16.560880952637945
 20
-268.23460509099988
 30
0.0
 11
-25.885710980637953
 21
-276.57247708329987
 31
0.0
  0
LINE
  5
109
100
AcDbEntity
  8
0
  6
CONTINUOUS
 62
               7
100
AcDbLine
 10
32.70282647756207
 20
-238.97687678959988
 30
0.0
 11
17.42099781236206
 21
399.34494075530012
 31
0.0
  0
LINE
  5
10A
100
AcDbEntity
  8
0
  6
CONTINUOUS
 62
               7
100
AcDbLine
 10
32.70282647756207
 20
-238.97687678959988
 30
0.0
 11
-16.560880952637945
 21
-268.23460509099988
 31
0.0
  0
POLYLINE
  5
10B
100
AcDbEntity
  8
0
  6
CONTINUOUS
 62
               7
100
AcDb2dPolyline
 66
               1
 10
0.0
 20
0.0
 30
0.0
 75
               5
  0
VERTEX
  5
10C
100
AcDbEntity
  8
0
  6
CONTINUOUS
 62
               7
100
AcDbVertex
100
AcDb2dVertex
 10
12.126043739062055
 20
-240.9800639973999
 30
0.0
  0
VERTEX
  5
10D
100
AcDbEntity
  8
0
  6
CONTINUOUS
 62
               7
100
AcDbVertex
100
AcDb2dVertex
 10
11.993831407062061
 20
-239.8809928359999
 30
0.0
  0
VERTEX
  5
10E
100
AcDbEntity
  8
0
  6
CONTINUOUS
 62
               7
100
AcDbVertex
100
AcDb2dVertex
 10
11.663495086262031
 20
-238.99497971889986
 30
0.0
  0
VERTEX
  5
10F
100
AcDbEntity
  8
0
  6
CONTINUOUS
 62
               7
100
AcDbVertex
100
AcDb2dVertex
 10
11.161793606262052
 20
-238.39377376909988
 30
0.0
  0
VERTEX
  5
110
100
AcDbEntity
  8
0
  6
CONTINUOUS
 62
               7
100
AcDbVertex
100
AcDb2dVertex
 10
10.529381607462057
 20
-238.1261999260999
 30
0.0
  0
VERTEX
  5
111
100
AcDbEntity
  8
0
  6
CONTINUOUS
 62
               7
100
AcDbVertex
100
AcDb2dVertex
 10
9.8174852068620453
 20
-238.21382177399988
 30
0.0
  0
VERTEX
  5
112
100
AcDbEntity
  8
0
  6
CONTINUOUS
 62
               7
100
AcDbVertex
100
AcDb2dVertex
 10
9.0837786174620589
 20
-238.64957030289986
 30
0.0
  0
VERTEX
  5
113
100
AcDbEntity
  8
0
  6
CONTINUOUS
 62
               7
100
AcDbVertex
100
AcDb2dVertex
 10
8.3877057689620358
 20
-239.39814174809987
 30
0.0
  0
VERTEX
  5
114
100
AcDbEntity
  8
0
  6
CONTINUOUS
 62
               7
100
AcDbVertex
100
AcDb2dVertex
 10
7.785657530262057
 20
-240.39886183839985
 30
0.0
  0
VERTEX
  5
115
100
AcDbEntity
  8
0
  6
CONTINUOUS
 62
               7
100
AcDbVertex
100
AcDb2dVertex
 10
7.3264057214620664
 20
-241.57077818949989
 30
0.0
  0
VERTEX
  5
116
100
AcDbEntity
  8
0
  6
CONTINUOUS
 62
               7
100
AcDbVertex
100
AcDb2dVertex
 10
7.0471600797620511
 20
-242.81882218819987
 30
0.0
  0
VERTEX
  5
117
100
AcDbEntity
  8
0
  6
CONTINUOUS
 62
               7
100
AcDbVertex
100
AcDb2dVertex
 10
6.9705418924620517
 20
-244.04191784789987
 30
0.0
  0
VERTEX
  5
118
100
AcDbEntity
  8
0
  6
CONTINUOUS
 62
               7
100
AcDbVertex
100
AcDb2dVertex
 10
7.1027542244620463
 20
-245.1409890093999
 30
0.0
  0
VERTEX
  5
119
100
AcDbEntity
  8
0
  6
CONTINUOUS
 62
               7
100
AcDbVertex
100
AcDb2dVertex
 10
7.4330905453620346
 20
-246.02700212639991
 30
0.0
  0
VERTEX
  5
11A
100
AcDbEntity
  8
0
  6
CONTINUOUS
 62
               7
100
AcDbVertex
100
AcDb2dVertex
 10
7.9347907183620521
 20
-246.62815348849989
 30
0.0
  0
VERTEX
  5
11B
100
AcDbEntity
  8
0
  6
CONTINUOUS
 62
               7
100
AcDbVertex
100
AcDb2dVertex
 10
8.5672040241620664
 20
-246.89578191929991
 30
0.0
  0
VERTEX
  5
11C
100
AcDbEntity
  8
0
  6
CONTINUOUS
 62
               7
100
AcDbVertex
100
AcDb2dVertex
 10
9.2791004247620492
 20
-246.80816007139987
 30
0.0
  0
VERTEX
  5
11D
100
AcDbEntity
  8
0
  6
CONTINUOUS
 62
               7
100
AcDbVertex
100
AcDb2dVertex
 10
10.012807014062048
 20
-246.3724115423999
 30
0.0
  0
VERTEX
  5
11E
100
AcDbEntity
  8
0
  6
CONTINUOUS
 62
               7
100
AcDbVertex
100
AcDb2dVertex
 10
10.708879862562043
 20
-245.62384009719989
 30
0.0
  0
VERTEX
  5
11F
100
AcDbEntity
  8
0
  6
CONTINUOUS
 62
               7
100
AcDbVertex
100
AcDb2dVertex
 10
11.310926794462063
 20
-244.62306541909987
 30
0.0
  0
VERTEX
  5
120
100
AcDbEntity
  8
0
  6
CONTINUOUS
 62
               7
100
AcDbVertex
100
AcDb2dVertex
 10
11.770179910162057
 20
-243.45120365579987
 30
0.0
  0
VERTEX
  5
121
100
AcDbEntity
  8
0
  6
CONTINUOUS
 62
               7
100
AcDbVertex
100
AcDb2dVertex
 10
12.049425551762056
 20
-242.20315965709989
 30
0.0
  0
VERTEX
  5
122
100
AcDbEntity
  8
0
  6
CONTINUOUS
 62
               7
100
AcDbVertex
100
AcDb2dVertex
 10
12.126043739062055
 20
-240.9800639973999
 30
0.0
  0
SEQEND
  5
123
100
AcDbEntity
  8
0
  6
CONTINUOUS
 62
               7
  0
POLYLINE
  5
124
100
AcDbEntity
  8
0
  6
CONTINUOUS
 62
               7
100
AcDb2dPolyline
 66
               1
 10
0.0
 20
0.0
 30
0.0
 75
               5
  0
VERTEX
  5
125
100
AcDbEntity
  8
0
  6
CONTINUOUS
 62
               7
100
AcDbVertex
100
AcDb2dVertex
 10
-2.7395128225379324
 20
379.95407230110021
 30
0.0
  0
VERTEX
  5
126
100
AcDbEntity
  8
0
  6
CONTINUOUS
 62
               7
100
AcDbVertex
100
AcDb2dVertex
 10
-2.8717251546379714
 20
381.05314346260019
 30
0.0
  0
VERTEX
  5
127
100
AcDbEntity
  8
0
  6
CONTINUOUS
 62
               7
100
AcDbVertex
100
AcDb2dVertex
 10
-3.2020614754379437
 20
381.93915657960014
 30
0.0
  0
VERTEX
  5
128
100
AcDbEntity
  8
0
  6
CONTINUOUS
 62
               7
100
AcDbVertex
100
AcDb2dVertex
 10
-3.7037618118379498
 20
382.54031476510016
 30
0.0
  0
VERTEX
  5
129
100
AcDbEntity
  8
0
  6
CONTINUOUS
 62
               7
100
AcDbVertex
100
AcDb2dVertex
 10
-4.336174790937946
 20
382.80792954900011
 30
0.0
  0
VERTEX
  5
12A
100
AcDbEntity
  8
0
  6
CONTINUOUS
 62
               7
100
AcDbVertex
100
AcDb2dVertex
 10
-5.0480713548379583
 20
382.72031452460016
 30
0.0
  0
VERTEX
  5
12B
100
AcDbEntity
  8
0
  6
CONTINUOUS
 62
               7
100
AcDbVertex
100
AcDb2dVertex
 10
-5.7817779441379571
 20
382.28456599560019
 30
0.0
  0
VERTEX
  5
12C
100
AcDbEntity
  8
0
  6
CONTINUOUS
 62
               7
100
AcDbVertex
100
AcDb2dVertex
 10
-6.4778506293379507
 20
381.53598772690015
 30
0.0
  0
VERTEX
  5
12D
100
AcDbEntity
  8
0
  6
CONTINUOUS
 62
               7
100
AcDbVertex
100
AcDb2dVertex
 10
-7.0798978879379604
 20
380.53522669580019
 30
0.0
  0
VERTEX
  5
12E
100
AcDbEntity
  8
0
  6
CONTINUOUS
 62
               7
100
AcDbVertex
100
AcDb2dVertex
 10
-7.5391508402379657
 20
379.3633581090001
 30
0.0
  0
VERTEX
  5
12F
100
AcDbEntity
  8
0
  6
CONTINUOUS
 62
               7
100
AcDbVertex
100
AcDb2dVertex
 10
-7.8183964818379366
 20
378.11531411030018
 30
0.0
  0
VERTEX
  5
130
100
AcDbEntity
  8
0
  6
CONTINUOUS
 62
               7
100
AcDbVertex
100
AcDb2dVertex
 10
-7.8950146692379519
 20
376.89221845060018
 30
0.0
  0
VERTEX
  5
131
100
AcDbEntity
  8
0
  6
CONTINUOUS
 62
               7
100
AcDbVertex
100
AcDb2dVertex
 10
-7.7628021738379687
 20
375.79314046570011
 30
0.0
  0
VERTEX
  5
132
100
AcDbEntity
  8
0
  6
CONTINUOUS
 62
               7
100
AcDbVertex
100
AcDb2dVertex
 10
-7.4324658530379395
 20
374.90712734870016
 30
0.0
  0
VERTEX
  5
133
100
AcDbEntity
  8
0
  6
CONTINUOUS
 62
               7
100
AcDbVertex
100
AcDb2dVertex
 10
-6.9307655165379458
 20
374.30596916320013
 30
0.0
  0
VERTEX
  5
134
100
AcDbEntity
  8
0
  6
CONTINUOUS
 62
               7
100
AcDbVertex
100
AcDb2dVertex
 10
-6.2983525375379656
 20
374.03835437930019
 30
0.0
  0
VERTEX
  5
135
100
AcDbEntity
  8
0
  6
CONTINUOUS
 62
               7
100
AcDbVertex
100
AcDb2dVertex
 10
-5.5864559736379533
 20
374.12596940370014
 30
0.0
  0
VERTEX
  5
136
100
AcDbEntity
  8
0
  6
CONTINUOUS
 62
               7
100
AcDbVertex
100
AcDb2dVertex
 10
-4.852749384237967
 20
374.56171793260017
 30
0.0
  0
VERTEX
  5
137
100
AcDbEntity
  8
0
  6
CONTINUOUS
 62
               7
100
AcDbVertex
100
AcDb2dVertex
 10
-4.1566766990379449
 20
375.3102962013001
 30
0.0
  0
VERTEX
  5
138
100
AcDbEntity
  8
0
  6
CONTINUOUS
 62
               7
100
AcDbVertex
100
AcDb2dVertex
 10
-3.5546294405379513
 20
376.3110572325001
 30
0.0
  0
VERTEX
  5
139
100
AcDbEntity
  8
0
  6
CONTINUOUS
 62
               7
100
AcDbVertex
100
AcDb2dVertex
 10
-3.09537648813793
 20
377.48292581930019
 30
0.0
  0
VERTEX
  5
13A
100
AcDbEntity
  8
0
  6
CONTINUOUS
 62
               7
100
AcDbVertex
100
AcDb2dVertex
 10
-2.8161308465379591
 20
378.73096981800012
 30
0.0
  0
VERTEX
  5
13B
100
AcDbEntity
  8
0
  6
CONTINUOUS
 62
               7
100
AcDbVertex
100
AcDb2dVertex
 10
-2.7395128225379324
 20
379.95407230110021
 30
0.0
  0
SEQEND
  5
13C
100
AcDbEntity
  8
0
  6
CONTINUOUS
 62
               7
  0
LINE
  5
13D
100
AcDbEntity
  8
0
  6
CONTINUOUS
 62
               7
100
AcDbLine
 10
-4.8866591919379516
 20
382.44438254380015
 30
0.0
 11
-5.0760784466379505
 21
382.70992557540018
 31
0.0
  0
LINE
  5
13E
100
AcDbEntity
  8
0
  6
CONTINUOUS
 62
               7
100
AcDbLine
 10
-7.1972115585379299
 20
374.56302811220013
 30
0.0
 11
-6.9023468150379301
 21
374.7024870269002
 31
0.0
  0
LINE
  5
13F
100
AcDbEntity
  8
0
  6
CONTINUOUS
 62
               7
100
AcDbLine
 10
38.271675564162052
 20
-238.4693889891999
 30
0.0
 11
22.923756320962042
 21
402.61303128100013
 31
0.0
  0
LINE
  5
140
100
AcDbEntity
  8
0
  6
CONTINUOUS
 62
               7
100
AcDbLine
 10
38.271675564162052
 20
-238.4693889891999
 30
0.0
 11
32.70282647756207
 21
-238.97687678959988
 31
0.0
  0
LINE
  5
141
100
AcDbEntity
  8
0
  6
CONTINUOUS
 62
               7
100
AcDbLine
 10
39.990176179662029
 20
-237.44877103899989
 30
0.0
 11
24.642256936562063
 21
403.6336492312002
 31
0.0
  0
LINE
  5
142
100
AcDbEntity
  8
0
  6
CONTINUOUS
 62
               7
100
AcDbLine
 10
38.271675564162052
 20
-238.4693889891999
 30
0.0
 11
39.990176179662029
 21
-237.44877103899989
 31
0.0
  0
ARC
  5
143
100
AcDbEntity
  8
0
  6
CONTINUOUS
 62
               7
100
AcDbCircle
 10
39.889425651962057
 20
-237.18503413649989
 30
0.0
 40
0.2823257384523837
100
AcDbArc
 50
290.90743150290143
 51
354.620603621101
  0
LINE
  5
144
100
AcDbEntity
  8
0
  6
CONTINUOUS
 62
               7
100
AcDbLine
 10
28.939855264862047
 20
-242.01944285389987
 30
0.0
 11
28.920788067562029
 21
-241.22300623139989
 31
0.0
  0
LINE
  5
145
100
AcDbEntity
  8
0
  6
CONTINUOUS
 62
               7
100
AcDbLine
 10
-19.251113943937952
 20
-270.6400716542999
 30
0.0
 11
28.939855264862047
 21
-242.01944285389987
 31
0.0
  0
LINE
  5
146
100
AcDbEntity
  8
0
  6
CONTINUOUS
 62
               7
100
AcDbLine
 10
9.9465999339620623
 20
-238.4381592673999
 30
0.0
 11
9.7894779516620645
 21
-238.22420389969989
 31
0.0
  0
LINE
  5
147
100
AcDbEntity
  8
0
  6
CONTINUOUS
 62
               7
100
AcDbLine
 10
7.668343859562043
 20
-246.37106042199986
 30
0.0
 11
7.9344944870620395
 21
-246.24759599179987
 31
0.0
  0
ARC
  5
148
100
AcDbEntity
  8
0
  6
CONTINUOUS
 62
               7
100
AcDbCircle
 10
-12.685640249437938
 20
-392.10667782789989
 30
0.0
 40
0.6187331930783694
100
AcDbArc
 50
255.39642684919781
 51
295.01750837390273
  0
LINE
  5
149
100
AcDbEntity
  8
0
  6
CONTINUOUS
 62
               7
100
AcDbLine
 10
-12.841641268237964
 20
-392.70542188539986
 30
0.0
 11
-51.46337443773794
 21
-382.64982547939991
 31
0.0
  0
LINE
  5
14A
100
AcDbEntity
  8
0
  6
CONTINUOUS
 62
               7
100
AcDbLine
 10
-67.80119209013796
 20
-378.39609352639985
 30
0.0
 11
-73.803385264437992
 21
-376.83335599079987
 31
0.0
  0
POLYLINE
  5
14B
100
AcDbEntity
  8
0
  6
CONTINUOUS
 62
               7
100
AcDb2dPolyline
 66
               1
 10
0.0
 20
0.0
 30
0.0
 75
               5
  0
VERTEX
  5
14C
100
AcDbEntity
  8
0
  6
CONTINUOUS
 62
               7
100
AcDbVertex
100
AcDb2dVertex
 10
-43.815840581837961
 20
-364.16318755399988
 30
0.0
  0
VERTEX
  5
14D
100
AcDbEntity
  8
0
  6
CONTINUOUS
 62
               7
100
AcDbVertex
100
AcDb2dVertex
 10
-42.490928980837964
 20
-364.66773937309989
 30
0.0
  0
VERTEX
  5
14E
100
AcDbEntity
  8
0
  6
CONTINUOUS
 62
               7
100
AcDbVertex
100
AcDb2dVertex
 10
-41.22027997933796
 20
-365.46986994669987
 30
0.0
  0
VERTEX
  5
14F
100
AcDbEntity
  8
0
  6
CONTINUOUS
 62
               7
100
AcDbVertex
100
AcDb2dVertex
 10
-40.063309741837941
 20
-366.53203085059988
 30
0.0
  0
VERTEX
  5
150
100
AcDbEntity
  8
0
  6
CONTINUOUS
 62
               7
100
AcDbVertex
100
AcDb2dVertex
 10
-39.074113300937938
 20
-367.80465992249987
 30
0.0
  0
VERTEX
  5
151
100
AcDbEntity
  8
0
  6
CONTINUOUS
 62
               7
100
AcDbVertex
100
AcDb2dVertex
 10
-38.298944162537964
 20
-369.22819366509987
 30
0.0
  0
VERTEX
  5
152
100
AcDbEntity
  8
0
  6
CONTINUOUS
 62
               7
100
AcDbVertex
100
AcDb2dVertex
 10
-37.77405063153796
 20
-370.73601747539988
 30
0.0
  0
VERTEX
  5
153
100
AcDbEntity
  8
0
  6
CONTINUOUS
 62
               7
100
AcDbVertex
100
AcDb2dVertex
 10
-37.523977862737951
 20
-372.25772860009988
 30
0.0
  0
VERTEX
  5
154
100
AcDbEntity
  8
0
  6
CONTINUOUS
 62
               7
100
AcDbVertex
100
AcDb2dVertex
 10
-37.560414108737945
 20
-373.72209465849988
 30
0.0
  0
VERTEX
  5
155
100
AcDbEntity
  8
0
  6
CONTINUOUS
 62
               7
100
AcDbVertex
100
AcDb2dVertex
 10
-37.88165837483794
 20
-375.06066409039988
 30
0.0
  0
VERTEX
  5
156
100
AcDbEntity
  8
0
  6
CONTINUOUS
 62
               7
100
AcDbVertex
100
AcDb2dVertex
 10
-38.472688084537964
 20
-376.21089489839989
 30
0.0
  0
VERTEX
  5
157
100
AcDbEntity
  8
0
  6
CONTINUOUS
 62
               7
100
AcDbVertex
100
AcDb2dVertex
 10
-39.305869928637946
 20
-377.11889893999984
 30
0.0
  0
VERTEX
  5
158
100
AcDbEntity
  8
0
  6
CONTINUOUS
 62
               7
100
AcDbVertex
100
AcDb2dVertex
 10
-40.342242833337963
 20
-377.74236274819987
 30
0.0
  0
VERTEX
  5
159
100
AcDbEntity
  8
0
  6
CONTINUOUS
 62
               7
100
AcDbVertex
100
AcDb2dVertex
 10
-41.533349459137952
 20
-378.05196934499986
 30
0.0
  0
VERTEX
  5
15A
100
AcDbEntity
  8
0
  6
CONTINUOUS
 62
               7
100
AcDbVertex
100
AcDb2dVertex
 10
-42.823493312037954
 20
-378.03341446259986
 30
0.0
  0
VERTEX
  5
15B
100
AcDbEntity
  8
0
  6
CONTINUOUS
 62
               7
100
AcDbVertex
100
AcDb2dVertex
 10
-43.472909667837939
 20
-377.90431218489988
 30
0.0
  0
SEQEND
  5
15C
100
AcDbEntity
  8
0
  6
CONTINUOUS
 62
               7
  0
ARC
  5
15D
100
AcDbEntity
  8
0
  6
CONTINUOUS
 62
               7
100
AcDbCircle
 10
-45.128077679637954
 20
-368.54482779259985
 30
0.0
 40
4.573919258233782
100
AcDbArc
 50
73.32781169160009
 51
167.90861719339995
  0
POLYLINE
  5
15E
100
AcDbEntity
  8
0
  6
CONTINUOUS
 62
               7
100
AcDb2dPolyline
 66
               1
 10
0.0
 20
0.0
 30
0.0
 75
               5
  0
VERTEX
  5
15F
100
AcDbEntity
  8
0
  6
CONTINUOUS
 62
               7
100
AcDbVertex
100
AcDb2dVertex
 10
-51.106102426537944
 20
-59.649029396299881
 30
0.0
  0
VERTEX
  5
160
100
AcDbEntity
  8
0
  6
CONTINUOUS
 62
               7
100
AcDbVertex
100
AcDb2dVertex
 10
-49.996709034237909
 20
-60.106636502299878
 30
0.0
  0
VERTEX
  5
161
100
AcDbEntity
  8
0
  6
CONTINUOUS
 62
               7
100
AcDbVertex
100
AcDb2dVertex
 10
-48.961462692437948
 20
-60.869908760099889
 30
0.0
  0
VERTEX
  5
162
100
AcDbEntity
  8
0
  6
CONTINUOUS
 62
               7
100
AcDbVertex
100
AcDb2dVertex
 10
-48.077144005337942
 20
-61.88223836829988
 30
0.0
  0
VERTEX
  5
163
100
AcDbEntity
  8
0
  6
CONTINUOUS
 62
               7
100
AcDbVertex
100
AcDb2dVertex
 10
-47.40933939253793
 20
-63.06855850689989
 30
0.0
  0
VERTEX
  5
164
100
AcDbEntity
  8
0
  6
CONTINUOUS
 62
               7
100
AcDbVertex
100
AcDb2dVertex
 10
-47.007576069237956
 20
-64.340895558599883
 30
0.0
  0
VERTEX
  5
165
100
AcDbEntity
  8
0
  6
CONTINUOUS
 62
               7
100
AcDbVertex
100
AcDb2dVertex
 10
-46.901654040537949
 20
-65.604857368399877
 30
0.0
  0
VERTEX
  5
166
100
AcDbEntity
  8
0
  6
CONTINUOUS
 62
               7
100
AcDbVertex
100
AcDb2dVertex
 10
-47.099422134537946
 20
-66.766749111799882
 30
0.0
  0
VERTEX
  5
167
100
AcDbEntity
  8
0
  6
CONTINUOUS
 62
               7
100
AcDbVertex
100
AcDb2dVertex
 10
-47.586215645037981
 20
-67.740337916399881
 30
0.0
  0
VERTEX
  5
168
100
AcDbEntity
  8
0
  6
CONTINUOUS
 62
               7
100
AcDbVertex
100
AcDb2dVertex
 10
-48.32593574743791
 20
-68.453461267399888
 30
0.0
  0
VERTEX
  5
169
100
AcDbEntity
  8
0
  6
CONTINUOUS
 62
               7
100
AcDbVertex
100
AcDb2dVertex
 10
-49.263715931237954
 20
-68.853218634899889
 30
0.0
  0
VERTEX
  5
16A
100
AcDbEntity
  8
0
  6
CONTINUOUS
 62
               7
100
AcDbVertex
100
AcDb2dVertex
 10
-50.330006699037966
 20
-68.909953002799881
 30
0.0
  0
VERTEX
  5
16B
100
AcDbEntity
  8
0
  6
CONTINUOUS
 62
               7
100
AcDbVertex
100
AcDb2dVertex
 10
-51.445727922737973
 20
-68.619462612899881
 30
0.0
  0
VERTEX
  5
16C
100
AcDbEntity
  8
0
  6
CONTINUOUS
 62
               7
100
AcDbVertex
100
AcDb2dVertex
 10
-52.528128446637965
 20
-68.003292645999878
 30
0.0
  0
VERTEX
  5
16D
100
AcDbEntity
  8
0
  6
CONTINUOUS
 62
               7
100
AcDbVertex
100
AcDb2dVertex
 10
-53.496933665537966
 20
-67.10713463179988
 30
0.0
  0
VERTEX
  5
16E
100
AcDbEntity
  8
0
  6
CONTINUOUS
 62
               7
100
AcDbVertex
100
AcDb2dVertex
 10
-54.280289636037963
 20
-65.997461539799886
 30
0.0
  0
VERTEX
  5
16F
100
AcDbEntity
  8
0
  6
CONTINUOUS
 62
               7
100
AcDbVertex
100
AcDb2dVertex
 10
-54.820101894037947
 20
-64.756584541999885
 30
0.0
  0
VERTEX
  5
170
100
AcDbEntity
  8
0
  6
CONTINUOUS
 62
               7
100
AcDbVertex
100
AcDb2dVertex
 10
-55.076332707037949
 20
-63.476489149899876
 30
0.0
  0
VERTEX
  5
171
100
AcDbEntity
  8
0
  6
CONTINUOUS
 62
               7
100
AcDbVertex
100
AcDb2dVertex
 10
-55.02997856843794
 20
-62.252174128499888
 30
0.0
  0
VERTEX
  5
172
100
AcDbEntity
  8
0
  6
CONTINUOUS
 62
               7
100
AcDbVertex
100
AcDb2dVertex
 10
-54.684478506037948
 20
-61.174395383699888
 30
0.0
  0
VERTEX
  5
173
100
AcDbEntity
  8
0
  6
CONTINUOUS
 62
               7
100
AcDbVertex
100
AcDb2dVertex
 10
-54.065455337537941
 20
-60.323115124199887
 30
0.0
  0
VERTEX
  5
174
100
AcDbEntity
  8
0
  6
CONTINUOUS
 62
               7
100
AcDbVertex
100
AcDb2dVertex
 10
-53.218821921137959
 20
-59.76145808619988
 30
0.0
  0
VERTEX
  5
175
100
AcDbEntity
  8
0
  6
CONTINUOUS
 62
               7
100
AcDbVertex
100
AcDb2dVertex
 10
-52.207364488937941
 20
-59.53106784649988
 30
0.0
  0
VERTEX
  5
176
100
AcDbEntity
  8
0
  6
CONTINUOUS
 62
               7
100
AcDbVertex
100
AcDb2dVertex
 10
-51.106102426537944
 20
-59.649029396299881
 30
0.0
  0
SEQEND
  5
177
100
AcDbEntity
  8
0
  6
CONTINUOUS
 62
               7
  0
LINE
  5
178
100
AcDbEntity
  8
0
  6
CONTINUOUS
 62
               7
100
AcDbLine
 10
-33.662912906437953
 20
-278.06955436259989
 30
0.0
 11
-32.785888482937963
 21
-314.70285501649988
 31
0.0
  0
POLYLINE
  5
179
100
AcDbEntity
  8
0
  6
CONTINUOUS
 62
               7
100
AcDb2dPolyline
 66
               1
 10
0.0
 20
0.0
 30
0.0
 75
               5
  0
VERTEX
  5
17A
100
AcDbEntity
  8
0
  6
CONTINUOUS
 62
               7
100
AcDbVertex
100
AcDb2dVertex
 10
-58.244259651937938
 20
-271.66952821919989
 30
0.0
  0
VERTEX
  5
17B
100
AcDbEntity
  8
0
  6
CONTINUOUS
 62
               7
100
AcDbVertex
100
AcDb2dVertex
 10
-58.14439070593798
 20
-269.55991127709984
 30
0.0
  0
VERTEX
  5
17C
100
AcDbEntity
  8
0
  6
CONTINUOUS
 62
               7
100
AcDbVertex
100
AcDb2dVertex
 10
-57.744341113137949
 20
-267.58106985189988
 30
0.0
  0
VERTEX
  5
17D
100
AcDbEntity
  8
0
  6
CONTINUOUS
 62
               7
100
AcDbVertex
100
AcDb2dVertex
 10
-57.053966638937965
 20
-265.78164760599986
 30
0.0
  0
VERTEX
  5
17E
100
AcDbEntity
  8
0
  6
CONTINUOUS
 62
               7
100
AcDbVertex
100
AcDb2dVertex
 10
-56.090263476637944
 20
-264.20598797119987
 30
0.0
  0
VERTEX
  5
17F
100
AcDbEntity
  8
0
  6
CONTINUOUS
 62
               7
100
AcDbVertex
100
AcDb2dVertex
 10
-54.876961589237993
 20
-262.89293808399987
 30
0.0
  0
VERTEX
  5
180
100
AcDbEntity
  8
0
  6
CONTINUOUS
 62
               7
100
AcDbVertex
100
AcDb2dVertex
 10
-53.443935345637982
 20
-261.87480878669987
 30
0.0
  0
VERTEX
  5
181
100
AcDbEntity
  8
0
  6
CONTINUOUS
 62
               7
100
AcDbVertex
100
AcDb2dVertex
 10
-51.826473095537921
 20
-261.17658834479988
 30
0.0
  0
VERTEX
  5
182
100
AcDbEntity
  8
0
  6
CONTINUOUS
 62
               7
100
AcDbVertex
100
AcDb2dVertex
 10
-50.064401764437974
 20
-260.81557364509985
 30
0.0
  0
VERTEX
  5
183
100
AcDbEntity
  8
0
  6
CONTINUOUS
 62
               7
100
AcDbVertex
100
AcDb2dVertex
 10
-48.201105910837981
 20
-260.80059489099989
 30
0.0
  0
VERTEX
  5
184
100
AcDbEntity
  8
0
  6
CONTINUOUS
 62
               7
100
AcDbVertex
100
AcDb2dVertex
 10
-46.282470711037945
 20
-261.13207381739988
 30
0.0
  0
VERTEX
  5
185
100
AcDbEntity
  8
0
  6
CONTINUOUS
 62
               7
100
AcDbVertex
100
AcDb2dVertex
 10
-44.355738160037959
 20
-261.80177901609989
 30
0.0
  0
VERTEX
  5
186
100
AcDbEntity
  8
0
  6
CONTINUOUS
 62
               7
100
AcDbVertex
100
AcDb2dVertex
 10
-42.468346282937944
 20
-262.79329090249985
 30
0.0
  0
VERTEX
  5
187
100
AcDbEntity
  8
0
  6
CONTINUOUS
 62
               7
100
AcDbVertex
100
AcDb2dVertex
 10
-40.666776187637964
 20
-264.08213915539989
 30
0.0
  0
VERTEX
  5
188
100
AcDbEntity
  8
0
  6
CONTINUOUS
 62
               7
100
AcDbVertex
100
AcDb2dVertex
 10
-38.995382128337951
 20
-265.63664979899988
 30
0.0
  0
VERTEX
  5
189
100
AcDbEntity
  8
0
  6
CONTINUOUS
 62
               7
100
AcDbVertex
100
AcDb2dVertex
 10
-37.49532403543796
 20
-267.41844012059988
 30
0.0
  0
VERTEX
  5
18A
100
AcDbEntity
  8
0
  6
CONTINUOUS
 62
               7
100
AcDbVertex
100
AcDb2dVertex
 10
-36.203535385437959
 20
-269.38371810159987
 30
0.0
  0
VERTEX
  5
18B
100
AcDbEntity
  8
0
  6
CONTINUOUS
 62
               7
100
AcDbVertex
100
AcDb2dVertex
 10
-35.151826676137944
 20
-271.48411256079987
 30
0.0
  0
VERTEX
  5
18C
100
AcDbEntity
  8
0
  6
CONTINUOUS
 62
               7
100
AcDbVertex
100
AcDb2dVertex
 10
-34.366092692137954
 20
-273.66785600849988
 30
0.0
  0
VERTEX
  5
18D
100
AcDbEntity
  8
0
  6
CONTINUOUS
 62
               7
100
AcDbVertex
100
AcDb2dVertex
 10
-33.865679374237942
 20
-275.88114293539985
 30
0.0
  0
VERTEX
  5
18E
100
AcDbEntity
  8
0
  6
CONTINUOUS
 62
               7
100
AcDbVertex
100
AcDb2dVertex
 10
-33.662912906437953
 20
-278.06955436259989
 30
0.0
  0
SEQEND
  5
18F
100
AcDbEntity
  8
0
  6
CONTINUOUS
 62
               7
  0
LINE
  5
190
100
AcDbEntity
  8
0
  6
CONTINUOUS
 62
               7
100
AcDbLine
 10
-57.36723522843792
 20
-308.30282887309988
 30
0.0
 11
-58.244259651937938
 21
-271.66952821919989
 31
0.0
  0
POLYLINE
  5
191
100
AcDbEntity
  8
0
  6
CONTINUOUS
 62
               7
100
AcDb2dPolyline
 66
               1
 10
0.0
 20
0.0
 30
0.0
 75
               5
  0
VERTEX
  5
192
100
AcDbEntity
  8
0
  6
CONTINUOUS
 62
               7
100
AcDbVertex
100
AcDb2dVertex
 10
-32.785888482937963
 20
-314.70285501649988
 30
0.0
  0
VERTEX
  5
193
100
AcDbEntity
  8
0
  6
CONTINUOUS
 62
               7
100
AcDbVertex
100
AcDb2dVertex
 10
-32.88575742893795
 20
-316.81247195859987
 30
0.0
  0
VERTEX
  5
194
100
AcDbEntity
  8
0
  6
CONTINUOUS
 62
               7
100
AcDbVertex
100
AcDb2dVertex
 10
-33.285807241137945
 20
-318.79136757429984
 30
0.0
  0
VERTEX
  5
195
100
AcDbEntity
  8
0
  6
CONTINUOUS
 62
               7
100
AcDbVertex
100
AcDb2dVertex
 10
-33.976183022237961
 20
-320.59073523229989
 30
0.0
  0
VERTEX
  5
196
100
AcDbEntity
  8
0
  6
CONTINUOUS
 62
               7
100
AcDbVertex
100
AcDb2dVertex
 10
-34.939884658337945
 20
-322.16639526449984
 30
0.0
  0
VERTEX
  5
197
100
AcDbEntity
  8
0
  6
CONTINUOUS
 62
               7
100
AcDbVertex
100
AcDb2dVertex
 10
-36.153188071937961
 20
-323.47944475439988
 30
0.0
  0
VERTEX
  5
198
100
AcDbEntity
  8
0
  6
CONTINUOUS
 62
               7
100
AcDbVertex
100
AcDb2dVertex
 10
-37.586213008637941
 20
-324.49762863949985
 30
0.0
  0
VERTEX
  5
199
100
AcDbEntity
  8
0
  6
CONTINUOUS
 62
               7
100
AcDbVertex
100
AcDb2dVertex
 10
-39.203676565637949
 20
-325.19579449359986
 30
0.0
  0
VERTEX
  5
19A
100
AcDbEntity
  8
0
  6
CONTINUOUS
 62
               7
100
AcDbVertex
100
AcDb2dVertex
 10
-40.965747896737952
 20
-325.55680919319985
 30
0.0
  0
VERTEX
  5
19B
100
AcDbEntity
  8
0
  6
CONTINUOUS
 62
               7
100
AcDbVertex
100
AcDb2dVertex
 10
-42.829043750337945
 20
-325.57178794739986
 30
0.0
  0
VERTEX
  5
19C
100
AcDbEntity
  8
0
  6
CONTINUOUS
 62
               7
100
AcDbVertex
100
AcDb2dVertex
 10
-44.747678950137953
 20
-325.24030902089987
 30
0.0
  0
VERTEX
  5
19D
100
AcDbEntity
  8
0
  6
CONTINUOUS
 62
               7
100
AcDbVertex
100
AcDb2dVertex
 10
-46.674411501037952
 20
-324.57060382219987
 30
0.0
  0
VERTEX
  5
19E
100
AcDbEntity
  8
0
  6
CONTINUOUS
 62
               7
100
AcDbVertex
100
AcDb2dVertex
 10
-48.561803378237954
 20
-323.57909193579991
 30
0.0
  0
VERTEX
  5
19F
100
AcDbEntity
  8
0
  6
CONTINUOUS
 62
               7
100
AcDbVertex
100
AcDb2dVertex
 10
-50.363373473537962
 20
-322.29024368289987
 30
0.0
  0
VERTEX
  5
1A0
100
AcDbEntity
  8
0
  6
CONTINUOUS
 62
               7
100
AcDbVertex
100
AcDb2dVertex
 10
-52.034766225937943
 20
-320.73578762719984
 30
0.0
  0
VERTEX
  5
1A1
100
AcDbEntity
  8
0
  6
CONTINUOUS
 62
               7
100
AcDbVertex
100
AcDb2dVertex
 10
-53.534825625737966
 20
-318.95394271779986
 30
0.0
  0
VERTEX
  5
1A2
100
AcDbEntity
  8
0
  6
CONTINUOUS
 62
               7
100
AcDbVertex
100
AcDb2dVertex
 10
-54.826612749437942
 20
-316.98866513419983
 30
0.0
  0
VERTEX
  5
1A3
100
AcDbEntity
  8
0
  6
CONTINUOUS
 62
               7
100
AcDbVertex
100
AcDb2dVertex
 10
-55.878322984937967
 20
-314.88827027749988
 30
0.0
  0
VERTEX
  5
1A4
100
AcDbEntity
  8
0
  6
CONTINUOUS
 62
               7
100
AcDbVertex
100
AcDb2dVertex
 10
-56.66405566213794
 20
-312.7045814176999
 30
0.0
  0
VERTEX
  5
1A5
100
AcDbEntity
  8
0
  6
CONTINUOUS
 62
               7
100
AcDbVertex
100
AcDb2dVertex
 10
-57.164468760737947
 20
-310.49124030029986
 30
0.0
  0
VERTEX
  5
1A6
100
AcDbEntity
  8
0
  6
CONTINUOUS
 62
               7
100
AcDbVertex
100
AcDb2dVertex
 10
-57.36723522843792
 20
-308.30282887309988
 30
0.0
  0
SEQEND
  5
1A7
100
AcDbEntity
  8
0
  6
CONTINUOUS
 62
               7
  0
LINE
  5
1A8
100
AcDbEntity
  8
0
  6
CONTINUOUS
 62
               7
100
AcDbLine
 10
30.194855007062046
 20
-367.35602314979991
 30
0.0
 11
-12.423980957937943
 21
-392.66736060759985
 31
0.0
  0
POLYLINE
  5
1A9
100
AcDbEntity
  8
0
  6
CONTINUOUS
 62
               7
100
AcDb2dPolyline
 66
               1
 10
0.0
 20
0.0
 30
0.0
 75
               5
  0
VERTEX
  5
1AA
100
AcDbEntity
  8
0
  6
CONTINUOUS
 62
               7
100
AcDbVertex
100
AcDb2dVertex
 10
-73.803385264437992
 20
-376.83335599079987
 30
0.0
  0
VERTEX
  5
1AB
100
AcDbEntity
  8
0
  6
CONTINUOUS
 62
               7
100
AcDbVertex
100
AcDb2dVertex
 10
-73.848037711537955
 20
-376.81890827369983
 30
0.0
  0
VERTEX
  5
1AC
100
AcDbEntity
  8
0
  6
CONTINUOUS
 62
               7
100
AcDbVertex
100
AcDb2dVertex
 10
-73.884372787437968
 20
-376.80109518559988
 30
0.0
  0
VERTEX
  5
1AD
100
AcDbEntity
  8
0
  6
CONTINUOUS
 62
               7
100
AcDbVertex
100
AcDb2dVertex
 10
-73.91098968143794
 20
-376.78059863979985
 30
0.0
  0
VERTEX
  5
1AE
100
AcDbEntity
  8
0
  6
CONTINUOUS
 62
               7
100
AcDbVertex
100
AcDb2dVertex
 10
-73.926869836537975
 20
-376.75820884429987
 30
0.0
  0
VERTEX
  5
1AF
100
AcDbEntity
  8
0
  6
CONTINUOUS
 62
               7
100
AcDbVertex
100
AcDb2dVertex
 10
-73.931448047937948
 20
-376.73847360579987
 30
0.0
  0
SEQEND
  5
1B0
100
AcDbEntity
  8
0
  6
CONTINUOUS
 62
               7
  0
ARC
  5
1B1
100
AcDbEntity
  8
0
  6
CONTINUOUS
 62
               7
100
AcDbCircle
 10
30.164628619162045
 20
-367.27690150249987
 30
0.0
 40
0.0846986989000731
100
AcDbArc
 50
290.90806933799746
 51
354.62014498332633
  0
POLYLINE
  5
1B2
100
AcDbEntity
  8
0
  6
CONTINUOUS
 62
               7
100
AcDb2dPolyline
 66
               1
 10
0.0
 20
0.0
 30
0.0
 75
               5
  0
VERTEX
  5
1B3
100
AcDbEntity
  8
0
  6
CONTINUOUS
 62
               7
100
AcDbVertex
100
AcDb2dVertex
 10
-50.027594205637939
 20
-68.297030670399877
 30
0.0
  0
VERTEX
  5
1B4
100
AcDbEntity
  8
0
  6
CONTINUOUS
 62
               7
100
AcDbVertex
100
AcDb2dVertex
 10
-48.926331489737976
 20
-68.415019514099882
 30
0.0
  0
VERTEX
  5
1B5
100
AcDbEntity
  8
0
  6
CONTINUOUS
 62
               7
100
AcDbVertex
100
AcDb2dVertex
 10
-48.036705134237963
 20
-68.233249876399881
 30
0.0
  0
SEQEND
  5
1B6
100
AcDbEntity
  8
0
  6
CONTINUOUS
 62
               7
  0
POLYLINE
  5
1B7
100
AcDbEntity
  8
0
  6
CONTINUOUS
 62
               7
100
AcDb2dPolyline
 66
               1
 10
0.0
 20
0.0
 30
0.0
 75
               5
  0
VERTEX
  5
1B8
100
AcDbEntity
  8
0
  6
CONTINUOUS
 62
               7
100
AcDbVertex
100
AcDb2dVertex
 10
-53.096988495237923
 20
-59.712836027899883
 30
0.0
  0
VERTEX
  5
1B9
100
AcDbEntity
  8
0
  6
CONTINUOUS
 62
               7
100
AcDbVertex
100
AcDb2dVertex
 10
-53.547477934637953
 20
-60.205722944999877
 30
0.0
  0
VERTEX
  5
1BA
100
AcDbEntity
  8
0
  6
CONTINUOUS
 62
               7
100
AcDbVertex
100
AcDb2dVertex
 10
-54.034273844137914
 20
-61.179338248899882
 30
0.0
  0
VERTEX
  5
1BB
100
AcDbEntity
  8
0
  6
CONTINUOUS
 62
               7
100
AcDbVertex
100
AcDb2dVertex
 10
-54.232042591637963
 20
-62.341202698399883
 30
0.0
  0
VERTEX
  5
1BC
100
AcDbEntity
  8
0
  6
CONTINUOUS
 62
               7
100
AcDbVertex
100
AcDb2dVertex
 10
-54.126116857037943
 20
-63.605192596799881
 30
0.0
  0
VERTEX
  5
1BD
100
AcDbEntity
  8
0
  6
CONTINUOUS
 62
               7
100
AcDbVertex
100
AcDb2dVertex
 10
-53.724354187137948
 20
-64.877502354599883
 30
0.0
  0
VERTEX
  5
1BE
100
AcDbEntity
  8
0
  6
CONTINUOUS
 62
               7
100
AcDbVertex
100
AcDb2dVertex
 10
-53.056548920937956
 20
-66.063849787099883
 30
0.0
  0
VERTEX
  5
1BF
100
AcDbEntity
  8
0
  6
CONTINUOUS
 62
               7
100
AcDbVertex
100
AcDb2dVertex
 10
-52.172233286237969
 20
-67.076178600499887
 30
0.0
  0
VERTEX
  5
1C0
100
AcDbEntity
  8
0
  6
CONTINUOUS
 62
               7
100
AcDbVertex
100
AcDb2dVertex
 10
-51.13698694443795
 20
-67.839450858299884
 30
0.0
  0
VERTEX
  5
1C1
100
AcDbEntity
  8
0
  6
CONTINUOUS
 62
               7
100
AcDbVertex
100
AcDb2dVertex
 10
-50.027594205637939
 20
-68.297030670399877
 30
0.0
  0
SEQEND
  5
1C2
100
AcDbEntity
  8
0
  6
CONTINUOUS
 62
               7
  0
LINE
  5
1C3
100
AcDbEntity
  8
0
  6
CONTINUOUS
 62
               7
100
AcDbLine
 10
-58.244259651937938
 20
-271.66952821919989
 30
0.0
 11
-57.385007210237944
 21
-271.15921797669984
 31
0.0
  0
ARC
  5
1C4
100
AcDbEntity
  8
0
  6
CONTINUOUS
 62
               7
100
AcDbCircle
 10
-46.719125470237941
 20
-270.26665105389986
 30
0.0
 40
10.703163504420589
100
AcDbArc
 50
127.1031402758
 51
184.78361173970006
  0
LINE
  5
1C5
100
AcDbEntity
  8
0
  6
CONTINUOUS
 62
               7
100
AcDbLine
 10
-57.36723522843792
 20
-308.30282887309988
 30
0.0
 11
-56.507982786737983
 21
-307.79251863069987
 31
0.0
  0
LINE
  5
1C6
100
AcDbEntity
  8
0
  6
CONTINUOUS
 62
               7
100
AcDbLine
 10
-57.385007210237944
 20
-271.15921797669984
 30
0.0
 11
-56.507982786737983
 21
-307.79251863069987
 31
0.0
  0
POLYLINE
  5
1C7
100
AcDbEntity
  8
0
  6
CONTINUOUS
 62
               7
100
AcDb2dPolyline
 66
               1
 10
0.0
 20
0.0
 30
0.0
 75
               5
  0
VERTEX
  5
1C8
100
AcDbEntity
  8
0
  6
CONTINUOUS
 62
               7
100
AcDbVertex
100
AcDb2dVertex
 10
-56.507982786737983
 20
-307.79251863069987
 30
0.0
  0
VERTEX
  5
1C9
100
AcDbEntity
  8
0
  6
CONTINUOUS
 62
               7
100
AcDbVertex
100
AcDb2dVertex
 10
-56.305216318937909
 20
-309.98093005789985
 30
0.0
  0
VERTEX
  5
1CA
100
AcDbEntity
  8
0
  6
CONTINUOUS
 62
               7
100
AcDbVertex
100
AcDb2dVertex
 10
-55.804803220437947
 20
-312.19427117519984
 30
0.0
  0
VERTEX
  5
1CB
100
AcDbEntity
  8
0
  6
CONTINUOUS
 62
               7
100
AcDbVertex
100
AcDb2dVertex
 10
-55.019070543237916
 20
-314.37796003509987
 30
0.0
  0
VERTEX
  5
1CC
100
AcDbEntity
  8
0
  6
CONTINUOUS
 62
               7
100
AcDbVertex
100
AcDb2dVertex
 10
-53.967360307737948
 20
-316.47835489169989
 30
0.0
  0
VERTEX
  5
1CD
100
AcDbEntity
  8
0
  6
CONTINUOUS
 62
               7
100
AcDbVertex
100
AcDb2dVertex
 10
-52.675573184037916
 20
-318.44363247529986
 30
0.0
  0
VERTEX
  5
1CE
100
AcDbEntity
  8
0
  6
CONTINUOUS
 62
               7
100
AcDbVertex
100
AcDb2dVertex
 10
-51.17551378423795
 20
-320.22547738479983
 30
0.0
  0
VERTEX
  5
1CF
100
AcDbEntity
  8
0
  6
CONTINUOUS
 62
               7
100
AcDbVertex
100
AcDb2dVertex
 10
-49.504121031837911
 20
-321.77993344049986
 30
0.0
  0
VERTEX
  5
1D0
100
AcDbEntity
  8
0
  6
CONTINUOUS
 62
               7
100
AcDbVertex
100
AcDb2dVertex
 10
-47.702550936437973
 20
-323.0687816933999
 30
0.0
  0
VERTEX
  5
1D1
100
AcDbEntity
  8
0
  6
CONTINUOUS
 62
               7
100
AcDbVertex
100
AcDb2dVertex
 10
-45.815159059337958
 20
-324.06029357979986
 30
0.0
  0
VERTEX
  5
1D2
100
AcDbEntity
  8
0
  6
CONTINUOUS
 62
               7
100
AcDbVertex
100
AcDb2dVertex
 10
-43.888426508337943
 20
-324.72999877849986
 30
0.0
  0
VERTEX
  5
1D3
100
AcDbEntity
  8
0
  6
CONTINUOUS
 62
               7
100
AcDbVertex
100
AcDb2dVertex
 10
-41.969791308537964
 20
-325.06147770489986
 30
0.0
  0
VERTEX
  5
1D4
100
AcDbEntity
  8
0
  6
CONTINUOUS
 62
               7
100
AcDbVertex
100
AcDb2dVertex
 10
-40.106495454937942
 20
-325.04649895079984
 30
0.0
  0
VERTEX
  5
1D5
100
AcDbEntity
  8
0
  6
CONTINUOUS
 62
               7
100
AcDbVertex
100
AcDb2dVertex
 10
-38.344424123837939
 20
-324.68548425109987
 30
0.0
  0
VERTEX
  5
1D6
100
AcDbEntity
  8
0
  6
CONTINUOUS
 62
               7
100
AcDbVertex
100
AcDb2dVertex
 10
-36.995066503637958
 20
-324.13179200519988
 30
0.0
  0
SEQEND
  5
1D7
100
AcDbEntity
  8
0
  6
CONTINUOUS
 62
               7
  0
ARC
  5
1D8
100
AcDbEntity
  8
0
  6
CONTINUOUS
 62
               7
100
AcDbCircle
 10
-41.286827955237953
 20
-372.75147696829987
 30
0.0
 40
4.8287723708314694
100
AcDbArc
 50
253.87792733179981
 51
292.90654089000003
  0
ARC
  5
1D9
100
AcDbEntity
  8
0
  6
CONTINUOUS
 62
               7
100
AcDbCircle
 10
-44.012973496737942
 20
-368.14271787279989
 30
0.0
 40
4.8470409073836791
100
AcDbArc
 50
128.5889608328001
 51
167.2914872522995
  0
ARC
  5
1DA
100
AcDbEntity
  8
0
  6
CONTINUOUS
 62
               7
100
AcDbCircle
 10
-44.244442357237943
 20
366.20096237980016
 30
0.0
 40
1.2270544478878969
100
AcDbArc
 50
1.6744495438989122
 51
71.702987222699875
  0
ARC
  5
1DB
100
AcDbEntity
  8
0
  6
CONTINUOUS
 62
               7
100
AcDbCircle
 10
-43.890103217837947
 20
368.10572927110019
 30
0.0
 40
2.0624133601524068
100
AcDbArc
 50
255.39587254320023
 51
295.01771235089944
  0
ARC
  5
1DC
100
AcDbEntity
  8
0
  6
CONTINUOUS
 62
               7
100
AcDbCircle
 10
-42.903685689437964
 20
366.1980495172001
 30
0.0
 40
1.5090064183200154
100
AcDbArc
 50
129.28801744229906
 51
183.34695675960114
  0
LINE
  5
1DD
100
AcDbEntity
  8
0
  6
CONTINUOUS
 62
               7
100
AcDbLine
 10
-43.017911873737944
 20
366.23681752170017
 30
0.0
 11
-42.952135107337938
 21
363.48932270200015
 31
0.0
  0
LINE
  5
1DE
100
AcDbEntity
  8
0
  6
CONTINUOUS
 62
               7
100
AcDbLine
 10
-44.344341436237954
 20
363.36245558510012
 30
0.0
 11
-44.410118202737948
 21
366.10995040470021
 31
0.0
  0
LINE
  5
1DF
100
AcDbEntity
  8
0
  6
CONTINUOUS
 62
               7
100
AcDbLine
 10
-44.410118202737948
 20
366.10995040470021
 30
0.0
 11
-118.15416111003796
 21
385.31002953020021
 31
0.0
  0
ARC
  5
1E0
100
AcDbEntity
  8
0
  6
CONTINUOUS
 62
               7
100
AcDbCircle
 10
-116.64772859683794
 20
385.39812864270021
 30
0.0
 40
1.5090064183193235
100
AcDbArc
 50
129.28801744230103
 51
183.34695675970207
  0
LINE
  5
1E1
100
AcDbEntity
  8
0
  6
CONTINUOUS
 62
               7
100
AcDbLine
 10
-117.60326016473797
 20
386.56605834660019
 30
0.0
 11
-43.859217257337946
 21
367.36597922110019
 31
0.0
  0
LINE
  5
1E2
100
AcDbEntity
  8
0
  6
CONTINUOUS
 62
               7
100
AcDbLine
 10
-43.859217257337946
 20
367.36597922110019
 30
0.0
 11
23.735174786562055
 21
407.51030575030012
 31
0.0
  0
ARC
  5
1E3
100
AcDbEntity
  8
0
  6
CONTINUOUS
 62
               7
100
AcDbCircle
 10
23.349949686662029
 20
406.3452889090002
 30
0.0
 40
1.2270544478878969
100
AcDbArc
 50
1.6744495438989122
 51
71.702987222698596
  0
LINE
  5
1E4
100
AcDbEntity
  8
0
  6
CONTINUOUS
 62
               7
100
AcDbLine
 10
24.576480170162057
 20
406.3811440509001
 30
0.0
 11
-43.017911873737944
 21
366.23681752170017
 31
0.0
  0
LINE
  5
1E5
100
AcDbEntity
  8
0
  6
CONTINUOUS
 62
               7
100
AcDbLine
 10
-118.08838434363795
 20
382.56253471060012
 30
0.0
 11
-44.344341436237954
 21
363.36245558510012
 31
0.0
  0
LINE
  5
1E6
100
AcDbEntity
  8
0
  6
CONTINUOUS
 62
               7
100
AcDbLine
 10
-118.15416111003796
 20
385.31002953020021
 30
0.0
 11
-118.08838434363795
 21
382.56253471060012
 31
0.0
  0
LINE
  5
1E7
100
AcDbEntity
  8
0
  6
CONTINUOUS
 62
               7
100
AcDbLine
 10
24.642256936562063
 20
403.6336492312002
 30
0.0
 11
24.576480170162057
 21
406.3811440509001
 31
0.0
  0
LINE
  5
1E8
100
AcDbEntity
  8
0
  6
CONTINUOUS
 62
               7
100
AcDbLine
 10
-42.952135107337938
 20
363.48932270200015
 30
0.0
 11
24.642256936562063
 21
403.6336492312002
 31
0.0
  0
LINE
  5
1E9
100
AcDbEntity
  8
0
  6
CONTINUOUS
 62
               7
100
AcDbLine
 10
-50.008868120837946
 20
426.71038487580012
 30
0.0
 11
-117.60326016473797
 21
386.56605834660019
 31
0.0
  0
LINE
  5
1EA
100
AcDbEntity
  8
0
  6
CONTINUOUS
 62
               7
100
AcDbLine
 10
23.735174786562055
 20
407.51030575030012
 30
0.0
 11
-50.008868120837946
 21
426.71038487580012
 31
0.0
  0
LINE
  5
1EB
100
AcDbEntity
  8
0
  6
CONTINUOUS
 62
               7
100
AcDbLine
 10
-45.996189087837962
 20
330.3236856485002
 30
0.0
 11
-110.76355181633798
 21
347.18658657060013
 31
0.0
  0
POLYLINE
  5
1EC
100
AcDbEntity
  8
0
  6
CONTINUOUS
 62
               7
100
AcDb2dPolyline
 66
               1
 10
0.0
 20
0.0
 30
0.0
 75
               5
  0
VERTEX
  5
1ED
100
AcDbEntity
  8
0
  6
CONTINUOUS
 62
               7
100
AcDbVertex
100
AcDb2dVertex
 10
-118.08838434363795
 20
382.56253471060012
 30
0.0
  0
VERTEX
  5
1EE
100
AcDbEntity
  8
0
  6
CONTINUOUS
 62
               7
100
AcDbVertex
100
AcDb2dVertex
 10
-118.23723424283796
 20
382.61068866510021
 30
0.0
  0
VERTEX
  5
1EF
100
AcDbEntity
  8
0
  6
CONTINUOUS
 62
               7
100
AcDbVertex
100
AcDb2dVertex
 10
-118.35834534443799
 20
382.67006897200014
 30
0.0
  0
VERTEX
  5
1F0
100
AcDbEntity
  8
0
  6
CONTINUOUS
 62
               7
100
AcDbVertex
100
AcDb2dVertex
 10
-118.44707414223794
 20
382.73838744480014
 30
0.0
  0
VERTEX
  5
1F1
100
AcDbEntity
  8
0
  6
CONTINUOUS
 62
               7
100
AcDbVertex
100
AcDb2dVertex
 10
-118.49999926613796
 20
382.81302511630014
 30
0.0
  0
VERTEX
  5
1F2
100
AcDbEntity
  8
0
  6
CONTINUOUS
 62
               7
100
AcDbVertex
100
AcDb2dVertex
 10
-118.51526617013795
 20
382.87880599720012
 30
0.0
  0
SEQEND
  5
1F3
100
AcDbEntity
  8
0
  6
CONTINUOUS
 62
               7
  0
POLYLINE
  5
1F4
100
AcDbEntity
  8
0
  6
CONTINUOUS
 62
               8
100
AcDb2dPolyline
 66
               1
 10
0.0
 20
0.0
 30
0.0
 75
               5
  0
VERTEX
  5
1F5
100
AcDbEntity
  8
0
  6
CONTINUOUS
 62
               8
100
AcDbVertex
100
AcDb2dVertex
 10
7.7843104863620454
 20
-246.1850539434999
 30
0.0
  0
VERTEX
  5
1F6
100
AcDbEntity
  8
0
  6
CONTINUOUS
 62
               8
100
AcDbVertex
100
AcDb2dVertex
 10
7.7239639369620647
 20
-246.16746752269989
 30
0.0
  0
VERTEX
  5
1F7
100
AcDbEntity
  8
0
  6
CONTINUOUS
 62
               8
100
AcDbVertex
100
AcDb2dVertex
 10
7.4328492759620701
 20
-246.02655748979987
 30
0.0
  0
SEQEND
  5
1F8
100
AcDbEntity
  8
0
  6
CONTINUOUS
 62
               8
  0
POLYLINE
  5
1F9
100
AcDbEntity
  8
0
  6
CONTINUOUS
 62
               8
100
AcDb2dPolyline
 66
               1
 10
0.0
 20
0.0
 30
0.0
 75
               5
  0
VERTEX
  5
1FA
100
AcDbEntity
  8
0
  6
CONTINUOUS
 62
               8
100
AcDbVertex
100
AcDb2dVertex
 10
9.4158725053620458
 20
-238.41011801079986
 30
0.0
  0
VERTEX
  5
1FB
100
AcDbEntity
  8
0
  6
CONTINUOUS
 62
               8
100
AcDbVertex
100
AcDb2dVertex
 10
9.5491601997620421
 20
-238.4072499955999
 30
0.0
  0
VERTEX
  5
1FC
100
AcDbEntity
  8
0
  6
CONTINUOUS
 62
               8
100
AcDbVertex
100
AcDb2dVertex
 10
9.7916628016620564
 20
-238.44105677959988
 30
0.0
  0
SEQEND
  5
1FD
100
AcDbEntity
  8
0
  6
CONTINUOUS
 62
               8
  0
LINE
  5
1FE
100
AcDbEntity
  8
0
  6
CONTINUOUS
 62
               8
100
AcDbLine
 10
9.6788150445620431
 20
-243.48935151369989
 30
0.0
 11
8.994272822362035
 21
-243.31112335709986
 31
0.0
  0
LINE
  5
1FF
100
AcDbEntity
  8
0
  6
CONTINUOUS
 62
               8
100
AcDbLine
 10
9.8711377393620694
 20
-241.44020763769987
 30
0.0
 11
10.505174590062069
 21
-241.60528616099987
 31
0.0
  0
LINE
  5
200
100
AcDbEntity
  8
0
  6
CONTINUOUS
 62
               8
100
AcDbLine
 10
-15.812849030037938
 20
-268.59810591239989
 30
0.0
 11
-12.841641268237964
 21
-392.70542188539986
 31
0.0
  0
LINE
  5
201
100
AcDbEntity
  8
0
  6
CONTINUOUS
 62
               8
100
AcDbLine
 10
-15.40014566823794
 20
-268.35299294789985
 30
0.0
 11
-12.423980957937943
 21
-392.66736060759985
 31
0.0
  0
LINE
  5
202
100
AcDbEntity
  8
0
  6
CONTINUOUS
 62
               8
100
AcDbLine
 10
-77.73016541563797
 20
-212.81179167659991
 30
0.0
 11
-73.803385264437992
 21
-376.83335599079987
 31
0.0
  0
LINE
  5
203
100
AcDbEntity
  8
0
  6
CONTINUOUS
 62
               8
100
AcDbLine
 10
27.218690296762048
 20
-243.04165549009986
 30
0.0
 11
30.194855007062046
 21
-367.35602314979991
 31
0.0
  0
LINE
  5
204
100
AcDbEntity
  8
0
  6
CONTINUOUS
 62
               8
100
AcDbLine
 10
-40.851982754137964
 20
-263.9325824945999
 30
0.0
 11
-39.391328281237946
 21
-324.94410397939987
 31
0.0
  0
LINE
  5
205
100
AcDbEntity
  8
0
  6
CONTINUOUS
 62
               8
100
AcDbLine
 10
-40.729754355237958
 20
-264.03085257969985
 30
0.0
 11
-39.27199720773794
 21
-324.92135281759988
 31
0.0
  0
LINE
  5
206
100
AcDbEntity
  8
0
  6
CONTINUOUS
 62
               8
100
AcDbLine
 10
-39.017661481037948
 20
-265.61324845499985
 30
0.0
 11
-37.609841048637946
 21
-324.41789264209984
 31
0.0
  0
LINE
  5
207
100
AcDbEntity
  8
0
  6
CONTINUOUS
 62
               8
100
AcDbLine
 10
-38.894670062337951
 20
-265.74339779039985
 30
0.0
 11
-37.491176668337943
 21
-324.36730163089987
 31
0.0
  0
LINE
  5
208
100
AcDbEntity
  8
0
  6
CONTINUOUS
 62
               8
100
AcDbLine
 10
-35.986793530237946
 20
-269.76950299369986
 30
0.0
 11
-34.739010788637955
 21
-321.88937457269986
 31
0.0
  0
LINE
  5
209
100
AcDbEntity
  8
0
  6
CONTINUOUS
 62
               8
100
AcDbLine
 10
-35.929868047337948
 20
-269.87420752029988
 30
0.0
 11
-34.686416264737943
 21
-321.81317498919987
 31
0.0
  0
LINE
  5
20A
100
AcDbEntity
  8
0
  6
CONTINUOUS
 62
               8
100
AcDbLine
 10
-35.744887021337945
 20
-270.22521751319988
 30
0.0
 11
-34.516026414737951
 21
-321.55471172019986
 31
0.0
  0
LINE
  5
20B
100
AcDbEntity
  8
0
  6
CONTINUOUS
 62
               8
100
AcDbLine
 10
-35.687789702537941
 20
-270.33701714229989
 30
0.0
 11
-34.463601147337954
 21
-321.47135981239984
 31
0.0
  0
ARC
  5
20C
100
AcDbEntity
  8
0
  6
CONTINUOUS
 62
               8
100
AcDbCircle
 10
-117.78201464563799
 20
385.96584143560011
 30
0.0
 40
0.626269514426357
100
AcDbArc
 50
73.415601808297751
 51
119.66460249329729
  0
ARC
  5
20D
100
AcDbEntity
  8
0
  6
CONTINUOUS
 62
               8
100
AcDbCircle
 10
-118.12154838733792
 20
385.80027191220012
 30
0.0
 40
0.4913259434865046
100
AcDbArc
 50
200.73737016709708
 51
266.19408206700149
  0
ARC
  5
20E
100
AcDbEntity
  8
0
  6
CONTINUOUS
 62
               8
100
AcDbCircle
 10
-50.187622601737957
 20
426.11016796480016
 30
0.0
 40
0.6262695144257474
100
AcDbArc
 50
73.415601808302853
 51
119.66460249339787
  0
ARC
  5
20F
100
AcDbEntity
  8
0
  6
CONTINUOUS
 62
               8
100
AcDbCircle
 10
23.93208549766203
 20
407.21983566220018
 30
0.0
 40
0.3509226414048304
100
AcDbArc
 50
77.32889477059841
 51
124.13348561289992
  0
ARC
  5
210
100
AcDbEntity
  8
0
  6
CONTINUOUS
 62
               8
100
AcDbCircle
 10
24.475729642462028
 20
406.6448809534001
 30
0.0
 40
0.2823257384523837
100
AcDbArc
 50
290.90743150290143
 51
354.620603621101
  0
ARC
  5
211
100
AcDbEntity
  8
0
  6
CONTINUOUS
 62
               8
100
AcDbCircle
 10
-49.811957409737914
 20
426.41991478770018
 30
0.0
 40
0.3509226414042385
100
AcDbArc
 50
77.328894770605203
 51
124.13348561291085
  0
ENDBLK
  5
212
100
AcDbEntity
  8
__
100
AcDbBlockEnd
  0
ENDSEC
  0
SECTION
  2
ENTITIES
  0
INSERT
  5
213
100
AcDbEntity
  8
__
 62
               7
100
AcDbBlockReference
  2
*U0
 10
92.548200491200021
 20
188.65157129545005
 30
0.0
 41
0.25
 42
0.25
 43
0.25
  0
MTEXT
  5
214
100
AcDbEntity
  8
0
 62
               7
100
AcDbMText
 10
126.41115036840002
 20
97.25842847158755
 30
0.0
 40
2.910416666666666
 41
0.0
 71
               1
 72
               1
  1
HFD-D77P\PHFD-D77B\PHFD-D77E\PHFD-D77N\PHFD-D77K\PHFD-D77R
  7
________
  0
ENDSEC
  0
SECTION
  2
OBJECTS
  0
DICTIONARY
  5
19
100
AcDbDictionary
  3
ACAD_GROUP
350
1A
  3
ACAD_MLINESTYLE
350
1B
  0
DICTIONARY
  5
1A
102
{ACAD_REACTORS
330
19
102
}
100
AcDbDictionary
  0
DICTIONARY
  5
1B
102
{ACAD_REACTORS
330
19
102
}
100
AcDbDictionary
  3
STANDARD
350
1C
  0
MLINESTYLE
  5
1C
102
{ACAD_REACTORS
330
1B
102
}
100
AcDbMlineStyle
  2
STANDARD
 70
               0
  3

 62
               0
 51
90.0
 52
90.0
 71
               2
 49
0.5
 62
             256
  6
BYLAYER
 49
-0.5
 62
             256
  6
BYLAYER
  0
ENDSEC
  0
EOF
