  0
SECTION
  2
HEADER
  9
$ACADVER
  1
AC1032
  9
$ACADMAINTVER
 90
        4
  9
$DWGCODEPAGE
  3
ANSI_932
  9
$LASTSAVEDBY
  1
9128
  9
$REQUIREDVERSIONS
160
                 0
  9
$INSBASE
 10
0.0
 20
0.0
 30
0.0
  9
$EXTMIN
 10
82.08506259033385
 20
57.48563795538944
 30
0.0
  9
$EXTMAX
 10
471.5066288572108
 20
795.2887581118498
 30
0.0
  9
$LIMMIN
 10
0.0
 20
0.0
  9
$LIMMAX
 10
12.0
 20
9.0
  9
$ORTHOMODE
 70
     0
  9
$REGENMODE
 70
     1
  9
$FILLMODE
 70
     1
  9
$QTEXTMODE
 70
     0
  9
$MIRRTEXT
 70
     1
  9
$LTSCALE
 40
1.0
  9
$ATTMODE
 70
     1
  9
$TEXTSIZE
 40
0.2
  9
$TRACEWID
 40
0.05
  9
$TEXTSTYLE
  7
Standard
  9
$CLAYER
  8
0
  9
$CELTYPE
  6
ByLayer
  9
$CECOLOR
 62
   256
  9
$CELTSCALE
 40
1.0
  9
$DISPSILH
 70
     0
  9
$DIMSCALE
 40
1.0
  9
$DIMASZ
 40
0.18
  9
$DIMEXO
 40
0.0625
  9
$DIMDLI
 40
0.38
  9
$DIMRND
 40
0.0
  9
$DIMDLE
 40
0.0
  9
$DIMEXE
 40
0.18
  9
$DIMTP
 40
0.0
  9
$DIMTM
 40
0.0
  9
$DIMTXT
 40
0.18
  9
$DIMCEN
 40
0.09
  9
$DIMTSZ
 40
0.0
  9
$DIMTOL
 70
     0
  9
$DIMLIM
 70
     0
  9
$DIMTIH
 70
     1
  9
$DIMTOH
 70
     1
  9
$DIMSE1
 70
     0
  9
$DIMSE2
 70
     0
  9
$DIMTAD
 70
     0
  9
$DIMZIN
 70
     0
  9
$DIMBLK
  1

  9
$DIMASO
 70
     1
  9
$DIMSHO
 70
     1
  9
$DIMPOST
  1

  9
$DIMAPOST
  1

  9
$DIMALT
 70
     0
  9
$DIMALTD
 70
     2
  9
$DIMALTF
 40
25.4
  9
$DIMLFAC
 40
1.0
  9
$DIMTOFL
 70
     0
  9
$DIMTVP
 40
0.0
  9
$DIMTIX
 70
     0
  9
$DIMSOXD
 70
     0
  9
$DIMSAH
 70
     0
  9
$DIMBLK1
  1

  9
$DIMBLK2
  1

  9
$DIMSTYLE
  2
Standard
  9
$DIMCLRD
 70
     0
  9
$DIMCLRE
 70
     0
  9
$DIMCLRT
 70
     0
  9
$DIMTFAC
 40
1.0
  9
$DIMGAP
 40
0.09
  9
$DIMJUST
 70
     0
  9
$DIMSD1
 70
     0
  9
$DIMSD2
 70
     0
  9
$DIMTOLJ
 70
     1
  9
$DIMTZIN
 70
     0
  9
$DIMALTZ
 70
     0
  9
$DIMALTTZ
 70
     0
  9
$DIMUPT
 70
     0
  9
$DIMDEC
 70
     4
  9
$DIMTDEC
 70
     4
  9
$DIMALTU
 70
     2
  9
$DIMALTTD
 70
     2
  9
$DIMTXSTY
  7
Standard
  9
$DIMAUNIT
 70
     0
  9
$DIMADEC
 70
     0
  9
$DIMALTRND
 40
0.0
  9
$DIMAZIN
 70
     0
  9
$DIMDSEP
 70
    46
  9
$DIMATFIT
 70
     3
  9
$DIMFRAC
 70
     0
  9
$DIMLDRBLK
  1

  9
$DIMLUNIT
 70
     2
  9
$DIMLWD
 70
    -2
  9
$DIMLWE
 70
    -2
  9
$DIMTMOVE
 70
     0
  9
$DIMFXL
 40
1.0
  9
$DIMFXLON
 70
     0
  9
$DIMJOGANG
 40
0.7853981633974483
  9
$DIMTFILL
 70
     0
  9
$DIMTFILLCLR
 70
     0
  9
$DIMARCSYM
 70
     0
  9
$DIMLTYPE
  6

  9
$DIMLTEX1
  6

  9
$DIMLTEX2
  6

  9
$DIMTXTDIRECTION
 70
     0
  9
$LUNITS
 70
     2
  9
$LUPREC
 70
     4
  9
$SKETCHINC
 40
0.1
  9
$FILLETRAD
 40
0.5
  9
$AUNITS
 70
     0
  9
$AUPREC
 70
     0
  9
$MENU
  1
.
  9
$ELEVATION
 40
0.0
  9
$PELEVATION
 40
0.0
  9
$THICKNESS
 40
0.0
  9
$LIMCHECK
 70
     0
  9
$CHAMFERA
 40
0.5
  9
$CHAMFERB
 40
0.5
  9
$CHAMFERC
 40
1.0
  9
$CHAMFERD
 40
0.0
  9
$SKPOLY
 70
     0
  9
$TDCREATE
 40
2457543.378207593
  9
$TDUCREATE
 40
2457543.003207593
  9
$TDUPDATE
 40
2459608.57273419
  9
$TDUUPDATE
 40
2459608.19773419
  9
$TDINDWG
 40
0.0067328125
  9
$TDUSRTIMER
 40
0.0000724421
  9
$USRTIMER
 70
     1
  9
$ANGBASE
 50
0.0
  9
$ANGDIR
 70
     0
  9
$PDMODE
 70
     0
  9
$PDSIZE
 40
0.0
  9
$PLINEWID
 40
0.0
  9
$SPLFRAME
 70
     0
  9
$SPLINETYPE
 70
     6
  9
$SPLINESEGS
 70
     8
  9
$HANDSEED
  5
7E6
  9
$SURFTAB1
 70
     6
  9
$SURFTAB2
 70
     6
  9
$SURFTYPE
 70
     6
  9
$SURFU
 70
     6
  9
$SURFV
 70
     6
  9
$UCSBASE
  2

  9
$UCSNAME
  2

  9
$UCSORG
 10
0.0
 20
0.0
 30
0.0
  9
$UCSXDIR
 10
1.0
 20
0.0
 30
0.0
  9
$UCSYDIR
 10
0.0
 20
1.0
 30
0.0
  9
$UCSORTHOREF
  2

  9
$UCSORTHOVIEW
 70
     0
  9
$UCSORGTOP
 10
0.0
 20
0.0
 30
0.0
  9
$UCSORGBOTTOM
 10
0.0
 20
0.0
 30
0.0
  9
$UCSORGLEFT
 10
0.0
 20
0.0
 30
0.0
  9
$UCSORGRIGHT
 10
0.0
 20
0.0
 30
0.0
  9
$UCSORGFRONT
 10
0.0
 20
0.0
 30
0.0
  9
$UCSORGBACK
 10
0.0
 20
0.0
 30
0.0
  9
$PUCSBASE
  2

  9
$PUCSNAME
  2

  9
$PUCSORG
 10
0.0
 20
0.0
 30
0.0
  9
$PUCSXDIR
 10
1.0
 20
0.0
 30
0.0
  9
$PUCSYDIR
 10
0.0
 20
1.0
 30
0.0
  9
$PUCSORTHOREF
  2

  9
$PUCSORTHOVIEW
 70
     0
  9
$PUCSORGTOP
 10
0.0
 20
0.0
 30
0.0
  9
$PUCSORGBOTTOM
 10
0.0
 20
0.0
 30
0.0
  9
$PUCSORGLEFT
 10
0.0
 20
0.0
 30
0.0
  9
$PUCSORGRIGHT
 10
0.0
 20
0.0
 30
0.0
  9
$PUCSORGFRONT
 10
0.0
 20
0.0
 30
0.0
  9
$PUCSORGBACK
 10
0.0
 20
0.0
 30
0.0
  9
$USERI1
 70
     0
  9
$USERI2
 70
     0
  9
$USERI3
 70
     0
  9
$USERI4
 70
     0
  9
$USERI5
 70
     0
  9
$USERR1
 40
0.0
  9
$USERR2
 40
0.0
  9
$USERR3
 40
0.0
  9
$USERR4
 40
0.0
  9
$USERR5
 40
0.0
  9
$WORLDVIEW
 70
     1
  9
$SHADEDGE
 70
     3
  9
$SHADEDIF
 70
    70
  9
$TILEMODE
 70
     1
  9
$MAXACTVP
 70
    64
  9
$PINSBASE
 10
0.0
 20
0.0
 30
0.0
  9
$PLIMCHECK
 70
     0
  9
$PEXTMIN
 10
1.000000000000000E+20
 20
1.000000000000000E+20
 30
1.000000000000000E+20
  9
$PEXTMAX
 10
-1.000000000000000E+20
 20
-1.000000000000000E+20
 30
-1.000000000000000E+20
  9
$PLIMMIN
 10
0.0
 20
0.0
  9
$PLIMMAX
 10
0.0
 20
0.0
  9
$UNITMODE
 70
     0
  9
$VISRETAIN
 70
     1
  9
$PLINEGEN
 70
     0
  9
$PSLTSCALE
 70
     1
  9
$TREEDEPTH
 70
  3020
  9
$CMLSTYLE
  2
Standard
  9
$CMLJUST
 70
     0
  9
$CMLSCALE
 40
1.0
  9
$PROXYGRAPHICS
 70
     1
  9
$MEASUREMENT
 70
     0
  9
$CELWEIGHT
370
    -1
  9
$ENDCAPS
280
     0
  9
$JOINSTYLE
280
     0
  9
$LWDISPLAY
290
     1
  9
$INSUNITS
 70
     1
  9
$HYPERLINKBASE
  1

  9
$STYLESHEET
  1

  9
$XEDIT
290
     1
  9
$CEPSNTYPE
380
     0
  9
$PSTYLEMODE
290
     1
  9
$FINGERPRINTGUID
  2
{CDB3858D-B6E9-42A8-AA89-27C364118CD4}
  9
$VERSIONGUID
  2
{FAEB1C32-E019-11D5-929B-00C0DF256EC4}
  9
$EXTNAMES
290
     1
  9
$PSVPSCALE
 40
0.0
  9
$OLESTARTUP
290
     0
  9
$SORTENTS
280
   127
  9
$INDEXCTL
280
     0
  9
$HIDETEXT
280
     1
  9
$XCLIPFRAME
280
     2
  9
$HALOGAP
280
     0
  9
$OBSCOLOR
 70
   257
  9
$OBSLTYPE
280
     0
  9
$INTERSECTIONDISPLAY
280
     0
  9
$INTERSECTIONCOLOR
 70
   257
  9
$DIMASSOC
280
     2
  9
$PROJECTNAME
  1

  9
$CAMERADISPLAY
290
     0
  9
$LENSLENGTH
 40
50.0
  9
$CAMERAHEIGHT
 40
0.0
  9
$STEPSPERSEC
 40
2.0
  9
$STEPSIZE
 40
6.0
  9
$3DDWFPREC
 40
2.0
  9
$PSOLWIDTH
 40
0.25
  9
$PSOLHEIGHT
 40
4.0
  9
$LOFTANG1
 40
1.570796326794897
  9
$LOFTANG2
 40
1.570796326794897
  9
$LOFTMAG1
 40
0.0
  9
$LOFTMAG2
 40
0.0
  9
$LOFTPARAM
 70
     7
  9
$LOFTNORMALS
280
     1
  9
$LATITUDE
 40
37.795
  9
$LONGITUDE
 40
-122.394
  9
$NORTHDIRECTION
 40
0.0
  9
$TIMEZONE
 70
 -8000
  9
$LIGHTGLYPHDISPLAY
280
     1
  9
$TILEMODELIGHTSYNCH
280
     1
  9
$SOLIDHIST
280
     0
  9
$SHOWHIST
280
     1
  9
$DWFFRAME
280
     2
  9
$DGNFRAME
280
     2
  9
$REALWORLDSCALE
290
     1
  9
$INTERFERECOLOR
 62
   256
  9
$CSHADOW
280
     0
  9
$SHADOWPLANELOCATION
 40
0.0
  0
ENDSEC
  0
SECTION
  2
CLASSES
  0
CLASS
  1
ACDBDICTIONARYWDFLT
  2
AcDbDictionaryWithDefault
  3
ObjectDBX Classes
 90
        0
 91
        3
280
     0
281
     0
  0
CLASS
  1
VISUALSTYLE
  2
AcDbVisualStyle
  3
ObjectDBX Classes
 90
     4095
 91
        3
280
     0
281
     0
  0
CLASS
  1
ACDBPLACEHOLDER
  2
AcDbPlaceHolder
  3
ObjectDBX Classes
 90
        0
 91
        1
280
     0
281
     0
  0
CLASS
  1
LAYOUT
  2
AcDbLayout
  3
ObjectDBX Classes
 90
        0
 91
        1
280
     0
281
     0
  0
CLASS
  1
SCALE
  2
AcDbScale
  3
ObjectDBX Classes
 90
     1153
 91
        3
280
     0
281
     0
  0
CLASS
  1
MATERIAL
  2
AcDbMaterial
  3
ObjectDBX Classes
 90
     1153
 91
        3
280
     0
281
     0
  0
CLASS
  1
TABLESTYLE
  2
AcDbTableStyle
  3
ObjectDBX Classes
 90
     4095
 91
        3
280
     0
281
     0
  0
CLASS
  1
MLEADERSTYLE
  2
AcDbMLeaderStyle
  3
ACDB_MLEADERSTYLE_CLASS
 90
     4095
 91
        3
280
     0
281
     0
  0
CLASS
  1
DICTIONARYVAR
  2
AcDbDictionaryVar
  3
ObjectDBX Classes
 90
        0
 91
        3
280
     0
281
     0
  0
CLASS
  1
SUN
  2
AcDbSun
  3
SCENEOE
 90
     1153
 91
        3
280
     0
281
     0
  0
CLASS
  1
CELLSTYLEMAP
  2
AcDbCellStyleMap
  3
ObjectDBX Classes
 90
     1152
 91
        3
280
     0
281
     0
  0
ENDSEC
  0
SECTION
  2
TABLES
  0
TABLE
  2
VPORT
  5
8
330
0
100
AcDbSymbolTable
 70
     1
  0
VPORT
  5
29
330
8
100
AcDbSymbolTableRecord
100
AcDbViewportTableRecord
  2
*Active
 70
     0
 10
0.0
 20
0.0
 11
1.0
 21
1.0
 12
122.389233556496
 22
230.2475807423622
 13
0.0
 23
0.0
 14
0.5
 24
0.5
 15
0.5
 25
0.5
 16
0.0
 26
0.0
 36
1.0
 17
148.3916313648117
 27
104.8916164559821
 37
0.0
 40
1554.461510000157
 41
0.9309815950920246
 42
50.0
 43
0.0
 44
0.0
 50
0.0
 51
0.0
 71
    16
 72
   100
 73
     1
 74
     3
 75
     0
 76
     0
 77
     0
 78
     0
281
     0
 65
     1
110
0.0
120
0.0
130
0.0
111
1.0
121
0.0
131
0.0
112
0.0
122
1.0
132
0.0
 79
     0
146
0.0
348
2F
 60
     3
 61
     5
292
     1
282
     1
141
0.0
142
0.0
 63
   256
361
5A8
  0
ENDTAB
  0
TABLE
  2
LTYPE
  5
5
330
0
100
AcDbSymbolTable
 70
     1
  0
LTYPE
  5
14
330
5
100
AcDbSymbolTableRecord
100
AcDbLinetypeTableRecord
  2
ByBlock
 70
     0
  3

 72
    65
 73
     0
 40
0.0
  0
LTYPE
  5
15
330
5
100
AcDbSymbolTableRecord
100
AcDbLinetypeTableRecord
  2
ByLayer
 70
     0
  3

 72
    65
 73
     0
 40
0.0
  0
LTYPE
  5
16
330
5
100
AcDbSymbolTableRecord
100
AcDbLinetypeTableRecord
  2
Continuous
 70
     0
  3
Solid line
 72
    65
 73
     0
 40
0.0
  0
ENDTAB
  0
TABLE
  2
LAYER
  5
2
102
{ACAD_XDICTIONARY
360
59E
102
}
330
0
100
AcDbSymbolTable
 70
     3
  0
LAYER
  5
10
330
2
100
AcDbSymbolTableRecord
100
AcDbLayerTableRecord
  2
0
 70
     0
 62
     7
  6
Continuous
370
    -3
390
F
347
58F
348
0
  0
LAYER
  5
3B
330
2
100
AcDbSymbolTableRecord
100
AcDbLayerTableRecord
  2
フォーマット
 70
     0
 62
     7
  6
Continuous
370
    -3
390
F
347
58F
348
0
  0
LAYER
  5
198
330
2
100
AcDbSymbolTableRecord
100
AcDbLayerTableRecord
  2
レイヤー 1
 70
     0
 62
     7
  6
Continuous
370
    -3
390
F
347
58F
348
0
  0
ENDTAB
  0
TABLE
  2
STYLE
  5
3
330
0
100
AcDbSymbolTable
 70
     1
  0
STYLE
  5
11
330
3
100
AcDbSymbolTableRecord
100
AcDbTextStyleTableRecord
  2
Standard
 70
     0
 40
0.0
 41
1.0
 50
0.0
 71
     0
 42
0.2
  3
txt
  4

  0
ENDTAB
  0
TABLE
  2
VIEW
  5
6
330
0
100
AcDbSymbolTable
 70
     0
  0
ENDTAB
  0
TABLE
  2
UCS
  5
7
330
0
100
AcDbSymbolTable
 70
     0
  0
ENDTAB
  0
TABLE
  2
APPID
  5
9
330
0
100
AcDbSymbolTable
 70
     2
  0
APPID
  5
12
330
9
100
AcDbSymbolTableRecord
100
AcDbRegAppTableRecord
  2
ACAD
 70
     0
  0
APPID
  5
7E2
330
9
100
AcDbSymbolTableRecord
100
AcDbRegAppTableRecord
  2
PLOTTRANSPARENCY
 70
     0
  0
ENDTAB
  0
TABLE
  2
DIMSTYLE
  5
A
330
0
100
AcDbSymbolTable
 70
     2
100
AcDbDimStyleTable
  0
DIMSTYLE
105
27
330
A
100
AcDbSymbolTableRecord
100
AcDbDimStyleTableRecord
  2
Standard
 70
     0
178
     0
340
11
  0
DIMSTYLE
105
5B8
330
A
100
AcDbSymbolTableRecord
100
AcDbDimStyleTableRecord
  2
ISO-25
 70
     0
 41
2.5
 42
0.625
 43
3.75
 44
1.25
 73
     0
 74
     0
 77
     1
 78
     8
140
2.5
141
2.5
143
0.03937007874016
147
0.625
171
     3
172
     1
178
     0
271
     2
272
     2
274
     3
278
    44
283
     0
284
     8
340
11
  0
ENDTAB
  0
TABLE
  2
BLOCK_RECORD
  5
1
330
0
100
AcDbSymbolTable
 70
   117
  0
BLOCK_RECORD
  5
1F
330
1
100
AcDbSymbolTableRecord
100
AcDbBlockTableRecord
  2
*Model_Space
340
22
 70
     0
280
     1
281
     0
  0
BLOCK_RECORD
  5
1B
330
1
100
AcDbSymbolTableRecord
100
AcDbBlockTableRecord
  2
*Paper_Space
340
1E
 70
     0
280
     1
281
     0
  0
BLOCK_RECORD
  5
23
330
1
100
AcDbSymbolTableRecord
100
AcDbBlockTableRecord
  2
*Paper_Space0
340
26
 70
     0
280
     1
281
     0
  0
BLOCK_RECORD
  5
3C
330
1
100
AcDbSymbolTableRecord
100
AcDbBlockTableRecord
  2
block 2
340
0
 70
     0
280
     1
281
     0
  0
BLOCK_RECORD
  5
50
330
1
100
AcDbSymbolTableRecord
100
AcDbBlockTableRecord
  2
block 3
340
0
102
{BLKREFS
331
51
102
}
 70
     0
280
     1
281
     0
  0
BLOCK_RECORD
  5
54
330
1
100
AcDbSymbolTableRecord
100
AcDbBlockTableRecord
  2
block 4
340
0
102
{BLKREFS
331
55
102
}
 70
     0
280
     1
281
     0
  0
BLOCK_RECORD
  5
58
330
1
100
AcDbSymbolTableRecord
100
AcDbBlockTableRecord
  2
block 5
340
0
102
{BLKREFS
331
59
102
}
 70
     0
280
     1
281
     0
  0
BLOCK_RECORD
  5
5C
330
1
100
AcDbSymbolTableRecord
100
AcDbBlockTableRecord
  2
block 6
340
0
102
{BLKREFS
331
5D
102
}
 70
     0
280
     1
281
     0
  0
BLOCK_RECORD
  5
97
330
1
100
AcDbSymbolTableRecord
100
AcDbBlockTableRecord
  2
block 7
340
0
102
{BLKREFS
331
98
102
}
 70
     0
280
     1
281
     0
  0
BLOCK_RECORD
  5
9B
330
1
100
AcDbSymbolTableRecord
100
AcDbBlockTableRecord
  2
block 8
340
0
102
{BLKREFS
331
9C
102
}
 70
     0
280
     1
281
     0
  0
BLOCK_RECORD
  5
9F
330
1
100
AcDbSymbolTableRecord
100
AcDbBlockTableRecord
  2
block 9
340
0
102
{BLKREFS
331
A0
102
}
 70
     0
280
     1
281
     0
  0
BLOCK_RECORD
  5
A3
330
1
100
AcDbSymbolTableRecord
100
AcDbBlockTableRecord
  2
block 10
340
0
102
{BLKREFS
331
A4
102
}
 70
     0
280
     1
281
     0
  0
BLOCK_RECORD
  5
B1
330
1
100
AcDbSymbolTableRecord
100
AcDbBlockTableRecord
  2
block 11
340
0
102
{BLKREFS
331
B2
102
}
 70
     0
280
     1
281
     0
  0
BLOCK_RECORD
  5
B5
330
1
100
AcDbSymbolTableRecord
100
AcDbBlockTableRecord
  2
block 12
340
0
102
{BLKREFS
331
B6
102
}
 70
     0
280
     1
281
     0
  0
BLOCK_RECORD
  5
B9
330
1
100
AcDbSymbolTableRecord
100
AcDbBlockTableRecord
  2
block 13
340
0
102
{BLKREFS
331
BA
102
}
 70
     0
280
     1
281
     0
  0
BLOCK_RECORD
  5
BD
330
1
100
AcDbSymbolTableRecord
100
AcDbBlockTableRecord
  2
block 14
340
0
102
{BLKREFS
331
BE
102
}
 70
     0
280
     1
281
     0
  0
BLOCK_RECORD
  5
F8
330
1
100
AcDbSymbolTableRecord
100
AcDbBlockTableRecord
  2
block 15
340
0
102
{BLKREFS
331
F9
102
}
 70
     0
280
     1
281
     0
  0
BLOCK_RECORD
  5
FC
330
1
100
AcDbSymbolTableRecord
100
AcDbBlockTableRecord
  2
block 16
340
0
102
{BLKREFS
331
FD
102
}
 70
     0
280
     1
281
     0
  0
BLOCK_RECORD
  5
100
330
1
100
AcDbSymbolTableRecord
100
AcDbBlockTableRecord
  2
block 17
340
0
102
{BLKREFS
331
101
102
}
 70
     0
280
     1
281
     0
  0
BLOCK_RECORD
  5
104
330
1
100
AcDbSymbolTableRecord
100
AcDbBlockTableRecord
  2
block 18
340
0
102
{BLKREFS
331
105
102
}
 70
     0
280
     1
281
     0
  0
BLOCK_RECORD
  5
19A
330
1
100
AcDbSymbolTableRecord
100
AcDbBlockTableRecord
  2
block 19
340
0
 70
     0
280
     1
281
     0
  0
BLOCK_RECORD
  5
19E
330
1
100
AcDbSymbolTableRecord
100
AcDbBlockTableRecord
  2
block 20
340
0
102
{BLKREFS
331
19F
102
}
 70
     0
280
     1
281
     0
  0
BLOCK_RECORD
  5
1A6
330
1
100
AcDbSymbolTableRecord
100
AcDbBlockTableRecord
  2
block 21
340
0
102
{BLKREFS
331
1A7
102
}
 70
     0
280
     1
281
     0
  0
BLOCK_RECORD
  5
1AB
330
1
100
AcDbSymbolTableRecord
100
AcDbBlockTableRecord
  2
block 22
340
0
102
{BLKREFS
331
1AC
102
}
 70
     0
280
     1
281
     0
  0
BLOCK_RECORD
  5
1B3
330
1
100
AcDbSymbolTableRecord
100
AcDbBlockTableRecord
  2
block 23
340
0
102
{BLKREFS
331
1B4
102
}
 70
     0
280
     1
281
     0
  0
BLOCK_RECORD
  5
1B8
330
1
100
AcDbSymbolTableRecord
100
AcDbBlockTableRecord
  2
block 24
340
0
102
{BLKREFS
331
1B9
102
}
 70
     0
280
     1
281
     0
  0
BLOCK_RECORD
  5
1BD
330
1
100
AcDbSymbolTableRecord
100
AcDbBlockTableRecord
  2
block 25
340
0
102
{BLKREFS
331
1BE
102
}
 70
     0
280
     1
281
     0
  0
BLOCK_RECORD
  5
1C5
330
1
100
AcDbSymbolTableRecord
100
AcDbBlockTableRecord
  2
block 26
340
0
102
{BLKREFS
331
1C6
102
}
 70
     0
280
     1
281
     0
  0
BLOCK_RECORD
  5
1CD
330
1
100
AcDbSymbolTableRecord
100
AcDbBlockTableRecord
  2
block 27
340
0
102
{BLKREFS
331
1CE
102
}
 70
     0
280
     1
281
     0
  0
BLOCK_RECORD
  5
1D5
330
1
100
AcDbSymbolTableRecord
100
AcDbBlockTableRecord
  2
block 28
340
0
102
{BLKREFS
331
1D6
102
}
 70
     0
280
     1
281
     0
  0
BLOCK_RECORD
  5
1DD
330
1
100
AcDbSymbolTableRecord
100
AcDbBlockTableRecord
  2
block 29
340
0
102
{BLKREFS
331
1DE
102
}
 70
     0
280
     1
281
     0
  0
BLOCK_RECORD
  5
1E2
330
1
100
AcDbSymbolTableRecord
100
AcDbBlockTableRecord
  2
block 30
340
0
102
{BLKREFS
331
1E3
102
}
 70
     0
280
     1
281
     0
  0
BLOCK_RECORD
  5
1E7
330
1
100
AcDbSymbolTableRecord
100
AcDbBlockTableRecord
  2
block 31
340
0
102
{BLKREFS
331
1E8
102
}
 70
     0
280
     1
281
     0
  0
BLOCK_RECORD
  5
1EC
330
1
100
AcDbSymbolTableRecord
100
AcDbBlockTableRecord
  2
block 32
340
0
102
{BLKREFS
331
1ED
102
}
 70
     0
280
     1
281
     0
  0
BLOCK_RECORD
  5
1F1
330
1
100
AcDbSymbolTableRecord
100
AcDbBlockTableRecord
  2
block 33
340
0
102
{BLKREFS
331
1F2
102
}
 70
     0
280
     1
281
     0
  0
BLOCK_RECORD
  5
1F6
330
1
100
AcDbSymbolTableRecord
100
AcDbBlockTableRecord
  2
block 34
340
0
102
{BLKREFS
331
1F7
102
}
 70
     0
280
     1
281
     0
  0
BLOCK_RECORD
  5
1FE
330
1
100
AcDbSymbolTableRecord
100
AcDbBlockTableRecord
  2
block 35
340
0
102
{BLKREFS
331
1FF
102
}
 70
     0
280
     1
281
     0
  0
BLOCK_RECORD
  5
206
330
1
100
AcDbSymbolTableRecord
100
AcDbBlockTableRecord
  2
block 36
340
0
102
{BLKREFS
331
207
102
}
 70
     0
280
     1
281
     0
  0
BLOCK_RECORD
  5
20E
330
1
100
AcDbSymbolTableRecord
100
AcDbBlockTableRecord
  2
block 37
340
0
102
{BLKREFS
331
20F
102
}
 70
     0
280
     1
281
     0
  0
BLOCK_RECORD
  5
216
330
1
100
AcDbSymbolTableRecord
100
AcDbBlockTableRecord
  2
block 38
340
0
102
{BLKREFS
331
217
102
}
 70
     0
280
     1
281
     0
  0
BLOCK_RECORD
  5
21E
330
1
100
AcDbSymbolTableRecord
100
AcDbBlockTableRecord
  2
block 39
340
0
102
{BLKREFS
331
21F
102
}
 70
     0
280
     1
281
     0
  0
BLOCK_RECORD
  5
226
330
1
100
AcDbSymbolTableRecord
100
AcDbBlockTableRecord
  2
block 40
340
0
102
{BLKREFS
331
227
102
}
 70
     0
280
     1
281
     0
  0
BLOCK_RECORD
  5
22B
330
1
100
AcDbSymbolTableRecord
100
AcDbBlockTableRecord
  2
block 41
340
0
102
{BLKREFS
331
22C
102
}
 70
     0
280
     1
281
     0
  0
BLOCK_RECORD
  5
230
330
1
100
AcDbSymbolTableRecord
100
AcDbBlockTableRecord
  2
block 42
340
0
102
{BLKREFS
331
231
102
}
 70
     0
280
     1
281
     0
  0
BLOCK_RECORD
  5
238
330
1
100
AcDbSymbolTableRecord
100
AcDbBlockTableRecord
  2
block 43
340
0
102
{BLKREFS
331
239
102
}
 70
     0
280
     1
281
     0
  0
BLOCK_RECORD
  5
240
330
1
100
AcDbSymbolTableRecord
100
AcDbBlockTableRecord
  2
block 44
340
0
102
{BLKREFS
331
241
102
}
 70
     0
280
     1
281
     0
  0
BLOCK_RECORD
  5
245
330
1
100
AcDbSymbolTableRecord
100
AcDbBlockTableRecord
  2
block 45
340
0
102
{BLKREFS
331
246
102
}
 70
     0
280
     1
281
     0
  0
BLOCK_RECORD
  5
24D
330
1
100
AcDbSymbolTableRecord
100
AcDbBlockTableRecord
  2
block 46
340
0
102
{BLKREFS
331
24E
102
}
 70
     0
280
     1
281
     0
  0
BLOCK_RECORD
  5
255
330
1
100
AcDbSymbolTableRecord
100
AcDbBlockTableRecord
  2
block 47
340
0
102
{BLKREFS
331
256
102
}
 70
     0
280
     1
281
     0
  0
BLOCK_RECORD
  5
25D
330
1
100
AcDbSymbolTableRecord
100
AcDbBlockTableRecord
  2
block 48
340
0
102
{BLKREFS
331
25E
102
}
 70
     0
280
     1
281
     0
  0
BLOCK_RECORD
  5
265
330
1
100
AcDbSymbolTableRecord
100
AcDbBlockTableRecord
  2
block 49
340
0
102
{BLKREFS
331
266
102
}
 70
     0
280
     1
281
     0
  0
BLOCK_RECORD
  5
26D
330
1
100
AcDbSymbolTableRecord
100
AcDbBlockTableRecord
  2
block 50
340
0
102
{BLKREFS
331
26E
102
}
 70
     0
280
     1
281
     0
  0
BLOCK_RECORD
  5
272
330
1
100
AcDbSymbolTableRecord
100
AcDbBlockTableRecord
  2
block 51
340
0
102
{BLKREFS
331
273
102
}
 70
     0
280
     1
281
     0
  0
BLOCK_RECORD
  5
27A
330
1
100
AcDbSymbolTableRecord
100
AcDbBlockTableRecord
  2
block 52
340
0
102
{BLKREFS
331
27B
102
}
 70
     0
280
     1
281
     0
  0
BLOCK_RECORD
  5
282
330
1
100
AcDbSymbolTableRecord
100
AcDbBlockTableRecord
  2
block 53
340
0
102
{BLKREFS
331
283
102
}
 70
     0
280
     1
281
     0
  0
BLOCK_RECORD
  5
287
330
1
100
AcDbSymbolTableRecord
100
AcDbBlockTableRecord
  2
block 54
340
0
102
{BLKREFS
331
288
102
}
 70
     0
280
     1
281
     0
  0
BLOCK_RECORD
  5
28C
330
1
100
AcDbSymbolTableRecord
100
AcDbBlockTableRecord
  2
block 55
340
0
102
{BLKREFS
331
28D
102
}
 70
     0
280
     1
281
     0
  0
BLOCK_RECORD
  5
294
330
1
100
AcDbSymbolTableRecord
100
AcDbBlockTableRecord
  2
block 56
340
0
102
{BLKREFS
331
295
102
}
 70
     0
280
     1
281
     0
  0
BLOCK_RECORD
  5
29C
330
1
100
AcDbSymbolTableRecord
100
AcDbBlockTableRecord
  2
block 57
340
0
102
{BLKREFS
331
29D
102
}
 70
     0
280
     1
281
     0
  0
BLOCK_RECORD
  5
2A5
330
1
100
AcDbSymbolTableRecord
100
AcDbBlockTableRecord
  2
block 58
340
0
102
{BLKREFS
331
2A6
102
}
 70
     0
280
     1
281
     0
  0
BLOCK_RECORD
  5
2AE
330
1
100
AcDbSymbolTableRecord
100
AcDbBlockTableRecord
  2
block 59
340
0
102
{BLKREFS
331
2AF
102
}
 70
     0
280
     1
281
     0
  0
BLOCK_RECORD
  5
2B9
330
1
100
AcDbSymbolTableRecord
100
AcDbBlockTableRecord
  2
block 60
340
0
102
{BLKREFS
331
2BA
102
}
 70
     0
280
     1
281
     0
  0
BLOCK_RECORD
  5
2C4
330
1
100
AcDbSymbolTableRecord
100
AcDbBlockTableRecord
  2
block 61
340
0
102
{BLKREFS
331
2C5
102
}
 70
     0
280
     1
281
     0
  0
BLOCK_RECORD
  5
2C9
330
1
100
AcDbSymbolTableRecord
100
AcDbBlockTableRecord
  2
block 62
340
0
102
{BLKREFS
331
2CA
102
}
 70
     0
280
     1
281
     0
  0
BLOCK_RECORD
  5
2D1
330
1
100
AcDbSymbolTableRecord
100
AcDbBlockTableRecord
  2
block 63
340
0
102
{BLKREFS
331
2D2
102
}
 70
     0
280
     1
281
     0
  0
BLOCK_RECORD
  5
2D9
330
1
100
AcDbSymbolTableRecord
100
AcDbBlockTableRecord
  2
block 64
340
0
102
{BLKREFS
331
2DA
102
}
 70
     0
280
     1
281
     0
  0
BLOCK_RECORD
  5
2F4
330
1
100
AcDbSymbolTableRecord
100
AcDbBlockTableRecord
  2
block 65
340
0
102
{BLKREFS
331
2F5
102
}
 70
     0
280
     1
281
     0
  0
BLOCK_RECORD
  5
2FC
330
1
100
AcDbSymbolTableRecord
100
AcDbBlockTableRecord
  2
block 66
340
0
102
{BLKREFS
331
2FD
102
}
 70
     0
280
     1
281
     0
  0
BLOCK_RECORD
  5
317
330
1
100
AcDbSymbolTableRecord
100
AcDbBlockTableRecord
  2
block 67
340
0
102
{BLKREFS
331
318
102
}
 70
     0
280
     1
281
     0
  0
BLOCK_RECORD
  5
31F
330
1
100
AcDbSymbolTableRecord
100
AcDbBlockTableRecord
  2
block 68
340
0
102
{BLKREFS
331
320
102
}
 70
     0
280
     1
281
     0
  0
BLOCK_RECORD
  5
343
330
1
100
AcDbSymbolTableRecord
100
AcDbBlockTableRecord
  2
block 69
340
0
102
{BLKREFS
331
344
102
}
 70
     0
280
     1
281
     0
  0
BLOCK_RECORD
  5
361
330
1
100
AcDbSymbolTableRecord
100
AcDbBlockTableRecord
  2
block 70
340
0
102
{BLKREFS
331
362
102
}
 70
     0
280
     1
281
     0
  0
BLOCK_RECORD
  5
37F
330
1
100
AcDbSymbolTableRecord
100
AcDbBlockTableRecord
  2
block 71
340
0
102
{BLKREFS
331
380
102
}
 70
     0
280
     1
281
     0
  0
BLOCK_RECORD
  5
392
330
1
100
AcDbSymbolTableRecord
100
AcDbBlockTableRecord
  2
block 72
340
0
102
{BLKREFS
331
393
102
}
 70
     0
280
     1
281
     0
  0
BLOCK_RECORD
  5
39D
330
1
100
AcDbSymbolTableRecord
100
AcDbBlockTableRecord
  2
block 73
340
0
102
{BLKREFS
331
39E
102
}
 70
     0
280
     1
281
     0
  0
BLOCK_RECORD
  5
3A5
330
1
100
AcDbSymbolTableRecord
100
AcDbBlockTableRecord
  2
block 74
340
0
102
{BLKREFS
331
3A6
102
}
 70
     0
280
     1
281
     0
  0
BLOCK_RECORD
  5
3AD
330
1
100
AcDbSymbolTableRecord
100
AcDbBlockTableRecord
  2
block 75
340
0
102
{BLKREFS
331
3AE
102
}
 70
     0
280
     1
281
     0
  0
BLOCK_RECORD
  5
3B5
330
1
100
AcDbSymbolTableRecord
100
AcDbBlockTableRecord
  2
block 76
340
0
102
{BLKREFS
331
3B6
102
}
 70
     0
280
     1
281
     0
  0
BLOCK_RECORD
  5
3C8
330
1
100
AcDbSymbolTableRecord
100
AcDbBlockTableRecord
  2
block 77
340
0
102
{BLKREFS
331
3C9
102
}
 70
     0
280
     1
281
     0
  0
BLOCK_RECORD
  5
3CD
330
1
100
AcDbSymbolTableRecord
100
AcDbBlockTableRecord
  2
block 78
340
0
102
{BLKREFS
331
3CE
102
}
 70
     0
280
     1
281
     0
  0
BLOCK_RECORD
  5
3D5
330
1
100
AcDbSymbolTableRecord
100
AcDbBlockTableRecord
  2
block 79
340
0
102
{BLKREFS
331
3D6
102
}
 70
     0
280
     1
281
     0
  0
BLOCK_RECORD
  5
3DA
330
1
100
AcDbSymbolTableRecord
100
AcDbBlockTableRecord
  2
block 80
340
0
102
{BLKREFS
331
3DB
102
}
 70
     0
280
     1
281
     0
  0
BLOCK_RECORD
  5
3EB
330
1
100
AcDbSymbolTableRecord
100
AcDbBlockTableRecord
  2
block 81
340
0
102
{BLKREFS
331
3EC
102
}
 70
     0
280
     1
281
     0
  0
BLOCK_RECORD
  5
3F3
330
1
100
AcDbSymbolTableRecord
100
AcDbBlockTableRecord
  2
block 82
340
0
102
{BLKREFS
331
3F4
102
}
 70
     0
280
     1
281
     0
  0
BLOCK_RECORD
  5
3F8
330
1
100
AcDbSymbolTableRecord
100
AcDbBlockTableRecord
  2
block 83
340
0
102
{BLKREFS
331
3F9
102
}
 70
     0
280
     1
281
     0
  0
BLOCK_RECORD
  5
400
330
1
100
AcDbSymbolTableRecord
100
AcDbBlockTableRecord
  2
block 84
340
0
102
{BLKREFS
331
401
102
}
 70
     0
280
     1
281
     0
  0
BLOCK_RECORD
  5
415
330
1
100
AcDbSymbolTableRecord
100
AcDbBlockTableRecord
  2
block 85
340
0
102
{BLKREFS
331
416
102
}
 70
     0
280
     1
281
     0
  0
BLOCK_RECORD
  5
419
330
1
100
AcDbSymbolTableRecord
100
AcDbBlockTableRecord
  2
block 86
340
0
102
{BLKREFS
331
41A
102
}
 70
     0
280
     1
281
     0
  0
BLOCK_RECORD
  5
43D
330
1
100
AcDbSymbolTableRecord
100
AcDbBlockTableRecord
  2
block 87
340
0
102
{BLKREFS
331
43E
102
}
 70
     0
280
     1
281
     0
  0
BLOCK_RECORD
  5
445
330
1
100
AcDbSymbolTableRecord
100
AcDbBlockTableRecord
  2
block 88
340
0
102
{BLKREFS
331
446
102
}
 70
     0
280
     1
281
     0
  0
BLOCK_RECORD
  5
45A
330
1
100
AcDbSymbolTableRecord
100
AcDbBlockTableRecord
  2
block 89
340
0
102
{BLKREFS
331
45B
102
}
 70
     0
280
     1
281
     0
  0
BLOCK_RECORD
  5
471
330
1
100
AcDbSymbolTableRecord
100
AcDbBlockTableRecord
  2
block 90
340
0
102
{BLKREFS
331
472
102
}
 70
     0
280
     1
281
     0
  0
BLOCK_RECORD
  5
476
330
1
100
AcDbSymbolTableRecord
100
AcDbBlockTableRecord
  2
block 91
340
0
102
{BLKREFS
331
477
102
}
 70
     0
280
     1
281
     0
  0
BLOCK_RECORD
  5
47B
330
1
100
AcDbSymbolTableRecord
100
AcDbBlockTableRecord
  2
block 92
340
0
102
{BLKREFS
331
47C
102
}
 70
     0
280
     1
281
     0
  0
BLOCK_RECORD
  5
480
330
1
100
AcDbSymbolTableRecord
100
AcDbBlockTableRecord
  2
block 93
340
0
102
{BLKREFS
331
481
102
}
 70
     0
280
     1
281
     0
  0
BLOCK_RECORD
  5
485
330
1
100
AcDbSymbolTableRecord
100
AcDbBlockTableRecord
  2
block 94
340
0
102
{BLKREFS
331
486
102
}
 70
     0
280
     1
281
     0
  0
BLOCK_RECORD
  5
48A
330
1
100
AcDbSymbolTableRecord
100
AcDbBlockTableRecord
  2
block 95
340
0
102
{BLKREFS
331
48B
102
}
 70
     0
280
     1
281
     0
  0
BLOCK_RECORD
  5
48F
330
1
100
AcDbSymbolTableRecord
100
AcDbBlockTableRecord
  2
block 96
340
0
102
{BLKREFS
331
490
102
}
 70
     0
280
     1
281
     0
  0
BLOCK_RECORD
  5
494
330
1
100
AcDbSymbolTableRecord
100
AcDbBlockTableRecord
  2
block 97
340
0
102
{BLKREFS
331
495
102
}
 70
     0
280
     1
281
     0
  0
BLOCK_RECORD
  5
499
330
1
100
AcDbSymbolTableRecord
100
AcDbBlockTableRecord
  2
block 98
340
0
102
{BLKREFS
331
49A
102
}
 70
     0
280
     1
281
     0
  0
BLOCK_RECORD
  5
49E
330
1
100
AcDbSymbolTableRecord
100
AcDbBlockTableRecord
  2
block 99
340
0
102
{BLKREFS
331
49F
102
}
 70
     0
280
     1
281
     0
  0
BLOCK_RECORD
  5
4A3
330
1
100
AcDbSymbolTableRecord
100
AcDbBlockTableRecord
  2
block 100
340
0
102
{BLKREFS
331
4A4
102
}
 70
     0
280
     1
281
     0
  0
BLOCK_RECORD
  5
4A8
330
1
100
AcDbSymbolTableRecord
100
AcDbBlockTableRecord
  2
block 101
340
0
102
{BLKREFS
331
4A9
102
}
 70
     0
280
     1
281
     0
  0
BLOCK_RECORD
  5
4AD
330
1
100
AcDbSymbolTableRecord
100
AcDbBlockTableRecord
  2
block 102
340
0
102
{BLKREFS
331
4AE
102
}
 70
     0
280
     1
281
     0
  0
BLOCK_RECORD
  5
4BF
330
1
100
AcDbSymbolTableRecord
100
AcDbBlockTableRecord
  2
block 103
340
0
102
{BLKREFS
331
4C0
102
}
 70
     0
280
     1
281
     0
  0
BLOCK_RECORD
  5
4C7
330
1
100
AcDbSymbolTableRecord
100
AcDbBlockTableRecord
  2
block 104
340
0
102
{BLKREFS
331
4C8
102
}
 70
     0
280
     1
281
     0
  0
BLOCK_RECORD
  5
4CF
330
1
100
AcDbSymbolTableRecord
100
AcDbBlockTableRecord
  2
block 105
340
0
102
{BLKREFS
331
4D0
102
}
 70
     0
280
     1
281
     0
  0
BLOCK_RECORD
  5
4D7
330
1
100
AcDbSymbolTableRecord
100
AcDbBlockTableRecord
  2
block 106
340
0
102
{BLKREFS
331
4D8
102
}
 70
     0
280
     1
281
     0
  0
BLOCK_RECORD
  5
4DF
330
1
100
AcDbSymbolTableRecord
100
AcDbBlockTableRecord
  2
block 107
340
0
102
{BLKREFS
331
4E0
102
}
 70
     0
280
     1
281
     0
  0
BLOCK_RECORD
  5
4E7
330
1
100
AcDbSymbolTableRecord
100
AcDbBlockTableRecord
  2
block 108
340
0
102
{BLKREFS
331
4E8
102
}
 70
     0
280
     1
281
     0
  0
BLOCK_RECORD
  5
4EF
330
1
100
AcDbSymbolTableRecord
100
AcDbBlockTableRecord
  2
block 109
340
0
102
{BLKREFS
331
4F0
102
}
 70
     0
280
     1
281
     0
  0
BLOCK_RECORD
  5
4F7
330
1
100
AcDbSymbolTableRecord
100
AcDbBlockTableRecord
  2
block 110
340
0
102
{BLKREFS
331
4F8
102
}
 70
     0
280
     1
281
     0
  0
BLOCK_RECORD
  5
50E
330
1
100
AcDbSymbolTableRecord
100
AcDbBlockTableRecord
  2
block 111
340
0
102
{BLKREFS
331
50F
102
}
 70
     0
280
     1
281
     0
  0
BLOCK_RECORD
  5
51E
330
1
100
AcDbSymbolTableRecord
100
AcDbBlockTableRecord
  2
block 112
340
0
102
{BLKREFS
331
51F
102
}
 70
     0
280
     1
281
     0
  0
BLOCK_RECORD
  5
527
330
1
100
AcDbSymbolTableRecord
100
AcDbBlockTableRecord
  2
block 113
340
0
102
{BLKREFS
331
528
102
}
 70
     0
280
     1
281
     0
  0
BLOCK_RECORD
  5
52F
330
1
100
AcDbSymbolTableRecord
100
AcDbBlockTableRecord
  2
block 114
340
0
102
{BLKREFS
331
530
102
}
 70
     0
280
     1
281
     0
  0
BLOCK_RECORD
  5
537
330
1
100
AcDbSymbolTableRecord
100
AcDbBlockTableRecord
  2
block 115
340
0
102
{BLKREFS
331
538
102
}
 70
     0
280
     1
281
     0
  0
BLOCK_RECORD
  5
549
330
1
100
AcDbSymbolTableRecord
100
AcDbBlockTableRecord
  2
block 116
340
0
102
{BLKREFS
331
54A
102
}
 70
     0
280
     1
281
     0
  0
BLOCK_RECORD
  5
559
330
1
100
AcDbSymbolTableRecord
100
AcDbBlockTableRecord
  2
block 117
340
0
102
{BLKREFS
331
55A
102
}
 70
     0
280
     1
281
     0
  0
ENDTAB
  0
ENDSEC
  0
SECTION
  2
BLOCKS
  0
BLOCK
  5
20
330
1F
100
AcDbEntity
  8
0
100
AcDbBlockBegin
  2
*Model_Space
 70
     0
 10
0.0
 20
0.0
 30
0.0
  3
*Model_Space
  1

  0
ENDBLK
  5
21
330
1F
100
AcDbEntity
  8
0
100
AcDbBlockEnd
  0
BLOCK
  5
1C
330
1B
100
AcDbEntity
 67
     1
  8
0
100
AcDbBlockBegin
  2
*Paper_Space
 70
     0
 10
0.0
 20
0.0
 30
0.0
  3
*Paper_Space
  1

  0
ENDBLK
  5
1D
330
1B
100
AcDbEntity
 67
     1
  8
0
100
AcDbBlockEnd
  0
BLOCK
  5
24
330
23
100
AcDbEntity
  8
0
100
AcDbBlockBegin
  2
*Paper_Space0
 70
     0
 10
0.0
 20
0.0
 30
0.0
  3
*Paper_Space0
  1

  0
ENDBLK
  5
25
330
23
100
AcDbEntity
  8
0
100
AcDbBlockEnd
  0
BLOCK
  5
3E
330
3C
100
AcDbEntity
  8
0
100
AcDbBlockBegin
  2
block 2
 70
     0
 10
0.0
 20
0.0
 30
0.0
  3
block 2
  1

  0
POLYLINE
  5
40
330
3C
100
AcDbEntity
  8
フォーマット
 62
     7
370
    35
100
AcDb2dPolyline
 66
     1
 10
0.0
 20
0.0
 30
0.0
  0
VERTEX
  5
41
330
40
100
AcDbEntity
  8
フォーマット
 62
     7
370
    35
100
AcDbVertex
100
AcDb2dVertex
 10
243.3915174087702
 20
-33.60828449680626
 30
0.0
  0
VERTEX
  5
42
330
40
100
AcDbEntity
  8
フォーマット
 62
     7
370
    35
100
AcDbVertex
100
AcDb2dVertex
 10
53.39174532085345
 20
-33.60828449680626
 30
0.0
  0
VERTEX
  5
43
330
40
100
AcDbEntity
  8
フォーマット
 62
     7
370
    35
100
AcDbVertex
100
AcDb2dVertex
 10
53.39174532085345
 20
243.3915174087702
 30
0.0
  0
VERTEX
  5
44
330
40
100
AcDbEntity
  8
フォーマット
 62
     7
370
    35
100
AcDbVertex
100
AcDb2dVertex
 10
243.3915174087702
 20
243.3915174087702
 30
0.0
  0
VERTEX
  5
45
330
40
100
AcDbEntity
  8
フォーマット
 62
     7
370
    35
100
AcDbVertex
100
AcDb2dVertex
 10
243.3915174087702
 20
-33.60828449680626
 30
0.0
  0
SEQEND
  5
46
330
40
100
AcDbEntity
  8
フォーマット
370
    35
  0
POLYLINE
  5
47
330
3C
100
AcDbEntity
  8
フォーマット
 62
     7
370
    35
100
AcDb2dPolyline
 66
     1
 10
0.0
 20
0.0
 30
0.0
  0
VERTEX
  5
48
330
47
100
AcDbEntity
  8
フォーマット
 62
     7
370
    35
100
AcDbVertex
100
AcDb2dVertex
 10
53.39174532085345
 20
-33.60828449680626
 30
0.0
  0
VERTEX
  5
49
330
47
100
AcDbEntity
  8
フォーマット
 62
     7
370
    35
100
AcDbVertex
100
AcDb2dVertex
 10
53.39174532085345
 20
-8.631686738293467
 30
0.0
  0
VERTEX
  5
4A
330
47
100
AcDbEntity
  8
フォーマット
 62
     7
370
    35
100
AcDbVertex
100
AcDb2dVertex
 10
243.3084906075757
 20
-8.631686738293467
 30
0.0
  0
SEQEND
  5
4B
330
47
100
AcDbEntity
  8
フォーマット
370
    35
  0
POLYLINE
  5
4C
330
3C
100
AcDbEntity
  8
フォーマット
 62
     7
370
    35
100
AcDb2dPolyline
 66
     1
 10
0.0
 20
0.0
 30
0.0
  0
VERTEX
  5
4D
330
4C
100
AcDbEntity
  8
フォーマット
 62
     7
370
    35
100
AcDbVertex
100
AcDb2dVertex
 10
243.3915174087702
 20
-33.60828449680626
 30
0.0
  0
VERTEX
  5
4E
330
4C
100
AcDbEntity
  8
フォーマット
 62
     7
370
    35
100
AcDbVertex
100
AcDb2dVertex
 10
54.09247774255327
 20
-33.60828449680626
 30
0.0
  0
SEQEND
  5
4F
330
4C
100
AcDbEntity
  8
フォーマット
370
    35
  0
INSERT
  5
51
330
3C
100
AcDbEntity
  8
フォーマット
100
AcDbBlockReference
  2
block 3
 10
0.0
 20
0.0
 30
0.0
  0
INSERT
  5
98
330
3C
100
AcDbEntity
  8
フォーマット
100
AcDbBlockReference
  2
block 7
 10
0.0
 20
0.0
 30
0.0
  0
INSERT
  5
B2
330
3C
100
AcDbEntity
  8
フォーマット
100
AcDbBlockReference
  2
block 11
 10
0.0
 20
0.0
 30
0.0
  0
INSERT
  5
F9
330
3C
100
AcDbEntity
  8
フォーマット
100
AcDbBlockReference
  2
block 15
 10
0.0
 20
0.0
 30
0.0
  0
POLYLINE
  5
127
330
3C
100
AcDbEntity
  8
フォーマット
 62
     7
370
    35
100
AcDb2dPolyline
 66
     1
 10
0.0
 20
0.0
 30
0.0
  0
VERTEX
  5
128
330
127
100
AcDbEntity
  8
フォーマット
 62
     7
370
    35
100
AcDbVertex
100
AcDb2dVertex
 10
53.39174532085345
 20
-19.04104274697585
 30
0.0
  0
VERTEX
  5
129
330
127
100
AcDbEntity
  8
フォーマット
 62
     7
370
    35
100
AcDbVertex
100
AcDb2dVertex
 10
119.1162434598043
 20
-19.04104274697585
 30
0.0
  0
SEQEND
  5
12A
330
127
100
AcDbEntity
  8
フォーマット
370
    35
  0
POLYLINE
  5
12B
330
3C
100
AcDbEntity
  8
フォーマット
 62
     7
370
    35
100
AcDb2dPolyline
 66
     1
 10
0.0
 20
0.0
 30
0.0
  0
VERTEX
  5
12C
330
12B
100
AcDbEntity
  8
フォーマット
 62
     7
370
    35
100
AcDbVertex
100
AcDb2dVertex
 10
59.08786619616554
 20
-8.631686738293467
 30
0.0
  0
VERTEX
  5
12D
330
12B
100
AcDbEntity
  8
フォーマット
 62
     7
370
    35
100
AcDbVertex
100
AcDb2dVertex
 10
59.08786619616554
 20
-33.60828449680626
 30
0.0
  0
SEQEND
  5
12E
330
12B
100
AcDbEntity
  8
フォーマット
370
    35
  0
POLYLINE
  5
12F
330
3C
100
AcDbEntity
  8
フォーマット
 62
     7
370
    35
100
AcDb2dPolyline
 66
     1
 10
0.0
 20
0.0
 30
0.0
  0
VERTEX
  5
130
330
12F
100
AcDbEntity
  8
フォーマット
 62
     7
370
    35
100
AcDbVertex
100
AcDb2dVertex
 10
59.08786619616554
 20
-8.631686738293467
 30
0.0
  0
VERTEX
  5
131
330
12F
100
AcDbEntity
  8
フォーマット
 62
     7
370
    35
100
AcDbVertex
100
AcDb2dVertex
 10
59.08786619616554
 20
-33.60828449680626
 30
0.0
  0
SEQEND
  5
132
330
12F
100
AcDbEntity
  8
フォーマット
370
    35
  0
POLYLINE
  5
133
330
3C
100
AcDbEntity
  8
フォーマット
 62
     7
370
    35
100
AcDb2dPolyline
 66
     1
 10
0.0
 20
0.0
 30
0.0
  0
VERTEX
  5
134
330
133
100
AcDbEntity
  8
フォーマット
 62
     7
370
    35
100
AcDbVertex
100
AcDb2dVertex
 10
119.1162434598043
 20
-8.631686738293467
 30
0.0
  0
VERTEX
  5
135
330
133
100
AcDbEntity
  8
フォーマット
 62
     7
370
    35
100
AcDbVertex
100
AcDb2dVertex
 10
119.1162434598043
 20
-33.60828449680626
 30
0.0
  0
SEQEND
  5
136
330
133
100
AcDbEntity
  8
フォーマット
370
    35
  0
ENDBLK
  5
3F
330
3C
100
AcDbEntity
  8
0
100
AcDbBlockEnd
  0
BLOCK
  5
52
330
50
100
AcDbEntity
  8
0
100
AcDbBlockBegin
  2
block 3
 70
     0
 10
0.0
 20
0.0
 30
0.0
  3
block 3
  1

  0
INSERT
  5
55
330
50
100
AcDbEntity
  8
フォーマット
100
AcDbBlockReference
  2
block 4
 10
0.0
 20
0.0
 30
0.0
  0
ENDBLK
  5
53
330
50
100
AcDbEntity
  8
0
100
AcDbBlockEnd
  0
BLOCK
  5
56
330
54
100
AcDbEntity
  8
0
100
AcDbBlockBegin
  2
block 4
 70
     0
 10
0.0
 20
0.0
 30
0.0
  3
block 4
  1

  0
INSERT
  5
59
330
54
100
AcDbEntity
  8
フォーマット
100
AcDbBlockReference
  2
block 5
 10
0.0
 20
0.0
 30
0.0
  0
ENDBLK
  5
57
330
54
100
AcDbEntity
  8
0
100
AcDbBlockEnd
  0
BLOCK
  5
5A
330
58
100
AcDbEntity
  8
0
100
AcDbBlockBegin
  2
block 5
 70
     0
 10
0.0
 20
0.0
 30
0.0
  3
block 5
  1

  0
INSERT
  5
5D
330
58
100
AcDbEntity
  8
フォーマット
100
AcDbBlockReference
  2
block 6
 10
0.0
 20
0.0
 30
0.0
  0
ENDBLK
  5
5B
330
58
100
AcDbEntity
  8
0
100
AcDbBlockEnd
  0
BLOCK
  5
5E
330
5C
100
AcDbEntity
  8
0
100
AcDbBlockBegin
  2
block 6
 70
     0
 10
0.0
 20
0.0
 30
0.0
  3
block 6
  1

  0
POLYLINE
  5
60
330
5C
100
AcDbEntity
  8
フォーマット
370
     0
100
AcDb2dPolyline
 66
     1
 10
0.0
 20
0.0
 30
0.0
  0
VERTEX
  5
61
330
60
100
AcDbEntity
  8
フォーマット
370
     0
100
AcDbVertex
100
AcDb2dVertex
 10
55.79211560020128
 20
-24.07673881776554
 30
0.0
  0
VERTEX
  5
62
330
60
100
AcDbEntity
  8
フォーマット
370
     0
100
AcDbVertex
100
AcDb2dVertex
 10
55.18887938073403
 20
-24.07673881776554
 30
0.0
  0
VERTEX
  5
63
330
60
100
AcDbEntity
  8
フォーマット
370
     0
100
AcDbVertex
100
AcDb2dVertex
 10
55.18887938073403
 20
-24.30308159114645
 30
0.0
  0
VERTEX
  5
64
330
60
100
AcDbEntity
  8
フォーマット
370
     0
100
AcDbVertex
100
AcDb2dVertex
 10
54.93755966508505
 20
-24.30308159114645
 30
0.0
  0
VERTEX
  5
65
330
60
100
AcDbEntity
  8
フォーマット
370
     0
100
AcDbVertex
100
AcDb2dVertex
 10
54.93755966508505
 20
-22.97086316700034
 30
0.0
  0
VERTEX
  5
66
330
60
100
AcDbEntity
  8
フォーマット
370
     0
100
AcDbVertex
100
AcDb2dVertex
 10
56.04343531585025
 20
-22.97086316700034
 30
0.0
  0
VERTEX
  5
67
330
60
100
AcDbEntity
  8
フォーマット
370
     0
100
AcDbVertex
100
AcDb2dVertex
 10
56.04343531585025
 20
-24.26518554080871
 30
0.0
  0
VERTEX
  5
68
330
60
100
AcDbEntity
  8
フォーマット
370
     0
100
AcDbVertex
100
AcDb2dVertex
 10
55.79211560020128
 20
-24.26518554080871
 30
0.0
  0
VERTEX
  5
69
330
60
100
AcDbEntity
  8
フォーマット
370
     0
100
AcDbVertex
100
AcDb2dVertex
 10
55.79211560020128
 20
-24.07673881776554
 30
0.0
  0
SEQEND
  5
6A
330
60
100
AcDbEntity
  8
フォーマット
370
     0
  0
POLYLINE
  5
6B
330
5C
100
AcDbEntity
  8
フォーマット
370
     0
100
AcDb2dPolyline
 66
     1
 10
0.0
 20
0.0
 30
0.0
  0
VERTEX
  5
6C
330
6B
100
AcDbEntity
  8
フォーマット
370
     0
100
AcDbVertex
100
AcDb2dVertex
 10
55.18887938073403
 20
-23.20960828412816
 30
0.0
  0
VERTEX
  5
6D
330
6B
100
AcDbEntity
  8
フォーマット
370
     0
100
AcDbVertex
100
AcDb2dVertex
 10
55.18887938073403
 20
-23.83799370063772
 30
0.0
  0
VERTEX
  5
6E
330
6B
100
AcDbEntity
  8
フォーマット
370
     0
100
AcDbVertex
100
AcDb2dVertex
 10
55.79211560020128
 20
-23.83799370063772
 30
0.0
  0
VERTEX
  5
6F
330
6B
100
AcDbEntity
  8
フォーマット
370
     0
100
AcDbVertex
100
AcDb2dVertex
 10
55.79211560020128
 20
-23.20960828412816
 30
0.0
  0
VERTEX
  5
70
330
6B
100
AcDbEntity
  8
フォーマット
370
     0
100
AcDbVertex
100
AcDb2dVertex
 10
55.18887938073403
 20
-23.20960828412816
 30
0.0
  0
SEQEND
  5
71
330
6B
100
AcDbEntity
  8
フォーマット
370
     0
  0
POLYLINE
  5
72
330
5C
100
AcDbEntity
  8
フォーマット
370
     0
100
AcDb2dPolyline
 66
     1
 10
0.0
 20
0.0
 30
0.0
  0
VERTEX
  5
73
330
72
100
AcDbEntity
  8
フォーマット
370
     0
100
AcDbVertex
100
AcDb2dVertex
 10
56.73469372496564
 20
-22.65667045874556
 30
0.0
  0
VERTEX
  5
74
330
72
100
AcDbEntity
  8
フォーマット
370
     0
100
AcDbVertex
100
AcDb2dVertex
 10
55.62881807420044
 20
-22.65667045874556
 30
0.0
  0
VERTEX
  5
75
330
72
100
AcDbEntity
  8
フォーマット
370
     0
100
AcDbVertex
100
AcDb2dVertex
 10
55.62881807420044
 20
-22.74452039361943
 30
0.0
  0
VERTEX
  5
76
330
72
100
AcDbEntity
  8
フォーマット
370
     0
100
AcDbVertex
100
AcDb2dVertex
 10
55.3773261037772
 20
-22.74452039361943
 30
0.0
  0
VERTEX
  5
77
330
72
100
AcDbEntity
  8
フォーマット
370
     0
100
AcDbVertex
100
AcDb2dVertex
 10
55.3773261037772
 20
-21.57594400502268
 30
0.0
  0
VERTEX
  5
78
330
72
100
AcDbEntity
  8
フォーマット
370
     0
100
AcDbVertex
100
AcDb2dVertex
 10
56.98601344061461
 20
-21.57594400502268
 30
0.0
  0
VERTEX
  5
79
330
72
100
AcDbEntity
  8
フォーマット
370
     0
100
AcDbVertex
100
AcDb2dVertex
 10
56.98601344061461
 20
-22.7193711965771
 30
0.0
  0
VERTEX
  5
7A
330
72
100
AcDbEntity
  8
フォーマット
370
     0
100
AcDbVertex
100
AcDb2dVertex
 10
56.73469372496564
 20
-22.7193711965771
 30
0.0
  0
VERTEX
  5
7B
330
72
100
AcDbEntity
  8
フォーマット
370
     0
100
AcDbVertex
100
AcDb2dVertex
 10
56.73469372496564
 20
-22.65667045874556
 30
0.0
  0
SEQEND
  5
7C
330
72
100
AcDbEntity
  8
フォーマット
370
     0
  0
POLYLINE
  5
7D
330
5C
100
AcDbEntity
  8
フォーマット
370
     0
100
AcDb2dPolyline
 66
     1
 10
0.0
 20
0.0
 30
0.0
  0
VERTEX
  5
7E
330
7D
100
AcDbEntity
  8
フォーマット
370
     0
100
AcDbVertex
100
AcDb2dVertex
 10
55.62881807420044
 20
-22.41792534161774
 30
0.0
  0
VERTEX
  5
7F
330
7D
100
AcDbEntity
  8
フォーマット
370
     0
100
AcDbVertex
100
AcDb2dVertex
 10
56.73469372496564
 20
-22.41792534161774
 30
0.0
  0
VERTEX
  5
80
330
7D
100
AcDbEntity
  8
フォーマット
370
     0
100
AcDbVertex
100
AcDb2dVertex
 10
56.73469372496564
 20
-21.81468912215049
 30
0.0
  0
VERTEX
  5
81
330
7D
100
AcDbEntity
  8
フォーマット
370
     0
100
AcDbVertex
100
AcDb2dVertex
 10
55.62881807420044
 20
-21.81468912215049
 30
0.0
  0
VERTEX
  5
82
330
7D
100
AcDbEntity
  8
フォーマット
370
     0
100
AcDbVertex
100
AcDb2dVertex
 10
55.62881807420044
 20
-22.41792534161774
 30
0.0
  0
SEQEND
  5
83
330
7D
100
AcDbEntity
  8
フォーマット
370
     0
  0
POLYLINE
  5
84
330
5C
100
AcDbEntity
  8
フォーマット
370
     0
100
AcDb2dPolyline
 66
     1
 10
0.0
 20
0.0
 30
0.0
  0
VERTEX
  5
85
330
84
100
AcDbEntity
  8
フォーマット
370
     0
100
AcDbVertex
100
AcDb2dVertex
 10
57.22475855774243
 20
-24.07673881776554
 30
0.0
  0
VERTEX
  5
86
330
84
100
AcDbEntity
  8
フォーマット
370
     0
100
AcDbVertex
100
AcDb2dVertex
 10
56.62152233827518
 20
-24.07673881776554
 30
0.0
  0
VERTEX
  5
87
330
84
100
AcDbEntity
  8
フォーマット
370
     0
100
AcDbVertex
100
AcDb2dVertex
 10
56.62152233827518
 20
-24.30308159114645
 30
0.0
  0
VERTEX
  5
88
330
84
100
AcDbEntity
  8
フォーマット
370
     0
100
AcDbVertex
100
AcDb2dVertex
 10
56.3702026226262
 20
-24.30308159114645
 30
0.0
  0
VERTEX
  5
89
330
84
100
AcDbEntity
  8
フォーマット
370
     0
100
AcDbVertex
100
AcDb2dVertex
 10
56.3702026226262
 20
-22.97086316700034
 30
0.0
  0
VERTEX
  5
8A
330
84
100
AcDbEntity
  8
フォーマット
370
     0
100
AcDbVertex
100
AcDb2dVertex
 10
57.47625052816566
 20
-22.97086316700034
 30
0.0
  0
VERTEX
  5
8B
330
84
100
AcDbEntity
  8
フォーマット
370
     0
100
AcDbVertex
100
AcDb2dVertex
 10
57.47625052816566
 20
-24.26518554080871
 30
0.0
  0
VERTEX
  5
8C
330
84
100
AcDbEntity
  8
フォーマット
370
     0
100
AcDbVertex
100
AcDb2dVertex
 10
57.22475855774243
 20
-24.26518554080871
 30
0.0
  0
VERTEX
  5
8D
330
84
100
AcDbEntity
  8
フォーマット
370
     0
100
AcDbVertex
100
AcDb2dVertex
 10
57.22475855774243
 20
-24.07673881776554
 30
0.0
  0
SEQEND
  5
8E
330
84
100
AcDbEntity
  8
フォーマット
370
     0
  0
POLYLINE
  5
8F
330
5C
100
AcDbEntity
  8
フォーマット
370
     0
100
AcDb2dPolyline
 66
     1
 10
0.0
 20
0.0
 30
0.0
  0
VERTEX
  5
90
330
8F
100
AcDbEntity
  8
フォーマット
370
     0
100
AcDbVertex
100
AcDb2dVertex
 10
56.62152233827518
 20
-23.20960828412816
 30
0.0
  0
VERTEX
  5
91
330
8F
100
AcDbEntity
  8
フォーマット
370
     0
100
AcDbVertex
100
AcDb2dVertex
 10
56.62152233827518
 20
-23.83799370063772
 30
0.0
  0
VERTEX
  5
92
330
8F
100
AcDbEntity
  8
フォーマット
370
     0
100
AcDbVertex
100
AcDb2dVertex
 10
57.22475855774243
 20
-23.83799370063772
 30
0.0
  0
VERTEX
  5
93
330
8F
100
AcDbEntity
  8
フォーマット
370
     0
100
AcDbVertex
100
AcDb2dVertex
 10
57.22475855774243
 20
-23.20960828412816
 30
0.0
  0
VERTEX
  5
94
330
8F
100
AcDbEntity
  8
フォーマット
370
     0
100
AcDbVertex
100
AcDb2dVertex
 10
56.62152233827518
 20
-23.20960828412816
 30
0.0
  0
SEQEND
  5
95
330
8F
100
AcDbEntity
  8
フォーマット
370
     0
  0
HATCH
  5
96
330
5C
100
AcDbEntity
  8
フォーマット
 62
     7
100
AcDbHatch
 10
0.0
 20
0.0
 30
0.0
210
0.0
220
0.0
230
1.0
  2
SOLID
 70
     1
 71
     0
 91
        6
 92
        1
 93
        8
 72
     1
 10
55.79211560020128
 20
-24.07673881776554
 11
55.18887938073403
 21
-24.07673881776554
 72
     1
 10
55.18887938073403
 20
-24.07673881776554
 11
55.18887938073403
 21
-24.30308159114645
 72
     1
 10
55.18887938073403
 20
-24.30308159114645
 11
54.93755966508505
 21
-24.30308159114645
 72
     1
 10
54.93755966508505
 20
-24.30308159114645
 11
54.93755966508505
 21
-22.97086316700034
 72
     1
 10
54.93755966508505
 20
-22.97086316700034
 11
56.04343531585025
 21
-22.97086316700034
 72
     1
 10
56.04343531585025
 20
-22.97086316700034
 11
56.04343531585025
 21
-24.26518554080871
 72
     1
 10
56.04343531585025
 20
-24.26518554080871
 11
55.79211560020128
 21
-24.26518554080871
 72
     1
 10
55.79211560020128
 20
-24.26518554080871
 11
55.79211560020128
 21
-24.07673881776554
 97
        0
 92
        1
 93
        4
 72
     1
 10
55.18887938073403
 20
-23.20960828412816
 11
55.18887938073403
 21
-23.83799370063772
 72
     1
 10
55.18887938073403
 20
-23.83799370063772
 11
55.79211560020128
 21
-23.83799370063772
 72
     1
 10
55.79211560020128
 20
-23.83799370063772
 11
55.79211560020128
 21
-23.20960828412816
 72
     1
 10
55.79211560020128
 20
-23.20960828412816
 11
55.18887938073403
 21
-23.20960828412816
 97
        0
 92
        1
 93
        8
 72
     1
 10
56.73469372496564
 20
-22.65667045874556
 11
55.62881807420044
 21
-22.65667045874556
 72
     1
 10
55.62881807420044
 20
-22.65667045874556
 11
55.62881807420044
 21
-22.74452039361943
 72
     1
 10
55.62881807420044
 20
-22.74452039361943
 11
55.3773261037772
 21
-22.74452039361943
 72
     1
 10
55.3773261037772
 20
-22.74452039361943
 11
55.3773261037772
 21
-21.57594400502268
 72
     1
 10
55.3773261037772
 20
-21.57594400502268
 11
56.98601344061461
 21
-21.57594400502268
 72
     1
 10
56.98601344061461
 20
-21.57594400502268
 11
56.98601344061461
 21
-22.7193711965771
 72
     1
 10
56.98601344061461
 20
-22.7193711965771
 11
56.73469372496564
 21
-22.7193711965771
 72
     1
 10
56.73469372496564
 20
-22.7193711965771
 11
56.73469372496564
 21
-22.65667045874556
 97
        0
 92
        1
 93
        4
 72
     1
 10
55.62881807420044
 20
-22.41792534161774
 11
56.73469372496564
 21
-22.41792534161774
 72
     1
 10
56.73469372496564
 20
-22.41792534161774
 11
56.73469372496564
 21
-21.81468912215049
 72
     1
 10
56.73469372496564
 20
-21.81468912215049
 11
55.62881807420044
 21
-21.81468912215049
 72
     1
 10
55.62881807420044
 20
-21.81468912215049
 11
55.62881807420044
 21
-22.41792534161774
 97
        0
 92
        1
 93
        8
 72
     1
 10
57.22475855774243
 20
-24.07673881776554
 11
56.62152233827518
 21
-24.07673881776554
 72
     1
 10
56.62152233827518
 20
-24.07673881776554
 11
56.62152233827518
 21
-24.30308159114645
 72
     1
 10
56.62152233827518
 20
-24.30308159114645
 11
56.3702026226262
 21
-24.30308159114645
 72
     1
 10
56.3702026226262
 20
-24.30308159114645
 11
56.3702026226262
 21
-22.97086316700034
 72
     1
 10
56.3702026226262
 20
-22.97086316700034
 11
57.47625052816566
 21
-22.97086316700034
 72
     1
 10
57.47625052816566
 20
-22.97086316700034
 11
57.47625052816566
 21
-24.26518554080871
 72
     1
 10
57.47625052816566
 20
-24.26518554080871
 11
57.22475855774243
 21
-24.26518554080871
 72
     1
 10
57.22475855774243
 20
-24.26518554080871
 11
57.22475855774243
 21
-24.07673881776554
 97
        0
 92
        1
 93
        4
 72
     1
 10
56.62152233827518
 20
-23.20960828412816
 11
56.62152233827518
 21
-23.83799370063772
 72
     1
 10
56.62152233827518
 20
-23.83799370063772
 11
57.22475855774243
 21
-23.83799370063772
 72
     1
 10
57.22475855774243
 20
-23.83799370063772
 11
57.22475855774243
 21
-23.20960828412816
 72
     1
 10
57.22475855774243
 20
-23.20960828412816
 11
56.62152233827518
 21
-23.20960828412816
 97
        0
 75
     2
 76
     1
 98
        0
  0
ENDBLK
  5
5F
330
5C
100
AcDbEntity
  8
0
100
AcDbBlockEnd
  0
BLOCK
  5
99
330
97
100
AcDbEntity
  8
0
100
AcDbBlockBegin
  2
block 7
 70
     0
 10
0.0
 20
0.0
 30
0.0
  3
block 7
  1

  0
INSERT
  5
9C
330
97
100
AcDbEntity
  8
フォーマット
100
AcDbBlockReference
  2
block 8
 10
0.0
 20
0.0
 30
0.0
  0
ENDBLK
  5
9A
330
97
100
AcDbEntity
  8
0
100
AcDbBlockEnd
  0
BLOCK
  5
9D
330
9B
100
AcDbEntity
  8
0
100
AcDbBlockBegin
  2
block 8
 70
     0
 10
0.0
 20
0.0
 30
0.0
  3
block 8
  1

  0
INSERT
  5
A0
330
9B
100
AcDbEntity
  8
フォーマット
100
AcDbBlockReference
  2
block 9
 10
0.0
 20
0.0
 30
0.0
  0
ENDBLK
  5
9E
330
9B
100
AcDbEntity
  8
0
100
AcDbBlockEnd
  0
BLOCK
  5
A1
330
9F
100
AcDbEntity
  8
0
100
AcDbBlockBegin
  2
block 9
 70
     0
 10
0.0
 20
0.0
 30
0.0
  3
block 9
  1

  0
INSERT
  5
A4
330
9F
100
AcDbEntity
  8
フォーマット
100
AcDbBlockReference
  2
block 10
 10
0.0
 20
0.0
 30
0.0
  0
ENDBLK
  5
A2
330
9F
100
AcDbEntity
  8
0
100
AcDbBlockEnd
  0
BLOCK
  5
A5
330
A3
100
AcDbEntity
  8
0
100
AcDbBlockBegin
  2
block 10
 70
     0
 10
0.0
 20
0.0
 30
0.0
  3
block 10
  1

  0
SPLINE
  5
A7
330
A3
100
AcDbEntity
  8
フォーマット
370
     0
100
AcDbSpline
210
0.0
220
0.0
230
1.0
 70
    11
 71
     3
 72
    77
 73
    73
 74
     0
 42
0.000000001
 43
0.0000000001
 40
0.0
 40
0.0
 40
0.0
 40
0.0
 40
1.0
 40
1.0
 40
1.0
 40
2.0
 40
2.0
 40
2.0
 40
3.0
 40
3.0
 40
3.0
 40
4.0
 40
4.0
 40
4.0
 40
5.0
 40
5.0
 40
5.0
 40
6.0
 40
6.0
 40
6.0
 40
7.0
 40
7.0
 40
7.0
 40
8.0
 40
8.0
 40
8.0
 40
9.0
 40
9.0
 40
9.0
 40
10.0
 40
10.0
 40
10.0
 40
11.0
 40
11.0
 40
11.0
 40
12.0
 40
12.0
 40
12.0
 40
13.0
 40
13.0
 40
13.0
 40
14.0
 40
14.0
 40
14.0
 40
15.0
 40
15.0
 40
15.0
 40
16.0
 40
16.0
 40
16.0
 40
17.0
 40
17.0
 40
17.0
 40
18.0
 40
18.0
 40
18.0
 40
19.0
 40
19.0
 40
19.0
 40
20.0
 40
20.0
 40
20.0
 40
21.0
 40
21.0
 40
21.0
 40
22.0
 40
22.0
 40
22.0
 40
23.0
 40
23.0
 40
23.0
 40
24.0
 40
24.0
 40
24.0
 40
24.0
 10
57.10073512027343
 20
-30.28445637263722
 30
0.0
 10
56.81582572364327
 20
-30.695111754479
 30
0.0
 10
56.48492430228502
 20
-31.04272188894071
 30
0.0
 10
56.10785860142443
 20
-31.32763128557087
 30
0.0
 10
56.10785860142443
 20
-31.32763128557087
 30
0.0
 10
57.27660724479544
 20
-31.32763128557087
 30
0.0
 10
57.27660724479544
 20
-31.32763128557087
 30
0.0
 10
57.27660724479544
 20
-31.32763128557087
 30
0.0
 10
57.27660724479544
 20
-32.63470051267466
 30
0.0
 10
57.27660724479544
 20
-32.63470051267466
 30
0.0
 10
57.27660724479544
 20
-32.63470051267466
 30
0.0
 10
57.02528752914646
 20
-32.63470051267466
 30
0.0
 10
57.02528752914646
 20
-32.63470051267466
 30
0.0
 10
57.02528752914646
 20
-32.63470051267466
 30
0.0
 10
57.02528752914646
 20
-32.52170138075846
 30
0.0
 10
57.02528752914646
 20
-32.52170138075846
 30
0.0
 10
57.02528752914646
 20
-32.52170138075846
 30
0.0
 10
55.88168808281777
 20
-32.52170138075846
 30
0.0
 10
55.88168808281777
 20
-32.52170138075846
 30
0.0
 10
55.88168808281777
 20
-32.52170138075846
 30
0.0
 10
55.88168808281777
 20
-32.67225205346389
 30
0.0
 10
55.88168808281777
 20
-32.67225205346389
 30
0.0
 10
55.88168808281777
 20
-32.67225205346389
 30
0.0
 10
55.6303683671688
 20
-32.67225205346389
 30
0.0
 10
55.6303683671688
 20
-32.67225205346389
 30
0.0
 10
55.6303683671688
 20
-32.67225205346389
 30
0.0
 10
55.6303683671688
 20
-31.65422633757256
 30
0.0
 10
55.6303683671688
 20
-31.65422633757256
 30
0.0
 10
55.37887639674556
 20
-31.7968532906619
 30
0.0
 10
55.14839950878235
 20
-31.90571830799579
 30
0.0
 10
54.93910995805342
 20
-31.98116589912276
 30
0.0
 10
54.93910995805342
 20
-31.98116589912276
 30
0.0
 10
54.83851316988412
 20
-31.6921223879103
 30
0.0
 10
54.83851316988412
 20
-31.6921223879103
 30
0.0
 10
55.23228758384818
 20
-31.58325737057641
 30
0.0
 10
55.61348739929107
 20
-31.38206379423782
 30
0.0
 10
55.98228487098707
 20
-31.08888616844306
 30
0.0
 10
55.9068372798601
 20
-31.00517034815149
 30
0.0
 10
55.76851669612732
 20
-30.89630533081759
 30
0.0
 10
55.56749537456299
 20
-30.76194660689285
 30
0.0
 10
55.39971922443132
 20
-30.92145452785991
 30
0.0
 10
55.21557887074472
 20
-31.05546874223613
 30
0.0
 10
55.01455754918039
 20
-31.16433375957003
 30
0.0
 10
55.01455754918039
 20
-31.16433375957003
 30
0.0
 10
54.85108776840529
 20
-30.96314018323144
 30
0.0
 10
54.85108776840529
 20
-30.96314018323144
 30
0.0
 10
55.31186928955745
 20
-30.72852918068592
 30
0.0
 10
55.6345024817511
 20
-30.35576984918189
 30
0.0
 10
55.81881509021196
 20
-29.84451767917082
 30
0.0
 10
55.81881509021196
 20
-29.84451767917082
 30
0.0
 10
56.09528400290326
 20
-29.90756292655089
 30
0.0
 10
56.09528400290326
 20
-29.90756292655089
 30
0.0
 10
56.12870142911019
 20
-29.94098035275781
 30
0.0
 10
56.11612683058902
 20
-29.96199543521784
 30
0.0
 10
56.05756020733978
 20
-29.97026366438244
 30
0.0
 10
56.05756020733978
 20
-29.97026366438244
 30
0.0
 10
56.00726181325513
 20
-30.08326279629863
 30
0.0
 10
56.00726181325513
 20
-30.08326279629863
 30
0.0
 10
56.00726181325513
 20
-30.08326279629863
 30
0.0
 10
56.84941540462445
 20
-30.08326279629863
 30
0.0
 10
56.84941540462445
 20
-30.08326279629863
 30
0.0
 10
56.84941540462445
 20
-30.08326279629863
 30
0.0
 10
56.87456460166678
 20
-30.03330891176251
 30
0.0
 10
56.87456460166678
 20
-30.03330891176251
 30
0.0
 10
56.87456460166678
 20
-30.03330891176251
 30
0.0
 10
57.13845891583691
 20
-30.22175563480567
 30
0.0
 10
57.13845891583691
 20
-30.22175563480567
 30
0.0
 10
57.17187634204384
 20
-30.2551730610126
 30
0.0
 10
57.15930174352268
 20
-30.27618814347262
 30
0.0
 10
57.10073512027343
 20
-30.28445637263722
 30
0.0
 10
57.10073512027343
 20
-30.28445637263722
 30
0.0
 10
57.10073512027343
 20
-30.28445637263722
 30
0.0
 10
57.10073512027343
 20
-30.28445637263722
 30
0.0
  0
SPLINE
  5
A8
330
A3
100
AcDbEntity
  8
フォーマット
370
     0
100
AcDbSpline
210
0.0
220
0.0
230
1.0
 70
    11
 71
     3
 72
    20
 73
    16
 74
     0
 42
0.000000001
 43
0.0000000001
 40
0.0
 40
0.0
 40
0.0
 40
0.0
 40
1.0
 40
1.0
 40
1.0
 40
2.0
 40
2.0
 40
2.0
 40
3.0
 40
3.0
 40
3.0
 40
4.0
 40
4.0
 40
4.0
 40
5.0
 40
5.0
 40
5.0
 40
5.0
 10
56.19588079107256
 20
-30.91284178914679
 30
0.0
 10
56.38002114475916
 20
-30.73679740985052
 30
0.0
 10
56.55606552405543
 20
-30.54008245764276
 30
0.0
 10
56.72366941941284
 20
-30.32235242297497
 30
0.0
 10
56.72366941941284
 20
-30.32235242297497
 30
0.0
 10
55.89426268133894
 20
-30.32235242297497
 30
0.0
 10
55.89426268133894
 20
-30.32235242297497
 30
0.0
 10
55.89426268133894
 20
-30.32235242297497
 30
0.0
 10
55.70564370352151
 20
-30.58624673714511
 30
0.0
 10
55.70564370352151
 20
-30.58624673714511
 30
0.0
 10
55.88995631198237
 20
-30.68649901576588
 30
0.0
 10
56.05325383798322
 20
-30.7957085426483
 30
0.0
 10
56.19588079107256
 20
-30.91284178914679
 30
0.0
 10
56.19588079107256
 20
-30.91284178914679
 30
0.0
 10
56.19588079107256
 20
-30.91284178914679
 30
0.0
 10
56.19588079107256
 20
-30.91284178914679
 30
0.0
  0
POLYLINE
  5
A9
330
A3
100
AcDbEntity
  8
フォーマット
370
     0
100
AcDb2dPolyline
 66
     1
 10
0.0
 20
0.0
 30
0.0
  0
VERTEX
  5
AA
330
A9
100
AcDbEntity
  8
フォーマット
370
     0
100
AcDbVertex
100
AcDb2dVertex
 10
57.02528752914646
 20
-31.56637640269869
 30
0.0
  0
VERTEX
  5
AB
330
A9
100
AcDbEntity
  8
フォーマット
370
     0
100
AcDbVertex
100
AcDb2dVertex
 10
55.88168808281777
 20
-31.56637640269869
 30
0.0
  0
VERTEX
  5
AC
330
A9
100
AcDbEntity
  8
フォーマット
370
     0
100
AcDbVertex
100
AcDb2dVertex
 10
55.88168808281777
 20
-32.28261175408213
 30
0.0
  0
VERTEX
  5
AD
330
A9
100
AcDbEntity
  8
フォーマット
370
     0
100
AcDbVertex
100
AcDb2dVertex
 10
57.02528752914646
 20
-32.28261175408213
 30
0.0
  0
VERTEX
  5
AE
330
A9
100
AcDbEntity
  8
フォーマット
370
     0
100
AcDbVertex
100
AcDb2dVertex
 10
57.02528752914646
 20
-31.56637640269869
 30
0.0
  0
SEQEND
  5
AF
330
A9
100
AcDbEntity
  8
フォーマット
370
     0
  0
HATCH
  5
B0
330
A3
100
AcDbEntity
  8
フォーマット
 62
     7
100
AcDbHatch
 10
0.0
 20
0.0
 30
0.0
210
0.0
220
0.0
230
1.0
  2
SOLID
 70
     1
 71
     0
 91
        3
 92
        1
 93
        1
 72
     4
 94
        3
 73
     0
 74
     1
 95
       77
 96
       73
 40
0.0
 40
0.0
 40
0.0
 40
0.0
 40
1.0
 40
1.0
 40
1.0
 40
2.0
 40
2.0
 40
2.0
 40
3.0
 40
3.0
 40
3.0
 40
4.0
 40
4.0
 40
4.0
 40
5.0
 40
5.0
 40
5.0
 40
6.0
 40
6.0
 40
6.0
 40
7.0
 40
7.0
 40
7.0
 40
8.0
 40
8.0
 40
8.0
 40
9.0
 40
9.0
 40
9.0
 40
10.0
 40
10.0
 40
10.0
 40
11.0
 40
11.0
 40
11.0
 40
12.0
 40
12.0
 40
12.0
 40
13.0
 40
13.0
 40
13.0
 40
14.0
 40
14.0
 40
14.0
 40
15.0
 40
15.0
 40
15.0
 40
16.0
 40
16.0
 40
16.0
 40
17.0
 40
17.0
 40
17.0
 40
18.0
 40
18.0
 40
18.0
 40
19.0
 40
19.0
 40
19.0
 40
20.0
 40
20.0
 40
20.0
 40
21.0
 40
21.0
 40
21.0
 40
22.0
 40
22.0
 40
22.0
 40
23.0
 40
23.0
 40
23.0
 40
24.0
 40
24.0
 40
24.0
 40
24.0
 10
57.10073512027343
 20
-30.28445637263722
 10
56.81582572364327
 20
-30.695111754479
 10
56.48492430228502
 20
-31.04272188894071
 10
56.10785860142443
 20
-31.32763128557087
 10
56.10785860142443
 20
-31.32763128557087
 10
57.27660724479544
 20
-31.32763128557087
 10
57.27660724479544
 20
-31.32763128557087
 10
57.27660724479544
 20
-31.32763128557087
 10
57.27660724479544
 20
-32.63470051267466
 10
57.27660724479544
 20
-32.63470051267466
 10
57.27660724479544
 20
-32.63470051267466
 10
57.02528752914646
 20
-32.63470051267466
 10
57.02528752914646
 20
-32.63470051267466
 10
57.02528752914646
 20
-32.63470051267466
 10
57.02528752914646
 20
-32.52170138075846
 10
57.02528752914646
 20
-32.52170138075846
 10
57.02528752914646
 20
-32.52170138075846
 10
55.88168808281777
 20
-32.52170138075846
 10
55.88168808281777
 20
-32.52170138075846
 10
55.88168808281777
 20
-32.52170138075846
 10
55.88168808281777
 20
-32.67225205346389
 10
55.88168808281777
 20
-32.67225205346389
 10
55.88168808281777
 20
-32.67225205346389
 10
55.6303683671688
 20
-32.67225205346389
 10
55.6303683671688
 20
-32.67225205346389
 10
55.6303683671688
 20
-32.67225205346389
 10
55.6303683671688
 20
-31.65422633757256
 10
55.6303683671688
 20
-31.65422633757256
 10
55.37887639674556
 20
-31.7968532906619
 10
55.14839950878235
 20
-31.90571830799579
 10
54.93910995805342
 20
-31.98116589912276
 10
54.93910995805342
 20
-31.98116589912276
 10
54.83851316988412
 20
-31.6921223879103
 10
54.83851316988412
 20
-31.6921223879103
 10
55.23228758384818
 20
-31.58325737057641
 10
55.61348739929107
 20
-31.38206379423782
 10
55.98228487098707
 20
-31.08888616844306
 10
55.9068372798601
 20
-31.00517034815149
 10
55.76851669612732
 20
-30.89630533081759
 10
55.56749537456299
 20
-30.76194660689285
 10
55.39971922443132
 20
-30.92145452785991
 10
55.21557887074472
 20
-31.05546874223613
 10
55.01455754918039
 20
-31.16433375957003
 10
55.01455754918039
 20
-31.16433375957003
 10
54.85108776840529
 20
-30.96314018323144
 10
54.85108776840529
 20
-30.96314018323144
 10
55.31186928955745
 20
-30.72852918068592
 10
55.6345024817511
 20
-30.35576984918189
 10
55.81881509021196
 20
-29.84451767917082
 10
55.81881509021196
 20
-29.84451767917082
 10
56.09528400290326
 20
-29.90756292655089
 10
56.09528400290326
 20
-29.90756292655089
 10
56.12870142911019
 20
-29.94098035275781
 10
56.11612683058902
 20
-29.96199543521784
 10
56.05756020733978
 20
-29.97026366438244
 10
56.05756020733978
 20
-29.97026366438244
 10
56.00726181325513
 20
-30.08326279629863
 10
56.00726181325513
 20
-30.08326279629863
 10
56.00726181325513
 20
-30.08326279629863
 10
56.84941540462445
 20
-30.08326279629863
 10
56.84941540462445
 20
-30.08326279629863
 10
56.84941540462445
 20
-30.08326279629863
 10
56.87456460166678
 20
-30.03330891176251
 10
56.87456460166678
 20
-30.03330891176251
 10
56.87456460166678
 20
-30.03330891176251
 10
57.13845891583691
 20
-30.22175563480567
 10
57.13845891583691
 20
-30.22175563480567
 10
57.17187634204384
 20
-30.2551730610126
 10
57.15930174352268
 20
-30.27618814347262
 10
57.10073512027343
 20
-30.28445637263722
 10
57.10073512027343
 20
-30.28445637263722
 10
57.10073512027343
 20
-30.28445637263722
 10
57.10073512027343
 20
-30.28445637263722
 97
        0
 97
        0
 92
        1
 93
        1
 72
     4
 94
        3
 73
     0
 74
     1
 95
       20
 96
       16
 40
0.0
 40
0.0
 40
0.0
 40
0.0
 40
1.0
 40
1.0
 40
1.0
 40
2.0
 40
2.0
 40
2.0
 40
3.0
 40
3.0
 40
3.0
 40
4.0
 40
4.0
 40
4.0
 40
5.0
 40
5.0
 40
5.0
 40
5.0
 10
56.19588079107256
 20
-30.91284178914679
 10
56.38002114475916
 20
-30.73679740985052
 10
56.55606552405543
 20
-30.54008245764276
 10
56.72366941941284
 20
-30.32235242297497
 10
56.72366941941284
 20
-30.32235242297497
 10
55.89426268133894
 20
-30.32235242297497
 10
55.89426268133894
 20
-30.32235242297497
 10
55.89426268133894
 20
-30.32235242297497
 10
55.70564370352151
 20
-30.58624673714511
 10
55.70564370352151
 20
-30.58624673714511
 10
55.88995631198237
 20
-30.68649901576588
 10
56.05325383798322
 20
-30.7957085426483
 10
56.19588079107256
 20
-30.91284178914679
 10
56.19588079107256
 20
-30.91284178914679
 10
56.19588079107256
 20
-30.91284178914679
 10
56.19588079107256
 20
-30.91284178914679
 97
        0
 97
        0
 92
        1
 93
        4
 72
     1
 10
57.02528752914646
 20
-31.56637640269869
 11
55.88168808281777
 21
-31.56637640269869
 72
     1
 10
55.88168808281777
 20
-31.56637640269869
 11
55.88168808281777
 21
-32.28261175408213
 72
     1
 10
55.88168808281777
 20
-32.28261175408213
 11
57.02528752914646
 21
-32.28261175408213
 72
     1
 10
57.02528752914646
 20
-32.28261175408213
 11
57.02528752914646
 21
-31.56637640269869
 97
        0
 75
     2
 76
     1
 98
        0
  0
ENDBLK
  5
A6
330
A3
100
AcDbEntity
  8
0
100
AcDbBlockEnd
  0
BLOCK
  5
B3
330
B1
100
AcDbEntity
  8
0
100
AcDbBlockBegin
  2
block 11
 70
     0
 10
0.0
 20
0.0
 30
0.0
  3
block 11
  1

  0
INSERT
  5
B6
330
B1
100
AcDbEntity
  8
フォーマット
100
AcDbBlockReference
  2
block 12
 10
0.0
 20
0.0
 30
0.0
  0
ENDBLK
  5
B4
330
B1
100
AcDbEntity
  8
0
100
AcDbBlockEnd
  0
BLOCK
  5
B7
330
B5
100
AcDbEntity
  8
0
100
AcDbBlockBegin
  2
block 12
 70
     0
 10
0.0
 20
0.0
 30
0.0
  3
block 12
  1

  0
INSERT
  5
BA
330
B5
100
AcDbEntity
  8
フォーマット
100
AcDbBlockReference
  2
block 13
 10
0.0
 20
0.0
 30
0.0
  0
ENDBLK
  5
B8
330
B5
100
AcDbEntity
  8
0
100
AcDbBlockEnd
  0
BLOCK
  5
BB
330
B9
100
AcDbEntity
  8
0
100
AcDbBlockBegin
  2
block 13
 70
     0
 10
0.0
 20
0.0
 30
0.0
  3
block 13
  1

  0
INSERT
  5
BE
330
B9
100
AcDbEntity
  8
フォーマット
100
AcDbBlockReference
  2
block 14
 10
0.0
 20
0.0
 30
0.0
  0
ENDBLK
  5
BC
330
B9
100
AcDbEntity
  8
0
100
AcDbBlockEnd
  0
BLOCK
  5
BF
330
BD
100
AcDbEntity
  8
0
100
AcDbBlockBegin
  2
block 14
 70
     0
 10
0.0
 20
0.0
 30
0.0
  3
block 14
  1

  0
POLYLINE
  5
C1
330
BD
100
AcDbEntity
  8
フォーマット
370
     0
100
AcDb2dPolyline
 66
     1
 10
0.0
 20
0.0
 30
0.0
  0
VERTEX
  5
C2
330
C1
100
AcDbEntity
  8
フォーマット
370
     0
100
AcDbVertex
100
AcDb2dVertex
 10
55.79366589316964
 20
-12.41440158109779
 30
0.0
  0
VERTEX
  5
C3
330
C1
100
AcDbEntity
  8
フォーマット
370
     0
100
AcDbVertex
100
AcDb2dVertex
 10
55.1904296737024
 20
-12.41440158109779
 30
0.0
  0
VERTEX
  5
C4
330
C1
100
AcDbEntity
  8
フォーマット
370
     0
100
AcDbVertex
100
AcDb2dVertex
 10
55.1904296737024
 20
-12.6407443544787
 30
0.0
  0
VERTEX
  5
C5
330
C1
100
AcDbEntity
  8
フォーマット
370
     0
100
AcDbVertex
100
AcDb2dVertex
 10
54.93910995805342
 20
-12.6407443544787
 30
0.0
  0
VERTEX
  5
C6
330
C1
100
AcDbEntity
  8
フォーマット
370
     0
100
AcDbVertex
100
AcDb2dVertex
 10
54.93910995805342
 20
-11.30852593033259
 30
0.0
  0
VERTEX
  5
C7
330
C1
100
AcDbEntity
  8
フォーマット
370
     0
100
AcDbVertex
100
AcDb2dVertex
 10
56.04498560881861
 20
-11.30852593033259
 30
0.0
  0
VERTEX
  5
C8
330
C1
100
AcDbEntity
  8
フォーマット
370
     0
100
AcDbVertex
100
AcDb2dVertex
 10
56.04498560881861
 20
-12.60284830414096
 30
0.0
  0
VERTEX
  5
C9
330
C1
100
AcDbEntity
  8
フォーマット
370
     0
100
AcDbVertex
100
AcDb2dVertex
 10
55.79366589316964
 20
-12.60284830414096
 30
0.0
  0
VERTEX
  5
CA
330
C1
100
AcDbEntity
  8
フォーマット
370
     0
100
AcDbVertex
100
AcDb2dVertex
 10
55.79366589316964
 20
-12.41440158109779
 30
0.0
  0
SEQEND
  5
CB
330
C1
100
AcDbEntity
  8
フォーマット
370
     0
  0
POLYLINE
  5
CC
330
BD
100
AcDbEntity
  8
フォーマット
370
     0
100
AcDb2dPolyline
 66
     1
 10
0.0
 20
0.0
 30
0.0
  0
VERTEX
  5
CD
330
CC
100
AcDbEntity
  8
フォーマット
370
     0
100
AcDbVertex
100
AcDb2dVertex
 10
55.1904296737024
 20
-11.54727104746041
 30
0.0
  0
VERTEX
  5
CE
330
CC
100
AcDbEntity
  8
フォーマット
370
     0
100
AcDbVertex
100
AcDb2dVertex
 10
55.1904296737024
 20
-12.17565646396998
 30
0.0
  0
VERTEX
  5
CF
330
CC
100
AcDbEntity
  8
フォーマット
370
     0
100
AcDbVertex
100
AcDb2dVertex
 10
55.79366589316964
 20
-12.17565646396998
 30
0.0
  0
VERTEX
  5
D0
330
CC
100
AcDbEntity
  8
フォーマット
370
     0
100
AcDbVertex
100
AcDb2dVertex
 10
55.79366589316964
 20
-11.54727104746041
 30
0.0
  0
VERTEX
  5
D1
330
CC
100
AcDbEntity
  8
フォーマット
370
     0
100
AcDbVertex
100
AcDb2dVertex
 10
55.1904296737024
 20
-11.54727104746041
 30
0.0
  0
SEQEND
  5
D2
330
CC
100
AcDbEntity
  8
フォーマット
370
     0
  0
POLYLINE
  5
D3
330
BD
100
AcDbEntity
  8
フォーマット
370
     0
100
AcDb2dPolyline
 66
     1
 10
0.0
 20
0.0
 30
0.0
  0
VERTEX
  5
D4
330
D3
100
AcDbEntity
  8
フォーマット
370
     0
100
AcDbVertex
100
AcDb2dVertex
 10
56.736244017934
 20
-10.99433322207781
 30
0.0
  0
VERTEX
  5
D5
330
D3
100
AcDbEntity
  8
フォーマット
370
     0
100
AcDbVertex
100
AcDb2dVertex
 10
55.6303683671688
 20
-10.99433322207781
 30
0.0
  0
VERTEX
  5
D6
330
D3
100
AcDbEntity
  8
フォーマット
370
     0
100
AcDbVertex
100
AcDb2dVertex
 10
55.6303683671688
 20
-11.08218315695168
 30
0.0
  0
VERTEX
  5
D7
330
D3
100
AcDbEntity
  8
フォーマット
370
     0
100
AcDbVertex
100
AcDb2dVertex
 10
55.37887639674556
 20
-11.08218315695168
 30
0.0
  0
VERTEX
  5
D8
330
D3
100
AcDbEntity
  8
フォーマット
370
     0
100
AcDbVertex
100
AcDb2dVertex
 10
55.37887639674556
 20
-9.913606768354931
 30
0.0
  0
VERTEX
  5
D9
330
D3
100
AcDbEntity
  8
フォーマット
370
     0
100
AcDbVertex
100
AcDb2dVertex
 10
56.98756373358297
 20
-9.913606768354931
 30
0.0
  0
VERTEX
  5
DA
330
D3
100
AcDbEntity
  8
フォーマット
370
     0
100
AcDbVertex
100
AcDb2dVertex
 10
56.98756373358297
 20
-11.05703395990935
 30
0.0
  0
VERTEX
  5
DB
330
D3
100
AcDbEntity
  8
フォーマット
370
     0
100
AcDbVertex
100
AcDb2dVertex
 10
56.736244017934
 20
-11.05703395990935
 30
0.0
  0
VERTEX
  5
DC
330
D3
100
AcDbEntity
  8
フォーマット
370
     0
100
AcDbVertex
100
AcDb2dVertex
 10
56.736244017934
 20
-10.99433322207781
 30
0.0
  0
SEQEND
  5
DD
330
D3
100
AcDbEntity
  8
フォーマット
370
     0
  0
POLYLINE
  5
DE
330
BD
100
AcDbEntity
  8
フォーマット
370
     0
100
AcDb2dPolyline
 66
     1
 10
0.0
 20
0.0
 30
0.0
  0
VERTEX
  5
DF
330
DE
100
AcDbEntity
  8
フォーマット
370
     0
100
AcDbVertex
100
AcDb2dVertex
 10
55.6303683671688
 20
-10.75558810494999
 30
0.0
  0
VERTEX
  5
E0
330
DE
100
AcDbEntity
  8
フォーマット
370
     0
100
AcDbVertex
100
AcDb2dVertex
 10
56.736244017934
 20
-10.75558810494999
 30
0.0
  0
VERTEX
  5
E1
330
DE
100
AcDbEntity
  8
フォーマット
370
     0
100
AcDbVertex
100
AcDb2dVertex
 10
56.736244017934
 20
-10.15235188548275
 30
0.0
  0
VERTEX
  5
E2
330
DE
100
AcDbEntity
  8
フォーマット
370
     0
100
AcDbVertex
100
AcDb2dVertex
 10
55.6303683671688
 20
-10.15235188548275
 30
0.0
  0
VERTEX
  5
E3
330
DE
100
AcDbEntity
  8
フォーマット
370
     0
100
AcDbVertex
100
AcDb2dVertex
 10
55.6303683671688
 20
-10.75558810494999
 30
0.0
  0
SEQEND
  5
E4
330
DE
100
AcDbEntity
  8
フォーマット
370
     0
  0
POLYLINE
  5
E5
330
BD
100
AcDbEntity
  8
フォーマット
370
     0
100
AcDb2dPolyline
 66
     1
 10
0.0
 20
0.0
 30
0.0
  0
VERTEX
  5
E6
330
E5
100
AcDbEntity
  8
フォーマット
370
     0
100
AcDbVertex
100
AcDb2dVertex
 10
57.22648110548505
 20
-12.41440158109779
 30
0.0
  0
VERTEX
  5
E7
330
E5
100
AcDbEntity
  8
フォーマット
370
     0
100
AcDbVertex
100
AcDb2dVertex
 10
56.6232448860178
 20
-12.41440158109779
 30
0.0
  0
VERTEX
  5
E8
330
E5
100
AcDbEntity
  8
フォーマット
370
     0
100
AcDbVertex
100
AcDb2dVertex
 10
56.6232448860178
 20
-12.6407443544787
 30
0.0
  0
VERTEX
  5
E9
330
E5
100
AcDbEntity
  8
フォーマット
370
     0
100
AcDbVertex
100
AcDb2dVertex
 10
56.37175291559456
 20
-12.6407443544787
 30
0.0
  0
VERTEX
  5
EA
330
E5
100
AcDbEntity
  8
フォーマット
370
     0
100
AcDbVertex
100
AcDb2dVertex
 10
56.37175291559456
 20
-11.30852593033259
 30
0.0
  0
VERTEX
  5
EB
330
E5
100
AcDbEntity
  8
フォーマット
370
     0
100
AcDbVertex
100
AcDb2dVertex
 10
57.47780082113402
 20
-11.30852593033259
 30
0.0
  0
VERTEX
  5
EC
330
E5
100
AcDbEntity
  8
フォーマット
370
     0
100
AcDbVertex
100
AcDb2dVertex
 10
57.47780082113402
 20
-12.60284830414096
 30
0.0
  0
VERTEX
  5
ED
330
E5
100
AcDbEntity
  8
フォーマット
370
     0
100
AcDbVertex
100
AcDb2dVertex
 10
57.22648110548505
 20
-12.60284830414096
 30
0.0
  0
VERTEX
  5
EE
330
E5
100
AcDbEntity
  8
フォーマット
370
     0
100
AcDbVertex
100
AcDb2dVertex
 10
57.22648110548505
 20
-12.41440158109779
 30
0.0
  0
SEQEND
  5
EF
330
E5
100
AcDbEntity
  8
フォーマット
370
     0
  0
POLYLINE
  5
F0
330
BD
100
AcDbEntity
  8
フォーマット
370
     0
100
AcDb2dPolyline
 66
     1
 10
0.0
 20
0.0
 30
0.0
  0
VERTEX
  5
F1
330
F0
100
AcDbEntity
  8
フォーマット
370
     0
100
AcDbVertex
100
AcDb2dVertex
 10
56.6232448860178
 20
-11.54727104746041
 30
0.0
  0
VERTEX
  5
F2
330
F0
100
AcDbEntity
  8
フォーマット
370
     0
100
AcDbVertex
100
AcDb2dVertex
 10
56.6232448860178
 20
-12.17565646396998
 30
0.0
  0
VERTEX
  5
F3
330
F0
100
AcDbEntity
  8
フォーマット
370
     0
100
AcDbVertex
100
AcDb2dVertex
 10
57.22648110548505
 20
-12.17565646396998
 30
0.0
  0
VERTEX
  5
F4
330
F0
100
AcDbEntity
  8
フォーマット
370
     0
100
AcDbVertex
100
AcDb2dVertex
 10
57.22648110548505
 20
-11.54727104746041
 30
0.0
  0
VERTEX
  5
F5
330
F0
100
AcDbEntity
  8
フォーマット
370
     0
100
AcDbVertex
100
AcDb2dVertex
 10
56.6232448860178
 20
-11.54727104746041
 30
0.0
  0
SEQEND
  5
F6
330
F0
100
AcDbEntity
  8
フォーマット
370
     0
  0
HATCH
  5
F7
330
BD
100
AcDbEntity
  8
フォーマット
 62
     7
100
AcDbHatch
 10
0.0
 20
0.0
 30
0.0
210
0.0
220
0.0
230
1.0
  2
SOLID
 70
     1
 71
     0
 91
        6
 92
        1
 93
        8
 72
     1
 10
55.79366589316964
 20
-12.41440158109779
 11
55.1904296737024
 21
-12.41440158109779
 72
     1
 10
55.1904296737024
 20
-12.41440158109779
 11
55.1904296737024
 21
-12.6407443544787
 72
     1
 10
55.1904296737024
 20
-12.6407443544787
 11
54.93910995805342
 21
-12.6407443544787
 72
     1
 10
54.93910995805342
 20
-12.6407443544787
 11
54.93910995805342
 21
-11.30852593033259
 72
     1
 10
54.93910995805342
 20
-11.30852593033259
 11
56.04498560881861
 21
-11.30852593033259
 72
     1
 10
56.04498560881861
 20
-11.30852593033259
 11
56.04498560881861
 21
-12.60284830414096
 72
     1
 10
56.04498560881861
 20
-12.60284830414096
 11
55.79366589316964
 21
-12.60284830414096
 72
     1
 10
55.79366589316964
 20
-12.60284830414096
 11
55.79366589316964
 21
-12.41440158109779
 97
        0
 92
        1
 93
        4
 72
     1
 10
55.1904296737024
 20
-11.54727104746041
 11
55.1904296737024
 21
-12.17565646396998
 72
     1
 10
55.1904296737024
 20
-12.17565646396998
 11
55.79366589316964
 21
-12.17565646396998
 72
     1
 10
55.79366589316964
 20
-12.17565646396998
 11
55.79366589316964
 21
-11.54727104746041
 72
     1
 10
55.79366589316964
 20
-11.54727104746041
 11
55.1904296737024
 21
-11.54727104746041
 97
        0
 92
        1
 93
        8
 72
     1
 10
56.736244017934
 20
-10.99433322207781
 11
55.6303683671688
 21
-10.99433322207781
 72
     1
 10
55.6303683671688
 20
-10.99433322207781
 11
55.6303683671688
 21
-11.08218315695168
 72
     1
 10
55.6303683671688
 20
-11.08218315695168
 11
55.37887639674556
 21
-11.08218315695168
 72
     1
 10
55.37887639674556
 20
-11.08218315695168
 11
55.37887639674556
 21
-9.913606768354931
 72
     1
 10
55.37887639674556
 20
-9.913606768354931
 11
56.98756373358297
 21
-9.913606768354931
 72
     1
 10
56.98756373358297
 20
-9.913606768354931
 11
56.98756373358297
 21
-11.05703395990935
 72
     1
 10
56.98756373358297
 20
-11.05703395990935
 11
56.736244017934
 21
-11.05703395990935
 72
     1
 10
56.736244017934
 20
-11.05703395990935
 11
56.736244017934
 21
-10.99433322207781
 97
        0
 92
        1
 93
        4
 72
     1
 10
55.6303683671688
 20
-10.75558810494999
 11
56.736244017934
 21
-10.75558810494999
 72
     1
 10
56.736244017934
 20
-10.75558810494999
 11
56.736244017934
 21
-10.15235188548275
 72
     1
 10
56.736244017934
 20
-10.15235188548275
 11
55.6303683671688
 21
-10.15235188548275
 72
     1
 10
55.6303683671688
 20
-10.15235188548275
 11
55.6303683671688
 21
-10.75558810494999
 97
        0
 92
        1
 93
        8
 72
     1
 10
57.22648110548505
 20
-12.41440158109779
 11
56.6232448860178
 21
-12.41440158109779
 72
     1
 10
56.6232448860178
 20
-12.41440158109779
 11
56.6232448860178
 21
-12.6407443544787
 72
     1
 10
56.6232448860178
 20
-12.6407443544787
 11
56.37175291559456
 21
-12.6407443544787
 72
     1
 10
56.37175291559456
 20
-12.6407443544787
 11
56.37175291559456
 21
-11.30852593033259
 72
     1
 10
56.37175291559456
 20
-11.30852593033259
 11
57.47780082113402
 21
-11.30852593033259
 72
     1
 10
57.47780082113402
 20
-11.30852593033259
 11
57.47780082113402
 21
-12.60284830414096
 72
     1
 10
57.47780082113402
 20
-12.60284830414096
 11
57.22648110548505
 21
-12.60284830414096
 72
     1
 10
57.22648110548505
 20
-12.60284830414096
 11
57.22648110548505
 21
-12.41440158109779
 97
        0
 92
        1
 93
        4
 72
     1
 10
56.6232448860178
 20
-11.54727104746041
 11
56.6232448860178
 21
-12.17565646396998
 72
     1
 10
56.6232448860178
 20
-12.17565646396998
 11
57.22648110548505
 21
-12.17565646396998
 72
     1
 10
57.22648110548505
 20
-12.17565646396998
 11
57.22648110548505
 21
-11.54727104746041
 72
     1
 10
57.22648110548505
 20
-11.54727104746041
 11
56.6232448860178
 21
-11.54727104746041
 97
        0
 75
     2
 76
     1
 98
        0
  0
ENDBLK
  5
C0
330
BD
100
AcDbEntity
  8
0
100
AcDbBlockEnd
  0
BLOCK
  5
FA
330
F8
100
AcDbEntity
  8
0
100
AcDbBlockBegin
  2
block 15
 70
     0
 10
0.0
 20
0.0
 30
0.0
  3
block 15
  1

  0
INSERT
  5
FD
330
F8
100
AcDbEntity
  8
フォーマット
100
AcDbBlockReference
  2
block 16
 10
0.0
 20
0.0
 30
0.0
  0
ENDBLK
  5
FB
330
F8
100
AcDbEntity
  8
0
100
AcDbBlockEnd
  0
BLOCK
  5
FE
330
FC
100
AcDbEntity
  8
0
100
AcDbBlockBegin
  2
block 16
 70
     0
 10
0.0
 20
0.0
 30
0.0
  3
block 16
  1

  0
INSERT
  5
101
330
FC
100
AcDbEntity
  8
フォーマット
100
AcDbBlockReference
  2
block 17
 10
0.0
 20
0.0
 30
0.0
  0
ENDBLK
  5
FF
330
FC
100
AcDbEntity
  8
0
100
AcDbBlockEnd
  0
BLOCK
  5
102
330
100
100
AcDbEntity
  8
0
100
AcDbBlockBegin
  2
block 17
 70
     0
 10
0.0
 20
0.0
 30
0.0
  3
block 17
  1

  0
INSERT
  5
105
330
100
100
AcDbEntity
  8
フォーマット
100
AcDbBlockReference
  2
block 18
 10
0.0
 20
0.0
 30
0.0
  0
ENDBLK
  5
103
330
100
100
AcDbEntity
  8
0
100
AcDbBlockEnd
  0
BLOCK
  5
106
330
104
100
AcDbEntity
  8
0
100
AcDbBlockBegin
  2
block 18
 70
     0
 10
0.0
 20
0.0
 30
0.0
  3
block 18
  1

  0
SPLINE
  5
108
330
104
100
AcDbEntity
  8
フォーマット
370
     0
100
AcDbSpline
210
0.0
220
0.0
230
1.0
 70
    11
 71
     3
 72
   119
 73
   115
 74
     0
 42
0.000000001
 43
0.0000000001
 40
0.0
 40
0.0
 40
0.0
 40
0.0
 40
1.0
 40
1.0
 40
1.0
 40
2.0
 40
2.0
 40
2.0
 40
3.0
 40
3.0
 40
3.0
 40
4.0
 40
4.0
 40
4.0
 40
5.0
 40
5.0
 40
5.0
 40
6.0
 40
6.0
 40
6.0
 40
7.0
 40
7.0
 40
7.0
 40
8.0
 40
8.0
 40
8.0
 40
9.0
 40
9.0
 40
9.0
 40
10.0
 40
10.0
 40
10.0
 40
11.0
 40
11.0
 40
11.0
 40
12.0
 40
12.0
 40
12.0
 40
13.0
 40
13.0
 40
13.0
 40
14.0
 40
14.0
 40
14.0
 40
15.0
 40
15.0
 40
15.0
 40
16.0
 40
16.0
 40
16.0
 40
17.0
 40
17.0
 40
17.0
 40
18.0
 40
18.0
 40
18.0
 40
19.0
 40
19.0
 40
19.0
 40
20.0
 40
20.0
 40
20.0
 40
21.0
 40
21.0
 40
21.0
 40
22.0
 40
22.0
 40
22.0
 40
23.0
 40
23.0
 40
23.0
 40
24.0
 40
24.0
 40
24.0
 40
25.0
 40
25.0
 40
25.0
 40
26.0
 40
26.0
 40
26.0
 40
27.0
 40
27.0
 40
27.0
 40
28.0
 40
28.0
 40
28.0
 40
29.0
 40
29.0
 40
29.0
 40
30.0
 40
30.0
 40
30.0
 40
31.0
 40
31.0
 40
31.0
 40
32.0
 40
32.0
 40
32.0
 40
33.0
 40
33.0
 40
33.0
 40
34.0
 40
34.0
 40
34.0
 40
35.0
 40
35.0
 40
35.0
 40
36.0
 40
36.0
 40
36.0
 40
37.0
 40
37.0
 40
37.0
 40
38.0
 40
38.0
 40
38.0
 40
38.0
 10
56.57311874670742
 20
-15.8812011679047
 30
0.0
 10
56.82443846235639
 20
-16.09893120257249
 30
0.0
 10
57.17635496617466
 20
-16.27497558186876
 30
0.0
 10
57.62869600338797
 20
-16.40898979624497
 30
0.0
 10
57.62869600338797
 20
-16.40898979624497
 30
0.0
 10
57.5408460685141
 20
-16.69803330745744
 30
0.0
 10
57.5408460685141
 20
-16.69803330745744
 30
0.0
 10
57.37306991838243
 20
-16.64773491337279
 30
0.0
 10
57.25576441710967
 20
-16.59743651928814
 30
0.0
 10
57.18892956469583
 20
-16.54713812520349
 30
0.0
 10
57.18892956469583
 20
-16.54713812520349
 30
0.0
 10
57.18892956469583
 20
-17.71605902334876
 30
0.0
 10
57.18892956469583
 20
-17.71605902334876
 30
0.0
 10
57.18892956469583
 20
-17.71605902334876
 30
0.0
 10
56.93760984904685
 20
-17.71605902334876
 30
0.0
 10
56.93760984904685
 20
-17.71605902334876
 30
0.0
 10
56.93760984904685
 20
-17.71605902334876
 30
0.0
 10
56.93760984904685
 20
-17.59031303813714
 30
0.0
 10
56.93760984904685
 20
-17.59031303813714
 30
0.0
 10
56.93760984904685
 20
-17.59031303813714
 30
0.0
 10
55.50479463673144
 20
-17.59031303813714
 30
0.0
 10
55.50479463673144
 20
-17.59031303813714
 30
0.0
 10
55.50479463673144
 20
-17.59031303813714
 30
0.0
 10
55.50479463673144
 20
-17.75361056413799
 30
0.0
 10
55.50479463673144
 20
-17.75361056413799
 30
0.0
 10
55.50479463673144
 20
-17.75361056413799
 30
0.0
 10
55.25347492108246
 20
-17.75361056413799
 30
0.0
 10
55.25347492108246
 20
-17.75361056413799
 30
0.0
 10
55.25347492108246
 20
-17.75361056413799
 30
0.0
 10
55.25347492108246
 20
-16.58503417554124
 30
0.0
 10
55.25347492108246
 20
-16.58503417554124
 30
0.0
 10
55.16958684601664
 20
-16.63533256962589
 30
0.0
 10
55.04401311557928
 20
-16.68528645416201
 30
0.0
 10
54.87640922022187
 20
-16.73558484824666
 30
0.0
 10
54.87640922022187
 20
-16.73558484824666
 30
0.0
 10
54.73826089126335
 20
-16.49683973111885
 30
0.0
 10
54.73826089126335
 20
-16.49683973111885
 30
0.0
 10
55.16545273143434
 20
-16.37109374590723
 30
0.0
 10
55.53821206293836
 20
-16.16611056453486
 30
0.0
 10
55.85671114054971
 20
-15.8812011679047
 30
0.0
 10
55.85671114054971
 20
-15.8812011679047
 30
0.0
 10
54.82611082613722
 20
-15.8812011679047
 30
0.0
 10
54.82611082613722
 20
-15.8812011679047
 30
0.0
 10
54.82611082613722
 20
-15.8812011679047
 30
0.0
 10
54.82611082613722
 20
-15.64245605077689
 30
0.0
 10
54.82611082613722
 20
-15.64245605077689
 30
0.0
 10
54.82611082613722
 20
-15.64245605077689
 30
0.0
 10
55.50479463673144
 20
-15.64245605077689
 30
0.0
 10
55.50479463673144
 20
-15.64245605077689
 30
0.0
 10
55.42934704560447
 20
-15.53359103344299
 30
0.0
 10
55.36664630777292
 20
-15.4495307036029
 30
0.0
 10
55.31634791368828
 20
-15.39096408035365
 30
0.0
 10
55.31634791368828
 20
-15.39096408035365
 30
0.0
 10
55.52994383377376
 20
-15.30311414547978
 30
0.0
 10
55.52994383377376
 20
-15.30311414547978
 30
0.0
 10
55.60539142490074
 20
-15.37029350744215
 30
0.0
 10
55.67636039189689
 20
-15.45814344231602
 30
0.0
 10
55.74353975385926
 20
-15.56700845964992
 30
0.0
 10
55.74353975385926
 20
-15.56700845964992
 30
0.0
 10
55.56766762933725
 20
-15.64245605077689
 30
0.0
 10
55.56766762933725
 20
-15.64245605077689
 30
0.0
 10
55.56766762933725
 20
-15.64245605077689
 30
0.0
 10
56.0703070606352
 20
-15.64245605077689
 30
0.0
 10
56.0703070606352
 20
-15.64245605077689
 30
0.0
 10
56.0703070606352
 20
-15.64245605077689
 30
0.0
 10
56.0703070606352
 20
-15.22766655435281
 30
0.0
 10
56.0703070606352
 20
-15.22766655435281
 30
0.0
 10
56.0703070606352
 20
-15.22766655435281
 30
0.0
 10
55.05245359951814
 20
-15.25281575139513
 30
0.0
 10
55.05245359951814
 20
-15.25281575139513
 30
0.0
 10
55.05245359951814
 20
-15.25281575139513
 30
0.0
 10
54.97700600839116
 20
-15.05162217505654
 30
0.0
 10
54.97700600839116
 20
-15.05162217505654
 30
0.0
 10
55.93215873167669
 20
-15.03508571672734
 30
0.0
 10
56.64839408306013
 20
-14.98478732264269
 30
0.0
 10
57.12605657209001
 20
-14.9007269928026
 30
0.0
 10
57.12605657209001
 20
-14.9007269928026
 30
0.0
 10
57.25180255730164
 20
-15.11432291288809
 30
0.0
 10
57.25180255730164
 20
-15.11432291288809
 30
0.0
 10
57.26833901563084
 20
-15.15635307780813
 30
0.0
 10
57.23922795878048
 20
-15.16462130697273
 30
0.0
 10
57.1637803676535
 20
-15.13947210993041
 30
0.0
 10
57.1637803676535
 20
-15.13947210993041
 30
0.0
 10
56.32179903105844
 20
-15.20251735731048
 30
0.0
 10
56.32179903105844
 20
-15.20251735731048
 30
0.0
 10
56.32179903105844
 20
-15.20251735731048
 30
0.0
 10
56.32179903105844
 20
-15.64245605077689
 30
0.0
 10
56.32179903105844
 20
-15.64245605077689
 30
0.0
 10
56.32179903105844
 20
-15.64245605077689
 30
0.0
 10
56.56054414818625
 20
-15.64245605077689
 30
0.0
 10
56.56054414818625
 20
-15.64245605077689
 30
0.0
 10
56.56054414818625
 20
-15.64245605077689
 30
0.0
 10
56.82443846235639
 20
-15.20251735731048
 30
0.0
 10
56.82443846235639
 20
-15.20251735731048
 30
0.0
 10
56.82443846235639
 20
-15.20251735731048
 30
0.0
 10
57.05060898096305
 20
-15.3282633425221
 30
0.0
 10
57.05060898096305
 20
-15.3282633425221
 30
0.0
 10
57.09246689110883
 20
-15.37029350744215
 30
0.0
 10
57.07989229258767
 20
-15.38682996577135
 30
0.0
 10
57.01288518539956
 20
-15.37856173660675
 30
0.0
 10
57.01288518539956
 20
-15.37856173660675
 30
0.0
 10
56.81186386383523
 20
-15.64245605077689
 30
0.0
 10
56.81186386383523
 20
-15.64245605077689
 30
0.0
 10
56.81186386383523
 20
-15.64245605077689
 30
0.0
 10
57.56599526555642
 20
-15.64245605077689
 30
0.0
 10
57.56599526555642
 20
-15.64245605077689
 30
0.0
 10
57.56599526555642
 20
-15.64245605077689
 30
0.0
 10
57.56599526555642
 20
-15.8812011679047
 30
0.0
 10
57.56599526555642
 20
-15.8812011679047
 30
0.0
 10
57.56599526555642
 20
-15.8812011679047
 30
0.0
 10
56.57311874670742
 20
-15.8812011679047
 30
0.0
 10
56.57311874670742
 20
-15.8812011679047
 30
0.0
 10
56.57311874670742
 20
-15.8812011679047
 30
0.0
 10
56.57311874670742
 20
-15.8812011679047
 30
0.0
 10
56.57311874670742
 20
-15.8812011679047
 30
0.0
  0
SPLINE
  5
109
330
104
100
AcDbEntity
  8
フォーマット
370
     0
100
AcDbSpline
210
0.0
220
0.0
230
1.0
 70
    11
 71
     3
 72
    23
 73
    19
 74
     0
 42
0.000000001
 43
0.0000000001
 40
0.0
 40
0.0
 40
0.0
 40
0.0
 40
1.0
 40
1.0
 40
1.0
 40
2.0
 40
2.0
 40
2.0
 40
3.0
 40
3.0
 40
3.0
 40
4.0
 40
4.0
 40
4.0
 40
5.0
 40
5.0
 40
5.0
 40
6.0
 40
6.0
 40
6.0
 40
6.0
 10
57.03803438244189
 20
-16.48443738737195
 30
0.0
 10
56.81186386383523
 20
-16.39210882836725
 30
0.0
 10
56.57311874670742
 20
-16.22881130236641
 30
0.0
 10
56.32179903105844
 20
-15.99420029982089
 30
0.0
 10
56.32179903105844
 20
-15.99420029982089
 30
0.0
 10
56.32179903105844
 20
-16.42139213999187
 30
0.0
 10
56.32179903105844
 20
-16.42139213999187
 30
0.0
 10
56.32179903105844
 20
-16.42139213999187
 30
0.0
 10
56.0703070606352
 20
-16.42139213999187
 30
0.0
 10
56.0703070606352
 20
-16.42139213999187
 30
0.0
 10
56.0703070606352
 20
-16.42139213999187
 30
0.0
 10
56.0703070606352
 20
-15.99420029982089
 30
0.0
 10
56.0703070606352
 20
-15.99420029982089
 30
0.0
 10
55.86928573907088
 20
-16.21227484403721
 30
0.0
 10
55.65138344962882
 20
-16.37557237003805
 30
0.0
 10
55.41677244708331
 20
-16.48443738737195
 30
0.0
 10
55.41677244708331
 20
-16.48443738737195
 30
0.0
 10
57.03803438244189
 20
-16.48443738737195
 30
0.0
 10
57.03803438244189
 20
-16.48443738737195
 30
0.0
  0
POLYLINE
  5
10A
330
104
100
AcDbEntity
  8
フォーマット
370
     0
100
AcDb2dPolyline
 66
     1
 10
0.0
 20
0.0
 30
0.0
  0
VERTEX
  5
10B
330
10A
100
AcDbEntity
  8
フォーマット
370
     0
100
AcDbVertex
100
AcDb2dVertex
 10
56.0703070606352
 20
-16.93677842458525
 30
0.0
  0
VERTEX
  5
10C
330
10A
100
AcDbEntity
  8
フォーマット
370
     0
100
AcDbVertex
100
AcDb2dVertex
 10
56.0703070606352
 20
-16.68528645416201
 30
0.0
  0
VERTEX
  5
10D
330
10A
100
AcDbEntity
  8
フォーマット
370
     0
100
AcDbVertex
100
AcDb2dVertex
 10
55.50479463673144
 20
-16.68528645416201
 30
0.0
  0
VERTEX
  5
10E
330
10A
100
AcDbEntity
  8
フォーマット
370
     0
100
AcDbVertex
100
AcDb2dVertex
 10
55.50479463673144
 20
-16.93677842458525
 30
0.0
  0
VERTEX
  5
10F
330
10A
100
AcDbEntity
  8
フォーマット
370
     0
100
AcDbVertex
100
AcDb2dVertex
 10
56.0703070606352
 20
-16.93677842458525
 30
0.0
  0
SEQEND
  5
110
330
10A
100
AcDbEntity
  8
フォーマット
370
     0
  0
POLYLINE
  5
111
330
104
100
AcDbEntity
  8
フォーマット
370
     0
100
AcDb2dPolyline
 66
     1
 10
0.0
 20
0.0
 30
0.0
  0
VERTEX
  5
112
330
111
100
AcDbEntity
  8
フォーマット
370
     0
100
AcDbVertex
100
AcDb2dVertex
 10
56.0703070606352
 20
-17.13797200092384
 30
0.0
  0
VERTEX
  5
113
330
111
100
AcDbEntity
  8
フォーマット
370
     0
100
AcDbVertex
100
AcDb2dVertex
 10
55.50479463673144
 20
-17.13797200092384
 30
0.0
  0
VERTEX
  5
114
330
111
100
AcDbEntity
  8
フォーマット
370
     0
100
AcDbVertex
100
AcDb2dVertex
 10
55.50479463673144
 20
-17.38911946179855
 30
0.0
  0
VERTEX
  5
115
330
111
100
AcDbEntity
  8
フォーマット
370
     0
100
AcDbVertex
100
AcDb2dVertex
 10
56.0703070606352
 20
-17.38911946179855
 30
0.0
  0
VERTEX
  5
116
330
111
100
AcDbEntity
  8
フォーマット
370
     0
100
AcDbVertex
100
AcDb2dVertex
 10
56.0703070606352
 20
-17.13797200092384
 30
0.0
  0
SEQEND
  5
117
330
111
100
AcDbEntity
  8
フォーマット
370
     0
  0
POLYLINE
  5
118
330
104
100
AcDbEntity
  8
フォーマット
370
     0
100
AcDb2dPolyline
 66
     1
 10
0.0
 20
0.0
 30
0.0
  0
VERTEX
  5
119
330
118
100
AcDbEntity
  8
フォーマット
370
     0
100
AcDbVertex
100
AcDb2dVertex
 10
56.93760984904685
 20
-16.93677842458525
 30
0.0
  0
VERTEX
  5
11A
330
118
100
AcDbEntity
  8
フォーマット
370
     0
100
AcDbVertex
100
AcDb2dVertex
 10
56.93760984904685
 20
-16.68528645416201
 30
0.0
  0
VERTEX
  5
11B
330
118
100
AcDbEntity
  8
フォーマット
370
     0
100
AcDbVertex
100
AcDb2dVertex
 10
56.32179903105844
 20
-16.68528645416201
 30
0.0
  0
VERTEX
  5
11C
330
118
100
AcDbEntity
  8
フォーマット
370
     0
100
AcDbVertex
100
AcDb2dVertex
 10
56.32179903105844
 20
-16.93677842458525
 30
0.0
  0
VERTEX
  5
11D
330
118
100
AcDbEntity
  8
フォーマット
370
     0
100
AcDbVertex
100
AcDb2dVertex
 10
56.93760984904685
 20
-16.93677842458525
 30
0.0
  0
SEQEND
  5
11E
330
118
100
AcDbEntity
  8
フォーマット
370
     0
  0
POLYLINE
  5
11F
330
104
100
AcDbEntity
  8
フォーマット
370
     0
100
AcDb2dPolyline
 66
     1
 10
0.0
 20
0.0
 30
0.0
  0
VERTEX
  5
120
330
11F
100
AcDbEntity
  8
フォーマット
370
     0
100
AcDbVertex
100
AcDb2dVertex
 10
56.93760984904685
 20
-17.38911946179855
 30
0.0
  0
VERTEX
  5
121
330
11F
100
AcDbEntity
  8
フォーマット
370
     0
100
AcDbVertex
100
AcDb2dVertex
 10
56.93760984904685
 20
-17.13797200092384
 30
0.0
  0
VERTEX
  5
122
330
11F
100
AcDbEntity
  8
フォーマット
370
     0
100
AcDbVertex
100
AcDb2dVertex
 10
56.32179903105844
 20
-17.13797200092384
 30
0.0
  0
VERTEX
  5
123
330
11F
100
AcDbEntity
  8
フォーマット
370
     0
100
AcDbVertex
100
AcDb2dVertex
 10
56.32179903105844
 20
-17.38911946179855
 30
0.0
  0
VERTEX
  5
124
330
11F
100
AcDbEntity
  8
フォーマット
370
     0
100
AcDbVertex
100
AcDb2dVertex
 10
56.93760984904685
 20
-17.38911946179855
 30
0.0
  0
SEQEND
  5
125
330
11F
100
AcDbEntity
  8
フォーマット
370
     0
  0
HATCH
  5
126
330
104
100
AcDbEntity
  8
フォーマット
 62
     7
100
AcDbHatch
 10
0.0
 20
0.0
 30
0.0
210
0.0
220
0.0
230
1.0
  2
SOLID
 70
     1
 71
     0
 91
        6
 92
        1
 93
        1
 72
     4
 94
        3
 73
     0
 74
     1
 95
      119
 96
      115
 40
0.0
 40
0.0
 40
0.0
 40
0.0
 40
1.0
 40
1.0
 40
1.0
 40
2.0
 40
2.0
 40
2.0
 40
3.0
 40
3.0
 40
3.0
 40
4.0
 40
4.0
 40
4.0
 40
5.0
 40
5.0
 40
5.0
 40
6.0
 40
6.0
 40
6.0
 40
7.0
 40
7.0
 40
7.0
 40
8.0
 40
8.0
 40
8.0
 40
9.0
 40
9.0
 40
9.0
 40
10.0
 40
10.0
 40
10.0
 40
11.0
 40
11.0
 40
11.0
 40
12.0
 40
12.0
 40
12.0
 40
13.0
 40
13.0
 40
13.0
 40
14.0
 40
14.0
 40
14.0
 40
15.0
 40
15.0
 40
15.0
 40
16.0
 40
16.0
 40
16.0
 40
17.0
 40
17.0
 40
17.0
 40
18.0
 40
18.0
 40
18.0
 40
19.0
 40
19.0
 40
19.0
 40
20.0
 40
20.0
 40
20.0
 40
21.0
 40
21.0
 40
21.0
 40
22.0
 40
22.0
 40
22.0
 40
23.0
 40
23.0
 40
23.0
 40
24.0
 40
24.0
 40
24.0
 40
25.0
 40
25.0
 40
25.0
 40
26.0
 40
26.0
 40
26.0
 40
27.0
 40
27.0
 40
27.0
 40
28.0
 40
28.0
 40
28.0
 40
29.0
 40
29.0
 40
29.0
 40
30.0
 40
30.0
 40
30.0
 40
31.0
 40
31.0
 40
31.0
 40
32.0
 40
32.0
 40
32.0
 40
33.0
 40
33.0
 40
33.0
 40
34.0
 40
34.0
 40
34.0
 40
35.0
 40
35.0
 40
35.0
 40
36.0
 40
36.0
 40
36.0
 40
37.0
 40
37.0
 40
37.0
 40
38.0
 40
38.0
 40
38.0
 40
38.0
 10
56.57311874670742
 20
-15.8812011679047
 10
56.82443846235639
 20
-16.09893120257249
 10
57.17635496617466
 20
-16.27497558186876
 10
57.62869600338797
 20
-16.40898979624497
 10
57.62869600338797
 20
-16.40898979624497
 10
57.5408460685141
 20
-16.69803330745744
 10
57.5408460685141
 20
-16.69803330745744
 10
57.37306991838243
 20
-16.64773491337279
 10
57.25576441710967
 20
-16.59743651928814
 10
57.18892956469583
 20
-16.54713812520349
 10
57.18892956469583
 20
-16.54713812520349
 10
57.18892956469583
 20
-17.71605902334876
 10
57.18892956469583
 20
-17.71605902334876
 10
57.18892956469583
 20
-17.71605902334876
 10
56.93760984904685
 20
-17.71605902334876
 10
56.93760984904685
 20
-17.71605902334876
 10
56.93760984904685
 20
-17.71605902334876
 10
56.93760984904685
 20
-17.59031303813714
 10
56.93760984904685
 20
-17.59031303813714
 10
56.93760984904685
 20
-17.59031303813714
 10
55.50479463673144
 20
-17.59031303813714
 10
55.50479463673144
 20
-17.59031303813714
 10
55.50479463673144
 20
-17.59031303813714
 10
55.50479463673144
 20
-17.75361056413799
 10
55.50479463673144
 20
-17.75361056413799
 10
55.50479463673144
 20
-17.75361056413799
 10
55.25347492108246
 20
-17.75361056413799
 10
55.25347492108246
 20
-17.75361056413799
 10
55.25347492108246
 20
-17.75361056413799
 10
55.25347492108246
 20
-16.58503417554124
 10
55.25347492108246
 20
-16.58503417554124
 10
55.16958684601664
 20
-16.63533256962589
 10
55.04401311557928
 20
-16.68528645416201
 10
54.87640922022187
 20
-16.73558484824666
 10
54.87640922022187
 20
-16.73558484824666
 10
54.73826089126335
 20
-16.49683973111885
 10
54.73826089126335
 20
-16.49683973111885
 10
55.16545273143434
 20
-16.37109374590723
 10
55.53821206293836
 20
-16.16611056453486
 10
55.85671114054971
 20
-15.8812011679047
 10
55.85671114054971
 20
-15.8812011679047
 10
54.82611082613722
 20
-15.8812011679047
 10
54.82611082613722
 20
-15.8812011679047
 10
54.82611082613722
 20
-15.8812011679047
 10
54.82611082613722
 20
-15.64245605077689
 10
54.82611082613722
 20
-15.64245605077689
 10
54.82611082613722
 20
-15.64245605077689
 10
55.50479463673144
 20
-15.64245605077689
 10
55.50479463673144
 20
-15.64245605077689
 10
55.42934704560447
 20
-15.53359103344299
 10
55.36664630777292
 20
-15.4495307036029
 10
55.31634791368828
 20
-15.39096408035365
 10
55.31634791368828
 20
-15.39096408035365
 10
55.52994383377376
 20
-15.30311414547978
 10
55.52994383377376
 20
-15.30311414547978
 10
55.60539142490074
 20
-15.37029350744215
 10
55.67636039189689
 20
-15.45814344231602
 10
55.74353975385926
 20
-15.56700845964992
 10
55.74353975385926
 20
-15.56700845964992
 10
55.56766762933725
 20
-15.64245605077689
 10
55.56766762933725
 20
-15.64245605077689
 10
55.56766762933725
 20
-15.64245605077689
 10
56.0703070606352
 20
-15.64245605077689
 10
56.0703070606352
 20
-15.64245605077689
 10
56.0703070606352
 20
-15.64245605077689
 10
56.0703070606352
 20
-15.22766655435281
 10
56.0703070606352
 20
-15.22766655435281
 10
56.0703070606352
 20
-15.22766655435281
 10
55.05245359951814
 20
-15.25281575139513
 10
55.05245359951814
 20
-15.25281575139513
 10
55.05245359951814
 20
-15.25281575139513
 10
54.97700600839116
 20
-15.05162217505654
 10
54.97700600839116
 20
-15.05162217505654
 10
55.93215873167669
 20
-15.03508571672734
 10
56.64839408306013
 20
-14.98478732264269
 10
57.12605657209001
 20
-14.9007269928026
 10
57.12605657209001
 20
-14.9007269928026
 10
57.25180255730164
 20
-15.11432291288809
 10
57.25180255730164
 20
-15.11432291288809
 10
57.26833901563084
 20
-15.15635307780813
 10
57.23922795878048
 20
-15.16462130697273
 10
57.1637803676535
 20
-15.13947210993041
 10
57.1637803676535
 20
-15.13947210993041
 10
56.32179903105844
 20
-15.20251735731048
 10
56.32179903105844
 20
-15.20251735731048
 10
56.32179903105844
 20
-15.20251735731048
 10
56.32179903105844
 20
-15.64245605077689
 10
56.32179903105844
 20
-15.64245605077689
 10
56.32179903105844
 20
-15.64245605077689
 10
56.56054414818625
 20
-15.64245605077689
 10
56.56054414818625
 20
-15.64245605077689
 10
56.56054414818625
 20
-15.64245605077689
 10
56.82443846235639
 20
-15.20251735731048
 10
56.82443846235639
 20
-15.20251735731048
 10
56.82443846235639
 20
-15.20251735731048
 10
57.05060898096305
 20
-15.3282633425221
 10
57.05060898096305
 20
-15.3282633425221
 10
57.09246689110883
 20
-15.37029350744215
 10
57.07989229258767
 20
-15.38682996577135
 10
57.01288518539956
 20
-15.37856173660675
 10
57.01288518539956
 20
-15.37856173660675
 10
56.81186386383523
 20
-15.64245605077689
 10
56.81186386383523
 20
-15.64245605077689
 10
56.81186386383523
 20
-15.64245605077689
 10
57.56599526555642
 20
-15.64245605077689
 10
57.56599526555642
 20
-15.64245605077689
 10
57.56599526555642
 20
-15.64245605077689
 10
57.56599526555642
 20
-15.8812011679047
 10
57.56599526555642
 20
-15.8812011679047
 10
57.56599526555642
 20
-15.8812011679047
 10
56.57311874670742
 20
-15.8812011679047
 10
56.57311874670742
 20
-15.8812011679047
 10
56.57311874670742
 20
-15.8812011679047
 10
56.57311874670742
 20
-15.8812011679047
 10
56.57311874670742
 20
-15.8812011679047
 97
        0
 97
        0
 92
        1
 93
        1
 72
     4
 94
        3
 73
     0
 74
     1
 95
       23
 96
       19
 40
0.0
 40
0.0
 40
0.0
 40
0.0
 40
1.0
 40
1.0
 40
1.0
 40
2.0
 40
2.0
 40
2.0
 40
3.0
 40
3.0
 40
3.0
 40
4.0
 40
4.0
 40
4.0
 40
5.0
 40
5.0
 40
5.0
 40
6.0
 40
6.0
 40
6.0
 40
6.0
 10
57.03803438244189
 20
-16.48443738737195
 10
56.81186386383523
 20
-16.39210882836725
 10
56.57311874670742
 20
-16.22881130236641
 10
56.32179903105844
 20
-15.99420029982089
 10
56.32179903105844
 20
-15.99420029982089
 10
56.32179903105844
 20
-16.42139213999187
 10
56.32179903105844
 20
-16.42139213999187
 10
56.32179903105844
 20
-16.42139213999187
 10
56.0703070606352
 20
-16.42139213999187
 10
56.0703070606352
 20
-16.42139213999187
 10
56.0703070606352
 20
-16.42139213999187
 10
56.0703070606352
 20
-15.99420029982089
 10
56.0703070606352
 20
-15.99420029982089
 10
55.86928573907088
 20
-16.21227484403721
 10
55.65138344962882
 20
-16.37557237003805
 10
55.41677244708331
 20
-16.48443738737195
 10
55.41677244708331
 20
-16.48443738737195
 10
57.03803438244189
 20
-16.48443738737195
 10
57.03803438244189
 20
-16.48443738737195
 97
        0
 97
        0
 92
        1
 93
        4
 72
     1
 10
56.0703070606352
 20
-16.93677842458525
 11
56.0703070606352
 21
-16.68528645416201
 72
     1
 10
56.0703070606352
 20
-16.68528645416201
 11
55.50479463673144
 21
-16.68528645416201
 72
     1
 10
55.50479463673144
 20
-16.68528645416201
 11
55.50479463673144
 21
-16.93677842458525
 72
     1
 10
55.50479463673144
 20
-16.93677842458525
 11
56.0703070606352
 21
-16.93677842458525
 97
        0
 92
        1
 93
        4
 72
     1
 10
56.0703070606352
 20
-17.13797200092384
 11
55.50479463673144
 21
-17.13797200092384
 72
     1
 10
55.50479463673144
 20
-17.13797200092384
 11
55.50479463673144
 21
-17.38911946179855
 72
     1
 10
55.50479463673144
 20
-17.38911946179855
 11
56.0703070606352
 21
-17.38911946179855
 72
     1
 10
56.0703070606352
 20
-17.38911946179855
 11
56.0703070606352
 21
-17.13797200092384
 97
        0
 92
        1
 93
        4
 72
     1
 10
56.93760984904685
 20
-16.93677842458525
 11
56.93760984904685
 21
-16.68528645416201
 72
     1
 10
56.93760984904685
 20
-16.68528645416201
 11
56.32179903105844
 21
-16.68528645416201
 72
     1
 10
56.32179903105844
 20
-16.68528645416201
 11
56.32179903105844
 21
-16.93677842458525
 72
     1
 10
56.32179903105844
 20
-16.93677842458525
 11
56.93760984904685
 21
-16.93677842458525
 97
        0
 92
        1
 93
        4
 72
     1
 10
56.93760984904685
 20
-17.38911946179855
 11
56.93760984904685
 21
-17.13797200092384
 72
     1
 10
56.93760984904685
 20
-17.13797200092384
 11
56.32179903105844
 21
-17.13797200092384
 72
     1
 10
56.32179903105844
 20
-17.13797200092384
 11
56.32179903105844
 21
-17.38911946179855
 72
     1
 10
56.32179903105844
 20
-17.38911946179855
 11
56.93760984904685
 21
-17.38911946179855
 97
        0
 75
     2
 76
     1
 98
        0
  0
ENDBLK
  5
107
330
104
100
AcDbEntity
  8
0
100
AcDbBlockEnd
  0
BLOCK
  5
19C
330
19A
100
AcDbEntity
  8
0
100
AcDbBlockBegin
  2
block 19
 70
     0
 10
0.0
 20
0.0
 30
0.0
  3
block 19
  1

  0
INSERT
  5
19F
330
19A
100
AcDbEntity
  8
レイヤー 1
100
AcDbBlockReference
  2
block 20
 10
0.0
 20
0.0
 30
0.0
  0
INSERT
  5
1A7
330
19A
100
AcDbEntity
  8
レイヤー 1
100
AcDbBlockReference
  2
block 21
 10
0.0
 20
0.0
 30
0.0
  0
INSERT
  5
1AC
330
19A
100
AcDbEntity
  8
レイヤー 1
100
AcDbBlockReference
  2
block 22
 10
0.0
 20
0.0
 30
0.0
  0
INSERT
  5
1B4
330
19A
100
AcDbEntity
  8
レイヤー 1
100
AcDbBlockReference
  2
block 23
 10
0.0
 20
0.0
 30
0.0
  0
INSERT
  5
1B9
330
19A
100
AcDbEntity
  8
レイヤー 1
100
AcDbBlockReference
  2
block 24
 10
0.0
 20
0.0
 30
0.0
  0
INSERT
  5
1BE
330
19A
100
AcDbEntity
  8
レイヤー 1
100
AcDbBlockReference
  2
block 25
 10
0.0
 20
0.0
 30
0.0
  0
INSERT
  5
1C6
330
19A
100
AcDbEntity
  8
レイヤー 1
100
AcDbBlockReference
  2
block 26
 10
0.0
 20
0.0
 30
0.0
  0
INSERT
  5
1CE
330
19A
100
AcDbEntity
  8
レイヤー 1
100
AcDbBlockReference
  2
block 27
 10
0.0
 20
0.0
 30
0.0
  0
INSERT
  5
1D6
330
19A
100
AcDbEntity
  8
レイヤー 1
100
AcDbBlockReference
  2
block 28
 10
0.0
 20
0.0
 30
0.0
  0
INSERT
  5
1DE
330
19A
100
AcDbEntity
  8
レイヤー 1
100
AcDbBlockReference
  2
block 29
 10
0.0
 20
0.0
 30
0.0
  0
INSERT
  5
1E3
330
19A
100
AcDbEntity
  8
レイヤー 1
100
AcDbBlockReference
  2
block 30
 10
0.0
 20
0.0
 30
0.0
  0
INSERT
  5
1E8
330
19A
100
AcDbEntity
  8
レイヤー 1
100
AcDbBlockReference
  2
block 31
 10
0.0
 20
0.0
 30
0.0
  0
INSERT
  5
1ED
330
19A
100
AcDbEntity
  8
レイヤー 1
100
AcDbBlockReference
  2
block 32
 10
0.0
 20
0.0
 30
0.0
  0
INSERT
  5
1F2
330
19A
100
AcDbEntity
  8
レイヤー 1
100
AcDbBlockReference
  2
block 33
 10
0.0
 20
0.0
 30
0.0
  0
INSERT
  5
1F7
330
19A
100
AcDbEntity
  8
レイヤー 1
100
AcDbBlockReference
  2
block 34
 10
0.0
 20
0.0
 30
0.0
  0
INSERT
  5
1FF
330
19A
100
AcDbEntity
  8
レイヤー 1
100
AcDbBlockReference
  2
block 35
 10
0.0
 20
0.0
 30
0.0
  0
INSERT
  5
207
330
19A
100
AcDbEntity
  8
レイヤー 1
100
AcDbBlockReference
  2
block 36
 10
0.0
 20
0.0
 30
0.0
  0
INSERT
  5
20F
330
19A
100
AcDbEntity
  8
レイヤー 1
100
AcDbBlockReference
  2
block 37
 10
0.0
 20
0.0
 30
0.0
  0
INSERT
  5
217
330
19A
100
AcDbEntity
  8
レイヤー 1
100
AcDbBlockReference
  2
block 38
 10
0.0
 20
0.0
 30
0.0
  0
INSERT
  5
21F
330
19A
100
AcDbEntity
  8
レイヤー 1
100
AcDbBlockReference
  2
block 39
 10
0.0
 20
0.0
 30
0.0
  0
INSERT
  5
227
330
19A
100
AcDbEntity
  8
レイヤー 1
100
AcDbBlockReference
  2
block 40
 10
0.0
 20
0.0
 30
0.0
  0
INSERT
  5
22C
330
19A
100
AcDbEntity
  8
レイヤー 1
100
AcDbBlockReference
  2
block 41
 10
0.0
 20
0.0
 30
0.0
  0
INSERT
  5
231
330
19A
100
AcDbEntity
  8
レイヤー 1
100
AcDbBlockReference
  2
block 42
 10
0.0
 20
0.0
 30
0.0
  0
INSERT
  5
239
330
19A
100
AcDbEntity
  8
レイヤー 1
100
AcDbBlockReference
  2
block 43
 10
0.0
 20
0.0
 30
0.0
  0
INSERT
  5
241
330
19A
100
AcDbEntity
  8
レイヤー 1
100
AcDbBlockReference
  2
block 44
 10
0.0
 20
0.0
 30
0.0
  0
INSERT
  5
246
330
19A
100
AcDbEntity
  8
レイヤー 1
100
AcDbBlockReference
  2
block 45
 10
0.0
 20
0.0
 30
0.0
  0
INSERT
  5
24E
330
19A
100
AcDbEntity
  8
レイヤー 1
100
AcDbBlockReference
  2
block 46
 10
0.0
 20
0.0
 30
0.0
  0
INSERT
  5
256
330
19A
100
AcDbEntity
  8
レイヤー 1
100
AcDbBlockReference
  2
block 47
 10
0.0
 20
0.0
 30
0.0
  0
INSERT
  5
25E
330
19A
100
AcDbEntity
  8
レイヤー 1
100
AcDbBlockReference
  2
block 48
 10
0.0
 20
0.0
 30
0.0
  0
INSERT
  5
266
330
19A
100
AcDbEntity
  8
レイヤー 1
100
AcDbBlockReference
  2
block 49
 10
0.0
 20
0.0
 30
0.0
  0
INSERT
  5
26E
330
19A
100
AcDbEntity
  8
レイヤー 1
100
AcDbBlockReference
  2
block 50
 10
0.0
 20
0.0
 30
0.0
  0
INSERT
  5
273
330
19A
100
AcDbEntity
  8
レイヤー 1
100
AcDbBlockReference
  2
block 51
 10
0.0
 20
0.0
 30
0.0
  0
INSERT
  5
27B
330
19A
100
AcDbEntity
  8
レイヤー 1
100
AcDbBlockReference
  2
block 52
 10
0.0
 20
0.0
 30
0.0
  0
INSERT
  5
283
330
19A
100
AcDbEntity
  8
レイヤー 1
100
AcDbBlockReference
  2
block 53
 10
0.0
 20
0.0
 30
0.0
  0
INSERT
  5
288
330
19A
100
AcDbEntity
  8
レイヤー 1
100
AcDbBlockReference
  2
block 54
 10
0.0
 20
0.0
 30
0.0
  0
INSERT
  5
28D
330
19A
100
AcDbEntity
  8
レイヤー 1
100
AcDbBlockReference
  2
block 55
 10
0.0
 20
0.0
 30
0.0
  0
INSERT
  5
295
330
19A
100
AcDbEntity
  8
レイヤー 1
100
AcDbBlockReference
  2
block 56
 10
0.0
 20
0.0
 30
0.0
  0
INSERT
  5
29D
330
19A
100
AcDbEntity
  8
レイヤー 1
100
AcDbBlockReference
  2
block 57
 10
0.0
 20
0.0
 30
0.0
  0
INSERT
  5
2A6
330
19A
100
AcDbEntity
  8
レイヤー 1
100
AcDbBlockReference
  2
block 58
 10
0.0
 20
0.0
 30
0.0
  0
INSERT
  5
2AF
330
19A
100
AcDbEntity
  8
レイヤー 1
100
AcDbBlockReference
  2
block 59
 10
0.0
 20
0.0
 30
0.0
  0
INSERT
  5
2BA
330
19A
100
AcDbEntity
  8
レイヤー 1
100
AcDbBlockReference
  2
block 60
 10
0.0
 20
0.0
 30
0.0
  0
INSERT
  5
2C5
330
19A
100
AcDbEntity
  8
レイヤー 1
100
AcDbBlockReference
  2
block 61
 10
0.0
 20
0.0
 30
0.0
  0
INSERT
  5
2CA
330
19A
100
AcDbEntity
  8
レイヤー 1
100
AcDbBlockReference
  2
block 62
 10
0.0
 20
0.0
 30
0.0
  0
INSERT
  5
2D2
330
19A
100
AcDbEntity
  8
レイヤー 1
100
AcDbBlockReference
  2
block 63
 10
0.0
 20
0.0
 30
0.0
  0
INSERT
  5
2DA
330
19A
100
AcDbEntity
  8
レイヤー 1
100
AcDbBlockReference
  2
block 64
 10
0.0
 20
0.0
 30
0.0
  0
INSERT
  5
2F5
330
19A
100
AcDbEntity
  8
レイヤー 1
100
AcDbBlockReference
  2
block 65
 10
0.0
 20
0.0
 30
0.0
  0
INSERT
  5
2FD
330
19A
100
AcDbEntity
  8
レイヤー 1
100
AcDbBlockReference
  2
block 66
 10
0.0
 20
0.0
 30
0.0
  0
INSERT
  5
318
330
19A
100
AcDbEntity
  8
レイヤー 1
100
AcDbBlockReference
  2
block 67
 10
0.0
 20
0.0
 30
0.0
  0
INSERT
  5
320
330
19A
100
AcDbEntity
  8
レイヤー 1
100
AcDbBlockReference
  2
block 68
 10
0.0
 20
0.0
 30
0.0
  0
INSERT
  5
344
330
19A
100
AcDbEntity
  8
レイヤー 1
100
AcDbBlockReference
  2
block 69
 10
0.0
 20
0.0
 30
0.0
  0
INSERT
  5
362
330
19A
100
AcDbEntity
  8
レイヤー 1
100
AcDbBlockReference
  2
block 70
 10
0.0
 20
0.0
 30
0.0
  0
INSERT
  5
380
330
19A
100
AcDbEntity
  8
レイヤー 1
100
AcDbBlockReference
  2
block 71
 10
0.0
 20
0.0
 30
0.0
  0
INSERT
  5
393
330
19A
100
AcDbEntity
  8
レイヤー 1
100
AcDbBlockReference
  2
block 72
 10
0.0
 20
0.0
 30
0.0
  0
INSERT
  5
39E
330
19A
100
AcDbEntity
  8
レイヤー 1
100
AcDbBlockReference
  2
block 73
 10
0.0
 20
0.0
 30
0.0
  0
INSERT
  5
3A6
330
19A
100
AcDbEntity
  8
レイヤー 1
100
AcDbBlockReference
  2
block 74
 10
0.0
 20
0.0
 30
0.0
  0
INSERT
  5
3AE
330
19A
100
AcDbEntity
  8
レイヤー 1
100
AcDbBlockReference
  2
block 75
 10
0.0
 20
0.0
 30
0.0
  0
INSERT
  5
3B6
330
19A
100
AcDbEntity
  8
レイヤー 1
100
AcDbBlockReference
  2
block 76
 10
0.0
 20
0.0
 30
0.0
  0
INSERT
  5
3C9
330
19A
100
AcDbEntity
  8
レイヤー 1
100
AcDbBlockReference
  2
block 77
 10
0.0
 20
0.0
 30
0.0
  0
INSERT
  5
3CE
330
19A
100
AcDbEntity
  8
レイヤー 1
100
AcDbBlockReference
  2
block 78
 10
0.0
 20
0.0
 30
0.0
  0
INSERT
  5
3D6
330
19A
100
AcDbEntity
  8
レイヤー 1
100
AcDbBlockReference
  2
block 79
 10
0.0
 20
0.0
 30
0.0
  0
INSERT
  5
3DB
330
19A
100
AcDbEntity
  8
レイヤー 1
100
AcDbBlockReference
  2
block 80
 10
0.0
 20
0.0
 30
0.0
  0
INSERT
  5
3EC
330
19A
100
AcDbEntity
  8
レイヤー 1
100
AcDbBlockReference
  2
block 81
 10
0.0
 20
0.0
 30
0.0
  0
INSERT
  5
3F4
330
19A
100
AcDbEntity
  8
レイヤー 1
100
AcDbBlockReference
  2
block 82
 10
0.0
 20
0.0
 30
0.0
  0
INSERT
  5
3F9
330
19A
100
AcDbEntity
  8
レイヤー 1
100
AcDbBlockReference
  2
block 83
 10
0.0
 20
0.0
 30
0.0
  0
INSERT
  5
401
330
19A
100
AcDbEntity
  8
レイヤー 1
100
AcDbBlockReference
  2
block 84
 10
0.0
 20
0.0
 30
0.0
  0
INSERT
  5
416
330
19A
100
AcDbEntity
  8
レイヤー 1
100
AcDbBlockReference
  2
block 85
 10
0.0
 20
0.0
 30
0.0
  0
INSERT
  5
45B
330
19A
100
AcDbEntity
  8
レイヤー 1
100
AcDbBlockReference
  2
block 89
 10
0.0
 20
0.0
 30
0.0
  0
INSERT
  5
472
330
19A
100
AcDbEntity
  8
レイヤー 1
100
AcDbBlockReference
  2
block 90
 10
0.0
 20
0.0
 30
0.0
  0
INSERT
  5
477
330
19A
100
AcDbEntity
  8
レイヤー 1
100
AcDbBlockReference
  2
block 91
 10
0.0
 20
0.0
 30
0.0
  0
INSERT
  5
47C
330
19A
100
AcDbEntity
  8
レイヤー 1
100
AcDbBlockReference
  2
block 92
 10
0.0
 20
0.0
 30
0.0
  0
INSERT
  5
481
330
19A
100
AcDbEntity
  8
レイヤー 1
100
AcDbBlockReference
  2
block 93
 10
0.0
 20
0.0
 30
0.0
  0
INSERT
  5
486
330
19A
100
AcDbEntity
  8
レイヤー 1
100
AcDbBlockReference
  2
block 94
 10
0.0
 20
0.0
 30
0.0
  0
INSERT
  5
48B
330
19A
100
AcDbEntity
  8
レイヤー 1
100
AcDbBlockReference
  2
block 95
 10
0.0
 20
0.0
 30
0.0
  0
INSERT
  5
490
330
19A
100
AcDbEntity
  8
レイヤー 1
100
AcDbBlockReference
  2
block 96
 10
0.0
 20
0.0
 30
0.0
  0
INSERT
  5
495
330
19A
100
AcDbEntity
  8
レイヤー 1
100
AcDbBlockReference
  2
block 97
 10
0.0
 20
0.0
 30
0.0
  0
INSERT
  5
49A
330
19A
100
AcDbEntity
  8
レイヤー 1
100
AcDbBlockReference
  2
block 98
 10
0.0
 20
0.0
 30
0.0
  0
INSERT
  5
49F
330
19A
100
AcDbEntity
  8
レイヤー 1
100
AcDbBlockReference
  2
block 99
 10
0.0
 20
0.0
 30
0.0
  0
INSERT
  5
4A4
330
19A
100
AcDbEntity
  8
レイヤー 1
100
AcDbBlockReference
  2
block 100
 10
0.0
 20
0.0
 30
0.0
  0
INSERT
  5
4A9
330
19A
100
AcDbEntity
  8
レイヤー 1
100
AcDbBlockReference
  2
block 101
 10
0.0
 20
0.0
 30
0.0
  0
INSERT
  5
4AE
330
19A
100
AcDbEntity
  8
レイヤー 1
100
AcDbBlockReference
  2
block 102
 10
0.0
 20
0.0
 30
0.0
  0
INSERT
  5
4C0
330
19A
100
AcDbEntity
  8
レイヤー 1
100
AcDbBlockReference
  2
block 103
 10
0.0
 20
0.0
 30
0.0
  0
INSERT
  5
4C8
330
19A
100
AcDbEntity
  8
レイヤー 1
100
AcDbBlockReference
  2
block 104
 10
0.0
 20
0.0
 30
0.0
  0
INSERT
  5
4D0
330
19A
100
AcDbEntity
  8
レイヤー 1
100
AcDbBlockReference
  2
block 105
 10
0.0
 20
0.0
 30
0.0
  0
INSERT
  5
4D8
330
19A
100
AcDbEntity
  8
レイヤー 1
100
AcDbBlockReference
  2
block 106
 10
0.0
 20
0.0
 30
0.0
  0
INSERT
  5
4E0
330
19A
100
AcDbEntity
  8
レイヤー 1
100
AcDbBlockReference
  2
block 107
 10
0.0
 20
0.0
 30
0.0
  0
INSERT
  5
4E8
330
19A
100
AcDbEntity
  8
レイヤー 1
100
AcDbBlockReference
  2
block 108
 10
0.0
 20
0.0
 30
0.0
  0
INSERT
  5
4F0
330
19A
100
AcDbEntity
  8
レイヤー 1
100
AcDbBlockReference
  2
block 109
 10
0.0
 20
0.0
 30
0.0
  0
INSERT
  5
4F8
330
19A
100
AcDbEntity
  8
レイヤー 1
100
AcDbBlockReference
  2
block 110
 10
0.0
 20
0.0
 30
0.0
  0
INSERT
  5
50F
330
19A
100
AcDbEntity
  8
レイヤー 1
100
AcDbBlockReference
  2
block 111
 10
0.0
 20
0.0
 30
0.0
  0
INSERT
  5
51F
330
19A
100
AcDbEntity
  8
レイヤー 1
100
AcDbBlockReference
  2
block 112
 10
0.0
 20
0.0
 30
0.0
  0
INSERT
  5
528
330
19A
100
AcDbEntity
  8
レイヤー 1
100
AcDbBlockReference
  2
block 113
 10
0.0
 20
0.0
 30
0.0
  0
INSERT
  5
530
330
19A
100
AcDbEntity
  8
レイヤー 1
100
AcDbBlockReference
  2
block 114
 10
0.0
 20
0.0
 30
0.0
  0
INSERT
  5
538
330
19A
100
AcDbEntity
  8
レイヤー 1
100
AcDbBlockReference
  2
block 115
 10
0.0
 20
0.0
 30
0.0
  0
INSERT
  5
54A
330
19A
100
AcDbEntity
  8
レイヤー 1
100
AcDbBlockReference
  2
block 116
 10
0.0
 20
0.0
 30
0.0
  0
INSERT
  5
55A
330
19A
100
AcDbEntity
  8
レイヤー 1
100
AcDbBlockReference
  2
block 117
 10
0.0
 20
0.0
 30
0.0
  0
POLYLINE
  5
562
330
19A
100
AcDbEntity
  8
レイヤー 1
 62
     7
370
    18
100
AcDb2dPolyline
 66
     1
 10
0.0
 20
0.0
 30
0.0
  0
VERTEX
  5
563
330
562
100
AcDbEntity
  8
レイヤー 1
 62
     7
370
    18
100
AcDbVertex
100
AcDb2dVertex
 10
148.387152740681
 20
193.1356702533654
 30
0.0
  0
VERTEX
  5
564
330
562
100
AcDbEntity
  8
レイヤー 1
 62
     7
370
    18
100
AcDbVertex
100
AcDb2dVertex
 10
148.387152740681
 20
193.498955572285
 30
0.0
  0
SEQEND
  5
565
330
562
100
AcDbEntity
  8
レイヤー 1
370
    18
  0
ENDBLK
  5
19D
330
19A
100
AcDbEntity
  8
0
100
AcDbBlockEnd
  0
BLOCK
  5
1A0
330
19E
100
AcDbEntity
  8
0
100
AcDbBlockBegin
  2
block 20
 70
     0
 10
0.0
 20
0.0
 30
0.0
  3
block 20
  1

  0
POLYLINE
  5
1A2
330
19E
100
AcDbEntity
  8
レイヤー 1
 62
     7
370
    18
100
AcDb2dPolyline
 66
     1
 10
0.0
 20
0.0
 30
0.0
  0
VERTEX
  5
1A3
330
1A2
100
AcDbEntity
  8
レイヤー 1
 62
     7
370
    18
100
AcDbVertex
100
AcDb2dVertex
 10
138.2837212110888
 20
197.0258720753095
 30
0.0
  0
VERTEX
  5
1A4
330
1A2
100
AcDbEntity
  8
レイヤー 1
 62
     7
370
    18
100
AcDbVertex
100
AcDb2dVertex
 10
147.3143500065742
 20
194.6885470433418
 30
0.0
  0
SEQEND
  5
1A5
330
1A2
100
AcDbEntity
  8
レイヤー 1
370
    18
  0
ENDBLK
  5
1A1
330
19E
100
AcDbEntity
  8
0
100
AcDbBlockEnd
  0
BLOCK
  5
1A8
330
1A6
100
AcDbEntity
  8
0
100
AcDbBlockBegin
  2
block 21
 70
     0
 10
0.0
 20
0.0
 30
0.0
  3
block 21
  1

  0
SPLINE
  5
1AA
330
1A6
100
AcDbEntity
  8
レイヤー 1
 62
     7
370
    18
100
AcDbSpline
210
0.0
220
0.0
230
1.0
 70
     8
 71
     3
 72
    26
 73
    22
 74
     0
 42
0.000000001
 43
0.0000000001
 40
0.0
 40
0.0
 40
0.0
 40
0.0
 40
1.0
 40
1.0
 40
1.0
 40
2.0
 40
2.0
 40
2.0
 40
3.0
 40
3.0
 40
3.0
 40
4.0
 40
4.0
 40
4.0
 40
5.0
 40
5.0
 40
5.0
 40
6.0
 40
6.0
 40
6.0
 40
7.0
 40
7.0
 40
7.0
 40
7.0
 10
147.3143500065742
 20
194.6885470433418
 30
0.0
 10
147.3715385916293
 20
194.674938916175
 30
0.0
 10
147.4287271766845
 20
194.661158534234
 30
0.0
 10
147.4872937999338
 20
194.6492729548099
 30
0.0
 10
147.5923692122338
 20
194.6277411080271
 30
0.0
 10
147.7022677582133
 20
194.6113769044722
 30
0.0
 10
147.8163004187751
 20
194.5989745607253
 30
0.0
 10
147.9334336652736
 20
194.5858831978813
 30
0.0
 10
148.0543565168059
 20
194.5769259496197
 30
0.0
 10
148.1766574065322
 20
194.5721028159403
 30
0.0
 10
148.2941351625792
 20
194.567279682261
 30
0.0
 10
148.4126464472718
 20
194.5665906631639
 30
0.0
 10
148.5304687128674
 20
194.5698635038749
 30
0.0
 10
148.6482909784629
 20
194.5731363445859
 30
0.0
 10
148.7643906963158
 20
194.5800265355564
 30
0.0
 10
148.8780788473291
 20
194.5905340767864
 30
0.0
 10
148.9948675842791
 20
194.601386127565
 30
0.0
 10
149.1085557352923
 20
194.6160277833773
 30
0.0
 10
149.2167317335291
 20
194.6360093371917
 30
0.0
 10
149.3001030442722
 20
194.6513400121011
 30
0.0
 10
149.38002925953
 20
194.6701157824957
 30
0.0
 10
149.4599554747878
 20
194.6885470433418
 30
0.0
  0
ENDBLK
  5
1A9
330
1A6
100
AcDbEntity
  8
0
100
AcDbBlockEnd
  0
BLOCK
  5
1AD
330
1AB
100
AcDbEntity
  8
0
100
AcDbBlockBegin
  2
block 22
 70
     0
 10
0.0
 20
0.0
 30
0.0
  3
block 22
  1

  0
POLYLINE
  5
1AF
330
1AB
100
AcDbEntity
  8
レイヤー 1
 62
     7
370
    18
100
AcDb2dPolyline
 66
     1
 10
0.0
 20
0.0
 30
0.0
  0
VERTEX
  5
1B0
330
1AF
100
AcDbEntity
  8
レイヤー 1
 62
     7
370
    18
100
AcDbVertex
100
AcDb2dVertex
 10
149.4599554747878
 20
194.6885470433418
 30
0.0
  0
VERTEX
  5
1B1
330
1AF
100
AcDbEntity
  8
レイヤー 1
 62
     7
370
    18
100
AcDbVertex
100
AcDb2dVertex
 10
158.4905842702732
 20
197.0258720753095
 30
0.0
  0
SEQEND
  5
1B2
330
1AF
100
AcDbEntity
  8
レイヤー 1
370
    18
  0
ENDBLK
  5
1AE
330
1AB
100
AcDbEntity
  8
0
100
AcDbBlockEnd
  0
BLOCK
  5
1B5
330
1B3
100
AcDbEntity
  8
0
100
AcDbBlockBegin
  2
block 23
 70
     0
 10
0.0
 20
0.0
 30
0.0
  3
block 23
  1

  0
SPLINE
  5
1B7
330
1B3
100
AcDbEntity
  8
レイヤー 1
 62
     7
370
    18
100
AcDbSpline
210
0.0
220
0.0
230
1.0
 70
     8
 71
     3
 72
     8
 73
     4
 74
     0
 42
0.000000001
 43
0.0000000001
 40
0.0
 40
0.0
 40
0.0
 40
0.0
 40
1.0
 40
1.0
 40
1.0
 40
1.0
 10
159.6581271302244
 20
210.2186929812995
 30
0.0
 10
159.6581271302244
 20
211.2398192831276
 30
0.0
 10
158.9677299949803
 20
212.1317545042587
 30
0.0
 10
157.9789875907136
 20
212.3875528440385
 30
0.0
  0
ENDBLK
  5
1B6
330
1B3
100
AcDbEntity
  8
0
100
AcDbBlockEnd
  0
BLOCK
  5
1BA
330
1B8
100
AcDbEntity
  8
0
100
AcDbBlockBegin
  2
block 24
 70
     0
 10
0.0
 20
0.0
 30
0.0
  3
block 24
  1

  0
SPLINE
  5
1BC
330
1B8
100
AcDbEntity
  8
レイヤー 1
 62
     7
370
    18
100
AcDbSpline
210
0.0
220
0.0
230
1.0
 70
     8
 71
     3
 72
     8
 73
     4
 74
     0
 42
0.000000001
 43
0.0000000001
 40
0.0
 40
0.0
 40
0.0
 40
0.0
 40
1.0
 40
1.0
 40
1.0
 40
1.0
 10
138.7953178906484
 20
212.3875528440385
 30
0.0
 10
137.8065754863817
 20
212.1317545042587
 30
0.0
 10
137.1161783511376
 20
211.2398192831276
 30
0.0
 10
137.1161783511376
 20
210.2186929812995
 30
0.0
  0
ENDBLK
  5
1BB
330
1B8
100
AcDbEntity
  8
0
100
AcDbBlockEnd
  0
BLOCK
  5
1BF
330
1BD
100
AcDbEntity
  8
0
100
AcDbBlockBegin
  2
block 25
 70
     0
 10
0.0
 20
0.0
 30
0.0
  3
block 25
  1

  0
POLYLINE
  5
1C1
330
1BD
100
AcDbEntity
  8
レイヤー 1
 62
     7
370
    18
100
AcDb2dPolyline
 66
     1
 10
0.0
 20
0.0
 30
0.0
  0
VERTEX
  5
1C2
330
1C1
100
AcDbEntity
  8
レイヤー 1
 62
     7
370
    18
100
AcDbVertex
100
AcDb2dVertex
 10
157.9789875907136
 20
212.3875528440385
 30
0.0
  0
VERTEX
  5
1C3
330
1C1
100
AcDbEntity
  8
レイヤー 1
 62
     7
370
    18
100
AcDbVertex
100
AcDb2dVertex
 10
148.9487033047767
 20
214.7248778760063
 30
0.0
  0
SEQEND
  5
1C4
330
1C1
100
AcDbEntity
  8
レイヤー 1
370
    18
  0
ENDBLK
  5
1C0
330
1BD
100
AcDbEntity
  8
0
100
AcDbBlockEnd
  0
BLOCK
  5
1C7
330
1C5
100
AcDbEntity
  8
0
100
AcDbBlockBegin
  2
block 26
 70
     0
 10
0.0
 20
0.0
 30
0.0
  3
block 26
  1

  0
POLYLINE
  5
1C9
330
1C5
100
AcDbEntity
  8
レイヤー 1
 62
     7
370
    18
100
AcDb2dPolyline
 66
     1
 10
0.0
 20
0.0
 30
0.0
  0
VERTEX
  5
1CA
330
1C9
100
AcDbEntity
  8
レイヤー 1
 62
     7
370
    18
100
AcDbVertex
100
AcDb2dVertex
 10
137.1161783511376
 20
210.2186929812995
 30
0.0
  0
VERTEX
  5
1CB
330
1C9
100
AcDbEntity
  8
レイヤー 1
 62
     7
370
    18
100
AcDbVertex
100
AcDb2dVertex
 10
137.1161783511376
 20
198.3155435702128
 30
0.0
  0
SEQEND
  5
1CC
330
1C9
100
AcDbEntity
  8
レイヤー 1
370
    18
  0
ENDBLK
  5
1C8
330
1C5
100
AcDbEntity
  8
0
100
AcDbBlockEnd
  0
BLOCK
  5
1CF
330
1CD
100
AcDbEntity
  8
0
100
AcDbBlockBegin
  2
block 27
 70
     0
 10
0.0
 20
0.0
 30
0.0
  3
block 27
  1

  0
POLYLINE
  5
1D1
330
1CD
100
AcDbEntity
  8
レイヤー 1
 62
     7
370
    18
100
AcDb2dPolyline
 66
     1
 10
0.0
 20
0.0
 30
0.0
  0
VERTEX
  5
1D2
330
1D1
100
AcDbEntity
  8
レイヤー 1
 62
     7
370
    18
100
AcDbVertex
100
AcDb2dVertex
 10
159.6581271302244
 20
198.3155435702128
 30
0.0
  0
VERTEX
  5
1D3
330
1D1
100
AcDbEntity
  8
レイヤー 1
 62
     7
370
    18
100
AcDbVertex
100
AcDb2dVertex
 10
159.6581271302244
 20
210.2186929812995
 30
0.0
  0
SEQEND
  5
1D4
330
1D1
100
AcDbEntity
  8
レイヤー 1
370
    18
  0
ENDBLK
  5
1D0
330
1CD
100
AcDbEntity
  8
0
100
AcDbBlockEnd
  0
BLOCK
  5
1D7
330
1D5
100
AcDbEntity
  8
0
100
AcDbBlockBegin
  2
block 28
 70
     0
 10
0.0
 20
0.0
 30
0.0
  3
block 28
  1

  0
POLYLINE
  5
1D9
330
1D5
100
AcDbEntity
  8
レイヤー 1
 62
     7
370
    18
100
AcDb2dPolyline
 66
     1
 10
0.0
 20
0.0
 30
0.0
  0
VERTEX
  5
1DA
330
1D9
100
AcDbEntity
  8
レイヤー 1
 62
     7
370
    18
100
AcDbVertex
100
AcDb2dVertex
 10
147.8256021765853
 20
214.7248778760063
 30
0.0
  0
VERTEX
  5
1DB
330
1D9
100
AcDbEntity
  8
レイヤー 1
 62
     7
370
    18
100
AcDbVertex
100
AcDb2dVertex
 10
138.7953178906484
 20
212.3875528440385
 30
0.0
  0
SEQEND
  5
1DC
330
1D9
100
AcDbEntity
  8
レイヤー 1
370
    18
  0
ENDBLK
  5
1D8
330
1D5
100
AcDbEntity
  8
0
100
AcDbBlockEnd
  0
BLOCK
  5
1DF
330
1DD
100
AcDbEntity
  8
0
100
AcDbBlockBegin
  2
block 29
 70
     0
 10
0.0
 20
0.0
 30
0.0
  3
block 29
  1

  0
SPLINE
  5
1E1
330
1DD
100
AcDbEntity
  8
レイヤー 1
 62
     7
370
    18
100
AcDbSpline
210
0.0
220
0.0
230
1.0
 70
     8
 71
     3
 72
    29
 73
    25
 74
     0
 42
0.000000001
 43
0.0000000001
 40
0.0
 40
0.0
 40
0.0
 40
0.0
 40
1.0
 40
1.0
 40
1.0
 40
2.0
 40
2.0
 40
2.0
 40
3.0
 40
3.0
 40
3.0
 40
4.0
 40
4.0
 40
4.0
 40
5.0
 40
5.0
 40
5.0
 40
6.0
 40
6.0
 40
6.0
 40
7.0
 40
7.0
 40
7.0
 40
8.0
 40
8.0
 40
8.0
 40
8.0
 10
158.4905842702732
 20
197.0258720753095
 30
0.0
 10
158.5488063839739
 20
197.0422362788644
 30
0.0
 10
158.6073730072232
 20
197.0586004824194
 30
0.0
 10
158.6645615922783
 20
197.0775485075883
 30
0.0
 10
158.7555121130889
 20
197.1073485835357
 30
0.0
 10
158.8430175384142
 20
197.1435220861308
 30
0.0
 10
158.9284559064484
 20
197.1877915631163
 30
0.0
 10
159.0001138925416
 20
197.2244818300342
 30
0.0
 10
159.0703938404407
 20
197.2668565045027
 30
0.0
 10
159.1379177119516
 20
197.3164658794903
 30
0.0
 10
159.204408054817
 20
197.3655584901551
 30
0.0
 10
159.2684868308426
 20
197.4215412917904
 30
0.0
 10
159.3270534540919
 20
197.4844142843963
 30
0.0
 10
159.3859645868896
 20
197.5476317865506
 30
0.0
 10
159.439363566911
 20
197.6177394796754
 30
0.0
 10
159.4844943177678
 20
197.6931870708024
 30
0.0
 10
159.5303140877216
 20
197.7698404453492
 30
0.0
 10
159.5671766094138
 20
197.8520059726724
 30
0.0
 10
159.5968044305869
 20
197.9377888502551
 30
0.0
 10
159.6278102899542
 20
198.0244330017092
 30
0.0
 10
159.6508924297054
 20
198.114866758197
 30
0.0
 10
159.653303996545
 20
198.2059895337818
 30
0.0
 10
159.6543375251906
 20
198.2423352911512
 30
0.0
 10
159.6519259583509
 20
198.2788533032949
 30
0.0
 10
159.6495143915112
 20
198.3151990606643
 30
0.0
  0
ENDBLK
  5
1E0
330
1DD
100
AcDbEntity
  8
0
100
AcDbBlockEnd
  0
BLOCK
  5
1E4
330
1E2
100
AcDbEntity
  8
0
100
AcDbBlockBegin
  2
block 30
 70
     0
 10
0.0
 20
0.0
 30
0.0
  3
block 30
  1

  0
SPLINE
  5
1E6
330
1E2
100
AcDbEntity
  8
レイヤー 1
 62
     7
370
    18
100
AcDbSpline
210
0.0
220
0.0
230
1.0
 70
     8
 71
     3
 72
    29
 73
    25
 74
     0
 42
0.000000001
 43
0.0000000001
 40
0.0
 40
0.0
 40
0.0
 40
0.0
 40
1.0
 40
1.0
 40
1.0
 40
2.0
 40
2.0
 40
2.0
 40
3.0
 40
3.0
 40
3.0
 40
4.0
 40
4.0
 40
4.0
 40
5.0
 40
5.0
 40
5.0
 40
6.0
 40
6.0
 40
6.0
 40
7.0
 40
7.0
 40
7.0
 40
8.0
 40
8.0
 40
8.0
 40
8.0
 10
137.1247910898508
 20
198.3157158249871
 30
0.0
 10
137.1241020707537
 20
198.2514647941871
 30
0.0
 10
137.1237575612052
 20
198.1873860181615
 30
0.0
 10
137.1313367712727
 20
198.1241685160072
 30
0.0
 10
137.1423610768255
 20
198.0337347595193
 30
0.0
 10
137.1699218407075
 20
197.9451958055484
 30
0.0
 10
137.2057508337541
 20
197.8611354757083
 30
0.0
 10
137.238479240864
 20
197.7827595534189
 30
0.0
 10
137.2777533293958
 20
197.7081732361632
 30
0.0
 10
137.3246066279953
 20
197.6387545621355
 30
0.0
 10
137.369048359755
 20
197.5724364740444
 30
0.0
 10
137.4200357729367
 20
197.511113774407
 30
0.0
 10
137.4751573007007
 20
197.4553032275459
 30
0.0
 10
137.5295898093676
 20
197.4001816997819
 30
0.0
 10
137.5885009421654
 20
197.3509168343428
 30
0.0
 10
137.6494791322543
 20
197.3071641216802
 30
0.0
 10
137.7121798700859
 20
197.2618611160491
 30
0.0
 10
137.7779811938541
 20
197.2227592822915
 30
0.0
 10
137.8444715367195
 20
197.188308327439
 30
0.0
 10
137.9192301087494
 20
197.1498955127785
 30
0.0
 10
137.9946776998763
 20
197.1175116152172
 30
0.0
 10
138.072536857843
 20
197.0901231061094
 30
0.0
 10
138.1417832770965
 20
197.0661796924869
 30
0.0
 10
138.2127522440927
 20
197.0460258838982
 30
0.0
 10
138.2837212110888
 20
197.0258720753095
 30
0.0
  0
ENDBLK
  5
1E5
330
1E2
100
AcDbEntity
  8
0
100
AcDbBlockEnd
  0
BLOCK
  5
1E9
330
1E7
100
AcDbEntity
  8
0
100
AcDbBlockBegin
  2
block 31
 70
     0
 10
0.0
 20
0.0
 30
0.0
  3
block 31
  1

  0
SPLINE
  5
1EB
330
1E7
100
AcDbEntity
  8
レイヤー 1
 62
     7
370
    18
100
AcDbSpline
210
0.0
220
0.0
230
1.0
 70
     8
 71
     3
 72
     8
 73
     4
 74
     0
 42
0.000000001
 43
0.0000000001
 40
0.0
 40
0.0
 40
0.0
 40
0.0
 40
1.0
 40
1.0
 40
1.0
 40
1.0
 10
148.9487033047767
 20
214.7248778760063
 30
0.0
 10
148.5804225974035
 20
214.8201347661735
 30
0.0
 10
148.1938828839585
 20
214.8201347661735
 30
0.0
 10
147.8256021765853
 20
214.7248778760063
 30
0.0
  0
ENDBLK
  5
1EA
330
1E7
100
AcDbEntity
  8
0
100
AcDbBlockEnd
  0
BLOCK
  5
1EE
330
1EC
100
AcDbEntity
  8
0
100
AcDbBlockBegin
  2
block 32
 70
     0
 10
0.0
 20
0.0
 30
0.0
  3
block 32
  1

  0
SPLINE
  5
1F0
330
1EC
100
AcDbEntity
  8
レイヤー 1
 62
     7
370
    18
100
AcDbSpline
210
0.0
220
0.0
230
1.0
 70
     8
 71
     3
 72
    17
 73
    13
 74
     0
 42
0.000000001
 43
0.0000000001
 40
0.0
 40
0.0
 40
0.0
 40
0.0
 40
1.0
 40
1.0
 40
1.0
 40
2.0
 40
2.0
 40
2.0
 40
3.0
 40
3.0
 40
3.0
 40
4.0
 40
4.0
 40
4.0
 40
4.0
 10
136.3909857514925
 20
196.8138264481924
 30
0.0
 10
136.3775498791001
 20
196.8074530215447
 30
0.0
 10
136.3644585162561
 20
196.8012518496712
 30
0.0
 10
136.3527451916063
 20
196.7936726396037
 30
0.0
 10
136.3403428478594
 20
196.7855766652133
 30
0.0
 10
136.3296630518551
 20
196.7759303978546
 30
0.0
 10
136.3203612940449
 20
196.7655951113989
 30
0.0
 10
136.3110595362348
 20
196.7547430606203
 30
0.0
 10
136.3031358166187
 20
196.7432019907448
 30
0.0
 10
136.2986571924878
 20
196.7314886660949
 30
0.0
 10
136.2938340588085
 20
196.7194308318965
 30
0.0
 10
136.2921115110659
 20
196.7068562333754
 30
0.0
 10
136.2907334728718
 20
196.6942816348542
 30
0.0
  0
ENDBLK
  5
1EF
330
1EC
100
AcDbEntity
  8
0
100
AcDbBlockEnd
  0
BLOCK
  5
1F3
330
1F1
100
AcDbEntity
  8
0
100
AcDbBlockBegin
  2
block 33
 70
     0
 10
0.0
 20
0.0
 30
0.0
  3
block 33
  1

  0
SPLINE
  5
1F5
330
1F1
100
AcDbEntity
  8
レイヤー 1
 62
     7
370
    18
100
AcDbSpline
210
0.0
220
0.0
230
1.0
 70
     8
 71
     3
 72
    17
 73
    13
 74
     0
 42
0.000000001
 43
0.0000000001
 40
0.0
 40
0.0
 40
0.0
 40
0.0
 40
1.0
 40
1.0
 40
1.0
 40
2.0
 40
2.0
 40
2.0
 40
3.0
 40
3.0
 40
3.0
 40
4.0
 40
4.0
 40
4.0
 40
4.0
 10
160.4835720084902
 20
196.6942816348542
 30
0.0
 10
160.4821939702961
 20
196.7068562333754
 30
0.0
 10
160.4804714225535
 20
196.7194308318965
 30
0.0
 10
160.4756482888741
 20
196.7314886660949
 30
0.0
 10
160.4711696647433
 20
196.7432019907448
 30
0.0
 10
160.4635904546758
 20
196.7547430606203
 30
0.0
 10
160.4539441873171
 20
196.7655951113989
 30
0.0
 10
160.4446424295069
 20
196.7759303978546
 30
0.0
 10
160.4339626335026
 20
196.7855766652133
 30
0.0
 10
160.4215602897557
 20
196.7936726396037
 30
0.0
 10
160.4098469651059
 20
196.8012518496712
 30
0.0
 10
160.3967556022619
 20
196.8074530215447
 30
0.0
 10
160.3833197298694
 20
196.8138264481924
 30
0.0
  0
ENDBLK
  5
1F4
330
1F1
100
AcDbEntity
  8
0
100
AcDbBlockEnd
  0
BLOCK
  5
1F8
330
1F6
100
AcDbEntity
  8
0
100
AcDbBlockBegin
  2
block 34
 70
     0
 10
0.0
 20
0.0
 30
0.0
  3
block 34
  1

  0
POLYLINE
  5
1FA
330
1F6
100
AcDbEntity
  8
レイヤー 1
 62
     7
370
    18
100
AcDb2dPolyline
 66
     1
 10
0.0
 20
0.0
 30
0.0
  0
VERTEX
  5
1FB
330
1FA
100
AcDbEntity
  8
レイヤー 1
 62
     7
370
    18
100
AcDbVertex
100
AcDb2dVertex
 10
136.2907334728718
 20
196.6944538896285
 30
0.0
  0
VERTEX
  5
1FC
330
1FA
100
AcDbEntity
  8
レイヤー 1
 62
     7
370
    18
100
AcDbVertex
100
AcDb2dVertex
 10
136.2807426959645
 20
196.1515068411531
 30
0.0
  0
SEQEND
  5
1FD
330
1FA
100
AcDbEntity
  8
レイヤー 1
370
    18
  0
ENDBLK
  5
1F9
330
1F6
100
AcDbEntity
  8
0
100
AcDbBlockEnd
  0
BLOCK
  5
200
330
1FE
100
AcDbEntity
  8
0
100
AcDbBlockBegin
  2
block 35
 70
     0
 10
0.0
 20
0.0
 30
0.0
  3
block 35
  1

  0
POLYLINE
  5
202
330
1FE
100
AcDbEntity
  8
レイヤー 1
 62
     7
370
    18
100
AcDb2dPolyline
 66
     1
 10
0.0
 20
0.0
 30
0.0
  0
VERTEX
  5
203
330
202
100
AcDbEntity
  8
レイヤー 1
 62
     7
370
    18
100
AcDbVertex
100
AcDb2dVertex
 10
160.4935627853974
 20
196.1515068411531
 30
0.0
  0
VERTEX
  5
204
330
202
100
AcDbEntity
  8
レイヤー 1
 62
     7
370
    18
100
AcDbVertex
100
AcDb2dVertex
 10
160.4835720084902
 20
196.6944538896285
 30
0.0
  0
SEQEND
  5
205
330
202
100
AcDbEntity
  8
レイヤー 1
370
    18
  0
ENDBLK
  5
201
330
1FE
100
AcDbEntity
  8
0
100
AcDbBlockEnd
  0
BLOCK
  5
208
330
206
100
AcDbEntity
  8
0
100
AcDbBlockBegin
  2
block 36
 70
     0
 10
0.0
 20
0.0
 30
0.0
  3
block 36
  1

  0
POLYLINE
  5
20A
330
206
100
AcDbEntity
  8
レイヤー 1
 62
     7
370
    18
100
AcDb2dPolyline
 66
     1
 10
0.0
 20
0.0
 30
0.0
  0
VERTEX
  5
20B
330
20A
100
AcDbEntity
  8
レイヤー 1
 62
     7
370
    18
100
AcDbVertex
100
AcDb2dVertex
 10
137.8403374221371
 20
197.1910644038273
 30
0.0
  0
VERTEX
  5
20C
330
20A
100
AcDbEntity
  8
レイヤー 1
 62
     7
370
    18
100
AcDbVertex
100
AcDb2dVertex
 10
136.404421623885
 20
196.8193386009688
 30
0.0
  0
SEQEND
  5
20D
330
20A
100
AcDbEntity
  8
レイヤー 1
370
    18
  0
ENDBLK
  5
209
330
206
100
AcDbEntity
  8
0
100
AcDbBlockEnd
  0
BLOCK
  5
210
330
20E
100
AcDbEntity
  8
0
100
AcDbBlockBegin
  2
block 37
 70
     0
 10
0.0
 20
0.0
 30
0.0
  3
block 37
  1

  0
POLYLINE
  5
212
330
20E
100
AcDbEntity
  8
レイヤー 1
 62
     7
370
    18
100
AcDb2dPolyline
 66
     1
 10
0.0
 20
0.0
 30
0.0
  0
VERTEX
  5
213
330
212
100
AcDbEntity
  8
レイヤー 1
 62
     7
370
    18
100
AcDbVertex
100
AcDb2dVertex
 10
160.369883857477
 20
196.8193386009688
 30
0.0
  0
VERTEX
  5
214
330
212
100
AcDbEntity
  8
レイヤー 1
 62
     7
370
    18
100
AcDbVertex
100
AcDb2dVertex
 10
158.9339680592248
 20
197.1910644038273
 30
0.0
  0
SEQEND
  5
215
330
212
100
AcDbEntity
  8
レイヤー 1
370
    18
  0
ENDBLK
  5
211
330
20E
100
AcDbEntity
  8
0
100
AcDbBlockEnd
  0
BLOCK
  5
218
330
216
100
AcDbEntity
  8
0
100
AcDbBlockBegin
  2
block 38
 70
     0
 10
0.0
 20
0.0
 30
0.0
  3
block 38
  1

  0
POLYLINE
  5
21A
330
216
100
AcDbEntity
  8
レイヤー 1
 62
     7
370
    18
100
AcDb2dPolyline
 66
     1
 10
0.0
 20
0.0
 30
0.0
  0
VERTEX
  5
21B
330
21A
100
AcDbEntity
  8
レイヤー 1
 62
     7
370
    18
100
AcDbVertex
100
AcDb2dVertex
 10
136.5511826915566
 20
196.0571112248573
 30
0.0
  0
VERTEX
  5
21C
330
21A
100
AcDbEntity
  8
レイヤー 1
 62
     7
370
    18
100
AcDbVertex
100
AcDb2dVertex
 10
136.5511826915566
 20
23.00290255501316
 30
0.0
  0
SEQEND
  5
21D
330
21A
100
AcDbEntity
  8
レイヤー 1
370
    18
  0
ENDBLK
  5
219
330
216
100
AcDbEntity
  8
0
100
AcDbBlockEnd
  0
BLOCK
  5
220
330
21E
100
AcDbEntity
  8
0
100
AcDbBlockBegin
  2
block 39
 70
     0
 10
0.0
 20
0.0
 30
0.0
  3
block 39
  1

  0
POLYLINE
  5
222
330
21E
100
AcDbEntity
  8
レイヤー 1
 62
     7
370
    18
100
AcDb2dPolyline
 66
     1
 10
0.0
 20
0.0
 30
0.0
  0
VERTEX
  5
223
330
222
100
AcDbEntity
  8
レイヤー 1
 62
     7
370
    18
100
AcDbVertex
100
AcDb2dVertex
 10
160.2231227898053
 20
23.01496038921154
 30
0.0
  0
VERTEX
  5
224
330
222
100
AcDbEntity
  8
レイヤー 1
 62
     7
370
    18
100
AcDbVertex
100
AcDb2dVertex
 10
160.2231227898053
 20
196.0571112248573
 30
0.0
  0
SEQEND
  5
225
330
222
100
AcDbEntity
  8
レイヤー 1
370
    18
  0
ENDBLK
  5
221
330
21E
100
AcDbEntity
  8
0
100
AcDbBlockEnd
  0
BLOCK
  5
228
330
226
100
AcDbEntity
  8
0
100
AcDbBlockBegin
  2
block 40
 70
     0
 10
0.0
 20
0.0
 30
0.0
  3
block 40
  1

  0
SPLINE
  5
22A
330
226
100
AcDbEntity
  8
レイヤー 1
 62
     7
370
    18
100
AcDbSpline
210
0.0
220
0.0
230
1.0
 70
     8
 71
     3
 72
    26
 73
    22
 74
     0
 42
0.000000001
 43
0.0000000001
 40
0.0
 40
0.0
 40
0.0
 40
0.0
 40
1.0
 40
1.0
 40
1.0
 40
2.0
 40
2.0
 40
2.0
 40
3.0
 40
3.0
 40
3.0
 40
4.0
 40
4.0
 40
4.0
 40
5.0
 40
5.0
 40
5.0
 40
6.0
 40
6.0
 40
6.0
 40
7.0
 40
7.0
 40
7.0
 40
7.0
 10
154.3623263502983
 20
189.5010945164268
 30
0.0
 10
154.3998778910875
 20
189.4954101088761
 30
0.0
 10
154.4374294318768
 20
189.4897257013255
 30
0.0
 10
154.4753254822145
 20
189.4909314847453
 30
0.0
 10
154.5359591627549
 20
189.492654032488
 30
0.0
 10
154.5962483337468
 20
189.5119465672053
 30
0.0
 10
154.6530924092534
 20
189.5384738024418
 30
0.0
 10
154.7102809943086
 20
189.5651732924525
 30
0.0
 10
154.7640244838784
 20
189.5992797377564
 30
0.0
 10
154.8126003302205
 20
189.640965393128
 30
0.0
 10
154.8639322529507
 20
189.6850626153391
 30
0.0
 10
154.910096532453
 20
189.7376003214892
 30
0.0
 10
154.9500596400819
 20
189.7958224351899
 30
0.0
 10
154.9914007859049
 20
189.8571451348274
 30
0.0
 10
155.0258517407574
 20
189.9248412611126
 30
0.0
 10
155.0527234855424
 20
189.9963269924315
 30
0.0
 10
155.0795952303273
 20
190.069535271493
 30
0.0
 10
155.0988877650447
 20
190.1467054103626
 30
0.0
 10
155.1068114846608
 20
190.2238755492322
 30
0.0
 10
155.1102565801461
 20
190.259187777956
 30
0.0
 10
155.1116346183402
 20
190.2948445162284
 30
0.0
 10
155.1126681469857
 20
190.3303289997264
 30
0.0
  0
ENDBLK
  5
229
330
226
100
AcDbEntity
  8
0
100
AcDbBlockEnd
  0
BLOCK
  5
22D
330
22B
100
AcDbEntity
  8
0
100
AcDbBlockBegin
  2
block 41
 70
     0
 10
0.0
 20
0.0
 30
0.0
  3
block 41
  1

  0
SPLINE
  5
22F
330
22B
100
AcDbEntity
  8
レイヤー 1
 62
     7
370
    18
100
AcDbSpline
210
0.0
220
0.0
230
1.0
 70
     8
 71
     3
 72
    20
 73
    16
 74
     0
 42
0.000000001
 43
0.0000000001
 40
0.0
 40
0.0
 40
0.0
 40
0.0
 40
1.0
 40
1.0
 40
1.0
 40
2.0
 40
2.0
 40
2.0
 40
3.0
 40
3.0
 40
3.0
 40
4.0
 40
4.0
 40
4.0
 40
5.0
 40
5.0
 40
5.0
 40
5.0
 10
155.1126681469857
 20
190.3303289997264
 30
0.0
 10
155.1106010896946
 20
190.3749429862604
 30
0.0
 10
155.108878541952
 20
190.4195569727944
 30
0.0
 10
155.103021879627
 20
190.4633096854571
 30
0.0
 10
155.0919975740742
 20
190.5416856077465
 30
0.0
 10
155.068226415226
 20
190.6173054536478
 30
0.0
 10
155.033430950825
 20
190.6848293251587
 30
0.0
 10
155.0038031296518
 20
190.7421901649881
 30
0.0
 10
154.9665960984111
 20
190.7938665972668
 30
0.0
 10
154.9221543666514
 20
190.8414089149633
 30
0.0
 10
154.8797796921828
 20
190.8870564301428
 30
0.0
 10
154.8315483553893
 20
190.9290865950629
 30
0.0
 10
154.7740152607857
 20
190.9480346202317
 30
0.0
 10
154.7605793883932
 20
190.9525132443626
 30
0.0
 10
154.7467990064522
 20
190.9557860850736
 30
0.0
 10
154.7326741149627
 20
190.9588866710103
 30
0.0
  0
ENDBLK
  5
22E
330
22B
100
AcDbEntity
  8
0
100
AcDbBlockEnd
  0
BLOCK
  5
232
330
230
100
AcDbEntity
  8
0
100
AcDbBlockBegin
  2
block 42
 70
     0
 10
0.0
 20
0.0
 30
0.0
  3
block 42
  1

  0
POLYLINE
  5
234
330
230
100
AcDbEntity
  8
レイヤー 1
 62
     7
370
    18
100
AcDb2dPolyline
 66
     1
 10
0.0
 20
0.0
 30
0.0
  0
VERTEX
  5
235
330
234
100
AcDbEntity
  8
レイヤー 1
 62
     7
370
    18
100
AcDbVertex
100
AcDb2dVertex
 10
154.1749131559007
 20
189.5174587199818
 30
0.0
  0
VERTEX
  5
236
330
234
100
AcDbEntity
  8
レイヤー 1
 62
     7
370
    18
100
AcDbVertex
100
AcDb2dVertex
 10
154.3564696879734
 20
189.4931707968107
 30
0.0
  0
SEQEND
  5
237
330
234
100
AcDbEntity
  8
レイヤー 1
370
    18
  0
ENDBLK
  5
233
330
230
100
AcDbEntity
  8
0
100
AcDbBlockEnd
  0
BLOCK
  5
23A
330
238
100
AcDbEntity
  8
0
100
AcDbBlockBegin
  2
block 43
 70
     0
 10
0.0
 20
0.0
 30
0.0
  3
block 43
  1

  0
POLYLINE
  5
23C
330
238
100
AcDbEntity
  8
レイヤー 1
 62
     7
370
    18
100
AcDb2dPolyline
 66
     1
 10
0.0
 20
0.0
 30
0.0
  0
VERTEX
  5
23D
330
23C
100
AcDbEntity
  8
レイヤー 1
 62
     7
370
    18
100
AcDbVertex
100
AcDb2dVertex
 10
154.7371527390935
 20
190.9640543142382
 30
0.0
  0
VERTEX
  5
23E
330
23C
100
AcDbEntity
  8
レイヤー 1
 62
     7
370
    18
100
AcDbVertex
100
AcDb2dVertex
 10
154.5666205125736
 20
191.030889166652
 30
0.0
  0
SEQEND
  5
23F
330
23C
100
AcDbEntity
  8
レイヤー 1
370
    18
  0
ENDBLK
  5
23B
330
238
100
AcDbEntity
  8
0
100
AcDbBlockEnd
  0
BLOCK
  5
242
330
240
100
AcDbEntity
  8
0
100
AcDbBlockBegin
  2
block 44
 70
     0
 10
0.0
 20
0.0
 30
0.0
  3
block 44
  1

  0
SPLINE
  5
244
330
240
100
AcDbEntity
  8
レイヤー 1
 62
     7
370
    18
100
AcDbSpline
210
0.0
220
0.0
230
1.0
 70
     8
 71
     3
 72
    38
 73
    34
 74
     0
 42
0.000000001
 43
0.0000000001
 40
0.0
 40
0.0
 40
0.0
 40
0.0
 40
1.0
 40
1.0
 40
1.0
 40
2.0
 40
2.0
 40
2.0
 40
3.0
 40
3.0
 40
3.0
 40
4.0
 40
4.0
 40
4.0
 40
5.0
 40
5.0
 40
5.0
 40
6.0
 40
6.0
 40
6.0
 40
7.0
 40
7.0
 40
7.0
 40
8.0
 40
8.0
 40
8.0
 40
9.0
 40
9.0
 40
9.0
 40
10.0
 40
10.0
 40
10.0
 40
11.0
 40
11.0
 40
11.0
 40
11.0
 10
154.3588812548131
 20
189.500577752104
 30
0.0
 10
154.3774847704334
 20
189.495926873199
 30
0.0
 10
154.3960882860538
 20
189.4911037395196
 30
0.0
 10
154.4146918016741
 20
189.4886921726799
 30
0.0
 10
154.4753254822145
 20
189.4804239435153
 30
0.0
 10
154.5387152391431
 20
189.4954101088761
 30
0.0
 10
154.5979708814894
 20
189.516941955659
 30
0.0
 10
154.6568820142872
 20
189.5384738024418
 30
0.0
 10
154.7123480515997
 20
189.566206821098
 30
0.0
 10
154.7633354647814
 20
189.6022080689189
 30
0.0
 10
154.8170789543513
 20
189.6402763740309
 30
0.0
 10
154.8659993102418
 20
189.6874741821788
 30
0.0
 10
154.9087184942589
 20
189.7407009074259
 30
0.0
 10
154.9541937546642
 20
189.797200473384
 30
0.0
 10
154.9931233336476
 20
189.8602457207641
 30
0.0
 10
155.0244737025633
 20
189.9281141018235
 30
0.0
 10
155.0565130905761
 20
189.9980495401741
 30
0.0
 10
155.0802842494244
 20
190.0729803669783
 30
0.0
 10
155.0954426695595
 20
190.1492892319766
 30
0.0
 10
155.1102565801461
 20
190.2271483899432
 30
0.0
 10
155.1157687329224
 20
190.306385586104
 30
0.0
 10
155.1109455992431
 20
190.3839002345221
 30
0.0
 10
155.1064669751123
 20
190.4636541950056
 30
0.0
 10
155.0913085549772
 20
190.5415133529723
 30
0.0
 10
155.0644368101922
 20
190.6133435938397
 30
0.0
 10
155.0410101608925
 20
190.6760443316713
 30
0.0
 10
155.0089707728797
 20
190.7340941905977
 30
0.0
 10
154.9693521747993
 20
190.7869764062963
 30
0.0
 10
154.9321451435586
 20
190.8374470551552
 30
0.0
 10
154.8873589022504
 20
190.883266825109
 30
0.0
 10
154.8343044317776
 20
190.9137559201535
 30
0.0
 10
154.8039875915073
 20
190.9309813975798
 30
0.0
 10
154.7709146748489
 20
190.9432114865524
 30
0.0
 10
154.7378417581905
 20
190.9556138302993
 30
0.0
  0
ENDBLK
  5
243
330
240
100
AcDbEntity
  8
0
100
AcDbBlockEnd
  0
BLOCK
  5
247
330
245
100
AcDbEntity
  8
0
100
AcDbBlockBegin
  2
block 45
 70
     0
 10
0.0
 20
0.0
 30
0.0
  3
block 45
  1

  0
POLYLINE
  5
249
330
245
100
AcDbEntity
  8
レイヤー 1
 62
     7
370
    18
100
AcDb2dPolyline
 66
     1
 10
0.0
 20
0.0
 30
0.0
  0
VERTEX
  5
24A
330
249
100
AcDbEntity
  8
レイヤー 1
 62
     7
370
    18
100
AcDbVertex
100
AcDb2dVertex
 10
154.1749131559007
 20
189.5174587199818
 30
0.0
  0
VERTEX
  5
24B
330
249
100
AcDbEntity
  8
レイヤー 1
 62
     7
370
    18
100
AcDbVertex
100
AcDb2dVertex
 10
154.3564696879734
 20
189.4931707968107
 30
0.0
  0
SEQEND
  5
24C
330
249
100
AcDbEntity
  8
レイヤー 1
370
    18
  0
ENDBLK
  5
248
330
245
100
AcDbEntity
  8
0
100
AcDbBlockEnd
  0
BLOCK
  5
24F
330
24D
100
AcDbEntity
  8
0
100
AcDbBlockBegin
  2
block 46
 70
     0
 10
0.0
 20
0.0
 30
0.0
  3
block 46
  1

  0
POLYLINE
  5
251
330
24D
100
AcDbEntity
  8
レイヤー 1
 62
     7
370
    18
100
AcDb2dPolyline
 66
     1
 10
0.0
 20
0.0
 30
0.0
  0
VERTEX
  5
252
330
251
100
AcDbEntity
  8
レイヤー 1
 62
     7
370
    18
100
AcDbVertex
100
AcDb2dVertex
 10
154.7371527390935
 20
190.9640543142382
 30
0.0
  0
VERTEX
  5
253
330
251
100
AcDbEntity
  8
レイヤー 1
 62
     7
370
    18
100
AcDbVertex
100
AcDb2dVertex
 10
154.5666205125736
 20
191.030889166652
 30
0.0
  0
SEQEND
  5
254
330
251
100
AcDbEntity
  8
レイヤー 1
370
    18
  0
ENDBLK
  5
250
330
24D
100
AcDbEntity
  8
0
100
AcDbBlockEnd
  0
BLOCK
  5
257
330
255
100
AcDbEntity
  8
0
100
AcDbBlockBegin
  2
block 47
 70
     0
 10
0.0
 20
0.0
 30
0.0
  3
block 47
  1

  0
POLYLINE
  5
259
330
255
100
AcDbEntity
  8
レイヤー 1
 62
     7
370
    18
100
AcDb2dPolyline
 66
     1
 10
0.0
 20
0.0
 30
0.0
  0
VERTEX
  5
25A
330
259
100
AcDbEntity
  8
レイヤー 1
 62
     7
370
    18
100
AcDbVertex
100
AcDb2dVertex
 10
137.7659233596557
 20
211.383824274411
 30
0.0
  0
VERTEX
  5
25B
330
259
100
AcDbEntity
  8
レイヤー 1
 62
     7
370
    18
100
AcDbVertex
100
AcDb2dVertex
 10
147.7367187130658
 20
208.8031032464104
 30
0.0
  0
SEQEND
  5
25C
330
259
100
AcDbEntity
  8
レイヤー 1
370
    18
  0
ENDBLK
  5
258
330
255
100
AcDbEntity
  8
0
100
AcDbBlockEnd
  0
BLOCK
  5
25F
330
25D
100
AcDbEntity
  8
0
100
AcDbBlockBegin
  2
block 48
 70
     0
 10
0.0
 20
0.0
 30
0.0
  3
block 48
  1

  0
POLYLINE
  5
261
330
25D
100
AcDbEntity
  8
レイヤー 1
 62
     7
370
    18
100
AcDb2dPolyline
 66
     1
 10
0.0
 20
0.0
 30
0.0
  0
VERTEX
  5
262
330
261
100
AcDbEntity
  8
レイヤー 1
 62
     7
370
    18
100
AcDbVertex
100
AcDb2dVertex
 10
148.3223849455583
 20
195.1172891764811
 30
0.0
  0
VERTEX
  5
263
330
261
100
AcDbEntity
  8
レイヤー 1
 62
     7
370
    18
100
AcDbVertex
100
AcDb2dVertex
 10
148.3223849455583
 20
208.4146687304484
 30
0.0
  0
SEQEND
  5
264
330
261
100
AcDbEntity
  8
レイヤー 1
370
    18
  0
ENDBLK
  5
260
330
25D
100
AcDbEntity
  8
0
100
AcDbBlockEnd
  0
BLOCK
  5
267
330
265
100
AcDbEntity
  8
0
100
AcDbBlockBegin
  2
block 49
 70
     0
 10
0.0
 20
0.0
 30
0.0
  3
block 49
  1

  0
POLYLINE
  5
269
330
265
100
AcDbEntity
  8
レイヤー 1
 62
     7
370
    18
100
AcDb2dPolyline
 66
     1
 10
0.0
 20
0.0
 30
0.0
  0
VERTEX
  5
26A
330
269
100
AcDbEntity
  8
レイヤー 1
 62
     7
370
    18
100
AcDbVertex
100
AcDb2dVertex
 10
148.9617946676207
 20
208.8136107876404
 30
0.0
  0
VERTEX
  5
26B
330
269
100
AcDbEntity
  8
レイヤー 1
 62
     7
370
    18
100
AcDbVertex
100
AcDb2dVertex
 10
158.8977945566297
 20
211.3853745673794
 30
0.0
  0
SEQEND
  5
26C
330
269
100
AcDbEntity
  8
レイヤー 1
370
    18
  0
ENDBLK
  5
268
330
265
100
AcDbEntity
  8
0
100
AcDbBlockEnd
  0
BLOCK
  5
26F
330
26D
100
AcDbEntity
  8
0
100
AcDbBlockBegin
  2
block 50
 70
     0
 10
0.0
 20
0.0
 30
0.0
  3
block 50
  1

  0
SPLINE
  5
271
330
26D
100
AcDbEntity
  8
レイヤー 1
 62
     7
370
    18
100
AcDbSpline
210
0.0
220
0.0
230
1.0
 70
     8
 71
     3
 72
     8
 73
     4
 74
     0
 42
0.000000001
 43
0.0000000001
 40
0.0
 40
0.0
 40
0.0
 40
0.0
 40
1.0
 40
1.0
 40
1.0
 40
1.0
 10
148.2286783483595
 20
193.0349012104219
 30
0.0
 10
148.3330647415626
 20
193.0116468158964
 30
0.0
 10
148.4412407397994
 20
193.0116468158964
 30
0.0
 10
148.5456271330025
 20
193.0349012104219
 30
0.0
  0
ENDBLK
  5
270
330
26D
100
AcDbEntity
  8
0
100
AcDbBlockEnd
  0
BLOCK
  5
274
330
272
100
AcDbEntity
  8
0
100
AcDbBlockBegin
  2
block 51
 70
     0
 10
0.0
 20
0.0
 30
0.0
  3
block 51
  1

  0
POLYLINE
  5
276
330
272
100
AcDbEntity
  8
レイヤー 1
 62
     7
370
    18
100
AcDb2dPolyline
 66
     1
 10
0.0
 20
0.0
 30
0.0
  0
VERTEX
  5
277
330
276
100
AcDbEntity
  8
レイヤー 1
 62
     7
370
    18
100
AcDbVertex
100
AcDb2dVertex
 10
136.5160427176071
 20
196.6942816348542
 30
0.0
  0
VERTEX
  5
278
330
276
100
AcDbEntity
  8
レイヤー 1
 62
     7
370
    18
100
AcDbVertex
100
AcDb2dVertex
 10
148.2390136348153
 20
193.6601860409947
 30
0.0
  0
SEQEND
  5
279
330
276
100
AcDbEntity
  8
レイヤー 1
370
    18
  0
ENDBLK
  5
275
330
272
100
AcDbEntity
  8
0
100
AcDbBlockEnd
  0
BLOCK
  5
27C
330
27A
100
AcDbEntity
  8
0
100
AcDbBlockBegin
  2
block 52
 70
     0
 10
0.0
 20
0.0
 30
0.0
  3
block 52
  1

  0
POLYLINE
  5
27E
330
27A
100
AcDbEntity
  8
レイヤー 1
 62
     7
370
    18
100
AcDb2dPolyline
 66
     1
 10
0.0
 20
0.0
 30
0.0
  0
VERTEX
  5
27F
330
27E
100
AcDbEntity
  8
レイヤー 1
 62
     7
370
    18
100
AcDbVertex
100
AcDb2dVertex
 10
148.5352918465467
 20
193.6601860409947
 30
0.0
  0
VERTEX
  5
280
330
27E
100
AcDbEntity
  8
レイヤー 1
 62
     7
370
    18
100
AcDbVertex
100
AcDb2dVertex
 10
160.2231227898053
 20
196.6853243865926
 30
0.0
  0
SEQEND
  5
281
330
27E
100
AcDbEntity
  8
レイヤー 1
370
    18
  0
ENDBLK
  5
27D
330
27A
100
AcDbEntity
  8
0
100
AcDbBlockEnd
  0
BLOCK
  5
284
330
282
100
AcDbEntity
  8
0
100
AcDbBlockBegin
  2
block 53
 70
     0
 10
0.0
 20
0.0
 30
0.0
  3
block 53
  1

  0
SPLINE
  5
286
330
282
100
AcDbEntity
  8
レイヤー 1
 62
     7
370
    18
100
AcDbSpline
210
0.0
220
0.0
230
1.0
 70
     8
 71
     3
 72
     8
 73
     4
 74
     0
 42
0.000000001
 43
0.0000000001
 40
0.0
 40
0.0
 40
0.0
 40
0.0
 40
1.0
 40
1.0
 40
1.0
 40
1.0
 10
142.4832926076083
 20
195.9389444497132
 30
0.0
 10
143.3094265049713
 20
195.6049424424182
 30
0.0
 10
144.1755235099631
 20
195.3808389811027
 30
0.0
 10
145.0602240305752
 20
195.2721462185431
 30
0.0
  0
ENDBLK
  5
285
330
282
100
AcDbEntity
  8
0
100
AcDbBlockEnd
  0
BLOCK
  5
289
330
287
100
AcDbEntity
  8
0
100
AcDbBlockBegin
  2
block 54
 70
     0
 10
0.0
 20
0.0
 30
0.0
  3
block 54
  1

  0
SPLINE
  5
28B
330
287
100
AcDbEntity
  8
レイヤー 1
 62
     7
370
    18
100
AcDbSpline
210
0.0
220
0.0
230
1.0
 70
     8
 71
     3
 72
     8
 73
     4
 74
     0
 42
0.000000001
 43
0.0000000001
 40
0.0
 40
0.0
 40
0.0
 40
0.0
 40
1.0
 40
1.0
 40
1.0
 40
1.0
 10
151.7140814507868
 20
195.2721462185431
 30
0.0
 10
152.5991264809475
 20
195.3772216308432
 30
0.0
 10
153.4659125050363
 20
195.601497346933
 30
0.0
 10
154.2910128737536
 20
195.9389444497132
 30
0.0
  0
ENDBLK
  5
28A
330
287
100
AcDbEntity
  8
0
100
AcDbBlockEnd
  0
BLOCK
  5
28E
330
28C
100
AcDbEntity
  8
0
100
AcDbBlockBegin
  2
block 55
 70
     0
 10
0.0
 20
0.0
 30
0.0
  3
block 55
  1

  0
POLYLINE
  5
290
330
28C
100
AcDbEntity
  8
レイヤー 1
 62
     7
370
    18
100
AcDb2dPolyline
 66
     1
 10
0.0
 20
0.0
 30
0.0
  0
VERTEX
  5
291
330
290
100
AcDbEntity
  8
レイヤー 1
 62
     7
370
    18
100
AcDbVertex
100
AcDb2dVertex
 10
136.3461995101843
 20
196.1103379501044
 30
0.0
  0
VERTEX
  5
292
330
290
100
AcDbEntity
  8
レイヤー 1
 62
     7
370
    18
100
AcDbVertex
100
AcDb2dVertex
 10
148.2286783483595
 20
193.0349012104219
 30
0.0
  0
SEQEND
  5
293
330
290
100
AcDbEntity
  8
レイヤー 1
370
    18
  0
ENDBLK
  5
28F
330
28C
100
AcDbEntity
  8
0
100
AcDbBlockEnd
  0
BLOCK
  5
296
330
294
100
AcDbEntity
  8
0
100
AcDbBlockBegin
  2
block 56
 70
     0
 10
0.0
 20
0.0
 30
0.0
  3
block 56
  1

  0
POLYLINE
  5
298
330
294
100
AcDbEntity
  8
レイヤー 1
 62
     7
370
    18
100
AcDb2dPolyline
 66
     1
 10
0.0
 20
0.0
 30
0.0
  0
VERTEX
  5
299
330
298
100
AcDbEntity
  8
レイヤー 1
 62
     7
370
    18
100
AcDbVertex
100
AcDb2dVertex
 10
148.5456271330025
 20
193.0349012104219
 30
0.0
  0
VERTEX
  5
29A
330
298
100
AcDbEntity
  8
レイヤー 1
 62
     7
370
    18
100
AcDbVertex
100
AcDb2dVertex
 10
160.4277614616292
 20
196.1103379501044
 30
0.0
  0
SEQEND
  5
29B
330
298
100
AcDbEntity
  8
レイヤー 1
370
    18
  0
ENDBLK
  5
297
330
294
100
AcDbEntity
  8
0
100
AcDbBlockEnd
  0
BLOCK
  5
29E
330
29C
100
AcDbEntity
  8
0
100
AcDbBlockBegin
  2
block 57
 70
     0
 10
0.0
 20
0.0
 30
0.0
  3
block 57
  1

  0
POLYLINE
  5
2A0
330
29C
100
AcDbEntity
  8
レイヤー 1
 62
     7
370
    18
100
AcDb2dPolyline
 66
     1
 10
0.0
 20
0.0
 30
0.0
  0
VERTEX
  5
2A1
330
2A0
100
AcDbEntity
  8
レイヤー 1
 62
     7
370
    18
100
AcDbVertex
100
AcDb2dVertex
 10
136.404421623885
 20
196.8193386009688
 30
0.0
  0
VERTEX
  5
2A2
330
2A0
100
AcDbEntity
  8
レイヤー 1
 62
     7
370
    18
100
AcDbVertex
100
AcDb2dVertex
 10
136.4026990761424
 20
196.8189940914203
 30
0.0
  0
VERTEX
  5
2A3
330
2A0
100
AcDbEntity
  8
レイヤー 1
 62
     7
370
    18
100
AcDbVertex
100
AcDb2dVertex
 10
136.390641241944
 20
196.8138264481924
 30
0.0
  0
SEQEND
  5
2A4
330
2A0
100
AcDbEntity
  8
レイヤー 1
370
    18
  0
ENDBLK
  5
29F
330
29C
100
AcDbEntity
  8
0
100
AcDbBlockEnd
  0
BLOCK
  5
2A7
330
2A5
100
AcDbEntity
  8
0
100
AcDbBlockBegin
  2
block 58
 70
     0
 10
0.0
 20
0.0
 30
0.0
  3
block 58
  1

  0
POLYLINE
  5
2A9
330
2A5
100
AcDbEntity
  8
レイヤー 1
 62
     7
370
    18
100
AcDb2dPolyline
 66
     1
 10
0.0
 20
0.0
 30
0.0
  0
VERTEX
  5
2AA
330
2A9
100
AcDbEntity
  8
レイヤー 1
 62
     7
370
    18
100
AcDbVertex
100
AcDb2dVertex
 10
160.383664239418
 20
196.8136541934181
 30
0.0
  0
VERTEX
  5
2AB
330
2A9
100
AcDbEntity
  8
レイヤー 1
 62
     7
370
    18
100
AcDbVertex
100
AcDb2dVertex
 10
160.3716064052196
 20
196.8189940914203
 30
0.0
  0
VERTEX
  5
2AC
330
2A9
100
AcDbEntity
  8
レイヤー 1
 62
     7
370
    18
100
AcDbVertex
100
AcDb2dVertex
 10
160.369883857477
 20
196.8193386009688
 30
0.0
  0
SEQEND
  5
2AD
330
2A9
100
AcDbEntity
  8
レイヤー 1
370
    18
  0
ENDBLK
  5
2A8
330
2A5
100
AcDbEntity
  8
0
100
AcDbBlockEnd
  0
BLOCK
  5
2B0
330
2AE
100
AcDbEntity
  8
0
100
AcDbBlockBegin
  2
block 59
 70
     0
 10
0.0
 20
0.0
 30
0.0
  3
block 59
  1

  0
POLYLINE
  5
2B2
330
2AE
100
AcDbEntity
  8
レイヤー 1
 62
     7
370
    18
100
AcDb2dPolyline
 66
     1
 10
0.0
 20
0.0
 30
0.0
  0
VERTEX
  5
2B3
330
2B2
100
AcDbEntity
  8
レイヤー 1
 62
     7
370
    18
100
AcDbVertex
100
AcDb2dVertex
 10
136.3461995101843
 20
196.1103379501044
 30
0.0
  0
VERTEX
  5
2B4
330
2B2
100
AcDbEntity
  8
レイヤー 1
 62
     7
370
    18
100
AcDbVertex
100
AcDb2dVertex
 10
136.3186387463023
 20
196.1189506888175
 30
0.0
  0
VERTEX
  5
2B5
330
2B2
100
AcDbEntity
  8
レイヤー 1
 62
     7
370
    18
100
AcDbVertex
100
AcDb2dVertex
 10
136.2979681733908
 20
196.129113720499
 30
0.0
  0
VERTEX
  5
2B6
330
2B2
100
AcDbEntity
  8
レイヤー 1
 62
     7
370
    18
100
AcDbVertex
100
AcDb2dVertex
 10
136.2852213200954
 20
196.1399657712775
 30
0.0
  0
VERTEX
  5
2B7
330
2B2
100
AcDbEntity
  8
レイヤー 1
 62
     7
370
    18
100
AcDbVertex
100
AcDb2dVertex
 10
136.2807426959645
 20
196.1513345863789
 30
0.0
  0
SEQEND
  5
2B8
330
2B2
100
AcDbEntity
  8
レイヤー 1
370
    18
  0
ENDBLK
  5
2B1
330
2AE
100
AcDbEntity
  8
0
100
AcDbBlockEnd
  0
BLOCK
  5
2BB
330
2B9
100
AcDbEntity
  8
0
100
AcDbBlockBegin
  2
block 60
 70
     0
 10
0.0
 20
0.0
 30
0.0
  3
block 60
  1

  0
POLYLINE
  5
2BD
330
2B9
100
AcDbEntity
  8
レイヤー 1
 62
     7
370
    18
100
AcDb2dPolyline
 66
     1
 10
0.0
 20
0.0
 30
0.0
  0
VERTEX
  5
2BE
330
2BD
100
AcDbEntity
  8
レイヤー 1
 62
     7
370
    18
100
AcDbVertex
100
AcDb2dVertex
 10
160.4935627853974
 20
196.1515068411531
 30
0.0
  0
VERTEX
  5
2BF
330
2BD
100
AcDbEntity
  8
レイヤー 1
 62
     7
370
    18
100
AcDbVertex
100
AcDb2dVertex
 10
160.4890841612666
 20
196.1399657712775
 30
0.0
  0
VERTEX
  5
2C0
330
2BD
100
AcDbEntity
  8
レイヤー 1
 62
     7
370
    18
100
AcDbVertex
100
AcDb2dVertex
 10
160.4766818175197
 20
196.129113720499
 30
0.0
  0
VERTEX
  5
2C1
330
2BD
100
AcDbEntity
  8
レイヤー 1
 62
     7
370
    18
100
AcDbVertex
100
AcDb2dVertex
 10
160.4556667350597
 20
196.1189506888175
 30
0.0
  0
VERTEX
  5
2C2
330
2BD
100
AcDbEntity
  8
レイヤー 1
 62
     7
370
    18
100
AcDbVertex
100
AcDb2dVertex
 10
160.4277614616292
 20
196.1103379501044
 30
0.0
  0
SEQEND
  5
2C3
330
2BD
100
AcDbEntity
  8
レイヤー 1
370
    18
  0
ENDBLK
  5
2BC
330
2B9
100
AcDbEntity
  8
0
100
AcDbBlockEnd
  0
BLOCK
  5
2C6
330
2C4
100
AcDbEntity
  8
0
100
AcDbBlockBegin
  2
block 61
 70
     0
 10
0.0
 20
0.0
 30
0.0
  3
block 61
  1

  0
SPLINE
  5
2C8
330
2C4
100
AcDbEntity
  8
レイヤー 1
 62
     7
370
    18
100
AcDbSpline
210
0.0
220
0.0
230
1.0
 70
     8
 71
     3
 72
     8
 73
     4
 74
     0
 42
0.000000001
 43
0.0000000001
 40
0.0
 40
0.0
 40
0.0
 40
0.0
 40
1.0
 40
1.0
 40
1.0
 40
1.0
 10
148.3079155445203
 20
19.96019422244051
 30
0.0
 10
148.360280995896
 20
19.94848089779066
 30
0.0
 10
148.4140244854659
 20
19.94848089779066
 30
0.0
 10
148.4663899368418
 20
19.96019422244051
 30
0.0
  0
ENDBLK
  5
2C7
330
2C4
100
AcDbEntity
  8
0
100
AcDbBlockEnd
  0
BLOCK
  5
2CB
330
2C9
100
AcDbEntity
  8
0
100
AcDbBlockBegin
  2
block 62
 70
     0
 10
0.0
 20
0.0
 30
0.0
  3
block 62
  1

  0
POLYLINE
  5
2CD
330
2C9
100
AcDbEntity
  8
レイヤー 1
 62
     7
370
    18
100
AcDb2dPolyline
 66
     1
 10
0.0
 20
0.0
 30
0.0
  0
VERTEX
  5
2CE
330
2CD
100
AcDbEntity
  8
レイヤー 1
 62
     7
370
    18
100
AcDbVertex
100
AcDb2dVertex
 10
136.5511826915566
 20
23.00290255501316
 30
0.0
  0
VERTEX
  5
2CF
330
2CD
100
AcDbEntity
  8
レイヤー 1
 62
     7
370
    18
100
AcDbVertex
100
AcDb2dVertex
 10
148.3079155445203
 20
19.96019422244051
 30
0.0
  0
SEQEND
  5
2D0
330
2CD
100
AcDbEntity
  8
レイヤー 1
370
    18
  0
ENDBLK
  5
2CC
330
2C9
100
AcDbEntity
  8
0
100
AcDbBlockEnd
  0
BLOCK
  5
2D3
330
2D1
100
AcDbEntity
  8
0
100
AcDbBlockBegin
  2
block 63
 70
     0
 10
0.0
 20
0.0
 30
0.0
  3
block 63
  1

  0
POLYLINE
  5
2D5
330
2D1
100
AcDbEntity
  8
レイヤー 1
 62
     7
370
    18
100
AcDb2dPolyline
 66
     1
 10
0.0
 20
0.0
 30
0.0
  0
VERTEX
  5
2D6
330
2D5
100
AcDbEntity
  8
レイヤー 1
 62
     7
370
    18
100
AcDbVertex
100
AcDb2dVertex
 10
148.4663899368418
 20
19.96019422244051
 30
0.0
  0
VERTEX
  5
2D7
330
2D5
100
AcDbEntity
  8
レイヤー 1
 62
     7
370
    18
100
AcDbVertex
100
AcDb2dVertex
 10
160.1900498731469
 20
22.99463432584857
 30
0.0
  0
SEQEND
  5
2D8
330
2D5
100
AcDbEntity
  8
レイヤー 1
370
    18
  0
ENDBLK
  5
2D4
330
2D1
100
AcDbEntity
  8
0
100
AcDbBlockEnd
  0
BLOCK
  5
2DB
330
2D9
100
AcDbEntity
  8
0
100
AcDbBlockBegin
  2
block 64
 70
     0
 10
0.0
 20
0.0
 30
0.0
  3
block 64
  1

  0
POLYLINE
  5
2DD
330
2D9
100
AcDbEntity
  8
レイヤー 1
 62
     7
370
    18
100
AcDb2dPolyline
 66
     1
 10
0.0
 20
0.0
 30
0.0
  0
VERTEX
  5
2DE
330
2DD
100
AcDbEntity
  8
レイヤー 1
 62
     7
370
    18
100
AcDbVertex
100
AcDb2dVertex
 10
151.951793039269
 20
46.83262802648629
 30
0.0
  0
VERTEX
  5
2DF
330
2DD
100
AcDbEntity
  8
レイヤー 1
 62
     7
370
    18
100
AcDbVertex
100
AcDb2dVertex
 10
151.9810763508936
 20
47.34801431107967
 30
0.0
  0
VERTEX
  5
2E0
330
2DD
100
AcDbEntity
  8
レイヤー 1
 62
     7
370
    18
100
AcDbVertex
100
AcDb2dVertex
 10
152.0682372666705
 20
47.86615667206124
 30
0.0
  0
VERTEX
  5
2E1
330
2DD
100
AcDbEntity
  8
レイヤー 1
 62
     7
370
    18
100
AcDbVertex
100
AcDb2dVertex
 10
152.2108642197598
 20
48.37327472749001
 30
0.0
  0
VERTEX
  5
2E2
330
2DD
100
AcDbEntity
  8
レイヤー 1
 62
     7
370
    18
100
AcDbVertex
100
AcDb2dVertex
 10
152.4058566242249
 20
48.85834417181319
 30
0.0
  0
VERTEX
  5
2E3
330
2DD
100
AcDbEntity
  8
レイヤー 1
 62
     7
370
    18
100
AcDbVertex
100
AcDb2dVertex
 10
152.6477023272895
 20
49.30827364218683
 30
0.0
  0
VERTEX
  5
2E4
330
2DD
100
AcDbEntity
  8
レイヤー 1
 62
     7
370
    18
100
AcDbVertex
100
AcDb2dVertex
 10
152.9315781952741
 20
49.71272785215515
 30
0.0
  0
VERTEX
  5
2E5
330
2DD
100
AcDbEntity
  8
レイヤー 1
 62
     7
370
    18
100
AcDbVertex
100
AcDb2dVertex
 10
153.2495605085626
 20
50.06102700571391
 30
0.0
  0
VERTEX
  5
2E6
330
2DD
100
AcDbEntity
  8
レイヤー 1
 62
     7
370
    18
100
AcDbVertex
100
AcDb2dVertex
 10
153.5940700570876
 20
50.34524738324702
 30
0.0
  0
VERTEX
  5
2E7
330
2DD
100
AcDbEntity
  8
レイヤー 1
 62
     7
370
    18
100
AcDbVertex
100
AcDb2dVertex
 10
153.9564941021359
 20
50.55780977468694
 30
0.0
  0
VERTEX
  5
2E8
330
2DD
100
AcDbEntity
  8
レイヤー 1
 62
     7
370
    18
100
AcDbVertex
100
AcDb2dVertex
 10
154.3282199049943
 20
50.69389104635431
 30
0.0
  0
VERTEX
  5
2E9
330
2DD
100
AcDbEntity
  8
レイヤー 1
 62
     7
370
    18
100
AcDbVertex
100
AcDb2dVertex
 10
154.6999457078528
 20
50.7503906123124
 30
0.0
  0
VERTEX
  5
2EA
330
2DD
100
AcDbEntity
  8
レイヤー 1
 62
     7
370
    18
100
AcDbVertex
100
AcDb2dVertex
 10
155.0627142624496
 20
50.72524141527008
 30
0.0
  0
VERTEX
  5
2EB
330
2DD
100
AcDbEntity
  8
レイヤー 1
 62
     7
370
    18
100
AcDbVertex
100
AcDb2dVertex
 10
155.4072238109746
 20
50.61947698387291
 30
0.0
  0
VERTEX
  5
2EC
330
2DD
100
AcDbEntity
  8
レイヤー 1
 62
     7
370
    18
100
AcDbVertex
100
AcDb2dVertex
 10
155.7252061242631
 20
50.43550888496057
 30
0.0
  0
VERTEX
  5
2ED
330
2DD
100
AcDbEntity
  8
レイヤー 1
 62
     7
370
    18
100
AcDbVertex
100
AcDb2dVertex
 10
156.0087374826992
 20
50.17781574266388
 30
0.0
  0
VERTEX
  5
2EE
330
2DD
100
AcDbEntity
  8
レイヤー 1
 62
     7
370
    18
100
AcDbVertex
100
AcDb2dVertex
 10
156.2509276953123
 20
49.85328774795335
 30
0.0
  0
VERTEX
  5
2EF
330
2DD
100
AcDbEntity
  8
レイヤー 1
 62
     7
370
    18
100
AcDbVertex
100
AcDb2dVertex
 10
156.4459200997774
 20
49.46950411089652
 30
0.0
  0
VERTEX
  5
2F0
330
2DD
100
AcDbEntity
  8
レイヤー 1
 62
     7
370
    18
100
AcDbVertex
100
AcDb2dVertex
 10
156.5885470528668
 20
49.03611109885208
 30
0.0
  0
VERTEX
  5
2F1
330
2DD
100
AcDbEntity
  8
レイヤー 1
 62
     7
370
    18
100
AcDbVertex
100
AcDb2dVertex
 10
156.6753634590951
 20
48.56309948872728
 30
0.0
  0
VERTEX
  5
2F2
330
2DD
100
AcDbEntity
  8
レイヤー 1
 62
     7
370
    18
100
AcDbVertex
100
AcDb2dVertex
 10
156.7046467707197
 20
48.06252711472048
 30
0.0
  0
SEQEND
  5
2F3
330
2DD
100
AcDbEntity
  8
レイヤー 1
370
    18
  0
ENDBLK
  5
2DC
330
2D9
100
AcDbEntity
  8
0
100
AcDbBlockEnd
  0
BLOCK
  5
2F6
330
2F4
100
AcDbEntity
  8
0
100
AcDbBlockBegin
  2
block 65
 70
     0
 10
0.0
 20
0.0
 30
0.0
  3
block 65
  1

  0
POLYLINE
  5
2F8
330
2F4
100
AcDbEntity
  8
レイヤー 1
 62
     7
370
    18
100
AcDb2dPolyline
 66
     1
 10
0.0
 20
0.0
 30
0.0
  0
VERTEX
  5
2F9
330
2F8
100
AcDbEntity
  8
レイヤー 1
 62
     7
370
    18
100
AcDbVertex
100
AcDb2dVertex
 10
151.951793039269
 20
38.1757920911505
 30
0.0
  0
VERTEX
  5
2FA
330
2F8
100
AcDbEntity
  8
レイヤー 1
 62
     7
370
    18
100
AcDbVertex
100
AcDb2dVertex
 10
151.951793039269
 20
46.83262802648629
 30
0.0
  0
SEQEND
  5
2FB
330
2F8
100
AcDbEntity
  8
レイヤー 1
370
    18
  0
ENDBLK
  5
2F7
330
2F4
100
AcDbEntity
  8
0
100
AcDbBlockEnd
  0
BLOCK
  5
2FE
330
2FC
100
AcDbEntity
  8
0
100
AcDbBlockBegin
  2
block 66
 70
     0
 10
0.0
 20
0.0
 30
0.0
  3
block 66
  1

  0
POLYLINE
  5
300
330
2FC
100
AcDbEntity
  8
レイヤー 1
 62
     7
370
    18
100
AcDb2dPolyline
 66
     1
 10
0.0
 20
0.0
 30
0.0
  0
VERTEX
  5
301
330
300
100
AcDbEntity
  8
レイヤー 1
 62
     7
370
    18
100
AcDbVertex
100
AcDb2dVertex
 10
156.7046467707197
 20
39.40638019848174
 30
0.0
  0
VERTEX
  5
302
330
300
100
AcDbEntity
  8
レイヤー 1
 62
     7
370
    18
100
AcDbVertex
100
AcDb2dVertex
 10
156.6753634590951
 20
38.89030489479131
 30
0.0
  0
VERTEX
  5
303
330
300
100
AcDbEntity
  8
レイヤー 1
 62
     7
370
    18
100
AcDbVertex
100
AcDb2dVertex
 10
156.5885470528668
 20
38.37285155290679
 30
0.0
  0
VERTEX
  5
304
330
300
100
AcDbEntity
  8
レイヤー 1
 62
     7
370
    18
100
AcDbVertex
100
AcDb2dVertex
 10
156.4459200997774
 20
37.86504447838097
 30
0.0
  0
VERTEX
  5
305
330
300
100
AcDbEntity
  8
レイヤー 1
 62
     7
370
    18
100
AcDbVertex
100
AcDb2dVertex
 10
156.2509276953123
 20
37.38031954360631
 30
0.0
  0
VERTEX
  5
306
330
300
100
AcDbEntity
  8
レイヤー 1
 62
     7
370
    18
100
AcDbVertex
100
AcDb2dVertex
 10
156.0087374826992
 20
36.93073458278121
 30
0.0
  0
VERTEX
  5
307
330
300
100
AcDbEntity
  8
レイヤー 1
 62
     7
370
    18
100
AcDbVertex
100
AcDb2dVertex
 10
155.7252061242631
 20
36.52628037281288
 30
0.0
  0
VERTEX
  5
308
330
300
100
AcDbEntity
  8
レイヤー 1
 62
     7
370
    18
100
AcDbVertex
100
AcDb2dVertex
 10
155.4072238109746
 20
36.1776367097056
 30
0.0
  0
VERTEX
  5
309
330
300
100
AcDbEntity
  8
レイヤー 1
 62
     7
370
    18
100
AcDbVertex
100
AcDb2dVertex
 10
155.0627142624496
 20
35.893760841721
 30
0.0
  0
VERTEX
  5
30A
330
300
100
AcDbEntity
  8
レイヤー 1
 62
     7
370
    18
100
AcDbVertex
100
AcDb2dVertex
 10
154.6999457078528
 20
35.68050943118404
 30
0.0
  0
VERTEX
  5
30B
330
300
100
AcDbEntity
  8
レイヤー 1
 62
     7
370
    18
100
AcDbVertex
100
AcDb2dVertex
 10
154.3282199049943
 20
35.54442815951667
 30
0.0
  0
VERTEX
  5
30C
330
300
100
AcDbEntity
  8
レイヤー 1
 62
     7
370
    18
100
AcDbVertex
100
AcDb2dVertex
 10
153.9564941021359
 20
35.4882731031071
 30
0.0
  0
VERTEX
  5
30D
330
300
100
AcDbEntity
  8
レイヤー 1
 62
     7
370
    18
100
AcDbVertex
100
AcDb2dVertex
 10
153.5940700570876
 20
35.51342230014942
 30
0.0
  0
VERTEX
  5
30E
330
300
100
AcDbEntity
  8
レイヤー 1
 62
     7
370
    18
100
AcDbVertex
100
AcDb2dVertex
 10
153.2495605085626
 20
35.61918673154659
 30
0.0
  0
VERTEX
  5
30F
330
300
100
AcDbEntity
  8
レイヤー 1
 62
     7
370
    18
100
AcDbVertex
100
AcDb2dVertex
 10
152.9315781952741
 20
35.80281032091041
 30
0.0
  0
VERTEX
  5
310
330
300
100
AcDbEntity
  8
レイヤー 1
 62
     7
370
    18
100
AcDbVertex
100
AcDb2dVertex
 10
152.6477023272895
 20
36.0605034632071
 30
0.0
  0
VERTEX
  5
311
330
300
100
AcDbEntity
  8
レイヤー 1
 62
     7
370
    18
100
AcDbVertex
100
AcDb2dVertex
 10
152.4058566242249
 20
36.38503145791763
 30
0.0
  0
VERTEX
  5
312
330
300
100
AcDbEntity
  8
レイヤー 1
 62
     7
370
    18
100
AcDbVertex
100
AcDb2dVertex
 10
152.2108642197598
 20
36.76915960452299
 30
0.0
  0
VERTEX
  5
313
330
300
100
AcDbEntity
  8
レイヤー 1
 62
     7
370
    18
100
AcDbVertex
100
AcDb2dVertex
 10
152.0682372666705
 20
37.20289712611594
 30
0.0
  0
VERTEX
  5
314
330
300
100
AcDbEntity
  8
レイヤー 1
 62
     7
370
    18
100
AcDbVertex
100
AcDb2dVertex
 10
151.9810763508936
 20
37.67556422669222
 30
0.0
  0
VERTEX
  5
315
330
300
100
AcDbEntity
  8
レイヤー 1
 62
     7
370
    18
100
AcDbVertex
100
AcDb2dVertex
 10
151.951793039269
 20
38.1757920911505
 30
0.0
  0
SEQEND
  5
316
330
300
100
AcDbEntity
  8
レイヤー 1
370
    18
  0
ENDBLK
  5
2FF
330
2FC
100
AcDbEntity
  8
0
100
AcDbBlockEnd
  0
BLOCK
  5
319
330
317
100
AcDbEntity
  8
0
100
AcDbBlockBegin
  2
block 67
 70
     0
 10
0.0
 20
0.0
 30
0.0
  3
block 67
  1

  0
POLYLINE
  5
31B
330
317
100
AcDbEntity
  8
レイヤー 1
 62
     7
370
    18
100
AcDb2dPolyline
 66
     1
 10
0.0
 20
0.0
 30
0.0
  0
VERTEX
  5
31C
330
31B
100
AcDbEntity
  8
レイヤー 1
 62
     7
370
    18
100
AcDbVertex
100
AcDb2dVertex
 10
156.7046467707197
 20
48.06252711472048
 30
0.0
  0
VERTEX
  5
31D
330
31B
100
AcDbEntity
  8
レイヤー 1
 62
     7
370
    18
100
AcDbVertex
100
AcDb2dVertex
 10
156.7046467707197
 20
39.40638019848174
 30
0.0
  0
SEQEND
  5
31E
330
31B
100
AcDbEntity
  8
レイヤー 1
370
    18
  0
ENDBLK
  5
31A
330
317
100
AcDbEntity
  8
0
100
AcDbBlockEnd
  0
BLOCK
  5
321
330
31F
100
AcDbEntity
  8
0
100
AcDbBlockBegin
  2
block 68
 70
     0
 10
0.0
 20
0.0
 30
0.0
  3
block 68
  1

  0
POLYLINE
  5
323
330
31F
100
AcDbEntity
  8
レイヤー 1
 62
     7
370
    18
100
AcDb2dPolyline
 66
     1
 10
0.0
 20
0.0
 30
0.0
  0
VERTEX
  5
324
330
323
100
AcDbEntity
  8
レイヤー 1
 62
     7
370
    18
100
AcDbVertex
100
AcDb2dVertex
 10
154.3282199049943
 20
26.34671223299665
 30
0.0
  0
VERTEX
  5
325
330
323
100
AcDbEntity
  8
レイヤー 1
 62
     7
370
    18
100
AcDbVertex
100
AcDb2dVertex
 10
154.5835014804514
 20
26.3749620159757
 30
0.0
  0
VERTEX
  5
326
330
323
100
AcDbEntity
  8
レイヤー 1
 62
     7
370
    18
100
AcDbVertex
100
AcDb2dVertex
 10
154.827414240807
 20
26.32604166008516
 30
0.0
  0
VERTEX
  5
327
330
323
100
AcDbEntity
  8
レイヤー 1
 62
     7
370
    18
100
AcDbVertex
100
AcDb2dVertex
 10
155.047211332766
 20
26.20201822261616
 30
0.0
  0
VERTEX
  5
328
330
323
100
AcDbEntity
  8
レイヤー 1
 62
     7
370
    18
100
AcDbVertex
100
AcDb2dVertex
 10
155.2339355080665
 20
26.00909287544217
 30
0.0
  0
VERTEX
  5
329
330
323
100
AcDbEntity
  8
レイヤー 1
 62
     7
370
    18
100
AcDbVertex
100
AcDb2dVertex
 10
155.3782850088985
 20
25.75553384772778
 30
0.0
  0
VERTEX
  5
32A
330
323
100
AcDbEntity
  8
レイヤー 1
 62
     7
370
    18
100
AcDbVertex
100
AcDb2dVertex
 10
155.4733696442914
 20
25.4537434832199
 30
0.0
  0
VERTEX
  5
32B
330
323
100
AcDbEntity
  8
レイヤー 1
 62
     7
370
    18
100
AcDbVertex
100
AcDb2dVertex
 10
155.5147107901144
 20
25.11819118295656
 30
0.0
  0
VERTEX
  5
32C
330
323
100
AcDbEntity
  8
レイヤー 1
 62
     7
370
    18
100
AcDbVertex
100
AcDb2dVertex
 10
155.5009304081734
 20
24.7643798766214
 30
0.0
  0
VERTEX
  5
32D
330
323
100
AcDbEntity
  8
レイヤー 1
 62
     7
370
    18
100
AcDbVertex
100
AcDb2dVertex
 10
155.4320284984684
 20
24.4085015129951
 30
0.0
  0
VERTEX
  5
32E
330
323
100
AcDbEntity
  8
レイヤー 1
 62
     7
370
    18
100
AcDbVertex
100
AcDb2dVertex
 10
155.3117946660332
 20
24.06709255040684
 30
0.0
  0
VERTEX
  5
32F
330
323
100
AcDbEntity
  8
レイヤー 1
 62
     7
370
    18
100
AcDbVertex
100
AcDb2dVertex
 10
155.1453965540956
 20
23.75668944718583
 30
0.0
  0
VERTEX
  5
330
330
323
100
AcDbEntity
  8
レイヤー 1
 62
     7
370
    18
100
AcDbVertex
100
AcDb2dVertex
 10
154.9407578822718
 20
23.49141709482159
 30
0.0
  0
VERTEX
  5
331
330
323
100
AcDbEntity
  8
レイヤー 1
 62
     7
370
    18
100
AcDbVertex
100
AcDb2dVertex
 10
154.7078694274689
 20
23.2833333275125
 30
0.0
  0
VERTEX
  5
332
330
323
100
AcDbEntity
  8
レイヤー 1
 62
     7
370
    18
100
AcDbVertex
100
AcDb2dVertex
 10
154.4567219665942
 20
23.14346245081136
 30
0.0
  0
VERTEX
  5
333
330
323
100
AcDbEntity
  8
レイヤー 1
 62
     7
370
    18
100
AcDbVertex
100
AcDb2dVertex
 10
154.1997178433945
 20
23.07662759839751
 30
0.0
  0
VERTEX
  5
334
330
323
100
AcDbEntity
  8
レイヤー 1
 62
     7
370
    18
100
AcDbVertex
100
AcDb2dVertex
 10
153.9489148920683
 20
23.08696288485326
 30
0.0
  0
VERTEX
  5
335
330
323
100
AcDbEntity
  8
レイヤー 1
 62
     7
370
    18
100
AcDbVertex
100
AcDb2dVertex
 10
153.7156819277169
 20
23.17412380063008
 30
0.0
  0
VERTEX
  5
336
330
323
100
AcDbEntity
  8
レイヤー 1
 62
     7
370
    18
100
AcDbVertex
100
AcDb2dVertex
 10
153.5110432558931
 20
23.33363172159715
 30
0.0
  0
VERTEX
  5
337
330
323
100
AcDbEntity
  8
レイヤー 1
 62
     7
370
    18
100
AcDbVertex
100
AcDb2dVertex
 10
153.3446451439555
 20
23.55825194723544
 30
0.0
  0
VERTEX
  5
338
330
323
100
AcDbEntity
  8
レイヤー 1
 62
     7
370
    18
100
AcDbVertex
100
AcDb2dVertex
 10
153.2244113115203
 20
23.83696017199215
 30
0.0
  0
VERTEX
  5
339
330
323
100
AcDbEntity
  8
レイヤー 1
 62
     7
370
    18
100
AcDbVertex
100
AcDb2dVertex
 10
153.1555094018153
 20
24.15769856166891
 30
0.0
  0
VERTEX
  5
33A
330
323
100
AcDbEntity
  8
レイヤー 1
 62
     7
370
    18
100
AcDbVertex
100
AcDb2dVertex
 10
153.1417290198743
 20
24.50427516748504
 30
0.0
  0
VERTEX
  5
33B
330
323
100
AcDbEntity
  8
レイヤー 1
 62
     7
370
    18
100
AcDbVertex
100
AcDb2dVertex
 10
153.1834146752458
 20
24.86118705975693
 30
0.0
  0
VERTEX
  5
33C
330
323
100
AcDbEntity
  8
レイヤー 1
 62
     7
370
    18
100
AcDbVertex
100
AcDb2dVertex
 10
153.2784993106387
 20
25.21258679925241
 30
0.0
  0
VERTEX
  5
33D
330
323
100
AcDbEntity
  8
レイヤー 1
 62
     7
370
    18
100
AcDbVertex
100
AcDb2dVertex
 10
153.4228488114707
 20
25.53987087035114
 30
0.0
  0
VERTEX
  5
33E
330
323
100
AcDbEntity
  8
レイヤー 1
 62
     7
370
    18
100
AcDbVertex
100
AcDb2dVertex
 10
153.6092284772227
 20
25.82994791020918
 30
0.0
  0
VERTEX
  5
33F
330
323
100
AcDbEntity
  8
レイヤー 1
 62
     7
370
    18
100
AcDbVertex
100
AcDb2dVertex
 10
153.8293700787302
 20
26.06765949869142
 30
0.0
  0
VERTEX
  5
340
330
323
100
AcDbEntity
  8
レイヤー 1
 62
     7
370
    18
100
AcDbVertex
100
AcDb2dVertex
 10
154.0729383295373
 20
26.24267034934211
 30
0.0
  0
VERTEX
  5
341
330
323
100
AcDbEntity
  8
レイヤー 1
 62
     7
370
    18
100
AcDbVertex
100
AcDb2dVertex
 10
154.3282199049943
 20
26.34671223299665
 30
0.0
  0
SEQEND
  5
342
330
323
100
AcDbEntity
  8
レイヤー 1
370
    18
  0
ENDBLK
  5
322
330
31F
100
AcDbEntity
  8
0
100
AcDbBlockEnd
  0
BLOCK
  5
345
330
343
100
AcDbEntity
  8
0
100
AcDbBlockBegin
  2
block 69
 70
     0
 10
0.0
 20
0.0
 30
0.0
  3
block 69
  1

  0
POLYLINE
  5
347
330
343
100
AcDbEntity
  8
レイヤー 1
 62
     7
370
    18
100
AcDb2dPolyline
 66
     1
 10
0.0
 20
0.0
 30
0.0
  0
VERTEX
  5
348
330
347
100
AcDbEntity
  8
レイヤー 1
 62
     7
370
    18
100
AcDbVertex
100
AcDb2dVertex
 10
154.3282199049943
 20
98.30648869070116
 30
0.0
  0
VERTEX
  5
349
330
347
100
AcDbEntity
  8
レイヤー 1
 62
     7
370
    18
100
AcDbVertex
100
AcDb2dVertex
 10
154.5421603346284
 20
98.32164711083625
 30
0.0
  0
VERTEX
  5
34A
330
347
100
AcDbEntity
  8
レイヤー 1
 62
     7
370
    18
100
AcDbVertex
100
AcDb2dVertex
 10
154.7399088154817
 20
98.25550127751946
 30
0.0
  0
VERTEX
  5
34B
330
347
100
AcDbEntity
  8
レイヤー 1
 62
     7
370
    18
100
AcDbVertex
100
AcDb2dVertex
 10
154.9073404560648
 20
98.11287432443012
 30
0.0
  0
VERTEX
  5
34C
330
347
100
AcDbEntity
  8
レイヤー 1
 62
     7
370
    18
100
AcDbVertex
100
AcDb2dVertex
 10
155.0313638935338
 20
97.90410153802398
 30
0.0
  0
VERTEX
  5
34D
330
347
100
AcDbEntity
  8
レイヤー 1
 62
     7
370
    18
100
AcDbVertex
100
AcDb2dVertex
 10
155.1037108987241
 20
97.64503035753319
 30
0.0
  0
VERTEX
  5
34E
330
347
100
AcDbEntity
  8
レイヤー 1
 62
     7
370
    18
100
AcDbVertex
100
AcDb2dVertex
 10
155.1188693188592
 20
97.35495331767515
 30
0.0
  0
VERTEX
  5
34F
330
347
100
AcDbEntity
  8
レイヤー 1
 62
     7
370
    18
100
AcDbVertex
100
AcDb2dVertex
 10
155.074772096648
 20
97.05523001045842
 30
0.0
  0
VERTEX
  5
350
330
347
100
AcDbEntity
  8
レイヤー 1
 62
     7
370
    18
100
AcDbVertex
100
AcDb2dVertex
 10
154.9755533466728
 20
96.76790904698858
 30
0.0
  0
VERTEX
  5
351
330
347
100
AcDbEntity
  8
レイヤー 1
 62
     7
370
    18
100
AcDbVertex
100
AcDb2dVertex
 10
154.8281032599041
 20
96.51435001927419
 30
0.0
  0
VERTEX
  5
352
330
347
100
AcDbEntity
  8
レイヤー 1
 62
     7
370
    18
100
AcDbVertex
100
AcDb2dVertex
 10
154.6437906514432
 20
96.31384546203266
 30
0.0
  0
VERTEX
  5
353
330
347
100
AcDbEntity
  8
レイヤー 1
 62
     7
370
    18
100
AcDbVertex
100
AcDb2dVertex
 10
154.4360513936827
 20
96.18017575720496
 30
0.0
  0
VERTEX
  5
354
330
347
100
AcDbEntity
  8
レイヤー 1
 62
     7
370
    18
100
AcDbVertex
100
AcDb2dVertex
 10
154.220388416306
 20
96.12470971989244
 30
0.0
  0
VERTEX
  5
355
330
347
100
AcDbEntity
  8
レイヤー 1
 62
     7
370
    18
100
AcDbVertex
100
AcDb2dVertex
 10
154.0126491585455
 20
96.15020342648329
 30
0.0
  0
VERTEX
  5
356
330
347
100
AcDbEntity
  8
レイヤー 1
 62
     7
370
    18
100
AcDbVertex
100
AcDb2dVertex
 10
153.8283365500846
 20
96.25562334833194
 30
0.0
  0
VERTEX
  5
357
330
347
100
AcDbEntity
  8
レイヤー 1
 62
     7
370
    18
100
AcDbVertex
100
AcDb2dVertex
 10
153.6808864633159
 20
96.43270125627377
 30
0.0
  0
VERTEX
  5
358
330
347
100
AcDbEntity
  8
レイヤー 1
 62
     7
370
    18
100
AcDbVertex
100
AcDb2dVertex
 10
153.5820122228892
 20
96.66869029701338
 30
0.0
  0
VERTEX
  5
359
330
347
100
AcDbEntity
  8
レイヤー 1
 62
     7
370
    18
100
AcDbVertex
100
AcDb2dVertex
 10
153.5382595102266
 20
96.94567597402748
 30
0.0
  0
VERTEX
  5
35A
330
347
100
AcDbEntity
  8
レイヤー 1
 62
     7
370
    18
100
AcDbVertex
100
AcDb2dVertex
 10
153.5527289112646
 20
97.24402124305011
 30
0.0
  0
VERTEX
  5
35B
330
347
100
AcDbEntity
  8
レイヤー 1
 62
     7
370
    18
100
AcDbVertex
100
AcDb2dVertex
 10
153.6250759164548
 20
97.54029945478159
 30
0.0
  0
VERTEX
  5
35C
330
347
100
AcDbEntity
  8
レイヤー 1
 62
     7
370
    18
100
AcDbVertex
100
AcDb2dVertex
 10
153.7494438634724
 20
97.81315101721339
 30
0.0
  0
VERTEX
  5
35D
330
347
100
AcDbEntity
  8
レイヤー 1
 62
     7
370
    18
100
AcDbVertex
100
AcDb2dVertex
 10
153.916530994507
 20
98.04259437653103
 30
0.0
  0
VERTEX
  5
35E
330
347
100
AcDbEntity
  8
レイヤー 1
 62
     7
370
    18
100
AcDbVertex
100
AcDb2dVertex
 10
154.1146239849089
 20
98.21105954575974
 30
0.0
  0
VERTEX
  5
35F
330
347
100
AcDbEntity
  8
レイヤー 1
 62
     7
370
    18
100
AcDbVertex
100
AcDb2dVertex
 10
154.3282199049943
 20
98.30648869070116
 30
0.0
  0
SEQEND
  5
360
330
347
100
AcDbEntity
  8
レイヤー 1
370
    18
  0
ENDBLK
  5
346
330
343
100
AcDbEntity
  8
0
100
AcDbBlockEnd
  0
BLOCK
  5
363
330
361
100
AcDbEntity
  8
0
100
AcDbBlockBegin
  2
block 70
 70
     0
 10
0.0
 20
0.0
 30
0.0
  3
block 70
  1

  0
POLYLINE
  5
365
330
361
100
AcDbEntity
  8
レイヤー 1
 62
     7
370
    18
100
AcDb2dPolyline
 66
     1
 10
0.0
 20
0.0
 30
0.0
  0
VERTEX
  5
366
330
365
100
AcDbEntity
  8
レイヤー 1
 62
     7
370
    18
100
AcDbVertex
100
AcDb2dVertex
 10
154.3282199049943
 20
174.0534586153408
 30
0.0
  0
VERTEX
  5
367
330
365
100
AcDbEntity
  8
レイヤー 1
 62
     7
370
    18
100
AcDbVertex
100
AcDb2dVertex
 10
154.5421603346284
 20
174.0689615450244
 30
0.0
  0
VERTEX
  5
368
330
365
100
AcDbEntity
  8
レイヤー 1
 62
     7
370
    18
100
AcDbVertex
100
AcDb2dVertex
 10
154.7399088154817
 20
174.0024712021591
 30
0.0
  0
VERTEX
  5
369
330
365
100
AcDbEntity
  8
レイヤー 1
 62
     7
370
    18
100
AcDbVertex
100
AcDb2dVertex
 10
154.9073404560648
 20
173.860016503844
 30
0.0
  0
VERTEX
  5
36A
330
365
100
AcDbEntity
  8
レイヤー 1
 62
     7
370
    18
100
AcDbVertex
100
AcDb2dVertex
 10
155.0313638935338
 20
173.6514159722122
 30
0.0
  0
VERTEX
  5
36B
330
365
100
AcDbEntity
  8
レイヤー 1
 62
     7
370
    18
100
AcDbVertex
100
AcDb2dVertex
 10
155.1037108987241
 20
173.3923447917214
 30
0.0
  0
VERTEX
  5
36C
330
365
100
AcDbEntity
  8
レイヤー 1
 62
     7
370
    18
100
AcDbVertex
100
AcDb2dVertex
 10
155.1188693188592
 20
173.1020954970891
 30
0.0
  0
VERTEX
  5
36D
330
365
100
AcDbEntity
  8
レイヤー 1
 62
     7
370
    18
100
AcDbVertex
100
AcDb2dVertex
 10
155.074772096648
 20
172.8023721898723
 30
0.0
  0
VERTEX
  5
36E
330
365
100
AcDbEntity
  8
レイヤー 1
 62
     7
370
    18
100
AcDbVertex
100
AcDb2dVertex
 10
154.9755533466728
 20
172.5150512264025
 30
0.0
  0
VERTEX
  5
36F
330
365
100
AcDbEntity
  8
レイヤー 1
 62
     7
370
    18
100
AcDbVertex
100
AcDb2dVertex
 10
154.8281032599041
 20
172.2614921986881
 30
0.0
  0
VERTEX
  5
370
330
365
100
AcDbEntity
  8
レイヤー 1
 62
     7
370
    18
100
AcDbVertex
100
AcDb2dVertex
 10
154.6437906514432
 20
172.060643131898
 30
0.0
  0
VERTEX
  5
371
330
365
100
AcDbEntity
  8
レイヤー 1
 62
     7
370
    18
100
AcDbVertex
100
AcDb2dVertex
 10
154.4360513936827
 20
171.9274901913931
 30
0.0
  0
VERTEX
  5
372
330
365
100
AcDbEntity
  8
レイヤー 1
 62
     7
370
    18
100
AcDbVertex
100
AcDb2dVertex
 10
154.220388416306
 20
171.8716796445321
 30
0.0
  0
VERTEX
  5
373
330
365
100
AcDbEntity
  8
レイヤー 1
 62
     7
370
    18
100
AcDbVertex
100
AcDb2dVertex
 10
154.0126491585455
 20
171.8973456058972
 30
0.0
  0
VERTEX
  5
374
330
365
100
AcDbEntity
  8
レイヤー 1
 62
     7
370
    18
100
AcDbVertex
100
AcDb2dVertex
 10
153.8283365500846
 20
172.0027655277459
 30
0.0
  0
VERTEX
  5
375
330
365
100
AcDbEntity
  8
レイヤー 1
 62
     7
370
    18
100
AcDbVertex
100
AcDb2dVertex
 10
153.6808864633159
 20
172.1800156904619
 30
0.0
  0
VERTEX
  5
376
330
365
100
AcDbEntity
  8
レイヤー 1
 62
     7
370
    18
100
AcDbVertex
100
AcDb2dVertex
 10
153.5820122228892
 20
172.4160047312016
 30
0.0
  0
VERTEX
  5
377
330
365
100
AcDbEntity
  8
レイヤー 1
 62
     7
370
    18
100
AcDbVertex
100
AcDb2dVertex
 10
153.5382595102266
 20
172.6929904082156
 30
0.0
  0
VERTEX
  5
378
330
365
100
AcDbEntity
  8
レイヤー 1
 62
     7
370
    18
100
AcDbVertex
100
AcDb2dVertex
 10
153.5527289112646
 20
172.9909911676898
 30
0.0
  0
VERTEX
  5
379
330
365
100
AcDbEntity
  8
レイヤー 1
 62
     7
370
    18
100
AcDbVertex
100
AcDb2dVertex
 10
153.6250759164548
 20
173.2872693794212
 30
0.0
  0
VERTEX
  5
37A
330
365
100
AcDbEntity
  8
レイヤー 1
 62
     7
370
    18
100
AcDbVertex
100
AcDb2dVertex
 10
153.7494438634724
 20
173.5602931966273
 30
0.0
  0
VERTEX
  5
37B
330
365
100
AcDbEntity
  8
レイヤー 1
 62
     7
370
    18
100
AcDbVertex
100
AcDb2dVertex
 10
153.916530994507
 20
173.7895643011707
 30
0.0
  0
VERTEX
  5
37C
330
365
100
AcDbEntity
  8
レイヤー 1
 62
     7
370
    18
100
AcDbVertex
100
AcDb2dVertex
 10
154.1146239849089
 20
173.9582017251737
 30
0.0
  0
VERTEX
  5
37D
330
365
100
AcDbEntity
  8
レイヤー 1
 62
     7
370
    18
100
AcDbVertex
100
AcDb2dVertex
 10
154.3282199049943
 20
174.0534586153408
 30
0.0
  0
SEQEND
  5
37E
330
365
100
AcDbEntity
  8
レイヤー 1
370
    18
  0
ENDBLK
  5
364
330
361
100
AcDbEntity
  8
0
100
AcDbBlockEnd
  0
BLOCK
  5
381
330
37F
100
AcDbEntity
  8
0
100
AcDbBlockBegin
  2
block 71
 70
     0
 10
0.0
 20
0.0
 30
0.0
  3
block 71
  1

  0
POLYLINE
  5
383
330
37F
100
AcDbEntity
  8
レイヤー 1
 62
     7
370
    18
100
AcDb2dPolyline
 66
     1
 10
0.0
 20
0.0
 30
0.0
  0
VERTEX
  5
384
330
383
100
AcDbEntity
  8
レイヤー 1
 62
     7
370
    18
100
AcDbVertex
100
AcDb2dVertex
 10
154.5114989848096
 20
174.0717176214126
 30
0.0
  0
VERTEX
  5
385
330
383
100
AcDbEntity
  8
レイヤー 1
 62
     7
370
    18
100
AcDbVertex
100
AcDb2dVertex
 10
154.5497395446959
 20
174.0519083223724
 30
0.0
  0
VERTEX
  5
386
330
383
100
AcDbEntity
  8
レイヤー 1
 62
     7
370
    18
100
AcDbVertex
100
AcDb2dVertex
 10
154.7171711852791
 20
173.9091091145089
 30
0.0
  0
VERTEX
  5
387
330
383
100
AcDbEntity
  8
レイヤー 1
 62
     7
370
    18
100
AcDbVertex
100
AcDb2dVertex
 10
154.8415391322966
 20
173.700508582877
 30
0.0
  0
VERTEX
  5
388
330
383
100
AcDbEntity
  8
レイヤー 1
 62
     7
370
    18
100
AcDbVertex
100
AcDb2dVertex
 10
154.9138861374868
 20
173.4416096571604
 30
0.0
  0
VERTEX
  5
389
330
383
100
AcDbEntity
  8
レイヤー 1
 62
     7
370
    18
100
AcDbVertex
100
AcDb2dVertex
 10
154.9287000480734
 20
173.1515326173024
 30
0.0
  0
VERTEX
  5
38A
330
383
100
AcDbEntity
  8
レイヤー 1
 62
     7
370
    18
100
AcDbVertex
100
AcDb2dVertex
 10
154.8846028258622
 20
172.8514648005371
 30
0.0
  0
VERTEX
  5
38B
330
383
100
AcDbEntity
  8
レイヤー 1
 62
     7
370
    18
100
AcDbVertex
100
AcDb2dVertex
 10
154.785384075887
 20
172.5641438370673
 30
0.0
  0
VERTEX
  5
38C
330
383
100
AcDbEntity
  8
レイヤー 1
 62
     7
370
    18
100
AcDbVertex
100
AcDb2dVertex
 10
154.6382784986668
 20
172.3107570641272
 30
0.0
  0
VERTEX
  5
38D
330
383
100
AcDbEntity
  8
レイヤー 1
 62
     7
370
    18
100
AcDbVertex
100
AcDb2dVertex
 10
154.453965890206
 20
172.1097357425629
 30
0.0
  0
VERTEX
  5
38E
330
383
100
AcDbEntity
  8
レイヤー 1
 62
     7
370
    18
100
AcDbVertex
100
AcDb2dVertex
 10
154.2458821228969
 20
171.9765828020579
 30
0.0
  0
VERTEX
  5
38F
330
383
100
AcDbEntity
  8
レイヤー 1
 62
     7
370
    18
100
AcDbVertex
100
AcDb2dVertex
 10
154.0302191455202
 20
171.9207722551969
 30
0.0
  0
VERTEX
  5
390
330
383
100
AcDbEntity
  8
レイヤー 1
 62
     7
370
    18
100
AcDbVertex
100
AcDb2dVertex
 10
153.9551160639418
 20
171.9206000004226
 30
0.0
  0
SEQEND
  5
391
330
383
100
AcDbEntity
  8
レイヤー 1
370
    18
  0
ENDBLK
  5
382
330
37F
100
AcDbEntity
  8
0
100
AcDbBlockEnd
  0
BLOCK
  5
394
330
392
100
AcDbEntity
  8
0
100
AcDbBlockBegin
  2
block 72
 70
     0
 10
0.0
 20
0.0
 30
0.0
  3
block 72
  1

  0
POLYLINE
  5
396
330
392
100
AcDbEntity
  8
レイヤー 1
 62
     7
370
    18
100
AcDb2dPolyline
 66
     1
 10
0.0
 20
0.0
 30
0.0
  0
VERTEX
  5
397
330
396
100
AcDbEntity
  8
レイヤー 1
 62
     7
370
    18
100
AcDbVertex
100
AcDb2dVertex
 10
160.2231227898053
 20
23.01496038921154
 30
0.0
  0
VERTEX
  5
398
330
396
100
AcDbEntity
  8
レイヤー 1
 62
     7
370
    18
100
AcDbVertex
100
AcDb2dVertex
 10
160.2210557325142
 20
23.00944823643514
 30
0.0
  0
VERTEX
  5
399
330
396
100
AcDbEntity
  8
レイヤー 1
 62
     7
370
    18
100
AcDbVertex
100
AcDb2dVertex
 10
160.2145100510922
 20
23.00359157411021
 30
0.0
  0
VERTEX
  5
39A
330
396
100
AcDbEntity
  8
レイヤー 1
 62
     7
370
    18
100
AcDbVertex
100
AcDb2dVertex
 10
160.2041747646365
 20
22.99876844043087
 30
0.0
  0
VERTEX
  5
39B
330
396
100
AcDbEntity
  8
レイヤー 1
 62
     7
370
    18
100
AcDbVertex
100
AcDb2dVertex
 10
160.1900498731469
 20
22.99463432584857
 30
0.0
  0
SEQEND
  5
39C
330
396
100
AcDbEntity
  8
レイヤー 1
370
    18
  0
ENDBLK
  5
395
330
392
100
AcDbEntity
  8
0
100
AcDbBlockEnd
  0
BLOCK
  5
39F
330
39D
100
AcDbEntity
  8
0
100
AcDbBlockBegin
  2
block 73
 70
     0
 10
0.0
 20
0.0
 30
0.0
  3
block 73
  1

  0
POLYLINE
  5
3A1
330
39D
100
AcDbEntity
  8
レイヤー 1
 62
     7
370
    18
100
AcDb2dPolyline
 66
     1
 10
0.0
 20
0.0
 30
0.0
  0
VERTEX
  5
3A2
330
3A1
100
AcDbEntity
  8
レイヤー 1
 62
     7
370
    18
100
AcDbVertex
100
AcDb2dVertex
 10
156.308460789916
 20
48.95549586449724
 30
0.0
  0
VERTEX
  5
3A3
330
3A1
100
AcDbEntity
  8
レイヤー 1
 62
     7
370
    18
100
AcDbVertex
100
AcDb2dVertex
 10
156.308460789916
 20
38.6364013575284
 30
0.0
  0
SEQEND
  5
3A4
330
3A1
100
AcDbEntity
  8
レイヤー 1
370
    18
  0
ENDBLK
  5
3A0
330
39D
100
AcDbEntity
  8
0
100
AcDbBlockEnd
  0
BLOCK
  5
3A7
330
3A5
100
AcDbEntity
  8
0
100
AcDbBlockBegin
  2
block 74
 70
     0
 10
0.0
 20
0.0
 30
0.0
  3
block 74
  1

  0
POLYLINE
  5
3A9
330
3A5
100
AcDbEntity
  8
レイヤー 1
 62
     7
370
    18
100
AcDb2dPolyline
 66
     1
 10
0.0
 20
0.0
 30
0.0
  0
VERTEX
  5
3AA
330
3A9
100
AcDbEntity
  8
レイヤー 1
 62
     7
370
    18
100
AcDbVertex
100
AcDb2dVertex
 10
151.9676404785012
 20
47.21089951076672
 30
0.0
  0
VERTEX
  5
3AB
330
3A9
100
AcDbEntity
  8
レイヤー 1
 62
     7
370
    18
100
AcDbVertex
100
AcDb2dVertex
 10
151.9676404785012
 20
37.80578883603467
 30
0.0
  0
SEQEND
  5
3AC
330
3A9
100
AcDbEntity
  8
レイヤー 1
370
    18
  0
ENDBLK
  5
3A8
330
3A5
100
AcDbEntity
  8
0
100
AcDbBlockEnd
  0
BLOCK
  5
3AF
330
3AD
100
AcDbEntity
  8
0
100
AcDbBlockBegin
  2
block 75
 70
     0
 10
0.0
 20
0.0
 30
0.0
  3
block 75
  1

  0
POLYLINE
  5
3B1
330
3AD
100
AcDbEntity
  8
レイヤー 1
 62
     7
370
    18
100
AcDb2dPolyline
 66
     1
 10
0.0
 20
0.0
 30
0.0
  0
VERTEX
  5
3B2
330
3B1
100
AcDbEntity
  8
レイヤー 1
 62
     7
370
    18
100
AcDbVertex
100
AcDb2dVertex
 10
155.1705457511379
 20
24.23624673873261
 30
0.0
  0
VERTEX
  5
3B3
330
3B1
100
AcDbEntity
  8
レイヤー 1
 62
     7
370
    18
100
AcDbVertex
100
AcDb2dVertex
 10
153.165155669174
 20
24.75542262835976
 30
0.0
  0
SEQEND
  5
3B4
330
3B1
100
AcDbEntity
  8
レイヤー 1
370
    18
  0
ENDBLK
  5
3B0
330
3AD
100
AcDbEntity
  8
0
100
AcDbBlockEnd
  0
BLOCK
  5
3B7
330
3B5
100
AcDbEntity
  8
0
100
AcDbBlockBegin
  2
block 76
 70
     0
 10
0.0
 20
0.0
 30
0.0
  3
block 76
  1

  0
POLYLINE
  5
3B9
330
3B5
100
AcDbEntity
  8
レイヤー 1
 62
     7
370
    18
100
AcDb2dPolyline
 66
     1
 10
0.0
 20
0.0
 30
0.0
  0
VERTEX
  5
3BA
330
3B9
100
AcDbEntity
  8
レイヤー 1
 62
     7
370
    18
100
AcDbVertex
100
AcDb2dVertex
 10
154.5114989848096
 20
98.32440318722446
 30
0.0
  0
VERTEX
  5
3BB
330
3B9
100
AcDbEntity
  8
レイヤー 1
 62
     7
370
    18
100
AcDbVertex
100
AcDb2dVertex
 10
154.5497395446959
 20
98.30476614295854
 30
0.0
  0
VERTEX
  5
3BC
330
3B9
100
AcDbEntity
  8
レイヤー 1
 62
     7
370
    18
100
AcDbVertex
100
AcDb2dVertex
 10
154.7171711852791
 20
98.1621391898692
 30
0.0
  0
VERTEX
  5
3BD
330
3B9
100
AcDbEntity
  8
レイヤー 1
 62
     7
370
    18
100
AcDbVertex
100
AcDb2dVertex
 10
154.8415391322966
 20
97.95336640346305
 30
0.0
  0
VERTEX
  5
3BE
330
3B9
100
AcDbEntity
  8
レイヤー 1
 62
     7
370
    18
100
AcDbVertex
100
AcDb2dVertex
 10
154.9138861374868
 20
97.69463973252078
 30
0.0
  0
VERTEX
  5
3BF
330
3B9
100
AcDbEntity
  8
レイヤー 1
 62
     7
370
    18
100
AcDbVertex
100
AcDb2dVertex
 10
154.9287000480734
 20
97.40456269266275
 30
0.0
  0
VERTEX
  5
3C0
330
3B9
100
AcDbEntity
  8
レイヤー 1
 62
     7
370
    18
100
AcDbVertex
100
AcDb2dVertex
 10
154.8846028258622
 20
97.10415036634896
 30
0.0
  0
VERTEX
  5
3C1
330
3B9
100
AcDbEntity
  8
レイヤー 1
 62
     7
370
    18
100
AcDbVertex
100
AcDb2dVertex
 10
154.785384075887
 20
96.81717391242765
 30
0.0
  0
VERTEX
  5
3C2
330
3B9
100
AcDbEntity
  8
レイヤー 1
 62
     7
370
    18
100
AcDbVertex
100
AcDb2dVertex
 10
154.6382784986668
 20
96.56361488471326
 30
0.0
  0
VERTEX
  5
3C3
330
3B9
100
AcDbEntity
  8
レイヤー 1
 62
     7
370
    18
100
AcDbVertex
100
AcDb2dVertex
 10
154.453965890206
 20
96.3627658179232
 30
0.0
  0
VERTEX
  5
3C4
330
3B9
100
AcDbEntity
  8
レイヤー 1
 62
     7
370
    18
100
AcDbVertex
100
AcDb2dVertex
 10
154.2458821228969
 20
96.22978513219256
 30
0.0
  0
VERTEX
  5
3C5
330
3B9
100
AcDbEntity
  8
レイヤー 1
 62
     7
370
    18
100
AcDbVertex
100
AcDb2dVertex
 10
154.0302191455202
 20
96.17363007578298
 30
0.0
  0
VERTEX
  5
3C6
330
3B9
100
AcDbEntity
  8
レイヤー 1
 62
     7
370
    18
100
AcDbVertex
100
AcDb2dVertex
 10
153.9551160639418
 20
96.17328556623445
 30
0.0
  0
SEQEND
  5
3C7
330
3B9
100
AcDbEntity
  8
レイヤー 1
370
    18
  0
ENDBLK
  5
3B8
330
3B5
100
AcDbEntity
  8
0
100
AcDbBlockEnd
  0
BLOCK
  5
3CA
330
3C8
100
AcDbEntity
  8
0
100
AcDbBlockBegin
  2
block 77
 70
     0
 10
0.0
 20
0.0
 30
0.0
  3
block 77
  1

  0
SPLINE
  5
3CC
330
3C8
100
AcDbEntity
  8
レイヤー 1
 62
     7
370
    18
100
AcDbSpline
210
0.0
220
0.0
230
1.0
 70
     8
 71
     3
 72
     8
 73
     4
 74
     0
 42
0.000000001
 43
0.0000000001
 40
0.0
 40
0.0
 40
0.0
 40
0.0
 40
1.0
 40
1.0
 40
1.0
 40
1.0
 10
156.3876979860767
 20
48.14486489681795
 30
0.0
 10
156.3887315147223
 20
48.41702744015269
 30
0.0
 10
156.3622042794858
 20
48.68850096439038
 30
0.0
 10
156.308460789916
 20
48.95549586449724
 30
0.0
  0
ENDBLK
  5
3CB
330
3C8
100
AcDbEntity
  8
0
100
AcDbBlockEnd
  0
BLOCK
  5
3CF
330
3CD
100
AcDbEntity
  8
0
100
AcDbBlockBegin
  2
block 78
 70
     0
 10
0.0
 20
0.0
 30
0.0
  3
block 78
  1

  0
POLYLINE
  5
3D1
330
3CD
100
AcDbEntity
  8
レイヤー 1
 62
     7
370
    18
100
AcDb2dPolyline
 66
     1
 10
0.0
 20
0.0
 30
0.0
  0
VERTEX
  5
3D2
330
3D1
100
AcDbEntity
  8
レイヤー 1
 62
     7
370
    18
100
AcDbVertex
100
AcDb2dVertex
 10
156.308460789916
 20
49.38062064737707
 30
0.0
  0
VERTEX
  5
3D3
330
3D1
100
AcDbEntity
  8
レイヤー 1
 62
     7
370
    18
100
AcDbVertex
100
AcDb2dVertex
 10
156.308460789916
 20
48.95549586449724
 30
0.0
  0
SEQEND
  5
3D4
330
3D1
100
AcDbEntity
  8
レイヤー 1
370
    18
  0
ENDBLK
  5
3D0
330
3CD
100
AcDbEntity
  8
0
100
AcDbBlockEnd
  0
BLOCK
  5
3D7
330
3D5
100
AcDbEntity
  8
0
100
AcDbBlockBegin
  2
block 79
 70
     0
 10
0.0
 20
0.0
 30
0.0
  3
block 79
  1

  0
SPLINE
  5
3D9
330
3D5
100
AcDbEntity
  8
レイヤー 1
 62
     7
370
    18
100
AcDbSpline
210
0.0
220
0.0
230
1.0
 70
     8
 71
     3
 72
     8
 73
     4
 74
     0
 42
0.000000001
 43
0.0000000001
 40
0.0
 40
0.0
 40
0.0
 40
0.0
 40
1.0
 40
1.0
 40
1.0
 40
1.0
 10
156.308460789916
 20
49.38062064737707
 30
0.0
 10
156.1262152387462
 20
49.99453666284859
 30
0.0
 10
155.6711181251447
 20
50.48994139362752
 30
0.0
 10
155.074772096648
 20
50.72282984843041
 30
0.0
  0
ENDBLK
  5
3D8
330
3D5
100
AcDbEntity
  8
0
100
AcDbBlockEnd
  0
BLOCK
  5
3DC
330
3DA
100
AcDbEntity
  8
0
100
AcDbBlockBegin
  2
block 80
 70
     0
 10
0.0
 20
0.0
 30
0.0
  3
block 80
  1

  0
POLYLINE
  5
3DE
330
3DA
100
AcDbEntity
  8
レイヤー 1
 62
     7
370
    18
100
AcDb2dPolyline
 66
     1
 10
0.0
 20
0.0
 30
0.0
  0
VERTEX
  5
3DF
330
3DE
100
AcDbEntity
  8
レイヤー 1
 62
     7
370
    18
100
AcDbVertex
100
AcDb2dVertex
 10
156.308460789916
 20
38.08001843666055
 30
0.0
  0
VERTEX
  5
3E0
330
3DE
100
AcDbEntity
  8
レイヤー 1
 62
     7
370
    18
100
AcDbVertex
100
AcDb2dVertex
 10
156.1351724870079
 20
37.59701604962853
 30
0.0
  0
VERTEX
  5
3E1
330
3DE
100
AcDbEntity
  8
レイヤー 1
 62
     7
370
    18
100
AcDbVertex
100
AcDb2dVertex
 10
155.9146863759519
 20
37.14364148376965
 30
0.0
  0
VERTEX
  5
3E2
330
3DE
100
AcDbEntity
  8
レイヤー 1
 62
     7
370
    18
100
AcDbVertex
100
AcDb2dVertex
 10
155.6521700999758
 20
36.73023002553967
 30
0.0
  0
VERTEX
  5
3E3
330
3DE
100
AcDbEntity
  8
レイヤー 1
 62
     7
370
    18
100
AcDbVertex
100
AcDb2dVertex
 10
155.3545138500503
 20
36.36642794229729
 30
0.0
  0
VERTEX
  5
3E4
330
3DE
100
AcDbEntity
  8
レイヤー 1
 62
     7
370
    18
100
AcDbVertex
100
AcDb2dVertex
 10
155.0279187980486
 20
36.0605034632071
 30
0.0
  0
VERTEX
  5
3E5
330
3DE
100
AcDbEntity
  8
レイヤー 1
 62
     7
370
    18
100
AcDbVertex
100
AcDb2dVertex
 10
154.6806531731354
 20
35.82003579833666
 30
0.0
  0
VERTEX
  5
3E6
330
3DE
100
AcDbEntity
  8
レイヤー 1
 62
     7
370
    18
100
AcDbVertex
100
AcDb2dVertex
 10
154.3206406949268
 20
35.65053710046237
 30
0.0
  0
VERTEX
  5
3E7
330
3DE
100
AcDbEntity
  8
レイヤー 1
 62
     7
370
    18
100
AcDbVertex
100
AcDb2dVertex
 10
153.9558050830388
 20
35.55614148416652
 30
0.0
  0
VERTEX
  5
3E8
330
3DE
100
AcDbEntity
  8
レイヤー 1
 62
     7
370
    18
100
AcDbVertex
100
AcDb2dVertex
 10
153.5957926048302
 20
35.5392605162888
 30
0.0
  0
VERTEX
  5
3E9
330
3DE
100
AcDbEntity
  8
レイヤー 1
 62
     7
370
    18
100
AcDbVertex
100
AcDb2dVertex
 10
153.3918429521034
 20
35.56509873242817
 30
0.0
  0
SEQEND
  5
3EA
330
3DE
100
AcDbEntity
  8
レイヤー 1
370
    18
  0
ENDBLK
  5
3DD
330
3DA
100
AcDbEntity
  8
0
100
AcDbBlockEnd
  0
BLOCK
  5
3ED
330
3EB
100
AcDbEntity
  8
0
100
AcDbBlockBegin
  2
block 81
 70
     0
 10
0.0
 20
0.0
 30
0.0
  3
block 81
  1

  0
POLYLINE
  5
3EF
330
3EB
100
AcDbEntity
  8
レイヤー 1
 62
     7
370
    18
100
AcDb2dPolyline
 66
     1
 10
0.0
 20
0.0
 30
0.0
  0
VERTEX
  5
3F0
330
3EF
100
AcDbEntity
  8
レイヤー 1
 62
     7
370
    18
100
AcDbVertex
100
AcDb2dVertex
 10
156.308460789916
 20
38.6364013575284
 30
0.0
  0
VERTEX
  5
3F1
330
3EF
100
AcDbEntity
  8
レイヤー 1
 62
     7
370
    18
100
AcDbVertex
100
AcDb2dVertex
 10
156.308460789916
 20
38.08001843666055
 30
0.0
  0
SEQEND
  5
3F2
330
3EF
100
AcDbEntity
  8
レイヤー 1
370
    18
  0
ENDBLK
  5
3EE
330
3EB
100
AcDbEntity
  8
0
100
AcDbBlockEnd
  0
BLOCK
  5
3F5
330
3F3
100
AcDbEntity
  8
0
100
AcDbBlockBegin
  2
block 82
 70
     0
 10
0.0
 20
0.0
 30
0.0
  3
block 82
  1

  0
SPLINE
  5
3F7
330
3F3
100
AcDbEntity
  8
レイヤー 1
 62
     7
370
    18
100
AcDbSpline
210
0.0
220
0.0
230
1.0
 70
     8
 71
     3
 72
     8
 73
     4
 74
     0
 42
0.000000001
 43
0.0000000001
 40
0.0
 40
0.0
 40
0.0
 40
0.0
 40
1.0
 40
1.0
 40
1.0
 40
1.0
 10
156.308460789916
 20
38.6364013575284
 30
0.0
 10
156.3608262412917
 20
38.91717663957626
 30
0.0
 10
156.3873534765282
 20
39.20243054575495
 30
0.0
 10
156.3876979860767
 20
39.48802896148216
 30
0.0
  0
ENDBLK
  5
3F6
330
3F3
100
AcDbEntity
  8
0
100
AcDbBlockEnd
  0
BLOCK
  5
3FA
330
3F8
100
AcDbEntity
  8
0
100
AcDbBlockBegin
  2
block 83
 70
     0
 10
0.0
 20
0.0
 30
0.0
  3
block 83
  1

  0
POLYLINE
  5
3FC
330
3F8
100
AcDbEntity
  8
レイヤー 1
 62
     7
370
    18
100
AcDb2dPolyline
 66
     1
 10
0.0
 20
0.0
 30
0.0
  0
VERTEX
  5
3FD
330
3FC
100
AcDbEntity
  8
レイヤー 1
 62
     7
370
    18
100
AcDbVertex
100
AcDb2dVertex
 10
156.3876979860767
 20
48.14486489681795
 30
0.0
  0
VERTEX
  5
3FE
330
3FC
100
AcDbEntity
  8
レイヤー 1
 62
     7
370
    18
100
AcDbVertex
100
AcDb2dVertex
 10
156.3876979860767
 20
39.48802896148216
 30
0.0
  0
SEQEND
  5
3FF
330
3FC
100
AcDbEntity
  8
レイヤー 1
370
    18
  0
ENDBLK
  5
3FB
330
3F8
100
AcDbEntity
  8
0
100
AcDbBlockEnd
  0
BLOCK
  5
402
330
400
100
AcDbEntity
  8
0
100
AcDbBlockBegin
  2
block 84
 70
     0
 10
0.0
 20
0.0
 30
0.0
  3
block 84
  1

  0
POLYLINE
  5
404
330
400
100
AcDbEntity
  8
レイヤー 1
 62
     7
370
    18
100
AcDb2dPolyline
 66
     1
 10
0.0
 20
0.0
 30
0.0
  0
VERTEX
  5
405
330
404
100
AcDbEntity
  8
レイヤー 1
 62
     7
370
    18
100
AcDbVertex
100
AcDb2dVertex
 10
154.6527478997049
 20
26.36910535365078
 30
0.0
  0
VERTEX
  5
406
330
404
100
AcDbEntity
  8
レイヤー 1
 62
     7
370
    18
100
AcDbVertex
100
AcDb2dVertex
 10
154.8573865715287
 20
26.25093857850671
 30
0.0
  0
VERTEX
  5
407
330
404
100
AcDbEntity
  8
レイヤー 1
 62
     7
370
    18
100
AcDbVertex
100
AcDb2dVertex
 10
155.0437662372807
 20
26.05801323133272
 30
0.0
  0
VERTEX
  5
408
330
404
100
AcDbEntity
  8
レイヤー 1
 62
     7
370
    18
100
AcDbVertex
100
AcDb2dVertex
 10
155.1881157381127
 20
25.80445420361833
 30
0.0
  0
VERTEX
  5
409
330
404
100
AcDbEntity
  8
レイヤー 1
 62
     7
370
    18
100
AcDbVertex
100
AcDb2dVertex
 10
155.2832003735056
 20
25.5033528582075
 30
0.0
  0
VERTEX
  5
40A
330
404
100
AcDbEntity
  8
レイヤー 1
 62
     7
370
    18
100
AcDbVertex
100
AcDb2dVertex
 10
155.3245415193286
 20
25.16780055794416
 30
0.0
  0
VERTEX
  5
40B
330
404
100
AcDbEntity
  8
レイヤー 1
 62
     7
370
    18
100
AcDbVertex
100
AcDb2dVertex
 10
155.3107611373876
 20
24.81364474206048
 30
0.0
  0
VERTEX
  5
40C
330
404
100
AcDbEntity
  8
レイヤー 1
 62
     7
370
    18
100
AcDbVertex
100
AcDb2dVertex
 10
155.2418592276826
 20
24.45776637843417
 30
0.0
  0
VERTEX
  5
40D
330
404
100
AcDbEntity
  8
レイヤー 1
 62
     7
370
    18
100
AcDbVertex
100
AcDb2dVertex
 10
155.1216253952474
 20
24.11635741584591
 30
0.0
  0
VERTEX
  5
40E
330
404
100
AcDbEntity
  8
レイヤー 1
 62
     7
370
    18
100
AcDbVertex
100
AcDb2dVertex
 10
154.9555717928583
 20
23.8059543126249
 30
0.0
  0
VERTEX
  5
40F
330
404
100
AcDbEntity
  8
レイヤー 1
 62
     7
370
    18
100
AcDbVertex
100
AcDb2dVertex
 10
154.7509331210345
 20
23.54068196026066
 30
0.0
  0
VERTEX
  5
410
330
404
100
AcDbEntity
  8
レイヤー 1
 62
     7
370
    18
100
AcDbVertex
100
AcDb2dVertex
 10
154.5177001566831
 20
23.3329427025001
 30
0.0
  0
VERTEX
  5
411
330
404
100
AcDbEntity
  8
レイヤー 1
 62
     7
370
    18
100
AcDbVertex
100
AcDb2dVertex
 10
154.2665526958084
 20
23.1923828067019
 30
0.0
  0
VERTEX
  5
412
330
404
100
AcDbEntity
  8
レイヤー 1
 62
     7
370
    18
100
AcDbVertex
100
AcDb2dVertex
 10
154.0098930821572
 20
23.12623697338511
 30
0.0
  0
VERTEX
  5
413
330
404
100
AcDbEntity
  8
レイヤー 1
 62
     7
370
    18
100
AcDbVertex
100
AcDb2dVertex
 10
153.8138671490465
 20
23.12727050203068
 30
0.0
  0
SEQEND
  5
414
330
404
100
AcDbEntity
  8
レイヤー 1
370
    18
  0
ENDBLK
  5
403
330
400
100
AcDbEntity
  8
0
100
AcDbBlockEnd
  0
BLOCK
  5
417
330
415
100
AcDbEntity
  8
0
100
AcDbBlockBegin
  2
block 85
 70
     0
 10
0.0
 20
0.0
 30
0.0
  3
block 85
  1

  0
INSERT
  5
41A
330
415
100
AcDbEntity
  8
レイヤー 1
100
AcDbBlockReference
  2
block 86
 10
0.0
 20
0.0
 30
0.0
  0
INSERT
  5
43E
330
415
100
AcDbEntity
  8
レイヤー 1
100
AcDbBlockReference
  2
block 87
 10
0.0
 20
0.0
 30
0.0
  0
INSERT
  5
446
330
415
100
AcDbEntity
  8
レイヤー 1
100
AcDbBlockReference
  2
block 88
 10
0.0
 20
0.0
 30
0.0
  0
ENDBLK
  5
418
330
415
100
AcDbEntity
  8
0
100
AcDbBlockEnd
  0
BLOCK
  5
41B
330
419
100
AcDbEntity
  8
0
100
AcDbBlockBegin
  2
block 86
 70
     0
 10
0.0
 20
0.0
 30
0.0
  3
block 86
  1

  0
POLYLINE
  5
41D
330
419
100
AcDbEntity
  8
レイヤー 1
 62
     7
370
    18
100
AcDb2dPolyline
 66
     1
 10
0.0
 20
0.0
 30
0.0
  0
VERTEX
  5
41E
330
41D
100
AcDbEntity
  8
レイヤー 1
 62
     7
370
    18
100
AcDbVertex
100
AcDb2dVertex
 10
142.4391953853971
 20
26.34671223299665
 30
0.0
  0
VERTEX
  5
41F
330
41D
100
AcDbEntity
  8
レイヤー 1
 62
     7
370
    18
100
AcDbVertex
100
AcDb2dVertex
 10
142.1839138099402
 20
26.3749620159757
 30
0.0
  0
VERTEX
  5
420
330
41D
100
AcDbEntity
  8
レイヤー 1
 62
     7
370
    18
100
AcDbVertex
100
AcDb2dVertex
 10
141.940345559133
 20
26.32604166008516
 30
0.0
  0
VERTEX
  5
421
330
41D
100
AcDbEntity
  8
レイヤー 1
 62
     7
370
    18
100
AcDbVertex
100
AcDb2dVertex
 10
141.7202039576255
 20
26.20201822261616
 30
0.0
  0
VERTEX
  5
422
330
41D
100
AcDbEntity
  8
レイヤー 1
 62
     7
370
    18
100
AcDbVertex
100
AcDb2dVertex
 10
141.533479782325
 20
26.00909287544217
 30
0.0
  0
VERTEX
  5
423
330
41D
100
AcDbEntity
  8
レイヤー 1
 62
     7
370
    18
100
AcDbVertex
100
AcDb2dVertex
 10
141.3894747910415
 20
25.75553384772778
 30
0.0
  0
VERTEX
  5
424
330
41D
100
AcDbEntity
  8
レイヤー 1
 62
     7
370
    18
100
AcDbVertex
100
AcDb2dVertex
 10
141.2943901556486
 20
25.4537434832199
 30
0.0
  0
VERTEX
  5
425
330
41D
100
AcDbEntity
  8
レイヤー 1
 62
     7
370
    18
100
AcDbVertex
100
AcDb2dVertex
 10
141.2530490098256
 20
25.11819118295656
 30
0.0
  0
VERTEX
  5
426
330
41D
100
AcDbEntity
  8
レイヤー 1
 62
     7
370
    18
100
AcDbVertex
100
AcDb2dVertex
 10
141.2668293917666
 20
24.7643798766214
 30
0.0
  0
VERTEX
  5
427
330
41D
100
AcDbEntity
  8
レイヤー 1
 62
     7
370
    18
100
AcDbVertex
100
AcDb2dVertex
 10
141.3353867919231
 20
24.4085015129951
 30
0.0
  0
VERTEX
  5
428
330
41D
100
AcDbEntity
  8
レイヤー 1
 62
     7
370
    18
100
AcDbVertex
100
AcDb2dVertex
 10
141.4559651339069
 20
24.06709255040684
 30
0.0
  0
VERTEX
  5
429
330
41D
100
AcDbEntity
  8
レイヤー 1
 62
     7
370
    18
100
AcDbVertex
100
AcDb2dVertex
 10
141.6220187362959
 20
23.75668944718583
 30
0.0
  0
VERTEX
  5
42A
330
41D
100
AcDbEntity
  8
レイヤー 1
 62
     7
370
    18
100
AcDbVertex
100
AcDb2dVertex
 10
141.8266574081197
 20
23.49141709482159
 30
0.0
  0
VERTEX
  5
42B
330
41D
100
AcDbEntity
  8
レイヤー 1
 62
     7
370
    18
100
AcDbVertex
100
AcDb2dVertex
 10
142.0598903724712
 20
23.2833333275125
 30
0.0
  0
VERTEX
  5
42C
330
41D
100
AcDbEntity
  8
レイヤー 1
 62
     7
370
    18
100
AcDbVertex
100
AcDb2dVertex
 10
142.3106933237973
 20
23.14346245081136
 30
0.0
  0
VERTEX
  5
42D
330
41D
100
AcDbEntity
  8
レイヤー 1
 62
     7
370
    18
100
AcDbVertex
100
AcDb2dVertex
 10
142.567697446997
 20
23.07662759839751
 30
0.0
  0
VERTEX
  5
42E
330
41D
100
AcDbEntity
  8
レイヤー 1
 62
     7
370
    18
100
AcDbVertex
100
AcDb2dVertex
 10
142.8185003983232
 20
23.08696288485326
 30
0.0
  0
VERTEX
  5
42F
330
41D
100
AcDbEntity
  8
レイヤー 1
 62
     7
370
    18
100
AcDbVertex
100
AcDb2dVertex
 10
143.0517333626746
 20
23.17412380063008
 30
0.0
  0
VERTEX
  5
430
330
41D
100
AcDbEntity
  8
レイヤー 1
 62
     7
370
    18
100
AcDbVertex
100
AcDb2dVertex
 10
143.2563720344984
 20
23.33363172159715
 30
0.0
  0
VERTEX
  5
431
330
41D
100
AcDbEntity
  8
レイヤー 1
 62
     7
370
    18
100
AcDbVertex
100
AcDb2dVertex
 10
143.422770146436
 20
23.55825194723544
 30
0.0
  0
VERTEX
  5
432
330
41D
100
AcDbEntity
  8
レイヤー 1
 62
     7
370
    18
100
AcDbVertex
100
AcDb2dVertex
 10
143.5430039788712
 20
23.83696017199215
 30
0.0
  0
VERTEX
  5
433
330
41D
100
AcDbEntity
  8
レイヤー 1
 62
     7
370
    18
100
AcDbVertex
100
AcDb2dVertex
 10
143.6115613790277
 20
24.15769856166891
 30
0.0
  0
VERTEX
  5
434
330
41D
100
AcDbEntity
  8
レイヤー 1
 62
     7
370
    18
100
AcDbVertex
100
AcDb2dVertex
 10
143.6260307800657
 20
24.50427516748504
 30
0.0
  0
VERTEX
  5
435
330
41D
100
AcDbEntity
  8
レイヤー 1
 62
     7
370
    18
100
AcDbVertex
100
AcDb2dVertex
 10
143.5840006151457
 20
24.86118705975693
 30
0.0
  0
VERTEX
  5
436
330
41D
100
AcDbEntity
  8
レイヤー 1
 62
     7
370
    18
100
AcDbVertex
100
AcDb2dVertex
 10
143.4889159797528
 20
25.21258679925241
 30
0.0
  0
VERTEX
  5
437
330
41D
100
AcDbEntity
  8
レイヤー 1
 62
     7
370
    18
100
AcDbVertex
100
AcDb2dVertex
 10
143.3449109884693
 20
25.53987087035114
 30
0.0
  0
VERTEX
  5
438
330
41D
100
AcDbEntity
  8
レイヤー 1
 62
     7
370
    18
100
AcDbVertex
100
AcDb2dVertex
 10
143.1581868131688
 20
25.82994791020918
 30
0.0
  0
VERTEX
  5
439
330
41D
100
AcDbEntity
  8
レイヤー 1
 62
     7
370
    18
100
AcDbVertex
100
AcDb2dVertex
 10
142.9380452116613
 20
26.06765949869142
 30
0.0
  0
VERTEX
  5
43A
330
41D
100
AcDbEntity
  8
レイヤー 1
 62
     7
370
    18
100
AcDbVertex
100
AcDb2dVertex
 10
142.6944769608542
 20
26.24267034934211
 30
0.0
  0
VERTEX
  5
43B
330
41D
100
AcDbEntity
  8
レイヤー 1
 62
     7
370
    18
100
AcDbVertex
100
AcDb2dVertex
 10
142.4391953853971
 20
26.34671223299665
 30
0.0
  0
SEQEND
  5
43C
330
41D
100
AcDbEntity
  8
レイヤー 1
370
    18
  0
ENDBLK
  5
41C
330
419
100
AcDbEntity
  8
0
100
AcDbBlockEnd
  0
BLOCK
  5
43F
330
43D
100
AcDbEntity
  8
0
100
AcDbBlockBegin
  2
block 87
 70
     0
 10
0.0
 20
0.0
 30
0.0
  3
block 87
  1

  0
POLYLINE
  5
441
330
43D
100
AcDbEntity
  8
レイヤー 1
 62
     7
370
    18
100
AcDb2dPolyline
 66
     1
 10
0.0
 20
0.0
 30
0.0
  0
VERTEX
  5
442
330
441
100
AcDbEntity
  8
レイヤー 1
 62
     7
370
    18
100
AcDbVertex
100
AcDb2dVertex
 10
141.5972140488021
 20
24.23624673873261
 30
0.0
  0
VERTEX
  5
443
330
441
100
AcDbEntity
  8
レイヤー 1
 62
     7
370
    18
100
AcDbVertex
100
AcDb2dVertex
 10
143.6022596212175
 20
24.75542262835976
 30
0.0
  0
SEQEND
  5
444
330
441
100
AcDbEntity
  8
レイヤー 1
370
    18
  0
ENDBLK
  5
440
330
43D
100
AcDbEntity
  8
0
100
AcDbBlockEnd
  0
BLOCK
  5
447
330
445
100
AcDbEntity
  8
0
100
AcDbBlockBegin
  2
block 88
 70
     0
 10
0.0
 20
0.0
 30
0.0
  3
block 88
  1

  0
POLYLINE
  5
449
330
445
100
AcDbEntity
  8
レイヤー 1
 62
     7
370
    18
100
AcDb2dPolyline
 66
     1
 10
0.0
 20
0.0
 30
0.0
  0
VERTEX
  5
44A
330
449
100
AcDbEntity
  8
レイヤー 1
 62
     7
370
    18
100
AcDbVertex
100
AcDb2dVertex
 10
142.1146673906866
 20
26.36910535365078
 30
0.0
  0
VERTEX
  5
44B
330
449
100
AcDbEntity
  8
レイヤー 1
 62
     7
370
    18
100
AcDbVertex
100
AcDb2dVertex
 10
141.9103732284113
 20
26.25093857850671
 30
0.0
  0
VERTEX
  5
44C
330
449
100
AcDbEntity
  8
レイヤー 1
 62
     7
370
    18
100
AcDbVertex
100
AcDb2dVertex
 10
141.7236490531108
 20
26.05801323133272
 30
0.0
  0
VERTEX
  5
44D
330
449
100
AcDbEntity
  8
レイヤー 1
 62
     7
370
    18
100
AcDbVertex
100
AcDb2dVertex
 10
141.5796440618273
 20
25.80445420361833
 30
0.0
  0
VERTEX
  5
44E
330
449
100
AcDbEntity
  8
レイヤー 1
 62
     7
370
    18
100
AcDbVertex
100
AcDb2dVertex
 10
141.4845594264344
 20
25.5033528582075
 30
0.0
  0
VERTEX
  5
44F
330
449
100
AcDbEntity
  8
レイヤー 1
 62
     7
370
    18
100
AcDbVertex
100
AcDb2dVertex
 10
141.4428737710629
 20
25.16780055794416
 30
0.0
  0
VERTEX
  5
450
330
449
100
AcDbEntity
  8
レイヤー 1
 62
     7
370
    18
100
AcDbVertex
100
AcDb2dVertex
 10
141.4566541530039
 20
24.81364474206048
 30
0.0
  0
VERTEX
  5
451
330
449
100
AcDbEntity
  8
レイヤー 1
 62
     7
370
    18
100
AcDbVertex
100
AcDb2dVertex
 10
141.5252115531604
 20
24.45776637843417
 30
0.0
  0
VERTEX
  5
452
330
449
100
AcDbEntity
  8
レイヤー 1
 62
     7
370
    18
100
AcDbVertex
100
AcDb2dVertex
 10
141.6457898951441
 20
24.11635741584591
 30
0.0
  0
VERTEX
  5
453
330
449
100
AcDbEntity
  8
レイヤー 1
 62
     7
370
    18
100
AcDbVertex
100
AcDb2dVertex
 10
141.8121880070817
 20
23.8059543126249
 30
0.0
  0
VERTEX
  5
454
330
449
100
AcDbEntity
  8
レイヤー 1
 62
     7
370
    18
100
AcDbVertex
100
AcDb2dVertex
 10
142.0168266789055
 20
23.54068196026066
 30
0.0
  0
VERTEX
  5
455
330
449
100
AcDbEntity
  8
レイヤー 1
 62
     7
370
    18
100
AcDbVertex
100
AcDb2dVertex
 10
142.2497151337084
 20
23.3329427025001
 30
0.0
  0
VERTEX
  5
456
330
449
100
AcDbEntity
  8
レイヤー 1
 62
     7
370
    18
100
AcDbVertex
100
AcDb2dVertex
 10
142.5008625945831
 20
23.1923828067019
 30
0.0
  0
VERTEX
  5
457
330
449
100
AcDbEntity
  8
レイヤー 1
 62
     7
370
    18
100
AcDbVertex
100
AcDb2dVertex
 10
142.7578667177828
 20
23.12623697338511
 30
0.0
  0
VERTEX
  5
458
330
449
100
AcDbEntity
  8
レイヤー 1
 62
     7
370
    18
100
AcDbVertex
100
AcDb2dVertex
 10
142.953548141345
 20
23.12727050203068
 30
0.0
  0
SEQEND
  5
459
330
449
100
AcDbEntity
  8
レイヤー 1
370
    18
  0
ENDBLK
  5
448
330
445
100
AcDbEntity
  8
0
100
AcDbBlockEnd
  0
BLOCK
  5
45C
330
45A
100
AcDbEntity
  8
0
100
AcDbBlockBegin
  2
block 89
 70
     0
 10
0.0
 20
0.0
 30
0.0
  3
block 89
  1

  0
POLYLINE
  5
45E
330
45A
100
AcDbEntity
  8
レイヤー 1
 62
     7
370
    18
100
AcDb2dPolyline
 66
     1
 10
0.0
 20
0.0
 30
0.0
  0
VERTEX
  5
45F
330
45E
100
AcDbEntity
  8
レイヤー 1
 62
     7
370
    18
100
AcDbVertex
100
AcDb2dVertex
 10
155.0761501348421
 20
190.2936387328085
 30
0.0
  0
VERTEX
  5
460
330
45E
100
AcDbEntity
  8
レイヤー 1
 62
     7
370
    18
100
AcDbVertex
100
AcDb2dVertex
 10
155.0465223136689
 20
190.4898369206935
 30
0.0
  0
VERTEX
  5
461
330
45E
100
AcDbEntity
  8
レイヤー 1
 62
     7
370
    18
100
AcDbVertex
100
AcDb2dVertex
 10
154.9617729647318
 20
190.6409043577217
 30
0.0
  0
VERTEX
  5
462
330
45E
100
AcDbEntity
  8
レイヤー 1
 62
     7
370
    18
100
AcDbVertex
100
AcDb2dVertex
 10
154.8353379604231
 20
190.723758904142
 30
0.0
  0
VERTEX
  5
463
330
45E
100
AcDbEntity
  8
レイヤー 1
 62
     7
370
    18
100
AcDbVertex
100
AcDb2dVertex
 10
154.6858208163633
 20
190.7256537066589
 30
0.0
  0
VERTEX
  5
464
330
45E
100
AcDbEntity
  8
レイヤー 1
 62
     7
370
    18
100
AcDbVertex
100
AcDb2dVertex
 10
154.5366481818519
 20
190.6464165104981
 30
0.0
  0
VERTEX
  5
465
330
45E
100
AcDbEntity
  8
レイヤー 1
 62
     7
370
    18
100
AcDbVertex
100
AcDb2dVertex
 10
154.4098686679948
 20
190.4982774046324
 30
0.0
  0
VERTEX
  5
466
330
45E
100
AcDbEntity
  8
レイヤー 1
 62
     7
370
    18
100
AcDbVertex
100
AcDb2dVertex
 10
154.3251193190576
 20
190.3032850001673
 30
0.0
  0
VERTEX
  5
467
330
45E
100
AcDbEntity
  8
レイヤー 1
 62
     7
370
    18
100
AcDbVertex
100
AcDb2dVertex
 10
154.2954914978845
 20
190.0917561373729
 30
0.0
  0
VERTEX
  5
468
330
45E
100
AcDbEntity
  8
レイヤー 1
 62
     7
370
    18
100
AcDbVertex
100
AcDb2dVertex
 10
154.3251193190576
 20
189.8953856947137
 30
0.0
  0
VERTEX
  5
469
330
45E
100
AcDbEntity
  8
レイヤー 1
 62
     7
370
    18
100
AcDbVertex
100
AcDb2dVertex
 10
154.4098686679948
 20
189.7443182576854
 30
0.0
  0
VERTEX
  5
46A
330
45E
100
AcDbEntity
  8
レイヤー 1
 62
     7
370
    18
100
AcDbVertex
100
AcDb2dVertex
 10
154.5366481818519
 20
189.6616359660395
 30
0.0
  0
VERTEX
  5
46B
330
45E
100
AcDbEntity
  8
レイヤー 1
 62
     7
370
    18
100
AcDbVertex
100
AcDb2dVertex
 10
154.6858208163633
 20
189.6595689087483
 30
0.0
  0
VERTEX
  5
46C
330
45E
100
AcDbEntity
  8
レイヤー 1
 62
     7
370
    18
100
AcDbVertex
100
AcDb2dVertex
 10
154.8353379604231
 20
189.7388061049091
 30
0.0
  0
VERTEX
  5
46D
330
45E
100
AcDbEntity
  8
レイヤー 1
 62
     7
370
    18
100
AcDbVertex
100
AcDb2dVertex
 10
154.9617729647318
 20
189.8872897203233
 30
0.0
  0
VERTEX
  5
46E
330
45E
100
AcDbEntity
  8
レイヤー 1
 62
     7
370
    18
100
AcDbVertex
100
AcDb2dVertex
 10
155.0465223136689
 20
190.08193761524
 30
0.0
  0
VERTEX
  5
46F
330
45E
100
AcDbEntity
  8
レイヤー 1
 62
     7
370
    18
100
AcDbVertex
100
AcDb2dVertex
 10
155.0761501348421
 20
190.2936387328085
 30
0.0
  0
SEQEND
  5
470
330
45E
100
AcDbEntity
  8
レイヤー 1
370
    18
  0
ENDBLK
  5
45D
330
45A
100
AcDbEntity
  8
0
100
AcDbBlockEnd
  0
BLOCK
  5
473
330
471
100
AcDbEntity
  8
0
100
AcDbBlockBegin
  2
block 90
 70
     0
 10
0.0
 20
0.0
 30
0.0
  3
block 90
  1

  0
SPLINE
  5
475
330
471
100
AcDbEntity
  8
レイヤー 1
 62
     7
370
    18
100
AcDbSpline
210
0.0
220
0.0
230
1.0
 70
     8
 71
     3
 72
     8
 73
     4
 74
     0
 42
0.000000001
 43
0.0000000001
 40
0.0
 40
0.0
 40
0.0
 40
0.0
 40
1.0
 40
1.0
 40
1.0
 40
1.0
 10
154.7657470316211
 20
189.8111531100993
 30
0.0
 10
154.7812499613047
 20
189.9126111721399
 30
0.0
 10
154.7908962286634
 20
190.0149305080518
 30
0.0
 10
154.7936523050516
 20
190.1175943535123
 30
0.0
  0
ENDBLK
  5
474
330
471
100
AcDbEntity
  8
0
100
AcDbBlockEnd
  0
BLOCK
  5
478
330
476
100
AcDbEntity
  8
0
100
AcDbBlockBegin
  2
block 91
 70
     0
 10
0.0
 20
0.0
 30
0.0
  3
block 91
  1

  0
SPLINE
  5
47A
330
476
100
AcDbEntity
  8
レイヤー 1
 62
     7
370
    18
100
AcDbSpline
210
0.0
220
0.0
230
1.0
 70
     8
 71
     3
 72
     8
 73
     4
 74
     0
 42
0.000000001
 43
0.0000000001
 40
0.0
 40
0.0
 40
0.0
 40
0.0
 40
1.0
 40
1.0
 40
1.0
 40
1.0
 10
154.7936523050516
 20
190.1175943535123
 30
0.0
 10
154.8618651956595
 20
190.1365423786812
 30
0.0
 10
154.9293890671704
 20
190.1589354993353
 30
0.0
 10
154.9955349004872
 20
190.1844292059261
 30
0.0
  0
ENDBLK
  5
479
330
476
100
AcDbEntity
  8
0
100
AcDbBlockEnd
  0
BLOCK
  5
47D
330
47B
100
AcDbEntity
  8
0
100
AcDbBlockBegin
  2
block 92
 70
     0
 10
0.0
 20
0.0
 30
0.0
  3
block 92
  1

  0
SPLINE
  5
47F
330
47B
100
AcDbEntity
  8
レイヤー 1
 62
     7
370
    18
100
AcDbSpline
210
0.0
220
0.0
230
1.0
 70
     8
 71
     3
 72
     8
 73
     4
 74
     0
 42
0.000000001
 43
0.0000000001
 40
0.0
 40
0.0
 40
0.0
 40
0.0
 40
1.0
 40
1.0
 40
1.0
 40
1.0
 10
154.9955349004872
 20
190.1844292059261
 30
0.0
 10
154.9969129386813
 20
190.234899854785
 30
0.0
 10
154.9969129386813
 20
190.2853705036439
 30
0.0
 10
154.9955349004872
 20
190.3356688977286
 30
0.0
  0
ENDBLK
  5
47E
330
47B
100
AcDbEntity
  8
0
100
AcDbBlockEnd
  0
BLOCK
  5
482
330
480
100
AcDbEntity
  8
0
100
AcDbBlockBegin
  2
block 93
 70
     0
 10
0.0
 20
0.0
 30
0.0
  3
block 93
  1

  0
SPLINE
  5
484
330
480
100
AcDbEntity
  8
レイヤー 1
 62
     7
370
    18
100
AcDbSpline
210
0.0
220
0.0
230
1.0
 70
     8
 71
     3
 72
     8
 73
     4
 74
     0
 42
0.000000001
 43
0.0000000001
 40
0.0
 40
0.0
 40
0.0
 40
0.0
 40
1.0
 40
1.0
 40
1.0
 40
1.0
 10
154.7936523050516
 20
190.2691785548633
 30
0.0
 10
154.8618651956595
 20
190.2879543252579
 30
0.0
 10
154.9293890671704
 20
190.3101751911377
 30
0.0
 10
154.9955349004872
 20
190.3356688977286
 30
0.0
  0
ENDBLK
  5
483
330
480
100
AcDbEntity
  8
0
100
AcDbBlockEnd
  0
BLOCK
  5
487
330
485
100
AcDbEntity
  8
0
100
AcDbBlockBegin
  2
block 94
 70
     0
 10
0.0
 20
0.0
 30
0.0
  3
block 94
  1

  0
SPLINE
  5
489
330
485
100
AcDbEntity
  8
レイヤー 1
 62
     7
370
    18
100
AcDbSpline
210
0.0
220
0.0
230
1.0
 70
     8
 71
     3
 72
     8
 73
     4
 74
     0
 42
0.000000001
 43
0.0000000001
 40
0.0
 40
0.0
 40
0.0
 40
0.0
 40
1.0
 40
1.0
 40
1.0
 40
1.0
 10
154.7936523050516
 20
190.2691785548633
 30
0.0
 10
154.7902072095663
 20
190.3766655340031
 30
0.0
 10
154.7812499613047
 20
190.4838080035943
 30
0.0
 10
154.7657470316211
 20
190.5902614540886
 30
0.0
  0
ENDBLK
  5
488
330
485
100
AcDbEntity
  8
0
100
AcDbBlockEnd
  0
BLOCK
  5
48C
330
48A
100
AcDbEntity
  8
0
100
AcDbBlockBegin
  2
block 95
 70
     0
 10
0.0
 20
0.0
 30
0.0
  3
block 95
  1

  0
SPLINE
  5
48E
330
48A
100
AcDbEntity
  8
レイヤー 1
 62
     7
370
    18
100
AcDbSpline
210
0.0
220
0.0
230
1.0
 70
     8
 71
     3
 72
     8
 73
     4
 74
     0
 42
0.000000001
 43
0.0000000001
 40
0.0
 40
0.0
 40
0.0
 40
0.0
 40
1.0
 40
1.0
 40
1.0
 40
1.0
 10
154.654814956996
 20
190.5614949067867
 30
0.0
 10
154.6920219882367
 20
190.5702799002741
 30
0.0
 10
154.7288845099289
 20
190.5799261676328
 30
0.0
 10
154.7657470316211
 20
190.5902614540886
 30
0.0
  0
ENDBLK
  5
48D
330
48A
100
AcDbEntity
  8
0
100
AcDbBlockEnd
  0
BLOCK
  5
491
330
48F
100
AcDbEntity
  8
0
100
AcDbBlockBegin
  2
block 96
 70
     0
 10
0.0
 20
0.0
 30
0.0
  3
block 96
  1

  0
SPLINE
  5
493
330
48F
100
AcDbEntity
  8
レイヤー 1
 62
     7
370
    18
100
AcDbSpline
210
0.0
220
0.0
230
1.0
 70
     8
 71
     3
 72
     8
 73
     4
 74
     0
 42
0.000000001
 43
0.0000000001
 40
0.0
 40
0.0
 40
0.0
 40
0.0
 40
1.0
 40
1.0
 40
1.0
 40
1.0
 10
154.682375720878
 20
190.2404120075614
 30
0.0
 10
154.6796196444898
 20
190.3478989867012
 30
0.0
 10
154.6703178866796
 20
190.4550414562925
 30
0.0
 10
154.654814956996
 20
190.5614949067867
 30
0.0
  0
ENDBLK
  5
492
330
48F
100
AcDbEntity
  8
0
100
AcDbBlockEnd
  0
BLOCK
  5
496
330
494
100
AcDbEntity
  8
0
100
AcDbBlockBegin
  2
block 97
 70
     0
 10
0.0
 20
0.0
 30
0.0
  3
block 97
  1

  0
SPLINE
  5
498
330
494
100
AcDbEntity
  8
レイヤー 1
 62
     7
370
    18
100
AcDbSpline
210
0.0
220
0.0
230
1.0
 70
     8
 71
     3
 72
     8
 73
     4
 74
     0
 42
0.000000001
 43
0.0000000001
 40
0.0
 40
0.0
 40
0.0
 40
0.0
 40
1.0
 40
1.0
 40
1.0
 40
1.0
 10
154.4250270881299
 20
190.1882188109599
 30
0.0
 10
154.5114989848096
 20
190.202688211998
 30
0.0
 10
154.5972818623924
 20
190.2202581989727
 30
0.0
 10
154.682375720878
 20
190.2404120075614
 30
0.0
  0
ENDBLK
  5
497
330
494
100
AcDbEntity
  8
0
100
AcDbBlockEnd
  0
BLOCK
  5
49B
330
499
100
AcDbEntity
  8
0
100
AcDbBlockBegin
  2
block 98
 70
     0
 10
0.0
 20
0.0
 30
0.0
  3
block 98
  1

  0
SPLINE
  5
49D
330
499
100
AcDbEntity
  8
レイヤー 1
 62
     7
370
    18
100
AcDbSpline
210
0.0
220
0.0
230
1.0
 70
     8
 71
     3
 72
     8
 73
     4
 74
     0
 42
0.000000001
 43
0.0000000001
 40
0.0
 40
0.0
 40
0.0
 40
0.0
 40
1.0
 40
1.0
 40
1.0
 40
1.0
 10
154.4250270881299
 20
190.0366346096089
 30
0.0
 10
154.426405126324
 20
190.0871052584678
 30
0.0
 10
154.426405126324
 20
190.137748162101
 30
0.0
 10
154.4250270881299
 20
190.1882188109599
 30
0.0
  0
ENDBLK
  5
49C
330
499
100
AcDbEntity
  8
0
100
AcDbBlockEnd
  0
BLOCK
  5
4A0
330
49E
100
AcDbEntity
  8
0
100
AcDbBlockBegin
  2
block 99
 70
     0
 10
0.0
 20
0.0
 30
0.0
  3
block 99
  1

  0
SPLINE
  5
4A2
330
49E
100
AcDbEntity
  8
レイヤー 1
 62
     7
370
    18
100
AcDbSpline
210
0.0
220
0.0
230
1.0
 70
     8
 71
     3
 72
     8
 73
     4
 74
     0
 42
0.000000001
 43
0.0000000001
 40
0.0
 40
0.0
 40
0.0
 40
0.0
 40
1.0
 40
1.0
 40
1.0
 40
1.0
 10
154.4250270881299
 20
190.0366346096089
 30
0.0
 10
154.5114989848096
 20
190.0512762654212
 30
0.0
 10
154.5972818623924
 20
190.068846252396
 30
0.0
 10
154.682375720878
 20
190.0890000609847
 30
0.0
  0
ENDBLK
  5
4A1
330
49E
100
AcDbEntity
  8
0
100
AcDbBlockEnd
  0
BLOCK
  5
4A5
330
4A3
100
AcDbEntity
  8
0
100
AcDbBlockBegin
  2
block 100
 70
     0
 10
0.0
 20
0.0
 30
0.0
  3
block 100
  1

  0
SPLINE
  5
4A7
330
4A3
100
AcDbEntity
  8
レイヤー 1
 62
     7
370
    18
100
AcDbSpline
210
0.0
220
0.0
230
1.0
 70
     8
 71
     3
 72
     8
 73
     4
 74
     0
 42
0.000000001
 43
0.0000000001
 40
0.0
 40
0.0
 40
0.0
 40
0.0
 40
1.0
 40
1.0
 40
1.0
 40
1.0
 10
154.654814956996
 20
189.7823865627975
 30
0.0
 10
154.6706623962282
 20
189.8838446248381
 30
0.0
 10
154.6799641540383
 20
189.9863362155243
 30
0.0
 10
154.682375720878
 20
190.0890000609847
 30
0.0
  0
ENDBLK
  5
4A6
330
4A3
100
AcDbEntity
  8
0
100
AcDbBlockEnd
  0
BLOCK
  5
4AA
330
4A8
100
AcDbEntity
  8
0
100
AcDbBlockBegin
  2
block 101
 70
     0
 10
0.0
 20
0.0
 30
0.0
  3
block 101
  1

  0
SPLINE
  5
4AC
330
4A8
100
AcDbEntity
  8
レイヤー 1
 62
     7
370
    18
100
AcDbSpline
210
0.0
220
0.0
230
1.0
 70
     8
 71
     3
 72
     8
 73
     4
 74
     0
 42
0.000000001
 43
0.0000000001
 40
0.0
 40
0.0
 40
0.0
 40
0.0
 40
1.0
 40
1.0
 40
1.0
 40
1.0
 10
154.654814956996
 20
189.7823865627975
 30
0.0
 10
154.6920219882367
 20
189.7911715562849
 30
0.0
 10
154.7288845099289
 20
189.8008178236435
 30
0.0
 10
154.7657470316211
 20
189.8111531100993
 30
0.0
  0
ENDBLK
  5
4AB
330
4A8
100
AcDbEntity
  8
0
100
AcDbBlockEnd
  0
BLOCK
  5
4AF
330
4AD
100
AcDbEntity
  8
0
100
AcDbBlockBegin
  2
block 102
 70
     0
 10
0.0
 20
0.0
 30
0.0
  3
block 102
  1

  0
POLYLINE
  5
4B1
330
4AD
100
AcDbEntity
  8
レイヤー 1
 62
     7
370
    18
100
AcDb2dPolyline
 66
     1
 10
0.0
 20
0.0
 30
0.0
  0
VERTEX
  5
4B2
330
4B1
100
AcDbEntity
  8
レイヤー 1
 62
     7
370
    18
100
AcDbVertex
100
AcDb2dVertex
 10
154.5666205125736
 20
191.030889166652
 30
0.0
  0
VERTEX
  5
4B3
330
4B1
100
AcDbEntity
  8
レイヤー 1
 62
     7
370
    18
100
AcDbVertex
100
AcDb2dVertex
 10
154.4643011766617
 20
191.0546603255002
 30
0.0
  0
VERTEX
  5
4B4
330
4B1
100
AcDbEntity
  8
レイヤー 1
 62
     7
370
    18
100
AcDbVertex
100
AcDb2dVertex
 10
154.2824001350405
 20
191.0283053450381
 30
0.0
  0
VERTEX
  5
4B5
330
4B1
100
AcDbEntity
  8
レイヤー 1
 62
     7
370
    18
100
AcDbVertex
100
AcDb2dVertex
 10
154.1056667366472
 20
190.9211628754468
 30
0.0
  0
VERTEX
  5
4B6
330
4B1
100
AcDbEntity
  8
レイヤー 1
 62
     7
370
    18
100
AcDbVertex
100
AcDb2dVertex
 10
153.9527044971021
 20
190.7452907509248
 30
0.0
  0
VERTEX
  5
4B7
330
4B1
100
AcDbEntity
  8
レイヤー 1
 62
     7
370
    18
100
AcDbVertex
100
AcDb2dVertex
 10
153.8407388938315
 20
190.5194647418667
 30
0.0
  0
VERTEX
  5
4B8
330
4B1
100
AcDbEntity
  8
レイヤー 1
 62
     7
370
    18
100
AcDbVertex
100
AcDb2dVertex
 10
153.7814832514852
 20
190.268317280992
 30
0.0
  0
VERTEX
  5
4B9
330
4B1
100
AcDbEntity
  8
レイヤー 1
 62
     7
370
    18
100
AcDbVertex
100
AcDb2dVertex
 10
153.7814832514852
 20
190.0188923678599
 30
0.0
  0
VERTEX
  5
4BA
330
4B1
100
AcDbEntity
  8
レイヤー 1
 62
     7
370
    18
100
AcDbVertex
100
AcDb2dVertex
 10
153.8407388938315
 20
189.7984062568039
 30
0.0
  0
VERTEX
  5
4BB
330
4B1
100
AcDbEntity
  8
レイヤー 1
 62
     7
370
    18
100
AcDbVertex
100
AcDb2dVertex
 10
153.9527044971021
 20
189.6308023614465
 30
0.0
  0
VERTEX
  5
4BC
330
4B1
100
AcDbEntity
  8
レイヤー 1
 62
     7
370
    18
100
AcDbVertex
100
AcDb2dVertex
 10
154.1056667366472
 20
189.5338229235367
 30
0.0
  0
VERTEX
  5
4BD
330
4B1
100
AcDbEntity
  8
レイヤー 1
 62
     7
370
    18
100
AcDbVertex
100
AcDb2dVertex
 10
154.1749131559007
 20
189.5174587199818
 30
0.0
  0
SEQEND
  5
4BE
330
4B1
100
AcDbEntity
  8
レイヤー 1
370
    18
  0
ENDBLK
  5
4B0
330
4AD
100
AcDbEntity
  8
0
100
AcDbBlockEnd
  0
BLOCK
  5
4C1
330
4BF
100
AcDbEntity
  8
0
100
AcDbBlockBegin
  2
block 103
 70
     0
 10
0.0
 20
0.0
 30
0.0
  3
block 103
  1

  0
POLYLINE
  5
4C3
330
4BF
100
AcDbEntity
  8
レイヤー 1
 62
     7
370
    18
100
AcDb2dPolyline
 66
     1
 10
0.0
 20
0.0
 30
0.0
  0
VERTEX
  5
4C4
330
4C3
100
AcDbEntity
  8
レイヤー 1
 62
     7
370
    18
100
AcDbVertex
100
AcDb2dVertex
 10
154.4470756992355
 20
190.1498059962994
 30
0.0
  0
VERTEX
  5
4C5
330
4C3
100
AcDbEntity
  8
レイヤー 1
 62
     7
370
    18
100
AcDbVertex
100
AcDb2dVertex
 10
154.682375720878
 20
190.0890000609847
 30
0.0
  0
SEQEND
  5
4C6
330
4C3
100
AcDbEntity
  8
レイヤー 1
370
    18
  0
ENDBLK
  5
4C2
330
4BF
100
AcDbEntity
  8
0
100
AcDbBlockEnd
  0
BLOCK
  5
4C9
330
4C7
100
AcDbEntity
  8
0
100
AcDbBlockBegin
  2
block 104
 70
     0
 10
0.0
 20
0.0
 30
0.0
  3
block 104
  1

  0
POLYLINE
  5
4CB
330
4C7
100
AcDbEntity
  8
レイヤー 1
 62
     7
370
    18
100
AcDb2dPolyline
 66
     1
 10
0.0
 20
0.0
 30
0.0
  0
VERTEX
  5
4CC
330
4CB
100
AcDbEntity
  8
レイヤー 1
 62
     7
370
    18
100
AcDbVertex
100
AcDb2dVertex
 10
154.7877956427267
 20
190.238172695496
 30
0.0
  0
VERTEX
  5
4CD
330
4CB
100
AcDbEntity
  8
レイヤー 1
 62
     7
370
    18
100
AcDbVertex
100
AcDb2dVertex
 10
154.7877956427267
 20
190.2705565930574
 30
0.0
  0
SEQEND
  5
4CE
330
4CB
100
AcDbEntity
  8
レイヤー 1
370
    18
  0
ENDBLK
  5
4CA
330
4C7
100
AcDbEntity
  8
0
100
AcDbBlockEnd
  0
BLOCK
  5
4D1
330
4CF
100
AcDbEntity
  8
0
100
AcDbBlockBegin
  2
block 105
 70
     0
 10
0.0
 20
0.0
 30
0.0
  3
block 105
  1

  0
POLYLINE
  5
4D3
330
4CF
100
AcDbEntity
  8
レイヤー 1
 62
     7
370
    18
100
AcDb2dPolyline
 66
     1
 10
0.0
 20
0.0
 30
0.0
  0
VERTEX
  5
4D4
330
4D3
100
AcDbEntity
  8
レイヤー 1
 62
     7
370
    18
100
AcDbVertex
100
AcDb2dVertex
 10
154.5580077738605
 20
190.1785725436012
 30
0.0
  0
VERTEX
  5
4D5
330
4D3
100
AcDbEntity
  8
レイヤー 1
 62
     7
370
    18
100
AcDbVertex
100
AcDb2dVertex
 10
154.7877956427267
 20
190.238172695496
 30
0.0
  0
SEQEND
  5
4D6
330
4D3
100
AcDbEntity
  8
レイヤー 1
370
    18
  0
ENDBLK
  5
4D2
330
4CF
100
AcDbEntity
  8
0
100
AcDbBlockEnd
  0
BLOCK
  5
4D9
330
4D7
100
AcDbEntity
  8
0
100
AcDbBlockBegin
  2
block 106
 70
     0
 10
0.0
 20
0.0
 30
0.0
  3
block 106
  1

  0
POLYLINE
  5
4DB
330
4D7
100
AcDbEntity
  8
レイヤー 1
 62
     7
370
    18
100
AcDb2dPolyline
 66
     1
 10
0.0
 20
0.0
 30
0.0
  0
VERTEX
  5
4DC
330
4DB
100
AcDbEntity
  8
レイヤー 1
 62
     7
370
    18
100
AcDbVertex
100
AcDb2dVertex
 10
154.5580077738605
 20
190.1212117037718
 30
0.0
  0
VERTEX
  5
4DD
330
4DB
100
AcDbEntity
  8
レイヤー 1
 62
     7
370
    18
100
AcDbVertex
100
AcDb2dVertex
 10
154.5580077738605
 20
190.1785725436012
 30
0.0
  0
SEQEND
  5
4DE
330
4DB
100
AcDbEntity
  8
レイヤー 1
370
    18
  0
ENDBLK
  5
4DA
330
4D7
100
AcDbEntity
  8
0
100
AcDbBlockEnd
  0
BLOCK
  5
4E1
330
4DF
100
AcDbEntity
  8
0
100
AcDbBlockBegin
  2
block 107
 70
     0
 10
0.0
 20
0.0
 30
0.0
  3
block 107
  1

  0
POLYLINE
  5
4E3
330
4DF
100
AcDbEntity
  8
レイヤー 1
 62
     7
370
    18
100
AcDb2dPolyline
 66
     1
 10
0.0
 20
0.0
 30
0.0
  0
VERTEX
  5
4E4
330
4E3
100
AcDbEntity
  8
レイヤー 1
 62
     7
370
    18
100
AcDbVertex
100
AcDb2dVertex
 10
154.6803086635869
 20
190.2984618664879
 30
0.0
  0
VERTEX
  5
4E5
330
4E3
100
AcDbEntity
  8
レイヤー 1
 62
     7
370
    18
100
AcDbVertex
100
AcDb2dVertex
 10
154.7936523050516
 20
190.2691785548633
 30
0.0
  0
SEQEND
  5
4E6
330
4E3
100
AcDbEntity
  8
レイヤー 1
370
    18
  0
ENDBLK
  5
4E2
330
4DF
100
AcDbEntity
  8
0
100
AcDbBlockEnd
  0
BLOCK
  5
4E9
330
4E7
100
AcDbEntity
  8
0
100
AcDbBlockBegin
  2
block 108
 70
     0
 10
0.0
 20
0.0
 30
0.0
  3
block 108
  1

  0
POLYLINE
  5
4EB
330
4E7
100
AcDbEntity
  8
レイヤー 1
 62
     7
370
    18
100
AcDb2dPolyline
 66
     1
 10
0.0
 20
0.0
 30
0.0
  0
VERTEX
  5
4EC
330
4EB
100
AcDbEntity
  8
レイヤー 1
 62
     7
370
    18
100
AcDbVertex
100
AcDb2dVertex
 10
154.5580077738605
 20
190.1785725436012
 30
0.0
  0
VERTEX
  5
4ED
330
4EB
100
AcDbEntity
  8
レイヤー 1
 62
     7
370
    18
100
AcDbVertex
100
AcDb2dVertex
 10
154.7936523050516
 20
190.1175943535123
 30
0.0
  0
SEQEND
  5
4EE
330
4EB
100
AcDbEntity
  8
レイヤー 1
370
    18
  0
ENDBLK
  5
4EA
330
4E7
100
AcDbEntity
  8
0
100
AcDbBlockEnd
  0
BLOCK
  5
4F1
330
4EF
100
AcDbEntity
  8
0
100
AcDbBlockBegin
  2
block 109
 70
     0
 10
0.0
 20
0.0
 30
0.0
  3
block 109
  1

  0
POLYLINE
  5
4F3
330
4EF
100
AcDbEntity
  8
レイヤー 1
 62
     7
370
    18
100
AcDb2dPolyline
 66
     1
 10
0.0
 20
0.0
 30
0.0
  0
VERTEX
  5
4F4
330
4F3
100
AcDbEntity
  8
レイヤー 1
 62
     7
370
    18
100
AcDbVertex
100
AcDb2dVertex
 10
154.7877956427267
 20
190.238172695496
 30
0.0
  0
VERTEX
  5
4F5
330
4F3
100
AcDbEntity
  8
レイヤー 1
 62
     7
370
    18
100
AcDbVertex
100
AcDb2dVertex
 10
154.9955349004872
 20
190.1844292059261
 30
0.0
  0
SEQEND
  5
4F6
330
4F3
100
AcDbEntity
  8
レイヤー 1
370
    18
  0
ENDBLK
  5
4F2
330
4EF
100
AcDbEntity
  8
0
100
AcDbBlockEnd
  0
BLOCK
  5
4F9
330
4F7
100
AcDbEntity
  8
0
100
AcDbBlockBegin
  2
block 110
 70
     0
 10
0.0
 20
0.0
 30
0.0
  3
block 110
  1

  0
POLYLINE
  5
4FB
330
4F7
100
AcDbEntity
  8
レイヤー 1
 62
     7
370
    18
100
AcDb2dPolyline
 66
     1
 10
0.0
 20
0.0
 30
0.0
  0
VERTEX
  5
4FC
330
4FB
100
AcDbEntity
  8
レイヤー 1
 62
     7
370
    18
100
AcDbVertex
100
AcDb2dVertex
 10
154.6858208163633
 20
190.7256537066589
 30
0.0
  0
VERTEX
  5
4FD
330
4FB
100
AcDbEntity
  8
レイヤー 1
 62
     7
370
    18
100
AcDbVertex
100
AcDb2dVertex
 10
154.5366481818519
 20
190.6464165104981
 30
0.0
  0
VERTEX
  5
4FE
330
4FB
100
AcDbEntity
  8
レイヤー 1
 62
     7
370
    18
100
AcDbVertex
100
AcDb2dVertex
 10
154.4098686679948
 20
190.4982774046324
 30
0.0
  0
VERTEX
  5
4FF
330
4FB
100
AcDbEntity
  8
レイヤー 1
 62
     7
370
    18
100
AcDbVertex
100
AcDb2dVertex
 10
154.3251193190576
 20
190.3032850001673
 30
0.0
  0
VERTEX
  5
500
330
4FB
100
AcDbEntity
  8
レイヤー 1
 62
     7
370
    18
100
AcDbVertex
100
AcDb2dVertex
 10
154.2954914978845
 20
190.0917561373729
 30
0.0
  0
VERTEX
  5
501
330
4FB
100
AcDbEntity
  8
レイヤー 1
 62
     7
370
    18
100
AcDbVertex
100
AcDb2dVertex
 10
154.3251193190576
 20
189.8953856947137
 30
0.0
  0
VERTEX
  5
502
330
4FB
100
AcDbEntity
  8
レイヤー 1
 62
     7
370
    18
100
AcDbVertex
100
AcDb2dVertex
 10
154.4098686679948
 20
189.7443182576854
 30
0.0
  0
VERTEX
  5
503
330
4FB
100
AcDbEntity
  8
レイヤー 1
 62
     7
370
    18
100
AcDbVertex
100
AcDb2dVertex
 10
154.5366481818519
 20
189.6616359660395
 30
0.0
  0
VERTEX
  5
504
330
4FB
100
AcDbEntity
  8
レイヤー 1
 62
     7
370
    18
100
AcDbVertex
100
AcDb2dVertex
 10
154.6858208163633
 20
189.6595689087483
 30
0.0
  0
VERTEX
  5
505
330
4FB
100
AcDbEntity
  8
レイヤー 1
 62
     7
370
    18
100
AcDbVertex
100
AcDb2dVertex
 10
154.8353379604231
 20
189.7388061049091
 30
0.0
  0
VERTEX
  5
506
330
4FB
100
AcDbEntity
  8
レイヤー 1
 62
     7
370
    18
100
AcDbVertex
100
AcDb2dVertex
 10
154.9617729647318
 20
189.8872897203233
 30
0.0
  0
VERTEX
  5
507
330
4FB
100
AcDbEntity
  8
レイヤー 1
 62
     7
370
    18
100
AcDbVertex
100
AcDb2dVertex
 10
155.0465223136689
 20
190.08193761524
 30
0.0
  0
VERTEX
  5
508
330
4FB
100
AcDbEntity
  8
レイヤー 1
 62
     7
370
    18
100
AcDbVertex
100
AcDb2dVertex
 10
155.0761501348421
 20
190.2936387328085
 30
0.0
  0
VERTEX
  5
509
330
4FB
100
AcDbEntity
  8
レイヤー 1
 62
     7
370
    18
100
AcDbVertex
100
AcDb2dVertex
 10
155.0465223136689
 20
190.4898369206935
 30
0.0
  0
VERTEX
  5
50A
330
4FB
100
AcDbEntity
  8
レイヤー 1
 62
     7
370
    18
100
AcDbVertex
100
AcDb2dVertex
 10
154.9617729647318
 20
190.6409043577217
 30
0.0
  0
VERTEX
  5
50B
330
4FB
100
AcDbEntity
  8
レイヤー 1
 62
     7
370
    18
100
AcDbVertex
100
AcDb2dVertex
 10
154.8353379604231
 20
190.723758904142
 30
0.0
  0
VERTEX
  5
50C
330
4FB
100
AcDbEntity
  8
レイヤー 1
 62
     7
370
    18
100
AcDbVertex
100
AcDb2dVertex
 10
154.6858208163633
 20
190.7256537066589
 30
0.0
  0
SEQEND
  5
50D
330
4FB
100
AcDbEntity
  8
レイヤー 1
370
    18
  0
ENDBLK
  5
4FA
330
4F7
100
AcDbEntity
  8
0
100
AcDbBlockEnd
  0
BLOCK
  5
510
330
50E
100
AcDbEntity
  8
0
100
AcDbBlockBegin
  2
block 111
 70
     0
 10
0.0
 20
0.0
 30
0.0
  3
block 111
  1

  0
POLYLINE
  5
512
330
50E
100
AcDbEntity
  8
レイヤー 1
 62
     7
370
    18
100
AcDb2dPolyline
 66
     1
 10
0.0
 20
0.0
 30
0.0
  0
VERTEX
  5
513
330
512
100
AcDbEntity
  8
レイヤー 1
 62
     7
370
    18
100
AcDbVertex
100
AcDb2dVertex
 10
154.3282199049943
 20
191.0426024913019
 30
0.0
  0
VERTEX
  5
514
330
512
100
AcDbEntity
  8
レイヤー 1
 62
     7
370
    18
100
AcDbVertex
100
AcDb2dVertex
 10
154.1483859206643
 20
190.9549248112023
 30
0.0
  0
VERTEX
  5
515
330
512
100
AcDbEntity
  8
レイヤー 1
 62
     7
370
    18
100
AcDbVertex
100
AcDb2dVertex
 10
153.9878444710517
 20
190.7949001259124
 30
0.0
  0
VERTEX
  5
516
330
512
100
AcDbEntity
  8
レイヤー 1
 62
     7
370
    18
100
AcDbVertex
100
AcDb2dVertex
 10
153.8641655431312
 20
190.57940940331
 30
0.0
  0
VERTEX
  5
517
330
512
100
AcDbEntity
  8
レイヤー 1
 62
     7
370
    18
100
AcDbVertex
100
AcDb2dVertex
 10
153.7907850092954
 20
190.3318792926948
 30
0.0
  0
VERTEX
  5
518
330
512
100
AcDbEntity
  8
レイヤー 1
 62
     7
370
    18
100
AcDbVertex
100
AcDb2dVertex
 10
153.7756265891603
 20
190.0795260484003
 30
0.0
  0
VERTEX
  5
519
330
512
100
AcDbEntity
  8
レイヤー 1
 62
     7
370
    18
100
AcDbVertex
100
AcDb2dVertex
 10
153.8204128304685
 20
189.8493936699856
 30
0.0
  0
VERTEX
  5
51A
330
512
100
AcDbEntity
  8
レイヤー 1
 62
     7
370
    18
100
AcDbVertex
100
AcDb2dVertex
 10
153.9203205995408
 20
189.6664590997188
 30
0.0
  0
VERTEX
  5
51B
330
512
100
AcDbEntity
  8
レイヤー 1
 62
     7
370
    18
100
AcDbVertex
100
AcDb2dVertex
 10
154.0643255908242
 20
189.5507038914144
 30
0.0
  0
VERTEX
  5
51C
330
512
100
AcDbEntity
  8
レイヤー 1
 62
     7
370
    18
100
AcDbVertex
100
AcDb2dVertex
 10
154.1749131559007
 20
189.5174587199818
 30
0.0
  0
SEQEND
  5
51D
330
512
100
AcDbEntity
  8
レイヤー 1
370
    18
  0
ENDBLK
  5
511
330
50E
100
AcDbEntity
  8
0
100
AcDbBlockEnd
  0
BLOCK
  5
520
330
51E
100
AcDbEntity
  8
0
100
AcDbBlockBegin
  2
block 112
 70
     0
 10
0.0
 20
0.0
 30
0.0
  3
block 112
  1

  0
POLYLINE
  5
522
330
51E
100
AcDbEntity
  8
レイヤー 1
 62
     7
370
    18
100
AcDb2dPolyline
 66
     1
 10
0.0
 20
0.0
 30
0.0
  0
VERTEX
  5
523
330
522
100
AcDbEntity
  8
レイヤー 1
 62
     7
370
    18
100
AcDbVertex
100
AcDb2dVertex
 10
154.5666205125736
 20
191.030889166652
 30
0.0
  0
VERTEX
  5
524
330
522
100
AcDbEntity
  8
レイヤー 1
 62
     7
370
    18
100
AcDbVertex
100
AcDb2dVertex
 10
154.5083983988729
 20
191.0482868988525
 30
0.0
  0
VERTEX
  5
525
330
522
100
AcDbEntity
  8
レイヤー 1
 62
     7
370
    18
100
AcDbVertex
100
AcDb2dVertex
 10
154.3282199049943
 20
191.0426024913019
 30
0.0
  0
SEQEND
  5
526
330
522
100
AcDbEntity
  8
レイヤー 1
370
    18
  0
ENDBLK
  5
521
330
51E
100
AcDbEntity
  8
0
100
AcDbBlockEnd
  0
BLOCK
  5
529
330
527
100
AcDbEntity
  8
0
100
AcDbBlockBegin
  2
block 113
 70
     0
 10
0.0
 20
0.0
 30
0.0
  3
block 113
  1

  0
POLYLINE
  5
52B
330
527
100
AcDbEntity
  8
レイヤー 1
 62
     7
370
    18
100
AcDb2dPolyline
 66
     1
 10
0.0
 20
0.0
 30
0.0
  0
VERTEX
  5
52C
330
52B
100
AcDbEntity
  8
レイヤー 1
 62
     7
370
    18
100
AcDbVertex
100
AcDb2dVertex
 10
148.387152740681
 20
192.4087551059777
 30
0.0
  0
VERTEX
  5
52D
330
52B
100
AcDbEntity
  8
レイヤー 1
 62
     7
370
    18
100
AcDbVertex
100
AcDb2dVertex
 10
148.387152740681
 20
20.35500216505014
 30
0.0
  0
SEQEND
  5
52E
330
52B
100
AcDbEntity
  8
レイヤー 1
370
    18
  0
ENDBLK
  5
52A
330
527
100
AcDbEntity
  8
0
100
AcDbBlockEnd
  0
BLOCK
  5
531
330
52F
100
AcDbEntity
  8
0
100
AcDbBlockBegin
  2
block 114
 70
     0
 10
0.0
 20
0.0
 30
0.0
  3
block 114
  1

  0
POLYLINE
  5
533
330
52F
100
AcDbEntity
  8
レイヤー 1
 62
     7
370
    18
100
AcDb2dPolyline
 66
     1
 10
0.0
 20
0.0
 30
0.0
  0
VERTEX
  5
534
330
533
100
AcDbEntity
  8
レイヤー 1
 62
     7
370
    18
100
AcDbVertex
100
AcDb2dVertex
 10
160.1900498731469
 20
22.99463432584857
 30
0.0
  0
VERTEX
  5
535
330
533
100
AcDbEntity
  8
レイヤー 1
 62
     7
370
    18
100
AcDbVertex
100
AcDb2dVertex
 10
160.1900498731469
 20
196.0488429956927
 30
0.0
  0
SEQEND
  5
536
330
533
100
AcDbEntity
  8
レイヤー 1
370
    18
  0
ENDBLK
  5
532
330
52F
100
AcDbEntity
  8
0
100
AcDbBlockEnd
  0
BLOCK
  5
539
330
537
100
AcDbEntity
  8
0
100
AcDbBlockBegin
  2
block 115
 70
     0
 10
0.0
 20
0.0
 30
0.0
  3
block 115
  1

  0
POLYLINE
  5
53B
330
537
100
AcDbEntity
  8
レイヤー 1
 62
     7
370
    18
100
AcDb2dPolyline
 66
     1
 10
0.0
 20
0.0
 30
0.0
  0
VERTEX
  5
53C
330
53B
100
AcDbEntity
  8
レイヤー 1
 62
     7
370
    18
100
AcDbVertex
100
AcDb2dVertex
 10
154.7357747008994
 20
190.9645710785609
 30
0.0
  0
VERTEX
  5
53D
330
53B
100
AcDbEntity
  8
レイヤー 1
 62
     7
370
    18
100
AcDbVertex
100
AcDb2dVertex
 10
154.6379339891183
 20
190.9871364539893
 30
0.0
  0
VERTEX
  5
53E
330
53B
100
AcDbEntity
  8
レイヤー 1
 62
     7
370
    18
100
AcDbVertex
100
AcDb2dVertex
 10
154.461200590725
 20
190.9614704926242
 30
0.0
  0
VERTEX
  5
53F
330
53B
100
AcDbEntity
  8
レイヤー 1
 62
     7
370
    18
100
AcDbVertex
100
AcDb2dVertex
 10
154.289290326011
 20
190.8574286089697
 30
0.0
  0
VERTEX
  5
540
330
53B
100
AcDbEntity
  8
レイヤー 1
 62
     7
370
    18
100
AcDbVertex
100
AcDb2dVertex
 10
154.1404622010482
 20
190.6865518729013
 30
0.0
  0
VERTEX
  5
541
330
53B
100
AcDbEntity
  8
レイヤー 1
 62
     7
370
    18
100
AcDbVertex
100
AcDb2dVertex
 10
154.0315971837143
 20
190.4669270357166
 30
0.0
  0
VERTEX
  5
542
330
53B
100
AcDbEntity
  8
レイヤー 1
 62
     7
370
    18
100
AcDbVertex
100
AcDb2dVertex
 10
153.9740640891107
 20
190.2228420205867
 30
0.0
  0
VERTEX
  5
543
330
53B
100
AcDbEntity
  8
レイヤー 1
 62
     7
370
    18
100
AcDbVertex
100
AcDb2dVertex
 10
153.9740640891107
 20
189.9804795531993
 30
0.0
  0
VERTEX
  5
544
330
53B
100
AcDbEntity
  8
レイヤー 1
 62
     7
370
    18
100
AcDbVertex
100
AcDb2dVertex
 10
154.0315971837143
 20
189.7661946140168
 30
0.0
  0
VERTEX
  5
545
330
53B
100
AcDbEntity
  8
レイヤー 1
 62
     7
370
    18
100
AcDbVertex
100
AcDb2dVertex
 10
154.1404622010482
 20
189.6030693427902
 30
0.0
  0
VERTEX
  5
546
330
53B
100
AcDbEntity
  8
レイヤー 1
 62
     7
370
    18
100
AcDbVertex
100
AcDb2dVertex
 10
154.289290326011
 20
189.5090182360429
 30
0.0
  0
VERTEX
  5
547
330
53B
100
AcDbEntity
  8
レイヤー 1
 62
     7
370
    18
100
AcDbVertex
100
AcDb2dVertex
 10
154.3606038025557
 20
189.492654032488
 30
0.0
  0
SEQEND
  5
548
330
53B
100
AcDbEntity
  8
レイヤー 1
370
    18
  0
ENDBLK
  5
53A
330
537
100
AcDbEntity
  8
0
100
AcDbBlockEnd
  0
BLOCK
  5
54B
330
549
100
AcDbEntity
  8
0
100
AcDbBlockBegin
  2
block 116
 70
     0
 10
0.0
 20
0.0
 30
0.0
  3
block 116
  1

  0
POLYLINE
  5
54D
330
549
100
AcDbEntity
  8
レイヤー 1
 62
     7
370
    18
100
AcDb2dPolyline
 66
     1
 10
0.0
 20
0.0
 30
0.0
  0
VERTEX
  5
54E
330
54D
100
AcDbEntity
  8
レイヤー 1
 62
     7
370
    18
100
AcDbVertex
100
AcDb2dVertex
 10
154.5056423224847
 20
190.9755953841137
 30
0.0
  0
VERTEX
  5
54F
330
54D
100
AcDbEntity
  8
レイヤー 1
 62
     7
370
    18
100
AcDbVertex
100
AcDb2dVertex
 10
154.330631471834
 20
190.8903292708538
 30
0.0
  0
VERTEX
  5
550
330
54D
100
AcDbEntity
  8
レイヤー 1
 62
     7
370
    18
100
AcDbVertex
100
AcDb2dVertex
 10
154.1745686463522
 20
190.7346109549205
 30
0.0
  0
VERTEX
  5
551
330
54D
100
AcDbEntity
  8
レイヤー 1
 62
     7
370
    18
100
AcDbVertex
100
AcDb2dVertex
 10
154.054334813917
 20
190.5251491494173
 30
0.0
  0
VERTEX
  5
552
330
54D
100
AcDbEntity
  8
レイヤー 1
 62
     7
370
    18
100
AcDbVertex
100
AcDb2dVertex
 10
153.9833658469208
 20
190.2846814845469
 30
0.0
  0
VERTEX
  5
553
330
54D
100
AcDbEntity
  8
レイヤー 1
 62
     7
370
    18
100
AcDbVertex
100
AcDb2dVertex
 10
153.9682074267857
 20
190.0393906859971
 30
0.0
  0
VERTEX
  5
554
330
54D
100
AcDbEntity
  8
レイヤー 1
 62
     7
370
    18
100
AcDbVertex
100
AcDb2dVertex
 10
154.0119601394484
 20
189.8156317342301
 30
0.0
  0
VERTEX
  5
555
330
54D
100
AcDbEntity
  8
レイヤー 1
 62
     7
370
    18
100
AcDbVertex
100
AcDb2dVertex
 10
154.1091118321324
 20
189.6378648071912
 30
0.0
  0
VERTEX
  5
556
330
54D
100
AcDbEntity
  8
レイヤー 1
 62
     7
370
    18
100
AcDbVertex
100
AcDb2dVertex
 10
154.2493272183821
 20
189.5252101848236
 30
0.0
  0
VERTEX
  5
557
330
54D
100
AcDbEntity
  8
レイヤー 1
 62
     7
370
    18
100
AcDbVertex
100
AcDb2dVertex
 10
154.3578477261675
 20
189.4929985420365
 30
0.0
  0
SEQEND
  5
558
330
54D
100
AcDbEntity
  8
レイヤー 1
370
    18
  0
ENDBLK
  5
54C
330
549
100
AcDbEntity
  8
0
100
AcDbBlockEnd
  0
BLOCK
  5
55B
330
559
100
AcDbEntity
  8
0
100
AcDbBlockBegin
  2
block 117
 70
     0
 10
0.0
 20
0.0
 30
0.0
  3
block 117
  1

  0
POLYLINE
  5
55D
330
559
100
AcDbEntity
  8
レイヤー 1
 62
     7
370
    18
100
AcDb2dPolyline
 66
     1
 10
0.0
 20
0.0
 30
0.0
  0
VERTEX
  5
55E
330
55D
100
AcDbEntity
  8
レイヤー 1
 62
     7
370
    18
100
AcDbVertex
100
AcDb2dVertex
 10
154.7395643059332
 20
190.9631930403669
 30
0.0
  0
VERTEX
  5
55F
330
55D
100
AcDbEntity
  8
レイヤー 1
 62
     7
370
    18
100
AcDbVertex
100
AcDb2dVertex
 10
154.6806531731354
 20
190.9809352821159
 30
0.0
  0
VERTEX
  5
560
330
55D
100
AcDbEntity
  8
レイヤー 1
 62
     7
370
    18
100
AcDbVertex
100
AcDb2dVertex
 10
154.5056423224847
 20
190.9755953841137
 30
0.0
  0
SEQEND
  5
561
330
55D
100
AcDbEntity
  8
レイヤー 1
370
    18
  0
ENDBLK
  5
55C
330
559
100
AcDbEntity
  8
0
100
AcDbBlockEnd
  0
ENDSEC
  0
SECTION
  2
ENTITIES
  0
MTEXT
  5
5B6
330
1F
100
AcDbEntity
  8
0
100
AcDbMText
 10
249.753471423173
 20
221.4885313530141
 30
0.0
 40
15.0
 41
578.5745080716629
 46
3.135050643991497
 71
     1
 72
     5
  1
{\fＭＳ Ｐゴシック|b0|i0|c0|p0;HFD-D90P/N/R/S/G/K}
 73
     1
 44
1.0
  0
LINE
  5
74F
330
1F
100
AcDbEntity
  8
0
  6
Continuous
 62
     0
370
    25
100
AcDbLine
 10
189.0268156995907
 20
71.18006965240735
 30
0.0
 11
189.0268156995907
 21
710.2247793443778
 31
0.0
  0
LINE
  5
750
330
1F
100
AcDbEntity
  8
0
  6
Continuous
 62
     0
370
    25
100
AcDbLine
 10
83.20932665905912
 20
710.2247793443778
 30
0.0
 11
83.20932665905912
 21
71.18006965240735
 31
0.0
  0
SPLINE
  5
751
330
1F
100
AcDbEntity
  8
0
  6
Continuous
 62
     0
370
    25
100
AcDbSpline
210
0.0
220
0.0
230
1.0
 70
     8
 71
     3
 72
    14
 73
    10
 74
     0
 42
0.000000001
 43
0.00000001
 40
0.0
 40
0.0
 40
0.0
 40
0.0
 40
0.0949428982396497
 40
0.2480656325162925
 40
0.4032888194233152
 40
0.5675523518502522
 40
0.7406367060995654
 40
0.9181830545544851
 40
1.0
 40
1.0
 40
1.0
 40
1.0
 10
162.785717250677
 20
680.9420169417108
 30
0.0
 10
162.9540985385134
 20
680.9167536684763
 30
0.0
 10
163.3940430888219
 20
680.8507461000265
 30
0.0
 10
164.1045011425415
 20
681.0784290239897
 30
0.0
 10
164.8314212098059
 20
681.5410051620443
 30
0.0
 10
165.4486192526195
 20
682.2450878275013
 30
0.0
 10
165.9053665313627
 20
683.1431552230952
 30
0.0
 10
166.1127333497832
 20
683.9822518357146
 30
0.0
 10
166.1303340126593
 20
684.4845124749161
 30
0.0
 10
166.1358861956713
 20
684.6429521318892
 30
0.0
  0
SPLINE
  5
752
330
1F
100
AcDbEntity
  8
0
  6
Continuous
 62
     0
370
    25
100
AcDbSpline
210
0.0
220
0.0
230
1.0
 70
     8
 71
     3
 72
    12
 73
     8
 74
     0
 42
0.000000001
 43
0.00000001
 40
0.0
 40
0.0
 40
0.0
 40
0.0
 40
0.1631011291329015
 40
0.4555836018124794
 40
0.7047791968788666
 40
0.9441863689275782
 40
0.9999999999999999
 40
0.9999999999999999
 40
0.9999999999999999
 40
0.9999999999999999
 10
166.1358861956713
 20
684.6429521318892
 30
0.0
 10
166.1269812451605
 20
684.8420783689774
 30
0.0
 10
166.1021074171911
 20
685.3982894068179
 30
0.0
 10
165.8467499980215
 20
686.2115152104129
 30
0.0
 10
165.3210411250735
 20
686.933264063488
 30
0.0
 10
164.8288716323886
 20
687.3590200119659
 30
0.0
 10
164.5016898063309
 20
687.4340041074945
 30
0.0
 10
164.4398337123832
 20
687.4481803938531
 30
0.0
  0
LINE
  5
753
330
1F
100
AcDbEntity
  8
0
  6
Continuous
 62
     0
370
    25
100
AcDbLine
 10
161.9498814034626
 20
681.0154772863709
 30
0.0
 11
162.7605864161664
 21
680.906475479735
 31
0.0
  0
LINE
  5
754
330
1F
100
AcDbEntity
  8
0
  6
Continuous
 62
     0
370
    25
100
AcDbLine
 10
164.4597327154243
 20
687.471472652122
 30
0.0
 11
163.6979414899826
 21
687.7694628202703
 31
0.0
  0
SPLINE
  5
755
330
1F
100
AcDbEntity
  8
0
  6
Continuous
 62
     0
370
    25
100
AcDbSpline
210
0.0
220
0.0
230
1.0
 70
     8
 71
     3
 72
     9
 73
     5
 74
     0
 42
0.000000001
 43
0.00000001
 40
0.0
 40
0.0
 40
0.0
 40
0.0
 40
0.4088004049786457
 40
1.0
 40
1.0
 40
1.0
 40
1.0
 10
107.0497809908144
 20
711.8279358788966
 30
0.0
 10
107.1514111006896
 20
711.6625635050002
 30
0.0
 10
107.4000167983297
 20
711.2580326584491
 30
0.0
 10
107.7397701027559
 20
710.9455363136217
 30
0.0
 10
107.9406321187398
 20
710.760788601114
 30
0.0
  0
SPLINE
  5
756
330
1F
100
AcDbEntity
  8
0
  6
Continuous
 62
     0
370
    25
100
AcDbSpline
210
0.0
220
0.0
230
1.0
 70
     8
 71
     3
 72
     9
 73
     5
 74
     0
 42
0.000000001
 43
0.00000001
 40
0.0
 40
0.0
 40
0.0
 40
0.0
 40
0.3502462550141371
 40
0.9999999999999999
 40
0.9999999999999999
 40
0.9999999999999999
 40
0.9999999999999999
 10
164.1054427116065
 20
710.5893770289701
 30
0.0
 10
164.2547184653536
 20
710.7132437408513
 30
0.0
 10
164.6809207490612
 20
711.0668998045721
 30
0.0
 10
164.9988804575897
 20
711.5312014007729
 30
0.0
 10
165.2054759689607
 20
711.8328831017075
 30
0.0
  0
LINE
  5
757
330
1F
100
AcDbEntity
  8
0
  6
Continuous
 62
     0
370
    25
100
AcDbLine
 10
91.02463671033033
 20
715.9755484192017
 30
0.0
 11
131.3297232379636
 21
705.5438244113452
 31
0.0
  0
SPLINE
  5
758
330
1F
100
AcDbEntity
  8
0
  6
Continuous
 62
     0
370
    25
100
AcDbSpline
210
0.0
220
0.0
230
1.0
 70
     8
 71
     3
 72
    14
 73
    10
 74
     0
 42
0.000000001
 43
0.00000001
 40
0.0
 40
0.0
 40
0.0
 40
0.0
 40
0.0879687135207226
 40
0.245466460926709
 40
0.4076007290655681
 40
0.5628207422073168
 40
0.7179795455352953
 40
0.8774892541034596
 40
1.0
 40
1.0
 40
1.0
 40
1.0
 10
131.3297232379636
 20
705.5438244113452
 30
0.0
 10
131.5846399847136
 20
705.4828534185324
 30
0.0
 10
132.295955509874
 20
705.3127209563659
 30
0.0
 10
133.5695311317381
 20
705.1248404965856
 30
0.0
 10
135.1484417424744
 20
705.0063206959624
 30
0.0
 10
136.7621742590835
 20
704.9962936039212
 30
0.0
 10
138.3375149519597
 20
705.0918118160175
 30
0.0
 10
139.7282819302969
 20
705.2701115116249
 30
0.0
 10
140.5496247230375
 20
705.4609314936263
 30
0.0
 10
140.9064191206864
 20
705.5438244113452
 30
0.0
  0
LINE
  5
759
330
1F
100
AcDbEntity
  8
0
  6
Continuous
 62
     0
370
    25
100
AcDbLine
 10
140.9064191206864
 20
705.5438244113452
 30
0.0
 11
181.2115056483195
 21
715.9755484192017
 31
0.0
  0
LINE
  5
75A
330
1F
100
AcDbEntity
  8
0
  6
Continuous
 62
     0
370
    25
100
AcDbLine
 10
108.2849405200506
 20
710.4753424623229
 30
0.0
 11
108.2077219178708
 21
710.4019276399274
 31
0.0
  0
ARC
  5
75B
330
1F
100
AcDbEntity
  8
0
  6
Continuous
 62
     0
370
    25
100
AcDbCircle
 10
176.4231577069581
 20
774.8570341039933
 30
0.0
 40
10.00000000000001
100
AcDbArc
 50
0.0
 51
75.4891813009305
  0
ARC
  5
75C
330
1F
100
AcDbEntity
  8
0
  6
Continuous
 62
     0
370
    25
100
AcDbCircle
 10
95.81298465169172
 20
774.8570341039933
 30
0.0
 40
10.0
100
AcDbArc
 50
104.5108186990697
 51
180.0
  0
LINE
  5
75D
330
1F
100
AcDbEntity
  8
0
  6
Continuous
 62
     0
370
    25
100
AcDbLine
 10
178.9287857778154
 20
784.5380375628572
 30
0.0
 11
138.6236992501822
 21
794.9697615707137
 31
0.0
  0
LINE
  5
75E
330
1F
100
AcDbEntity
  8
0
  6
Continuous
 62
     0
370
    25
100
AcDbLine
 10
85.81298465169172
 20
774.8570341039933
 30
0.0
 11
85.81298465169172
 21
721.7311136580945
 31
0.0
  0
LINE
  5
75F
330
1F
100
AcDbEntity
  8
0
  6
Continuous
 62
     0
370
    25
100
AcDbLine
 10
186.4231577069581
 20
721.7311136580947
 30
0.0
 11
186.4231577069581
 21
774.8570341039933
 31
0.0
  0
LINE
  5
760
330
1F
100
AcDbEntity
  8
0
  6
Continuous
 62
     0
370
    25
100
AcDbLine
 10
133.6124431084675
 20
794.9697615707137
 30
0.0
 11
93.30735658083441
 21
784.538037562857
 31
0.0
  0
SPLINE
  5
761
330
1F
100
AcDbEntity
  8
0
  6
Continuous
 62
     0
370
    25
100
AcDbSpline
210
0.0
220
0.0
230
1.0
 70
     8
 71
     3
 72
    15
 73
    11
 74
     0
 42
0.000000001
 43
0.00000001
 40
0.0
 40
0.0
 40
0.0
 40
0.0
 40
0.1030750018094586
 40
0.2659958120657473
 40
0.4015441341393663
 40
0.5356885016781459
 40
0.6705155880475796
 40
0.8070715872155925
 40
0.9450629079947873
 40
1.0
 40
1.0
 40
1.0
 40
1.0
 10
181.2115056483195
 20
715.9755484192017
 30
0.0
 10
181.4726043760013
 20
716.0486173486067
 30
0.0
 10
182.1463969239502
 20
716.2371793556179
 30
0.0
 10
183.1084350523954
 20
716.6351413451637
 30
0.0
 10
184.1103653339061
 20
717.2384883639445
 30
0.0
 10
184.9693323925998
 20
717.9928437716196
 30
0.0
 10
185.6889005212626
 20
718.9333936208589
 30
0.0
 10
186.1826156831856
 20
720.0332577942429
 30
0.0
 10
186.4315180005094
 20
720.9960269191283
 30
0.0
 10
186.3944810229962
 20
721.5674946154372
 30
0.0
 10
186.3839346041879
 20
721.7302221938019
 30
0.0
  0
SPLINE
  5
762
330
1F
100
AcDbEntity
  8
0
  6
Continuous
 62
     0
370
    25
100
AcDbSpline
210
0.0
220
0.0
230
1.0
 70
     8
 71
     3
 72
    15
 73
    11
 74
     0
 42
0.000000001
 43
0.00000001
 40
0.0
 40
0.0
 40
0.0
 40
0.0
 40
0.0962683588252062
 40
0.2340937471419238
 40
0.3623729475410205
 40
0.4853078398746186
 40
0.6070110553925088
 40
0.7333695144370617
 40
0.8747780630267555
 40
1.0
 40
1.0
 40
1.0
 40
1.0
 10
85.85220775446192
 20
721.7320051223874
 30
0.0
 10
85.84984432044402
 20
721.4457579955097
 30
0.0
 10
85.84409720755957
 20
720.7496968664207
 30
0.0
 10
86.16989068467879
 20
719.7115214166979
 30
0.0
 10
86.70450370662417
 20
718.7011259091216
 30
0.0
 10
87.39547873257499
 20
717.8692102774949
 30
0.0
 10
88.19272894764009
 20
717.196939774494
 30
0.0
 10
89.0952930176291
 20
716.6581077288058
 30
0.0
 10
90.03426854527365
 20
716.256448776664
 30
0.0
 10
90.70815067422936
 20
716.065314067785
 30
0.0
 10
91.02463671033033
 20
715.9755484192017
 30
0.0
  0
ARC
  5
763
330
1F
100
AcDbEntity
  8
0
  6
Continuous
 62
     0
370
    25
100
AcDbCircle
 10
136.1180711793249
 20
785.2887581118498
 30
0.0
 40
10.00000000000006
100
AcDbArc
 50
75.4891813009305
 51
93.9671308008377
  0
ARC
  5
764
330
1F
100
AcDbEntity
  8
0
  6
Continuous
 62
     0
370
    25
100
AcDbCircle
 10
136.1180711793249
 20
785.2887581118498
 30
0.0
 40
10.00000000000007
100
AcDbArc
 50
93.9671308008377
 51
104.5108186990697
  0
SPLINE
  5
765
330
1F
100
AcDbEntity
  8
0
  6
Continuous
 62
     0
370
    25
100
AcDbSpline
210
0.0
220
0.0
230
1.0
 70
     8
 71
     3
 72
    11
 73
     7
 74
     0
 42
0.000000001
 43
0.00000001
 40
0.0
 40
0.0
 40
0.0
 40
0.0
 40
0.2644059033288781
 40
0.5225364955921372
 40
0.7691205896413684
 40
1.0
 40
1.0
 40
1.0
 40
1.0
 10
190.1072865638763
 20
713.0468529190653
 30
0.0
 10
190.099945448669
 20
713.1028906783602
 30
0.0
 10
190.0854374495439
 20
713.2136362176773
 30
0.0
 10
189.9836420293447
 20
713.3654090797988
 30
0.0
 10
189.8405650836145
 20
713.4942229760084
 30
0.0
 10
189.7189888339907
 20
713.5519563609732
 30
0.0
 10
189.6602001463369
 20
713.5798735729813
 30
0.0
  0
SPLINE
  5
766
330
1F
100
AcDbEntity
  8
0
  6
Continuous
 62
     0
370
    25
100
AcDbSpline
210
0.0
220
0.0
230
1.0
 70
     8
 71
     3
 72
    11
 73
     7
 74
     0
 42
0.000000001
 43
0.00000001
 40
0.0
 40
0.0
 40
0.0
 40
0.0
 40
0.2308794103586315
 40
0.4774635044078628
 40
0.735594096671122
 40
1.0
 40
1.0
 40
1.0
 40
1.0
 10
82.57594221231292
 20
713.5798735729816
 30
0.0
 10
82.51715352465911
 20
713.5519563609732
 30
0.0
 10
82.3955772750353
 20
713.4942229760084
 30
0.0
 10
82.25250032930512
 20
713.3654090797988
 30
0.0
 10
82.15070490910603
 20
713.2136362176773
 30
0.0
 10
82.13619690998087
 20
713.1028906783604
 30
0.0
 10
82.12885579477356
 20
713.0468529190655
 30
0.0
  0
LINE
  5
767
330
1F
100
AcDbEntity
  8
0
  6
Continuous
 62
     0
370
    25
100
AcDbLine
 10
190.1510688307617
 20
710.6241771707043
 30
0.0
 11
190.1072793309527
 21
713.047367593058
 31
0.0
  0
LINE
  5
768
330
1F
100
AcDbEntity
  8
0
  6
Continuous
 62
     0
370
    25
100
AcDbLine
 10
82.12886302769718
 20
713.047367593058
 30
0.0
 11
82.08507352788814
 21
710.6241771707043
 31
0.0
  0
LINE
  5
769
330
1F
100
AcDbEntity
  8
0
  6
Continuous
 62
     0
370
    25
100
AcDbLine
 10
189.5990042194138
 20
713.6053375599133
 30
0.0
 11
180.8263591683918
 21
715.8758651750422
 31
0.0
  0
LINE
  5
76A
330
1F
100
AcDbEntity
  8
0
  6
Continuous
 62
     0
370
    25
100
AcDbLine
 10
91.40978319025794
 20
715.8758651750422
 30
0.0
 11
82.63713813923607
 21
713.6053375599133
 31
0.0
  0
ARC
  5
76B
330
1F
100
AcDbEntity
  8
0
  6
Continuous
 62
     0
370
    25
100
AcDbCircle
 10
136.1180711793245
 20
58.4595724390814
 30
0.0
 40
0.9739344836919555
100
AcDbArc
 50
257.4196020624302
 51
282.5803979376007
  0
LINE
  5
76C
330
1F
100
AcDbEntity
  8
0
  6
Continuous
 62
     0
370
    25
100
AcDbLine
 10
188.9389477339373
 20
71.12516584183373
 30
0.0
 11
136.3302032137035
 21
57.5090208210645
 31
0.0
  0
LWPOLYLINE
  5
76D
330
1F
100
AcDbEntity
  8
0
  6
Continuous
 62
     0
370
    25
100
AcDbPolyline
 90
       30
 70
   128
 43
0.0
 10
162.6345754738204
 20
86.05042442295311
 10
163.7746283940294
 20
86.17612076329854
 10
164.8613737067673
 20
85.95719754681224
 10
165.8439964090411
 20
85.40389137978136
 10
166.6765501553991
 20
84.54207424362062
 10
167.3201056579787
 20
83.41204374977588
 10
167.7445709767398
 20
82.06663886820067
 10
167.9300985851365
 20
80.56876923584758
 10
167.8680134183992
 20
78.98847357196252
 10
167.561218509922
 20
77.39964474541631
 10
167.0240592486471
 20
75.87657462628198
 10
166.2816526046221
 20
74.49048028055964
 10
165.368712687396
 20
73.30617393932164
 10
164.3279275528383
 20
72.37903245082236
 10
163.2079631570914
 20
71.75240792062058
 10
162.0611877905493
 20
71.45560061530503
 10
160.9412233948024
 20
71.50248891459492
 10
159.9004382602447
 20
71.89088037372784
 10
158.9874983430186
 20
72.60261423974094
 10
158.2450916989936
 20
73.6044106280948
 10
157.7079324377187
 20
74.84942665308685
 10
157.4011375292415
 20
76.27944674912405
 10
157.3390523625043
 20
77.8276047658693
 10
157.524579970901
 20
79.42151055511329
 10
157.9490452896621
 20
80.98663485365023
 10
158.5926007922417
 20
82.44979418879109
 10
159.4251545385997
 20
83.74257285620982
 10
160.4077772408735
 20
84.80452196223769
 10
161.4945225536114
 20
85.5859859469488
 10
162.6345754738204
 20
86.05042442295311
  0
LWPOLYLINE
  5
76E
330
1F
100
AcDbEntity
  8
0
  6
Continuous
 62
     0
370
    25
100
AcDbPolyline
 90
       24
 70
   128
 43
0.0
 10
162.6345754738204
 20
397.5615034011776
 10
163.5884511059572
 20
397.987480330732
 10
164.4715821461491
 20
398.7400559987321
 10
165.2184708052007
 20
399.7634153106873
 10
165.7737237680585
 20
400.981660387987
 10
166.0961604625805
 20
402.3044395663484
 10
166.1618672341837
 20
403.6336483654243
 10
165.9659709122069
 20
404.8707054493132
 10
165.523000230685
 20
405.9238639532625
 10
164.8658082986105
 20
406.7150159289137
 10
164.0431360351323
 20
407.1854852535125
 10
163.1159972785574
 20
407.3003793695071
 10
162.1531536690833
 20
407.05117710592
 10
161.2260149125084
 20
406.4563606546168
 10
160.4033426490302
 20
405.5600448306865
 10
159.7461507169557
 20
404.428705278418
 10
159.3031800354338
 20
403.1462482768689
 10
159.107283713457
 20
401.8077877949939
 10
159.1729904850603
 20
400.5125913236841
 10
159.4954271795823
 20
399.3567176600872
 10
160.0506801424401
 20
398.4258926660618
 10
160.7975688014917
 20
397.789151373174
 10
161.6806998416836
 20
397.4937179702195
 10
162.6345754738204
 20
397.5615034011776
  0
LINE
  5
76F
330
1F
100
AcDbEntity
  8
0
  6
Continuous
 62
     0
370
    25
100
AcDbLine
 10
173.2411771916186
 20
182.9733830145205
 30
0.0
 11
173.2411771916186
 21
144.3363499629578
 31
0.0
  0
LWPOLYLINE
  5
770
330
1F
100
AcDbEntity
  8
0
  6
Continuous
 62
     0
370
    25
100
AcDbPolyline
 90
       21
 70
   128
 43
0.0
 10
152.0279737560222
 20
177.4830019577539
 10
152.1585586238147
 20
179.7833611571021
 10
152.547097794361
 20
182.0946735800814
 10
153.1840241437946
 20
184.3600270440322
 10
154.0536544315551
 20
186.5236410283951
 10
155.1345754738204
 20
188.5322401762517
 10
156.4001714071586
 20
190.3363661104233
 10
157.8192790594188
 20
191.8915952628603
 10
159.3569552904543
 20
193.1596327303197
 10
160.9753374082019
 20
194.1092552219777
 10
162.6345754738204
 20
194.7170798804733
 10
164.293813539439
 20
194.96814004546
 10
165.9121956571866
 20
194.8562537824549
 10
167.449871888222
 20
194.3841761025822
 10
168.8689795404822
 20
193.5635311250567
 10
170.1345754738205
 20
192.4145258527894
 10
171.2154965160857
 20
190.9654526089134
 10
172.0851268038462
 20
189.2519923858914
 10
172.7220531532798
 20
187.3163362610626
 10
173.110592323826
 20
185.2061465122947
 10
173.2411771916186
 20
182.9733830145205
  0
LINE
  5
771
330
1F
100
AcDbEntity
  8
0
  6
Continuous
 62
     0
370
    25
100
AcDbLine
 10
152.0279737560222
 20
138.8459689061912
 30
0.0
 11
152.0279737560222
 21
177.4830019577539
 31
0.0
  0
LWPOLYLINE
  5
772
330
1F
100
AcDbEntity
  8
0
  6
Continuous
 62
     0
370
    25
100
AcDbPolyline
 90
       21
 70
   128
 43
0.0
 10
173.2411771916186
 20
144.3363499629578
 10
173.110592323826
 20
142.0359907636098
 10
172.7220531532798
 20
139.7246783406304
 10
172.0851268038462
 20
137.4593248766796
 10
171.2154965160857
 20
135.2957108923167
 10
170.1345754738204
 20
133.28711174446
 10
168.8689795404822
 20
131.4829858102884
 10
167.4498718882219
 20
129.9277566578514
 10
165.9121956571865
 20
128.6597191903921
 10
164.2938135394389
 20
127.7100966987342
 10
162.6345754738203
 20
127.1022720402385
 10
160.9753374082018
 20
126.8512118752519
 10
159.3569552904542
 20
126.9630981382569
 10
157.8192790594188
 20
127.4351758181295
 10
156.4001714071585
 20
128.255820795655
 10
155.1345754738203
 20
129.4048260679223
 10
154.0536544315551
 20
130.8538993117983
 10
153.1840241437946
 20
132.5673595348204
 10
152.547097794361
 20
134.5030156596492
 10
152.1585586238147
 20
136.6132054084172
 10
152.0279737560222
 20
138.8459689061912
  0
LWPOLYLINE
  5
773
330
1F
100
AcDbEntity
  8
0
  6
Continuous
 62
     0
370
    25
100
AcDbPolyline
 90
       24
 70
   128
 43
0.0
 10
162.6345754738204
 20
611.9970368373506
 10
163.5884511059572
 20
612.0648222683087
 10
164.4715821461491
 20
611.7693888653544
 10
165.2184708052007
 20
611.1326475724663
 10
165.7737237680584
 20
610.2018225784411
 10
166.0961604625804
 20
609.0459489148441
 10
166.1618672341837
 20
607.7507524435346
 10
165.9659709122068
 20
606.4122919616593
 10
165.523000230685
 20
605.1298349601104
 10
164.8658082986105
 20
603.998495407842
 10
164.0431360351323
 20
603.1021795839117
 10
163.1159972785574
 20
602.5073631326086
 10
162.1531536690833
 20
602.2581608690214
 10
161.2260149125084
 20
602.3730549850161
 10
160.4033426490302
 20
602.8435243096148
 10
159.7461507169558
 20
603.6346762852661
 10
159.3031800354339
 20
604.6878347892152
 10
159.1072837134571
 20
605.9248918731041
 10
159.1729904850604
 20
607.2541006721801
 10
159.4954271795824
 20
608.5768798505414
 10
160.0506801424401
 20
609.795124927841
 10
160.7975688014917
 20
610.8184842397961
 10
161.6806998416836
 20
611.5710599077963
 10
162.6345754738204
 20
611.9970368373506
  0
LINE
  5
774
330
1F
100
AcDbEntity
  8
0
  6
Continuous
 62
     0
370
    25
100
AcDbLine
 10
135.9059391449461
 20
57.50902082106438
 30
0.0
 11
83.29719462471257
 21
71.12516584183385
 31
0.0
  0
LWPOLYLINE
  5
775
330
1F
100
AcDbEntity
  8
0
  6
Continuous
 62
     0
370
    25
100
AcDbPolyline
 90
       12
 70
   128
 43
0.0
 10
160.8676543785942
 20
602.5268464623798
 10
161.573915302063
 20
602.6122976272927
 10
162.5277909341998
 20
603.038274556847
 10
163.4109219743917
 20
603.7908502248472
 10
164.1578106334433
 20
604.8142095368023
 10
164.7130635963011
 20
606.0324546141021
 10
165.035500290823
 20
607.3552337924632
 10
165.1012070624263
 20
608.6844425915392
 10
164.9053107404495
 20
609.9214996754281
 10
164.4623400589276
 20
610.9746581793772
 10
163.8051481268531
 20
611.7658101550285
 10
163.3408363972889
 20
612.0824880022635
  0
LWPOLYLINE
  5
776
330
1F
100
AcDbEntity
  8
0
  6
Continuous
 62
     0
370
    25
100
AcDbPolyline
 90
        5
 70
   128
 43
0.0
 10
189.0268156995907
 20
71.18006965240735
 10
189.021051283711
 20
71.16492172514981
 10
189.0039795593416
 20
71.15035592424172
 10
188.976256583276
 20
71.13693200524344
 10
188.9389477339373
 20
71.12516584183373
  0
LWPOLYLINE
  5
777
330
1F
100
AcDbEntity
  8
0
  6
Continuous
 62
     0
370
    25
100
AcDbPolyline
 90
        5
 70
   128
 43
0.0
 10
83.29719462471257
 20
71.12516584183385
 10
83.25988577537376
 20
71.13693200524344
 10
83.23216279930816
 20
71.15035592424184
 10
83.21509107493875
 20
71.16492172514992
 10
83.20932665905914
 20
71.18006965240735
  0
LINE
  5
778
330
1F
100
AcDbEntity
  8
0
  6
Continuous
 62
     0
370
    25
100
AcDbLine
 10
157.428774253486
 20
78.84136836854108
 30
0.0
 11
166.1432261669225
 21
76.58590224571364
 31
0.0
  0
LINE
  5
779
330
1F
100
AcDbEntity
  8
0
  6
Continuous
 62
     0
370
    25
100
AcDbLine
 10
161.573915302063
 20
397.8360224540101
 30
0.0
 11
160.8676543785145
 21
397.7505712890988
 31
0.0
  0
LWPOLYLINE
  5
77A
330
1F
100
AcDbEntity
  8
0
  6
Continuous
 62
     0
370
    25
100
AcDbPolyline
 90
       11
 70
   128
 43
0.0
 10
163.3408363972228
 20
407.3062128290161
 10
163.8051481268532
 20
406.9895349817462
 10
164.4623400589277
 20
406.1983830060948
 10
164.9053107404496
 20
405.1452245021456
 10
165.1012070624264
 20
403.9081674182568
 10
165.0355002908231
 20
402.5789586191808
 10
164.7130635963011
 20
401.2561794408195
 10
164.1578106334433
 20
400.0379343635197
 10
163.4109219743917
 20
399.0145750515646
 10
162.5277909341998
 20
398.2619993835644
 10
161.573915302063
 20
397.8360224540101
  0
LWPOLYLINE
  5
77C
330
1F
100
AcDbEntity
  8
0
  6
Continuous
 62
     0
370
    25
100
AcDbPolyline
 90
        9
 70
   128
 43
0.0
 10
172.1805170198612
 20
183.247902067353
 10
172.0499321520687
 20
185.4806655651273
 10
171.6613929815224
 20
187.5908553138952
 10
171.0244666320888
 20
189.526511438724
 10
170.1548363443283
 20
191.239971661746
 10
169.073915302063
 20
192.6890449056219
 10
167.8083193687248
 20
193.8380501778892
 10
166.3892117164646
 20
194.6586951554148
 10
165.8573109871056
 20
194.8661839678627
  0
LWPOLYLINE
  5
77E
330
1F
100
AcDbEntity
  8
0
  6
Continuous
 62
     0
370
    25
100
AcDbPolyline
 90
       13
 70
   128
 43
0.0
 10
158.3511797868847
 20
127.2276870058315
 10
159.9146772364444
 20
127.1257309280844
 10
161.573915302063
 20
127.376791093071
 10
163.2331533676815
 20
127.9846157515667
 10
164.8515354854292
 20
128.9342382432246
 10
166.3892117164646
 20
130.202275710684
 10
167.8083193687248
 20
131.7575048631208
 10
169.073915302063
 20
133.5616307972925
 10
170.1548363443283
 20
135.5702299451492
 10
171.0244666320888
 20
137.7338439295121
 10
171.6613929815224
 20
139.9991973934629
 10
172.0499321520687
 20
142.3105098164422
 10
172.1805170198612
 20
144.6108690157903
  0
LINE
  5
77F
330
1F
100
AcDbEntity
  8
0
  6
Continuous
 62
     0
370
    25
100
AcDbLine
 10
172.1805170198612
 20
144.6108690157903
 30
0.0
 11
172.1805170198612
 21
183.247902067353
 31
0.0
  0
LWPOLYLINE
  5
780
330
1F
100
AcDbEntity
  8
0
  6
Continuous
 62
     0
370
    25
100
AcDbPolyline
 90
       14
 70
   128
 43
0.0
 10
161.573915302063
 20
71.83605608144953
 10
162.7139682222721
 20
72.30049455745385
 10
163.8007135350099
 20
73.08195854216495
 10
164.7833362372837
 20
74.14390764819305
 10
165.6158899836418
 20
75.43668631561167
 10
166.2594454862214
 20
76.89984565075261
 10
166.6839108049825
 20
78.46496994928947
 10
166.8694384133792
 20
80.05887573853369
 10
166.807353246642
 20
81.60703375527893
 10
166.5005583381647
 20
83.03705385131613
 10
165.9633990768898
 20
84.28206987630807
 10
165.2209924328648
 20
85.28386626466204
 10
164.3080525156387
 20
85.995600130675
 10
163.9726902184834
 20
86.16235671812137
  0
LWPOLYLINE
  5
781
330
1F
100
AcDbEntity
  8
0
  6
Continuous
 62
     0
370
    25
100
AcDbPolyline
 90
        3
 70
   128
 43
0.0
 10
160.2358005580687
 20
71.72412378611085
 10
160.433862381854
 20
71.7103597411041
 10
161.573915302063
 20
71.83605608144953
  0
ARC
  5
783
330
1F
100
AcDbEntity
  8
0
  6
Continuous
 62
     0
370
    25
100
AcDbCircle
 10
153.7591002718207
 20
683.9954386958266
 30
0.0
 40
10.95595289983079
100
AcDbArc
 50
351.2330510372842
 51
358.4239795440126
  0
ARC
  5
784
330
1F
100
AcDbEntity
  8
0
  6
Continuous
 62
     0
370
    25
100
AcDbCircle
 10
162.1847719835306
 20
692.8651653209806
 30
0.0
 40
9.512599403765883
100
AcDbArc
 50
285.4000483061893
 51
291.1198622991737
  0
ARC
  5
785
330
1F
100
AcDbEntity
  8
0
  6
Continuous
 62
     0
370
    25
100
AcDbCircle
 10
153.9845036230393
 20
684.3296138019718
 30
0.0
 40
11.63276377228305
100
AcDbArc
 50
358.3346224724974
 51
1.665377527503738
  0
ARC
  5
786
330
1F
100
AcDbEntity
  8
0
  6
Continuous
 62
     0
370
    25
100
AcDbCircle
 10
162.1847719835285
 20
693.5413133993909
 30
0.0
 40
9.51259940377399
100
AcDbArc
 50
285.400048306189
 51
291.1198622991679
  0
ARC
  5
787
330
1F
100
AcDbEntity
  8
0
  6
Continuous
 62
     0
370
    25
100
AcDbCircle
 10
152.1621390971157
 20
684.0070371369404
 30
0.0
 40
12.55402526986246
100
AcDbArc
 50
1.657967476606065
 51
8.224474043212394
  0
ARC
  5
788
330
1F
100
AcDbEntity
  8
0
  6
Continuous
 62
     0
370
    25
100
AcDbCircle
 10
161.0156456582326
 20
698.5814822775294
 30
0.0
 40
13.26826224367978
100
AcDbArc
 50
283.4068210951587
 51
285.614816302979
  0
ARC
  5
789
330
1F
100
AcDbEntity
  8
0
  6
Continuous
 62
     0
370
    25
100
AcDbCircle
 10
151.6671643502752
 20
683.8789282456153
 30
0.0
 40
12.55402526987241
100
AcDbArc
 50
1.657967476606826
 51
8.224474043207914
  0
ARC
  5
78A
330
1F
100
AcDbEntity
  8
0
  6
Continuous
 62
     0
370
    25
100
AcDbCircle
 10
160.0736539620359
 20
701.6980470765859
 30
0.0
 40
17.94064413386766
100
AcDbArc
 50
279.6038111881324
 51
283.3493593816361
  0
ARC
  5
78B
330
1F
100
AcDbEntity
  8
0
  6
Continuous
 62
     0
370
    25
100
AcDbCircle
 10
151.4389192107059
 20
683.6707680751597
 30
0.0
 40
11.6327637723449
100
AcDbArc
 50
358.3346224725074
 51
1.665377527494881
  0
ARC
  5
78C
330
1F
100
AcDbEntity
  8
0
  6
Continuous
 62
     0
370
    25
100
AcDbCircle
 10
160.0736539619978
 20
701.0218989983753
 30
0.0
 40
17.94064413406312
100
AcDbArc
 50
279.60381118815
 51
283.3493593816131
  0
ARC
  5
78D
330
1F
100
AcDbEntity
  8
0
  6
Continuous
 62
     0
370
    25
100
AcDbCircle
 10
153.2641255249889
 20
683.8673298045019
 30
0.0
 40
10.955952899832
100
AcDbArc
 50
351.2330510372864
 51
358.4239795440128
  0
ARC
  5
78E
330
1F
100
AcDbEntity
  8
0
  6
Continuous
 62
     0
370
    25
100
AcDbCircle
 10
161.0156456582003
 20
695.1041493030136
 30
0.0
 40
13.26826224380869
100
AcDbArc
 50
283.4068210951692
 51
285.6148163029682
  0
LWPOLYLINE
  5
78F
330
1F
100
AcDbEntity
  8
0
  6
Continuous
 62
     0
370
    25
100
AcDbPolyline
 90
       12
 70
   128
 43
0.0
 10
163.6979414899826
 20
687.7694628202703
 10
163.2421210580607
 20
687.876008812088
 10
162.4302020207273
 20
687.7577715166169
 10
161.6404300182173
 20
687.280161906868
 10
160.958389101578
 20
686.4949363949345
 10
160.4579889870825
 20
685.4871863490632
 10
160.1934557916442
 20
684.3661171235776
 10
160.1934557916442
 20
683.2532139642401
 10
160.4579889870825
 20
682.2690771968371
 10
160.958389101578
 20
681.5203533105716
 10
161.6404300182173
 20
681.0881781561689
 10
161.9498814034626
 20
681.0154772863709
  0
LINE
  5
790
330
1F
100
AcDbEntity
  8
0
  6
Continuous
 62
     0
370
    25
100
AcDbLine
 10
163.0707923024895
 20
683.8136730487204
 30
0.0
 11
163.1649055597103
 21
683.8380313520859
 31
0.0
  0
LINE
  5
791
330
1F
100
AcDbEntity
  8
0
  6
Continuous
 62
     0
370
    25
100
AcDbLine
 10
163.1649055597103
 20
683.8380313520859
 30
0.0
 11
164.2159339337043
 21
683.5660051919531
 31
0.0
  0
LINE
  5
792
330
1F
100
AcDbEntity
  8
0
  6
Continuous
 62
     0
370
    25
100
AcDbLine
 10
164.6851851392614
 20
684.2315086611541
 30
0.0
 11
164.6851851392614
 21
684.3769199040689
 31
0.0
  0
LINE
  5
793
330
1F
100
AcDbEntity
  8
0
  6
Continuous
 62
     0
370
    25
100
AcDbLine
 10
163.6598803065409
 20
683.9661402434103
 30
0.0
 11
164.6851851392614
 21
684.2315086611541
 31
0.0
  0
LINE
  5
794
330
1F
100
AcDbEntity
  8
0
  6
Continuous
 62
     0
370
    25
100
AcDbLine
 10
163.6598803065409
 20
683.7099224607612
 30
0.0
 11
163.6598803065409
 21
683.9661402434103
 31
0.0
  0
LINE
  5
795
330
1F
100
AcDbEntity
  8
0
  6
Continuous
 62
     0
370
    25
100
AcDbLine
 10
164.2058524831928
 20
684.500980324399
 30
0.0
 11
164.7109086805349
 21
684.3702621616799
 31
0.0
  0
LINE
  5
796
330
1F
100
AcDbEntity
  8
0
  6
Continuous
 62
     0
370
    25
100
AcDbLine
 10
164.1274670264699
 20
682.4445274469365
 30
0.0
 11
164.5870489323596
 21
682.3255788969077
 31
0.0
  0
LINE
  5
797
330
1F
100
AcDbEntity
  8
0
  6
Continuous
 62
     0
370
    25
100
AcDbLine
 10
163.6598803065409
 20
683.9661402434103
 30
0.0
 11
164.7109086805349
 21
683.6941140832776
 31
0.0
  0
LINE
  5
798
330
1F
100
AcDbEntity
  8
0
  6
Continuous
 62
     0
370
    25
100
AcDbLine
 10
164.6851851392614
 20
684.2315086611541
 30
0.0
 11
165.6123537650801
 21
683.9915397627708
 31
0.0
  0
ARC
  5
7AB
330
1F
100
AcDbEntity
  8
0
  6
Continuous
 62
     0
370
    25
100
AcDbCircle
 10
136.1180711793248
 20
701.157030529253
 30
0.0
 40
1.481309463031957
100
AcDbArc
 50
257.4196020624267
 51
282.5803979375784
  0
ARC
  5
7AF
330
1F
100
AcDbEntity
  8
0
  6
Continuous
 62
     0
370
    25
100
AcDbCircle
 10
136.1180711793248
 20
699.882506705012
 30
0.0
 40
3.246448278625232
100
AcDbArc
 50
257.4196020624171
 51
282.5803979375848
  0
LINE
  5
7B3
330
1F
100
AcDbEntity
  8
0
  6
Continuous
 62
     0
370
    25
100
AcDbLine
 10
136.4407142268797
 20
699.711285327244
 30
0.0
 11
189.4737228158709
 21
713.4372379691604
 31
0.0
  0
LINE
  5
7B5
330
1F
100
AcDbEntity
  8
0
  6
Continuous
 62
     0
370
    25
100
AcDbLine
 10
82.76241954277899
 20
713.4372379691604
 30
0.0
 11
135.7954281317699
 21
699.711285327244
 31
0.0
  0
LWPOLYLINE
  5
7B8
330
1F
100
AcDbEntity
  8
0
  6
Continuous
 62
     0
370
    25
100
AcDbPolyline
 90
       13
 70
   128
 43
0.0
 10
130.1684009981274
 20
705.844396724516
 10
130.0656523832398
 20
705.8497793349782
 10
126.8268281377058
 20
706.0699227854714
 10
123.7018615685764
 20
706.3813708334571
 10
120.7290469526035
 20
706.7803069012286
 10
117.9448140509115
 20
707.2618423066679
 10
115.3832816877886
 20
707.8200761706216
 10
113.0758396483901
 20
708.4481677280432
 10
111.0507640189045
 20
709.1384201567771
 10
109.3328706829206
 20
709.8823748967236
 10
107.943211220154
 20
710.6709153035688
 10
106.8988149340806
 20
711.4943783668771
 10
106.45894231931
 20
711.9808561796651
  0
LWPOLYLINE
  5
7B9
330
1F
100
AcDbEntity
  8
0
  6
Continuous
 62
     0
370
    25
100
AcDbPolyline
 90
       13
 70
   128
 43
0.0
 10
165.7772000393398
 20
711.9808561796651
 10
165.5558027520293
 20
711.7186040204406
 10
164.6156211647596
 20
710.8946279878526
 10
163.3322701846416
 20
710.1022758206179
 10
161.7212040095584
 20
709.3510890762493
 10
159.8018232055736
 20
708.6501135954982
 10
157.5972410840238
 20
708.0077905717394
 10
155.1340053694863
 20
707.4318549015584
 10
152.441778510313
 20
706.9292420406118
 10
149.5529804814541
 20
706.5060044864099
 10
146.5023983809631
 20
706.1672388937382
 10
143.3267675214474
 20
705.9170247004013
 10
142.0677413605226
 20
705.844396724516
  0
LWPOLYLINE
  5
7BA
330
1F
100
AcDbEntity
  8
0
  6
Continuous
 62
     0
370
    25
100
AcDbPolyline
 90
        9
 70
   128
 43
0.0
 10
82.76241954277896
 20
713.6042503001147
 10
82.70567450242382
 20
713.5863545078471
 10
82.6635091335238
 20
713.565937345732
 10
82.63754382755906
 20
713.5437834338591
 10
82.62877641667635
 20
713.5207441346377
 10
82.63754382755906
 20
713.497704835416
 10
82.6635091335238
 20
713.4755509235431
 10
82.70567450242382
 20
713.455133761428
 10
82.76241954277899
 20
713.4372379691604
  0
LWPOLYLINE
  5
7BB
330
1F
100
AcDbEntity
  8
0
  6
Continuous
 62
     0
370
    25
100
AcDbPolyline
 90
        9
 70
   128
 43
0.0
 10
189.4737228158709
 20
713.4372379691604
 10
189.530467856226
 20
713.455133761428
 10
189.572633225126
 20
713.4755509235431
 10
189.5985985310908
 20
713.497704835416
 10
189.6073659419735
 20
713.5207441346377
 10
189.5985985310908
 20
713.5437834338591
 10
189.572633225126
 20
713.565937345732
 10
189.530467856226
 20
713.5863545078471
 10
189.4737228158709
 20
713.6042503001147
  0
LINE
  5
7BD
330
1F
100
AcDbEntity
  8
0
  6
Continuous
 62
     0
370
    25
100
AcDbLine
 10
136.8251779605114
 20
696.7140013119617
 30
0.0
 11
189.8581865495025
 21
710.4399539538781
 31
0.0
  0
LINE
  5
7BF
330
1F
100
AcDbEntity
  8
0
  6
Continuous
 62
     0
370
    25
100
AcDbLine
 10
82.3779558091473
 20
710.4399539538781
 30
0.0
 11
135.4109643981382
 21
696.7140013119617
 31
0.0
  0
LINE
  5
7C0
330
1F
100
AcDbEntity
  8
0
  6
Continuous
 62
     0
370
    25
100
AcDbLine
 10
164.3803867470302
 20
710.8862535851313
 30
0.0
 11
164.3083550249367
 21
710.761348701069
 31
0.0
  0
SPLINE
  5
7C1
330
1F
100
AcDbEntity
  8
0
  6
Continuous
 62
     0
370
    25
100
AcDbSpline
210
0.0
220
0.0
230
1.0
 70
     8
 71
     3
 72
     9
 73
     5
 74
     0
 42
0.000000001
 43
0.00000001
 40
0.0
 40
0.0
 40
0.0
 40
0.0
 40
0.879593461575708
 40
1.0
 40
1.0
 40
1.0
 40
1.0
 10
108.8306665866587
 20
709.6965013105146
 30
0.0
 10
108.5283492133268
 20
709.961616861852
 30
0.0
 10
108.1846479620802
 20
710.263023776431
 30
0.0
 10
108.1004718526173
 20
710.5700077957192
 30
0.0
 10
108.0903364986589
 20
710.6069706788332
 30
0.0
  0
LWPOLYLINE
  5
7C2
330
1F
100
AcDbEntity
  8
0
  6
Continuous
 62
     0
370
    25
100
AcDbPolyline
 90
        3
 70
   128
 43
0.0
 10
189.6608299934099
 20
713.5795011999178
 10
189.6075953183793
 20
713.6029378782885
 10
189.5990042194138
 20
713.6053375599133
  0
LWPOLYLINE
  5
7C3
330
1F
100
AcDbEntity
  8
0
  6
Continuous
 62
     0
370
    25
100
AcDbPolyline
 90
        3
 70
   128
 43
0.0
 10
82.63713813923607
 20
713.6053375599133
 10
82.62854704027055
 20
713.6029378782885
 10
82.57556383339025
 20
713.5796501712423
  0
LWPOLYLINE
  5
7C4
330
1F
100
AcDbEntity
  8
0
  6
Continuous
 62
     0
370
    25
100
AcDbPolyline
 90
        6
 70
   128
 43
0.0
 10
190.1510688307617
 20
710.6241771707043
 10
190.151079768316
 20
710.6229666557704
 10
190.1318650487192
 20
710.5724735649173
 10
190.0749593008272
 20
710.5239208952289
 10
189.9825493806185
 20
710.4791744985728
 10
189.8581865495025
 20
710.4399539538781
  0
LWPOLYLINE
  5
7C5
330
1F
100
AcDbEntity
  8
0
  6
Continuous
 62
     0
370
    25
100
AcDbPolyline
 90
        6
 70
   128
 43
0.0
 10
82.3779558091473
 20
710.4399539538781
 10
82.25359297803129
 20
710.4791744985728
 10
82.16118305782257
 20
710.5239208952291
 10
82.10427730993064
 20
710.5724735649173
 10
82.08506259033385
 20
710.6229666557704
 10
82.08507352788814
 20
710.6241771707043
  0
LINE
  5
7C6
330
1F
100
AcDbEntity
  8
0
  6
Continuous
 62
     0
370
    25
100
AcDbLine
 10
135.9059391449461
 20
696.644085427703
 30
0.0
 11
135.9059391449461
 21
57.50902082106438
 31
0.0
  0
LINE
  5
7C7
330
1F
100
AcDbEntity
  8
0
  6
Continuous
 62
     0
370
    25
100
AcDbLine
 10
136.3302032137035
 20
696.644085427703
 30
0.0
 11
136.3302032137035
 21
57.5090208210645
 31
0.0
  0
LINE
  5
7C8
330
1F
100
AcDbEntity
  8
0
  6
Continuous
 62
     0
370
    25
100
AcDbLine
 10
188.9389477339373
 20
710.2020374414124
 30
0.0
 11
188.9389477339373
 21
71.12516584183373
 31
0.0
  0
LINE
  5
7C9
330
1F
100
AcDbEntity
  8
0
  6
Continuous
 62
     0
370
    25
100
AcDbLine
 10
83.29719462471257
 20
710.2020374414124
 30
0.0
 11
83.29719462471257
 21
71.12516584183385
 31
0.0
  0
LINE
  5
7D7
330
1F
100
AcDbEntity
  8
0
  6
Continuous
 62
     0
370
    25
100
AcDbLine
 10
91.47452431666818
 20
715.8591089385259
 30
0.0
 11
82.76241954277896
 21
713.6042503001147
 31
0.0
  0
LINE
  5
7D8
330
1F
100
AcDbEntity
  8
0
  6
Continuous
 62
     0
370
    25
100
AcDbLine
 10
189.4737228158709
 20
713.6042503001147
 30
0.0
 11
180.7616180419815
 21
715.8591089385259
 31
0.0
  0
LWPOLYLINE
  5
7DA
330
1F
100
AcDbEntity
  8
0
  6
Continuous
 62
     0
370
    25
100
AcDbPolyline
 90
        3
 70
   128
 43
0.0
 10
189.5990042194138
 20
713.6053375599133
 10
189.5419409842639
 20
713.6128308961063
 10
189.4737228158709
 20
713.6042503001147
  0
LWPOLYLINE
  5
7DC
330
1F
100
AcDbEntity
  8
0
  6
Continuous
 62
     0
370
    25
100
AcDbPolyline
 90
        3
 70
   128
 43
0.0
 10
82.76241954277896
 20
713.6042503001147
 10
82.69420137438593
 20
713.6128308961065
 10
82.63713813923607
 20
713.6053375599133
  0
LINE
  5
7DD
330
1F
100
AcDbEntity
  8
0
100
AcDbLine
 10
90.37329564564334
 20
779.5474006812096
 30
0.0
 11
130.6783821732766
 21
769.1156766733532
 31
0.0
  0
LINE
  5
7DF
330
1F
100
AcDbEntity
  8
0
100
AcDbLine
 10
141.5577601853734
 20
769.1156766733532
 30
0.0
 11
181.8628467130065
 21
779.5474006812099
 31
0.0
  0
LINE
  5
7E1
330
1F
100
AcDbEntity
  8
0
100
AcDbLine
 10
136.1180711793255
 20
761.8157542214656
 30
0.0
 11
136.1180711793255
 21
708.6898337755667
 31
0.0
  0
ENDSEC
  0
SECTION
  2
OBJECTS
  0
DICTIONARY
  5
C
330
0
100
AcDbDictionary
281
     1
  3
ACAD_DETAILVIEWSTYLE
350
5A6
  3
ACAD_GROUP
350
D
  3
ACAD_LAYOUT
350
1A
  3
ACAD_MATERIAL
350
58C
  3
ACAD_MLEADERSTYLE
350
59B
  3
ACAD_MLINESTYLE
350
17
  3
ACAD_PLOTSETTINGS
350
19
  3
ACAD_PLOTSTYLENAME
350
E
  3
ACAD_SCALELIST
350
56A
  3
ACAD_SECTIONVIEWSTYLE
350
5A7
  3
ACAD_TABLESTYLE
350
569
  3
ACAD_VISUALSTYLE
350
2A
  3
ACDB_RECOMPOSE_DATA
350
7E5
  3
AcDbVariableDictionary
350
5A1
  3
APPDATA
350
59D
  0
SUN
  5
5A8
330
29
100
AcDbSun
 90
        1
290
     0
 63
     7
421
 16777215
 40
1.0
291
     1
 91
  2455826
 92
 54000000
292
     0
 70
     2
 71
   256
280
     1
  0
DICTIONARY
  5
59E
330
2
100
AcDbDictionary
280
     1
281
     1
  3
ACAD_LAYERSTATES
360
59F
  0
DICTIONARY
  5
5A6
102
{ACAD_REACTORS
330
C
102
}
330
C
100
AcDbDictionary
281
     1
  0
DICTIONARY
  5
D
102
{ACAD_REACTORS
330
C
102
}
330
C
100
AcDbDictionary
281
     1
  0
DICTIONARY
  5
1A
102
{ACAD_REACTORS
330
C
102
}
330
C
100
AcDbDictionary
281
     1
  3
Layout1
350
1E
  3
Layout2
350
26
  3
Model
350
22
  0
DICTIONARY
  5
58C
102
{ACAD_REACTORS
330
C
102
}
330
C
100
AcDbDictionary
281
     1
  3
ByBlock
350
58E
  3
ByLayer
350
58D
  3
Global
350
58F
  0
DICTIONARY
  5
59B
102
{ACAD_REACTORS
330
C
102
}
330
C
100
AcDbDictionary
281
     1
  3
Standard
350
59C
  0
DICTIONARY
  5
17
102
{ACAD_REACTORS
330
C
102
}
330
C
100
AcDbDictionary
281
     1
  3
Standard
350
18
  0
DICTIONARY
  5
19
102
{ACAD_REACTORS
330
C
102
}
330
C
100
AcDbDictionary
281
     1
  0
ACDBDICTIONARYWDFLT
  5
E
102
{ACAD_REACTORS
330
C
102
}
330
C
100
AcDbDictionary
281
     1
  3
Normal
350
F
100
AcDbDictionaryWithDefault
340
F
  0
DICTIONARY
  5
56A
102
{ACAD_REACTORS
330
C
102
}
330
C
100
AcDbDictionary
281
     1
  3
A0
350
56B
  3
A1
350
56C
  3
A2
350
56D
  3
A3
350
56E
  3
A4
350
56F
  3
A5
350
570
  3
A6
350
571
  3
A7
350
572
  3
A8
350
573
  3
A9
350
574
  3
B0
350
575
  3
B1
350
576
  3
B2
350
577
  3
B3
350
578
  3
B4
350
579
  3
B5
350
57A
  3
B6
350
57B
  3
B7
350
57C
  3
B8
350
57D
  3
B9
350
57E
  3
C0
350
57F
  3
C1
350
580
  3
C2
350
581
  3
C3
350
582
  3
C4
350
583
  3
C5
350
584
  3
C6
350
585
  3
C7
350
586
  3
C8
350
587
  3
C9
350
588
  3
D0
350
589
  3
D1
350
58A
  3
D2
350
58B
  0
DICTIONARY
  5
5A7
102
{ACAD_REACTORS
330
C
102
}
330
C
100
AcDbDictionary
281
     1
  0
DICTIONARY
  5
569
102
{ACAD_REACTORS
330
C
102
}
330
C
100
AcDbDictionary
281
     1
  3
Standard
350
59A
  0
DICTIONARY
  5
2A
102
{ACAD_REACTORS
330
C
102
}
330
C
100
AcDbDictionary
281
     1
  3
2dWireframe
350
2F
  3
3D Hidden
350
31
  3
3dWireframe
350
30
  3
Basic
350
32
  3
Brighten
350
36
  3
ColorChange
350
3A
  3
Conceptual
350
34
  3
Dim
350
35
  3
EdgeColorOff
350
594
  3
Facepattern
350
39
  3
Flat
350
2B
  3
FlatWithEdges
350
2C
  3
Gouraud
350
2D
  3
GouraudWithEdges
350
2E
  3
Hidden
350
591
  3
JitterOff
350
592
  3
Linepattern
350
38
  3
OverhangOff
350
593
  3
Realistic
350
33
  3
Shaded
350
599
  3
Shaded with edges
350
598
  3
Shades of Gray
350
595
  3
Sketchy
350
596
  3
Thicken
350
37
  3
Wireframe
350
590
  3
X-Ray
350
597
  0
XRECORD
  5
7E5
102
{ACAD_REACTORS
330
C
102
}
330
C
100
AcDbXrecord
280
     1
 90
        1
330
59A
  0
DICTIONARY
  5
5A1
102
{ACAD_REACTORS
330
C
102
}
330
C
100
AcDbDictionary
281
     1
  3
CANNOSCALE
350
5A2
  3
CMLEADERSTYLE
350
5A4
  3
CTABLESTYLE
350
5A3
  3
MSLTSCALE
350
5A5
  0
DICTIONARY
  5
59D
102
{ACAD_REACTORS
330
C
102
}
330
C
100
AcDbDictionary
281
     1
  0
DICTIONARY
  5
59F
102
{ACAD_REACTORS
330
59E
102
}
330
59E
100
AcDbDictionary
281
     1
  0
LAYOUT
  5
1E
102
{ACAD_REACTORS
330
1A
102
}
330
1A
100
AcDbPlotSettings
  1

  2
none_device
  4

  6

 40
0.0
 41
0.0
 42
0.0
 43
0.0
 44
0.0
 45
0.0
 46
0.0
 47
0.0
 48
0.0
 49
0.0
140
0.0
141
0.0
142
1.0
143
1.0
 70
   688
 72
     0
 73
     0
 74
     5
  7

 75
    16
 76
     0
 77
     2
 78
   300
147
1.0
148
0.0
149
0.0
100
AcDbLayout
  1
Layout1
 70
     1
 71
     1
 10
0.0
 20
0.0
 11
12.0
 21
9.0
 12
0.0
 22
0.0
 32
0.0
 14
1.000000000000000E+20
 24
1.000000000000000E+20
 34
1.000000000000000E+20
 15
-1.000000000000000E+20
 25
-1.000000000000000E+20
 35
-1.000000000000000E+20
146
0.0
 13
0.0
 23
0.0
 33
0.0
 16
1.0
 26
0.0
 36
0.0
 17
0.0
 27
1.0
 37
0.0
 76
     0
330
1B
  0
LAYOUT
  5
26
102
{ACAD_REACTORS
330
1A
102
}
330
1A
100
AcDbPlotSettings
  1

  2
none_device
  4

  6

 40
0.0
 41
0.0
 42
0.0
 43
0.0
 44
0.0
 45
0.0
 46
0.0
 47
0.0
 48
0.0
 49
0.0
140
0.0
141
0.0
142
1.0
143
1.0
 70
   688
 72
     0
 73
     0
 74
     5
  7

 75
    16
 76
     0
 77
     2
 78
   300
147
1.0
148
0.0
149
0.0
100
AcDbLayout
  1
Layout2
 70
     1
 71
     2
 10
0.0
 20
0.0
 11
0.0
 21
0.0
 12
0.0
 22
0.0
 32
0.0
 14
0.0
 24
0.0
 34
0.0
 15
0.0
 25
0.0
 35
0.0
146
0.0
 13
0.0
 23
0.0
 33
0.0
 16
1.0
 26
0.0
 36
0.0
 17
0.0
 27
1.0
 37
0.0
 76
     0
330
23
  0
LAYOUT
  5
22
102
{ACAD_REACTORS
330
1A
102
}
330
1A
100
AcDbPlotSettings
  1

  2
none_device
  4

  6

 40
0.0
 41
0.0
 42
0.0
 43
0.0
 44
0.0
 45
0.0
 46
0.0
 47
0.0
 48
0.0
 49
0.0
140
0.0
141
0.0
142
1.0
143
1.0
 70
  1712
 72
     0
 73
     0
 74
     0
  7

 75
     0
 76
     0
 77
     2
 78
   300
147
1.0
148
0.0
149
0.0
100
AcDbLayout
  1
Model
 70
     1
 71
     0
 10
0.0
 20
0.0
 11
12.0
 21
9.0
 12
0.0
 22
0.0
 32
0.0
 14
82.08506259033385
 24
57.48563795538944
 34
0.0
 15
471.5066288572108
 25
795.2887581118498
 35
0.0
146
0.0
 13
0.0
 23
0.0
 33
0.0
 16
1.0
 26
0.0
 36
0.0
 17
0.0
 27
1.0
 37
0.0
 76
     0
330
1F
331
29
  0
MATERIAL
  5
58E
102
{ACAD_REACTORS
330
58C
102
}
330
58C
100
AcDbMaterial
  1
ByBlock
 72
     1
 94
      127
  0
MATERIAL
  5
58D
102
{ACAD_REACTORS
330
58C
102
}
330
58C
100
AcDbMaterial
  1
ByLayer
 72
     1
 94
      127
  0
MATERIAL
  5
58F
102
{ACAD_REACTORS
330
58C
102
}
330
58C
100
AcDbMaterial
  1
Global
 72
     1
 94
      127
  0
MLEADERSTYLE
  5
59C
102
{ACAD_REACTORS
330
59B
102
}
330
59B
100
AcDbMLeaderStyle
179
     2
170
     2
171
     1
172
     0
 90
        2
 40
0.0
 41
0.0
173
     1
 91
-1056964608
340
14
 92
       -2
290
     1
 42
0.09
291
     1
 43
0.36
  3
Standard
341
0
 44
0.18
300

342
11
174
     1
178
     1
175
     1
176
     0
 93
-1056964608
 45
0.18
292
     0
297
     0
 46
0.18
343
0
 94
-1056964608
 47
1.0
 49
1.0
140
1.0
293
     1
141
0.0
294
     1
177
     0
142
1.0
295
     0
296
     0
143
0.125
271
     0
272
     9
273
     9
298
     0
  0
MLINESTYLE
  5
18
102
{ACAD_REACTORS
330
17
102
}
330
17
100
AcDbMlineStyle
  2
Standard
 70
     0
  3

 62
   256
 51
90.0
 52
90.0
 71
     2
 49
0.5
 62
   256
  6
BYLAYER
 49
-0.5
 62
   256
  6
BYLAYER
  0
ACDBPLACEHOLDER
  5
F
102
{ACAD_REACTORS
330
E
102
}
330
E
  0
SCALE
  5
56B
102
{ACAD_REACTORS
330
56A
102
}
330
56A
100
AcDbScale
 70
     0
300
1:1
140
1.0
141
1.0
290
     1
  0
SCALE
  5
56C
102
{ACAD_REACTORS
330
56A
102
}
330
56A
100
AcDbScale
 70
     0
300
1:2
140
1.0
141
2.0
290
     0
  0
SCALE
  5
56D
102
{ACAD_REACTORS
330
56A
102
}
330
56A
100
AcDbScale
 70
     0
300
1:4
140
1.0
141
4.0
290
     0
  0
SCALE
  5
56E
102
{ACAD_REACTORS
330
56A
102
}
330
56A
100
AcDbScale
 70
     0
300
1:5
140
1.0
141
5.0
290
     0
  0
SCALE
  5
56F
102
{ACAD_REACTORS
330
56A
102
}
330
56A
100
AcDbScale
 70
     0
300
1:8
140
1.0
141
8.0
290
     0
  0
SCALE
  5
570
102
{ACAD_REACTORS
330
56A
102
}
330
56A
100
AcDbScale
 70
     0
300
1:10
140
1.0
141
10.0
290
     0
  0
SCALE
  5
571
102
{ACAD_REACTORS
330
56A
102
}
330
56A
100
AcDbScale
 70
     0
300
1:16
140
1.0
141
16.0
290
     0
  0
SCALE
  5
572
102
{ACAD_REACTORS
330
56A
102
}
330
56A
100
AcDbScale
 70
     0
300
1:20
140
1.0
141
20.0
290
     0
  0
SCALE
  5
573
102
{ACAD_REACTORS
330
56A
102
}
330
56A
100
AcDbScale
 70
     0
300
1:30
140
1.0
141
30.0
290
     0
  0
SCALE
  5
574
102
{ACAD_REACTORS
330
56A
102
}
330
56A
100
AcDbScale
 70
     0
300
1:40
140
1.0
141
40.0
290
     0
  0
SCALE
  5
575
102
{ACAD_REACTORS
330
56A
102
}
330
56A
100
AcDbScale
 70
     0
300
1:50
140
1.0
141
50.0
290
     0
  0
SCALE
  5
576
102
{ACAD_REACTORS
330
56A
102
}
330
56A
100
AcDbScale
 70
     0
300
1:100
140
1.0
141
100.0
290
     0
  0
SCALE
  5
577
102
{ACAD_REACTORS
330
56A
102
}
330
56A
100
AcDbScale
 70
     0
300
2:1
140
2.0
141
1.0
290
     0
  0
SCALE
  5
578
102
{ACAD_REACTORS
330
56A
102
}
330
56A
100
AcDbScale
 70
     0
300
4:1
140
4.0
141
1.0
290
     0
  0
SCALE
  5
579
102
{ACAD_REACTORS
330
56A
102
}
330
56A
100
AcDbScale
 70
     0
300
8:1
140
8.0
141
1.0
290
     0
  0
SCALE
  5
57A
102
{ACAD_REACTORS
330
56A
102
}
330
56A
100
AcDbScale
 70
     0
300
10:1
140
10.0
141
1.0
290
     0
  0
SCALE
  5
57B
102
{ACAD_REACTORS
330
56A
102
}
330
56A
100
AcDbScale
 70
     0
300
100:1
140
100.0
141
1.0
290
     0
  0
SCALE
  5
57C
102
{ACAD_REACTORS
330
56A
102
}
330
56A
100
AcDbScale
 70
     0
300
1/128" = 1'-0"
140
0.0078125
141
12.0
290
     0
  0
SCALE
  5
57D
102
{ACAD_REACTORS
330
56A
102
}
330
56A
100
AcDbScale
 70
     0
300
1/64" = 1'-0"
140
0.015625
141
12.0
290
     0
  0
SCALE
  5
57E
102
{ACAD_REACTORS
330
56A
102
}
330
56A
100
AcDbScale
 70
     0
300
1/32" = 1'-0"
140
0.03125
141
12.0
290
     0
  0
SCALE
  5
57F
102
{ACAD_REACTORS
330
56A
102
}
330
56A
100
AcDbScale
 70
     0
300
1/16" = 1'-0"
140
0.0625
141
12.0
290
     0
  0
SCALE
  5
580
102
{ACAD_REACTORS
330
56A
102
}
330
56A
100
AcDbScale
 70
     0
300
3/32" = 1'-0"
140
0.09375
141
12.0
290
     0
  0
SCALE
  5
581
102
{ACAD_REACTORS
330
56A
102
}
330
56A
100
AcDbScale
 70
     0
300
1/8" = 1'-0"
140
0.125
141
12.0
290
     0
  0
SCALE
  5
582
102
{ACAD_REACTORS
330
56A
102
}
330
56A
100
AcDbScale
 70
     0
300
3/16" = 1'-0"
140
0.1875
141
12.0
290
     0
  0
SCALE
  5
583
102
{ACAD_REACTORS
330
56A
102
}
330
56A
100
AcDbScale
 70
     0
300
1/4" = 1'-0"
140
0.25
141
12.0
290
     0
  0
SCALE
  5
584
102
{ACAD_REACTORS
330
56A
102
}
330
56A
100
AcDbScale
 70
     0
300
3/8" = 1'-0"
140
0.375
141
12.0
290
     0
  0
SCALE
  5
585
102
{ACAD_REACTORS
330
56A
102
}
330
56A
100
AcDbScale
 70
     0
300
1/2" = 1'-0"
140
0.5
141
12.0
290
     0
  0
SCALE
  5
586
102
{ACAD_REACTORS
330
56A
102
}
330
56A
100
AcDbScale
 70
     0
300
3/4" = 1'-0"
140
0.75
141
12.0
290
     0
  0
SCALE
  5
587
102
{ACAD_REACTORS
330
56A
102
}
330
56A
100
AcDbScale
 70
     0
300
1" = 1'-0"
140
1.0
141
12.0
290
     0
  0
SCALE
  5
588
102
{ACAD_REACTORS
330
56A
102
}
330
56A
100
AcDbScale
 70
     0
300
1-1/2" = 1'-0"
140
1.5
141
12.0
290
     0
  0
SCALE
  5
589
102
{ACAD_REACTORS
330
56A
102
}
330
56A
100
AcDbScale
 70
     0
300
3" = 1'-0"
140
3.0
141
12.0
290
     0
  0
SCALE
  5
58A
102
{ACAD_REACTORS
330
56A
102
}
330
56A
100
AcDbScale
 70
     0
300
6" = 1'-0"
140
6.0
141
12.0
290
     0
  0
SCALE
  5
58B
102
{ACAD_REACTORS
330
56A
102
}
330
56A
100
AcDbScale
 70
     0
300
1'-0" = 1'-0"
140
12.0
141
12.0
290
     0
  0
TABLESTYLE
  5
59A
102
{ACAD_REACTORS
330
569
102
}
102
{ACAD_XDICTIONARY
360
7E3
102
}
330
569
100
AcDbTableStyle
  3
Standard
 70
     0
 71
     0
 40
0.06
 41
0.06
280
     0
281
     0
  7
Standard
140
0.18
170
     2
 62
     0
 63
   257
283
     0
 90
        4
 91
        0
  1

274
    -2
284
     1
 64
     0
275
    -2
285
     1
 65
     0
276
    -2
286
     1
 66
     0
277
    -2
287
     1
 67
     0
278
    -2
288
     1
 68
     0
279
    -2
289
     1
 69
     0
  7
Standard
140
0.25
170
     5
 62
     0
 63
   257
283
     0
 90
        4
 91
        0
  1

274
    -2
284
     1
 64
     0
275
    -2
285
     1
 65
     0
276
    -2
286
     1
 66
     0
277
    -2
287
     1
 67
     0
278
    -2
288
     1
 68
     0
279
    -2
289
     1
 69
     0
  7
Standard
140
0.18
170
     5
 62
     0
 63
   257
283
     0
 90
        4
 91
        0
  1

274
    -2
284
     1
 64
     0
275
    -2
285
     1
 65
     0
276
    -2
286
     1
 66
     0
277
    -2
287
     1
 67
     0
278
    -2
288
     1
 68
     0
279
    -2
289
     1
 69
     0
  0
VISUALSTYLE
  5
2F
102
{ACAD_REACTORS
330
2A
102
}
330
2A
100
AcDbVisualStyle
  2
2dWireframe
 70
     4
177
     3
291
     0
 70
    58
 90
        0
176
     1
 90
        2
176
     1
 90
        0
176
     1
 90
        0
176
     1
 40
-0.6
176
     1
 40
-30.0
176
     1
 62
     7
176
     1
 90
        1
176
     1
 90
        4
176
     1
 62
     7
176
     1
 62
   257
176
     1
 90
        1
176
     1
 90
        1
176
     1
 40
1.0
176
     1
 90
        0
176
     1
 62
   257
176
     1
 40
1.0
176
     1
 90
        1
176
     1
 90
        6
176
     1
 90
        2
176
     1
 62
     7
176
     1
 90
        5
176
     1
 90
        0
176
     1
 90
        0
176
     1
290
     0
176
     1
 90
        1
176
     1
 40
0.0
176
     1
 90
        0
176
     1
290
     1
176
     1
290
     1
176
     1
290
     0
176
     1
290
     0
176
     1
290
     0
176
     1
290
     0
176
     1
290
     0
176
     1
290
     0
176
     1
290
     0
176
     1
 90
       50
176
     1
 40
0.0
176
     1
 40
1.0
176
     1
 90
        0
176
     1
 62
    18
420
        0
176
     1
 90
       50
176
     1
 90
        3
176
     1
 62
     5
420
      255
176
     1
290
     0
176
     1
 90
       50
176
     1
 90
       50
176
     1
 90
       50
176
     1
290
     0
176
     1
 90
       50
176
     1
 62
   256
176
     0
 40
1.0
176
     0
 90
        2
176
     1
  1
strokes_ogs.tif
176
     1
290
     0
176
     1
 40
1.0
176
     1
 40
1.0
176
     1
  0
VISUALSTYLE
  5
31
102
{ACAD_REACTORS
330
2A
102
}
330
2A
100
AcDbVisualStyle
  2
3D Hidden
 70
     6
177
     3
291
     0
 70
    58
 90
        1
176
     1
 90
        2
176
     1
 90
        2
176
     1
 90
        0
176
     1
 40
-0.6
176
     1
 40
-30.0
176
     1
 62
     7
176
     1
 90
        2
176
     1
 90
        2
176
     1
 62
     7
176
     1
 62
   257
176
     1
 90
        2
176
     1
 90
        1
176
     1
 40
40.0
176
     1
 90
        0
176
     1
 62
   257
176
     1
 40
1.0
176
     1
 90
        1
176
     1
 90
        6
176
     1
 90
        2
176
     1
 62
     7
176
     1
 90
        3
176
     1
 90
        0
176
     1
 90
        0
176
     1
290
     0
176
     1
 90
        1
176
     1
 40
0.0
176
     1
 90
        0
176
     1
290
     0
176
     1
290
     1
176
     1
290
     1
176
     1
290
     0
176
     1
290
     0
176
     1
290
     0
176
     1
290
     0
176
     1
290
     0
176
     1
290
     0
176
     1
 90
       50
176
     1
 40
0.0
176
     1
 40
1.0
176
     1
 90
        0
176
     1
 62
    18
420
        0
176
     1
 90
       50
176
     1
 90
        3
176
     1
 62
     5
420
      255
176
     1
290
     0
176
     1
 90
       50
176
     1
 90
       50
176
     1
 90
       50
176
     1
290
     0
176
     1
 90
       50
176
     1
 62
   256
176
     0
 40
1.0
176
     0
 90
        2
176
     1
  1
strokes_ogs.tif
176
     1
290
     0
176
     1
 40
1.0
176
     1
 40
1.0
176
     1
  0
VISUALSTYLE
  5
30
102
{ACAD_REACTORS
330
2A
102
}
330
2A
100
AcDbVisualStyle
  2
3dWireframe
 70
     5
177
     3
291
     0
 70
    58
 90
        0
176
     1
 90
        2
176
     1
 90
        0
176
     1
 90
        0
176
     1
 40
-0.6
176
     1
 40
-30.0
176
     1
 62
     7
176
     1
 90
        1
176
     1
 90
        4
176
     1
 62
     7
176
     1
 62
   257
176
     1
 90
        1
176
     1
 90
        1
176
     1
 40
1.0
176
     1
 90
        0
176
     1
 62
   257
176
     1
 40
1.0
176
     1
 90
        1
176
     1
 90
        6
176
     1
 90
        2
176
     1
 62
     7
176
     1
 90
        5
176
     1
 90
        0
176
     1
 90
        0
176
     1
290
     0
176
     1
 90
        1
176
     1
 40
0.0
176
     1
 90
        0
176
     1
290
     0
176
     1
290
     1
176
     1
290
     1
176
     1
290
     0
176
     1
290
     0
176
     1
290
     0
176
     1
290
     0
176
     1
290
     0
176
     1
290
     0
176
     1
 90
       50
176
     1
 40
0.0
176
     1
 40
1.0
176
     1
 90
        0
176
     1
 62
    18
420
        0
176
     1
 90
       50
176
     1
 90
        3
176
     1
 62
     5
420
      255
176
     1
290
     0
176
     1
 90
       50
176
     1
 90
       50
176
     1
 90
       50
176
     1
290
     0
176
     1
 90
       50
176
     1
 62
   256
176
     0
 40
1.0
176
     0
 90
        2
176
     1
  1
strokes_ogs.tif
176
     1
290
     0
176
     1
 40
1.0
176
     1
 40
1.0
176
     1
  0
VISUALSTYLE
  5
32
102
{ACAD_REACTORS
330
2A
102
}
330
2A
100
AcDbVisualStyle
  2
Basic
 70
     7
177
     3
291
     1
 70
    58
 90
        1
176
     1
 90
        0
176
     1
 90
        1
176
     1
 90
        0
176
     1
 40
-0.6
176
     1
 40
-30.0
176
     1
 62
     7
176
     1
 90
        0
176
     1
 90
        4
176
     1
 62
     7
176
     1
 62
   257
176
     1
 90
        1
176
     1
 90
        1
176
     1
 40
1.0
176
     1
 90
        8
176
     1
 62
     7
176
     1
 40
1.0
176
     1
 90
        1
176
     1
 90
        6
176
     1
 90
        2
176
     1
 62
     7
176
     1
 90
        5
176
     1
 90
        0
176
     1
 90
        0
176
     1
290
     0
176
     1
 90
        1
176
     1
 40
0.0
176
     1
 90
        0
176
     1
290
     0
176
     1
290
     1
176
     1
290
     1
176
     1
290
     0
176
     1
290
     0
176
     1
290
     0
176
     1
290
     0
176
     1
290
     0
176
     1
290
     0
176
     1
 90
       50
176
     1
 40
0.0
176
     1
 40
1.0
176
     1
 90
        0
176
     1
 62
    18
420
        0
176
     1
 90
       50
176
     1
 90
        3
176
     1
 62
     5
420
      255
176
     1
290
     0
176
     1
 90
       50
176
     1
 90
       50
176
     1
 90
       50
176
     1
290
     0
176
     1
 90
       50
176
     1
 62
   256
176
     0
 40
1.0
176
     0
 90
        2
176
     1
  1
strokes_ogs.tif
176
     1
290
     0
176
     1
 40
1.0
176
     1
 40
1.0
176
     1
  0
VISUALSTYLE
  5
36
102
{ACAD_REACTORS
330
2A
102
}
330
2A
100
AcDbVisualStyle
  2
Brighten
 70
    12
177
     3
291
     1
 70
    58
 90
        2
176
     1
 90
        2
176
     1
 90
        0
176
     1
 90
        0
176
     1
 40
-0.6
176
     1
 40
-30.0
176
     1
 62
     7
176
     1
 90
        1
176
     1
 90
        4
176
     1
 62
     7
176
     1
 62
   257
176
     1
 90
        1
176
     1
 90
        1
176
     1
 40
1.0
176
     1
 90
        8
176
     1
 62
     7
176
     1
 40
1.0
176
     1
 90
        1
176
     1
 90
        6
176
     1
 90
        2
176
     1
 62
     7
176
     1
 90
        5
176
     1
 90
        0
176
     1
 90
        0
176
     1
290
     0
176
     1
 90
        1
176
     1
 40
50.0
176
     1
 90
        0
176
     1
290
     0
176
     1
290
     1
176
     1
290
     1
176
     1
290
     0
176
     1
290
     0
176
     1
290
     0
176
     1
290
     0
176
     1
290
     0
176
     1
290
     0
176
     1
 90
       50
176
     1
 40
0.0
176
     1
 40
1.0
176
     1
 90
        0
176
     1
 62
    18
420
        0
176
     1
 90
       50
176
     1
 90
        3
176
     1
 62
     5
420
      255
176
     1
290
     0
176
     1
 90
       50
176
     1
 90
       50
176
     1
 90
       50
176
     1
290
     0
176
     1
 90
       50
176
     1
 62
   256
176
     0
 40
1.0
176
     0
 90
        2
176
     1
  1
strokes_ogs.tif
176
     1
290
     0
176
     1
 40
1.0
176
     1
 40
1.0
176
     1
  0
VISUALSTYLE
  5
3A
102
{ACAD_REACTORS
330
2A
102
}
330
2A
100
AcDbVisualStyle
  2
ColorChange
 70
    16
177
     3
291
     1
 70
    58
 90
        2
176
     1
 90
        2
176
     1
 90
        3
176
     1
 90
        0
176
     1
 40
-0.6
176
     1
 40
-30.0
176
     1
 62
     8
176
     1
 90
        1
176
     1
 90
        4
176
     1
 62
     7
176
     1
 62
   257
176
     1
 90
        1
176
     1
 90
        1
176
     1
 40
1.0
176
     1
 90
        8
176
     1
 62
     8
176
     1
 40
1.0
176
     1
 90
        1
176
     1
 90
        6
176
     1
 90
        2
176
     1
 62
     7
176
     1
 90
        5
176
     1
 90
        0
176
     1
 90
        0
176
     1
290
     0
176
     1
 90
        1
176
     1
 40
0.0
176
     1
 90
        0
176
     1
290
     0
176
     1
290
     1
176
     1
290
     1
176
     1
290
     0
176
     1
290
     0
176
     1
290
     0
176
     1
290
     0
176
     1
290
     0
176
     1
290
     0
176
     1
 90
       50
176
     1
 40
0.0
176
     1
 40
1.0
176
     1
 90
        0
176
     1
 62
    18
420
        0
176
     1
 90
       50
176
     1
 90
        3
176
     1
 62
     5
420
      255
176
     1
290
     0
176
     1
 90
       50
176
     1
 90
       50
176
     1
 90
       50
176
     1
290
     0
176
     1
 90
       50
176
     1
 62
   256
176
     0
 40
1.0
176
     0
 90
        2
176
     1
  1
strokes_ogs.tif
176
     1
290
     0
176
     1
 40
1.0
176
     1
 40
1.0
176
     1
  0
VISUALSTYLE
  5
34
102
{ACAD_REACTORS
330
2A
102
}
330
2A
100
AcDbVisualStyle
  2
Conceptual
 70
     9
177
     3
291
     0
 70
    58
 90
        3
176
     1
 90
        2
176
     1
 90
        0
176
     1
 90
        0
176
     1
 40
-0.6
176
     1
 40
-30.0
176
     1
 62
     7
176
     1
 90
        2
176
     1
 90
        2
176
     1
 62
     7
176
     1
 62
   257
176
     1
 90
        1
176
     1
 90
        1
176
     1
 40
40.0
176
     1
 90
        8
176
     1
 62
     7
176
     1
 40
1.0
176
     1
 90
        1
176
     1
 90
        6
176
     1
 90
        2
176
     1
 62
     7
176
     1
 90
        3
176
     1
 90
        0
176
     1
 90
        0
176
     1
290
     0
176
     1
 90
        1
176
     1
 40
0.0
176
     1
 90
        0
176
     1
290
     0
176
     1
290
     1
176
     1
290
     1
176
     1
290
     0
176
     1
290
     0
176
     1
290
     0
176
     1
290
     0
176
     1
290
     0
176
     1
290
     0
176
     1
 90
       50
176
     1
 40
0.0
176
     1
 40
1.0
176
     1
 90
        0
176
     1
 62
    18
420
        0
176
     1
 90
       50
176
     1
 90
        3
176
     1
 62
     5
420
      255
176
     1
290
     0
176
     1
 90
       50
176
     1
 90
       50
176
     1
 90
       50
176
     1
290
     0
176
     1
 90
       50
176
     1
 62
   256
176
     0
 40
1.0
176
     0
 90
        2
176
     1
  1
strokes_ogs.tif
176
     1
290
     0
176
     1
 40
1.0
176
     1
 40
1.0
176
     1
  0
VISUALSTYLE
  5
35
102
{ACAD_REACTORS
330
2A
102
}
330
2A
100
AcDbVisualStyle
  2
Dim
 70
    11
177
     3
291
     1
 70
    58
 90
        2
176
     1
 90
        2
176
     1
 90
        0
176
     1
 90
        0
176
     1
 40
-0.6
176
     1
 40
-30.0
176
     1
 62
     7
176
     1
 90
        1
176
     1
 90
        4
176
     1
 62
     7
176
     1
 62
   257
176
     1
 90
        1
176
     1
 90
        1
176
     1
 40
1.0
176
     1
 90
        8
176
     1
 62
     7
176
     1
 40
1.0
176
     1
 90
        1
176
     1
 90
        6
176
     1
 90
        2
176
     1
 62
     7
176
     1
 90
        5
176
     1
 90
        0
176
     1
 90
        0
176
     1
290
     0
176
     1
 90
        1
176
     1
 40
-50.0
176
     1
 90
        0
176
     1
290
     0
176
     1
290
     1
176
     1
290
     1
176
     1
290
     0
176
     1
290
     0
176
     1
290
     0
176
     1
290
     0
176
     1
290
     0
176
     1
290
     0
176
     1
 90
       50
176
     1
 40
0.0
176
     1
 40
1.0
176
     1
 90
        0
176
     1
 62
    18
420
        0
176
     1
 90
       50
176
     1
 90
        3
176
     1
 62
     5
420
      255
176
     1
290
     0
176
     1
 90
       50
176
     1
 90
       50
176
     1
 90
       50
176
     1
290
     0
176
     1
 90
       50
176
     1
 62
   256
176
     0
 40
1.0
176
     0
 90
        2
176
     1
  1
strokes_ogs.tif
176
     1
290
     0
176
     1
 40
1.0
176
     1
 40
1.0
176
     1
  0
VISUALSTYLE
  5
594
102
{ACAD_REACTORS
330
2A
102
}
330
2A
100
AcDbVisualStyle
  2
EdgeColorOff
 70
    22
177
     3
291
     1
 70
    58
 90
        2
176
     0
 90
        2
176
     0
 90
        0
176
     0
 90
        0
176
     0
 40
0.6
176
     0
 40
30.0
176
     0
 62
     7
420
 16777215
176
     0
 90
        1
176
     0
 90
        4
176
     0
 62
     7
176
     0
 62
   257
176
     0
 90
        1
176
     0
 90
        1
176
     0
 40
1.0
176
     0
 90
        8
176
     2
 62
     7
176
     0
 40
1.0
176
     0
 90
        1
176
     0
 90
        6
176
     0
 90
        2
176
     0
 62
     7
176
     0
 90
        5
176
     0
 90
        0
176
     0
 90
        0
176
     0
290
     0
176
     0
 90
        1
176
     0
 40
0.0
176
     0
 90
        0
176
     0
290
     0
176
     0
290
     1
176
     0
290
     1
176
     0
290
     0
176
     0
290
     0
176
     0
290
     0
176
     0
290
     0
176
     0
290
     0
176
     0
290
     0
176
     0
 90
       50
176
     0
 40
0.0
176
     0
 40
1.0
176
     0
 90
        0
176
     0
 62
    18
420
        0
176
     0
 90
       50
176
     0
 90
        3
176
     0
 62
     5
420
      255
176
     0
290
     0
176
     0
 90
       50
176
     0
 90
       50
176
     0
 90
       50
176
     0
290
     0
176
     0
 90
       50
176
     0
 62
   256
176
     0
 40
1.0
176
     0
 90
        2
176
     0
  1
strokes_ogs.tif
176
     0
290
     0
176
     0
 40
1.0
176
     0
 40
1.0
176
     0
  0
VISUALSTYLE
  5
39
102
{ACAD_REACTORS
330
2A
102
}
330
2A
100
AcDbVisualStyle
  2
Facepattern
 70
    15
177
     3
291
     1
 70
    58
 90
        2
176
     1
 90
        2
176
     1
 90
        0
176
     1
 90
        0
176
     1
 40
-0.6
176
     1
 40
-30.0
176
     1
 62
     7
176
     1
 90
        1
176
     1
 90
        4
176
     1
 62
     7
176
     1
 62
   257
176
     1
 90
        1
176
     1
 90
        1
176
     1
 40
1.0
176
     1
 90
        8
176
     1
 62
     7
176
     1
 40
1.0
176
     1
 90
        1
176
     1
 90
        6
176
     1
 90
        2
176
     1
 62
     7
176
     1
 90
        5
176
     1
 90
        0
176
     1
 90
        0
176
     1
290
     0
176
     1
 90
        1
176
     1
 40
0.0
176
     1
 90
        0
176
     1
290
     0
176
     1
290
     1
176
     1
290
     1
176
     1
290
     0
176
     1
290
     0
176
     1
290
     0
176
     1
290
     0
176
     1
290
     0
176
     1
290
     0
176
     1
 90
       50
176
     1
 40
0.0
176
     1
 40
1.0
176
     1
 90
        0
176
     1
 62
    18
420
        0
176
     1
 90
       50
176
     1
 90
        3
176
     1
 62
     5
420
      255
176
     1
290
     0
176
     1
 90
       50
176
     1
 90
       50
176
     1
 90
       50
176
     1
290
     0
176
     1
 90
       50
176
     1
 62
   256
176
     0
 40
1.0
176
     0
 90
        2
176
     1
  1
strokes_ogs.tif
176
     1
290
     0
176
     1
 40
1.0
176
     1
 40
1.0
176
     1
  0
VISUALSTYLE
  5
2B
102
{ACAD_REACTORS
330
2A
102
}
330
2A
100
AcDbVisualStyle
  2
Flat
 70
     0
177
     3
291
     1
 70
    58
 90
        2
176
     1
 90
        1
176
     1
 90
        1
176
     1
 90
        2
176
     1
 40
-0.6
176
     1
 40
30.0
176
     1
 62
     7
176
     1
 90
        0
176
     1
 90
        4
176
     1
 62
     7
176
     1
 62
   257
176
     1
 90
        1
176
     1
 90
        1
176
     1
 40
1.0
176
     1
 90
        8
176
     1
 62
     7
176
     1
 40
1.0
176
     1
 90
        1
176
     1
 90
        6
176
     1
 90
        2
176
     1
 62
     7
176
     1
 90
        5
176
     1
 90
        0
176
     1
 90
        0
176
     1
290
     0
176
     1
 90
       13
176
     1
 40
0.0
176
     1
 90
        0
176
     1
290
     0
176
     1
290
     1
176
     1
290
     1
176
     1
290
     0
176
     1
290
     0
176
     1
290
     0
176
     1
290
     0
176
     1
290
     0
176
     1
290
     0
176
     1
 90
       50
176
     1
 40
0.0
176
     1
 40
1.0
176
     1
 90
        0
176
     1
 62
    18
420
        0
176
     1
 90
       50
176
     1
 90
        3
176
     1
 62
     5
420
      255
176
     1
290
     0
176
     1
 90
       50
176
     1
 90
       50
176
     1
 90
       50
176
     1
290
     0
176
     1
 90
       50
176
     1
 62
   256
176
     0
 40
1.0
176
     0
 90
        2
176
     1
  1
strokes_ogs.tif
176
     1
290
     0
176
     1
 40
1.0
176
     1
 40
1.0
176
     1
  0
VISUALSTYLE
  5
2C
102
{ACAD_REACTORS
330
2A
102
}
330
2A
100
AcDbVisualStyle
  2
FlatWithEdges
 70
     1
177
     3
291
     1
 70
    58
 90
        2
176
     1
 90
        1
176
     1
 90
        1
176
     1
 90
        2
176
     1
 40
-0.6
176
     1
 40
30.0
176
     1
 62
     7
176
     1
 90
        1
176
     1
 90
        4
176
     1
 62
     7
176
     1
 62
   257
176
     1
 90
        1
176
     1
 90
        1
176
     1
 40
1.0
176
     1
 90
        0
176
     1
 62
   257
176
     1
 40
1.0
176
     1
 90
        1
176
     1
 90
        6
176
     1
 90
        2
176
     1
 62
     7
176
     1
 90
        5
176
     1
 90
        0
176
     1
 90
        0
176
     1
290
     0
176
     1
 90
       13
176
     1
 40
0.0
176
     1
 90
        0
176
     1
290
     0
176
     1
290
     1
176
     1
290
     1
176
     1
290
     0
176
     1
290
     0
176
     1
290
     0
176
     1
290
     0
176
     1
290
     0
176
     1
290
     0
176
     1
 90
       50
176
     1
 40
0.0
176
     1
 40
1.0
176
     1
 90
        0
176
     1
 62
    18
420
        0
176
     1
 90
       50
176
     1
 90
        3
176
     1
 62
     5
420
      255
176
     1
290
     0
176
     1
 90
       50
176
     1
 90
       50
176
     1
 90
       50
176
     1
290
     0
176
     1
 90
       50
176
     1
 62
   256
176
     0
 40
1.0
176
     0
 90
        2
176
     1
  1
strokes_ogs.tif
176
     1
290
     0
176
     1
 40
1.0
176
     1
 40
1.0
176
     1
  0
VISUALSTYLE
  5
2D
102
{ACAD_REACTORS
330
2A
102
}
330
2A
100
AcDbVisualStyle
  2
Gouraud
 70
     2
177
     3
291
     1
 70
    58
 90
        2
176
     1
 90
        2
176
     1
 90
        1
176
     1
 90
        2
176
     1
 40
-0.6
176
     1
 40
30.0
176
     1
 62
     7
176
     1
 90
        0
176
     1
 90
        4
176
     1
 62
     7
176
     1
 62
   257
176
     1
 90
        1
176
     1
 90
        1
176
     1
 40
1.0
176
     1
 90
        0
176
     1
 62
     7
176
     1
 40
1.0
176
     1
 90
        1
176
     1
 90
        6
176
     1
 90
        2
176
     1
 62
     7
176
     1
 90
        5
176
     1
 90
        0
176
     1
 90
        0
176
     1
290
     0
176
     1
 90
       13
176
     1
 40
0.0
176
     1
 90
        0
176
     1
290
     0
176
     1
290
     1
176
     1
290
     1
176
     1
290
     0
176
     1
290
     0
176
     1
290
     0
176
     1
290
     0
176
     1
290
     0
176
     1
290
     0
176
     1
 90
       50
176
     1
 40
0.0
176
     1
 40
1.0
176
     1
 90
        0
176
     1
 62
    18
420
        0
176
     1
 90
       50
176
     1
 90
        3
176
     1
 62
     5
420
      255
176
     1
290
     0
176
     1
 90
       50
176
     1
 90
       50
176
     1
 90
       50
176
     1
290
     0
176
     1
 90
       50
176
     1
 62
   256
176
     0
 40
1.0
176
     0
 90
        2
176
     1
  1
strokes_ogs.tif
176
     1
290
     0
176
     1
 40
1.0
176
     1
 40
1.0
176
     1
  0
VISUALSTYLE
  5
2E
102
{ACAD_REACTORS
330
2A
102
}
330
2A
100
AcDbVisualStyle
  2
GouraudWithEdges
 70
     3
177
     3
291
     1
 70
    58
 90
        2
176
     1
 90
        2
176
     1
 90
        1
176
     1
 90
        2
176
     1
 40
-0.6
176
     1
 40
30.0
176
     1
 62
     7
176
     1
 90
        1
176
     1
 90
        4
176
     1
 62
     7
176
     1
 62
   257
176
     1
 90
        1
176
     1
 90
        1
176
     1
 40
1.0
176
     1
 90
        0
176
     1
 62
   257
176
     1
 40
1.0
176
     1
 90
        1
176
     1
 90
        6
176
     1
 90
        2
176
     1
 62
     7
176
     1
 90
        5
176
     1
 90
        0
176
     1
 90
        0
176
     1
290
     0
176
     1
 90
       13
176
     1
 40
0.0
176
     1
 90
        0
176
     1
290
     0
176
     1
290
     1
176
     1
290
     1
176
     1
290
     0
176
     1
290
     0
176
     1
290
     0
176
     1
290
     0
176
     1
290
     0
176
     1
290
     0
176
     1
 90
       50
176
     1
 40
0.0
176
     1
 40
1.0
176
     1
 90
        0
176
     1
 62
    18
420
        0
176
     1
 90
       50
176
     1
 90
        3
176
     1
 62
     5
420
      255
176
     1
290
     0
176
     1
 90
       50
176
     1
 90
       50
176
     1
 90
       50
176
     1
290
     0
176
     1
 90
       50
176
     1
 62
   256
176
     0
 40
1.0
176
     0
 90
        2
176
     1
  1
strokes_ogs.tif
176
     1
290
     0
176
     1
 40
1.0
176
     1
 40
1.0
176
     1
  0
VISUALSTYLE
  5
591
102
{ACAD_REACTORS
330
2A
102
}
330
2A
100
AcDbVisualStyle
  2
Hidden
 70
     6
177
     3
291
     0
 70
    58
 90
        1
176
     1
 90
        2
176
     1
 90
        2
176
     1
 90
        0
176
     1
 40
0.6
176
     1
 40
30.0
176
     1
 62
     7
420
 16777215
176
     1
 90
        2
176
     1
 90
        2
176
     1
 62
     7
176
     1
 62
   257
176
     1
 90
        2
176
     1
 90
        1
176
     1
 40
40.0
176
     1
 90
        0
176
     1
 62
   257
176
     1
 40
1.0
176
     1
 90
        1
176
     1
 90
        6
176
     1
 90
        2
176
     1
 62
     7
176
     1
 90
        3
176
     1
 90
        0
176
     1
 90
        0
176
     1
290
     0
176
     1
 90
        1
176
     1
 40
0.0
176
     1
 90
        0
176
     1
290
     0
176
     1
290
     1
176
     1
290
     1
176
     1
290
     0
176
     1
290
     0
176
     1
290
     0
176
     1
290
     0
176
     1
290
     0
176
     1
290
     0
176
     1
 90
       50
176
     1
 40
0.0
176
     1
 40
1.0
176
     1
 90
        0
176
     1
 62
    18
420
        0
176
     1
 90
       50
176
     1
 90
        3
176
     1
 62
     5
420
      255
176
     1
290
     0
176
     1
 90
       50
176
     1
 90
       50
176
     1
 90
       50
176
     1
290
     0
176
     1
 90
       50
176
     1
 62
   256
176
     0
 40
1.0
176
     0
 90
        2
176
     1
  1
strokes_ogs.tif
176
     1
290
     0
176
     1
 40
1.0
176
     1
 40
1.0
176
     1
  0
VISUALSTYLE
  5
592
102
{ACAD_REACTORS
330
2A
102
}
330
2A
100
AcDbVisualStyle
  2
JitterOff
 70
    20
177
     3
291
     1
 70
    58
 90
        2
176
     0
 90
        2
176
     0
 90
        0
176
     0
 90
        0
176
     0
 40
0.6
176
     0
 40
30.0
176
     0
 62
     7
420
 16777215
176
     0
 90
        1
176
     0
 90
        4
176
     0
 62
     7
176
     0
 62
   257
176
     0
 90
        1
176
     0
 90
        1
176
     0
 40
1.0
176
     0
 90
       10
176
     2
 62
     7
176
     0
 40
1.0
176
     0
 90
        1
176
     0
 90
        6
176
     0
 90
        2
176
     0
 62
     7
176
     0
 90
        5
176
     0
 90
        0
176
     0
 90
        0
176
     0
290
     0
176
     0
 90
        1
176
     0
 40
0.0
176
     0
 90
        0
176
     0
290
     0
176
     0
290
     1
176
     0
290
     1
176
     0
290
     0
176
     0
290
     0
176
     0
290
     0
176
     0
290
     0
176
     0
290
     0
176
     0
290
     0
176
     0
 90
       50
176
     0
 40
0.0
176
     0
 40
1.0
176
     0
 90
        0
176
     0
 62
    18
420
        0
176
     0
 90
       50
176
     0
 90
        3
176
     0
 62
     5
420
      255
176
     0
290
     0
176
     0
 90
       50
176
     0
 90
       50
176
     0
 90
       50
176
     0
290
     0
176
     0
 90
       50
176
     0
 62
   256
176
     0
 40
1.0
176
     0
 90
        2
176
     0
  1
strokes_ogs.tif
176
     0
290
     0
176
     0
 40
1.0
176
     0
 40
1.0
176
     0
  0
VISUALSTYLE
  5
38
102
{ACAD_REACTORS
330
2A
102
}
330
2A
100
AcDbVisualStyle
  2
Linepattern
 70
    14
177
     3
291
     1
 70
    58
 90
        2
176
     1
 90
        2
176
     1
 90
        0
176
     1
 90
        0
176
     1
 40
-0.6
176
     1
 40
-30.0
176
     1
 62
     7
176
     1
 90
        1
176
     1
 90
        4
176
     1
 62
     7
176
     1
 62
   257
176
     1
 90
        7
176
     1
 90
        7
176
     1
 40
1.0
176
     1
 90
        8
176
     1
 62
     7
176
     1
 40
1.0
176
     1
 90
        1
176
     1
 90
        6
176
     1
 90
        2
176
     1
 62
     7
176
     1
 90
        5
176
     1
 90
        0
176
     1
 90
        0
176
     1
290
     0
176
     1
 90
        1
176
     1
 40
0.0
176
     1
 90
        0
176
     1
290
     0
176
     1
290
     1
176
     1
290
     1
176
     1
290
     0
176
     1
290
     0
176
     1
290
     0
176
     1
290
     0
176
     1
290
     0
176
     1
290
     0
176
     1
 90
       50
176
     1
 40
0.0
176
     1
 40
1.0
176
     1
 90
        0
176
     1
 62
    18
420
        0
176
     1
 90
       50
176
     1
 90
        3
176
     1
 62
     5
420
      255
176
     1
290
     0
176
     1
 90
       50
176
     1
 90
       50
176
     1
 90
       50
176
     1
290
     0
176
     1
 90
       50
176
     1
 62
   256
176
     0
 40
1.0
176
     0
 90
        2
176
     1
  1
strokes_ogs.tif
176
     1
290
     0
176
     1
 40
1.0
176
     1
 40
1.0
176
     1
  0
VISUALSTYLE
  5
593
102
{ACAD_REACTORS
330
2A
102
}
330
2A
100
AcDbVisualStyle
  2
OverhangOff
 70
    21
177
     3
291
     1
 70
    58
 90
        2
176
     0
 90
        2
176
     0
 90
        0
176
     0
 90
        0
176
     0
 40
0.6
176
     0
 40
30.0
176
     0
 62
     7
420
 16777215
176
     0
 90
        1
176
     0
 90
        4
176
     0
 62
     7
176
     0
 62
   257
176
     0
 90
        1
176
     0
 90
        1
176
     0
 40
1.0
176
     0
 90
        9
176
     2
 62
     7
176
     0
 40
1.0
176
     0
 90
        1
176
     0
 90
        6
176
     0
 90
        2
176
     0
 62
     7
176
     0
 90
        5
176
     0
 90
        0
176
     0
 90
        0
176
     0
290
     0
176
     0
 90
        1
176
     0
 40
0.0
176
     0
 90
        0
176
     0
290
     0
176
     0
290
     1
176
     0
290
     1
176
     0
290
     0
176
     0
290
     0
176
     0
290
     0
176
     0
290
     0
176
     0
290
     0
176
     0
290
     0
176
     0
 90
       50
176
     0
 40
0.0
176
     0
 40
1.0
176
     0
 90
        0
176
     0
 62
    18
420
        0
176
     0
 90
       50
176
     0
 90
        3
176
     0
 62
     5
420
      255
176
     0
290
     0
176
     0
 90
       50
176
     0
 90
       50
176
     0
 90
       50
176
     0
290
     0
176
     0
 90
       50
176
     0
 62
   256
176
     0
 40
1.0
176
     0
 90
        2
176
     0
  1
strokes_ogs.tif
176
     0
290
     0
176
     0
 40
1.0
176
     0
 40
1.0
176
     0
  0
VISUALSTYLE
  5
33
102
{ACAD_REACTORS
330
2A
102
}
330
2A
100
AcDbVisualStyle
  2
Realistic
 70
     8
177
     3
291
     0
 70
    58
 90
        2
176
     1
 90
        2
176
     1
 90
        0
176
     1
 90
        0
176
     1
 40
-0.6
176
     1
 40
-30.0
176
     1
 62
     7
176
     1
 90
        1
176
     1
 90
        0
176
     1
 62
     7
176
     1
 62
   257
176
     1
 90
        1
176
     1
 90
        1
176
     1
 40
1.0
176
     1
 90
        8
176
     1
 62
     8
176
     1
 40
1.0
176
     1
 90
        1
176
     1
 90
        6
176
     1
 90
        2
176
     1
 62
     7
176
     1
 90
        5
176
     1
 90
        0
176
     1
 90
        0
176
     1
290
     0
176
     1
 90
       13
176
     1
 40
0.0
176
     1
 90
        0
176
     1
290
     0
176
     1
290
     1
176
     1
290
     1
176
     1
290
     0
176
     1
290
     0
176
     1
290
     0
176
     1
290
     0
176
     1
290
     0
176
     1
290
     0
176
     1
 90
       50
176
     1
 40
0.0
176
     1
 40
1.0
176
     1
 90
        0
176
     1
 62
    18
420
        0
176
     1
 90
       50
176
     1
 90
        3
176
     1
 62
     5
420
      255
176
     1
290
     0
176
     1
 90
       50
176
     1
 90
       50
176
     1
 90
       50
176
     1
290
     0
176
     1
 90
       50
176
     1
 62
   256
176
     0
 40
1.0
176
     0
 90
        2
176
     1
  1
strokes_ogs.tif
176
     1
290
     0
176
     1
 40
1.0
176
     1
 40
1.0
176
     1
  0
VISUALSTYLE
  5
599
102
{ACAD_REACTORS
330
2A
102
}
330
2A
100
AcDbVisualStyle
  2
Shaded
 70
    27
177
     3
291
     0
 70
    58
 90
        2
176
     1
 90
        2
176
     1
 90
        1
176
     1
 90
        2
176
     1
 40
0.6
176
     1
 40
30.0
176
     1
 62
     7
420
 16777215
176
     1
 90
        0
176
     1
 90
        4
176
     1
 62
     7
176
     1
 62
   257
176
     1
 90
        1
176
     1
 90
        1
176
     1
 40
1.0
176
     1
 90
        8
176
     1
 62
   257
176
     1
 40
1.0
176
     1
 90
        1
176
     1
 90
        6
176
     1
 90
        2
176
     1
 62
     8
420
  7895160
176
     1
 90
        3
176
     1
 90
        0
176
     1
 90
        0
176
     1
290
     0
176
     1
 90
        5
176
     1
 40
0.0
176
     1
 90
        0
176
     1
290
     0
176
     1
290
     1
176
     1
290
     1
176
     1
290
     0
176
     1
290
     0
176
     1
290
     0
176
     1
290
     0
176
     1
290
     0
176
     1
290
     0
176
     1
 90
       50
176
     1
 40
0.0
176
     1
 40
1.0
176
     1
 90
        0
176
     1
 62
    18
420
        0
176
     1
 90
       50
176
     1
 90
        3
176
     1
 62
     5
420
      255
176
     1
290
     0
176
     1
 90
       50
176
     1
 90
       50
176
     1
 90
       50
176
     1
290
     0
176
     1
 90
       50
176
     1
 62
   256
176
     0
 40
1.0
176
     0
 90
        2
176
     1
  1
strokes_ogs.tif
176
     1
290
     0
176
     1
 40
1.0
176
     1
 40
1.0
176
     1
  0
VISUALSTYLE
  5
598
102
{ACAD_REACTORS
330
2A
102
}
330
2A
100
AcDbVisualStyle
  2
Shaded with edges
 70
    26
177
     3
291
     0
 70
    58
 90
        2
176
     1
 90
        2
176
     1
 90
        1
176
     1
 90
        2
176
     1
 40
0.6
176
     1
 40
30.0
176
     1
 62
     7
420
 16777215
176
     1
 90
        1
176
     1
 90
       10
176
     1
 62
     7
176
     1
 62
   257
176
     1
 90
        2
176
     1
 90
        1
176
     1
 40
1.0
176
     1
 90
        8
176
     1
 62
   257
176
     1
 40
1.0
176
     1
 90
        1
176
     1
 90
        6
176
     1
 90
        2
176
     1
 62
     7
176
     1
 90
        3
176
     1
 90
        0
176
     1
 90
        0
176
     1
290
     0
176
     1
 90
        5
176
     1
 40
0.0
176
     1
 90
        0
176
     1
290
     0
176
     1
290
     1
176
     1
290
     1
176
     1
290
     0
176
     1
290
     0
176
     1
290
     0
176
     1
290
     0
176
     1
290
     0
176
     1
290
     0
176
     1
 90
       50
176
     1
 40
0.0
176
     1
 40
1.0
176
     1
 90
        0
176
     1
 62
    18
420
        0
176
     1
 90
       50
176
     1
 90
        3
176
     1
 62
     5
420
      255
176
     1
290
     0
176
     1
 90
       50
176
     1
 90
       50
176
     1
 90
       50
176
     1
290
     0
176
     1
 90
       50
176
     1
 62
   256
176
     0
 40
1.0
176
     0
 90
        2
176
     1
  1
strokes_ogs.tif
176
     1
290
     0
176
     1
 40
1.0
176
     1
 40
1.0
176
     1
  0
VISUALSTYLE
  5
595
102
{ACAD_REACTORS
330
2A
102
}
330
2A
100
AcDbVisualStyle
  2
Shades of Gray
 70
    23
177
     3
291
     0
 70
    58
 90
        2
176
     1
 90
        2
176
     1
 90
        3
176
     1
 90
        0
176
     1
 40
0.6
176
     1
 40
30.0
176
     1
 62
     7
420
 16777215
176
     1
 90
        2
176
     1
 90
        2
176
     1
 62
     7
176
     1
 62
     7
176
     1
 90
        1
176
     1
 90
        1
176
     1
 40
40.0
176
     1
 90
        8
176
     1
 62
     7
176
     1
 40
1.0
176
     1
 90
        1
176
     1
 90
        6
176
     1
 90
        2
176
     1
 62
     7
176
     1
 90
        3
176
     1
 90
        0
176
     1
 90
        0
176
     1
290
     0
176
     1
 90
        1
176
     1
 40
0.0
176
     1
 90
        0
176
     1
290
     0
176
     1
290
     1
176
     1
290
     1
176
     1
290
     0
176
     1
290
     0
176
     1
290
     0
176
     1
290
     0
176
     1
290
     0
176
     1
290
     0
176
     1
 90
       50
176
     1
 40
0.0
176
     1
 40
1.0
176
     1
 90
        0
176
     1
 62
    18
420
        0
176
     1
 90
       50
176
     1
 90
        3
176
     1
 62
     5
420
      255
176
     1
290
     0
176
     1
 90
       50
176
     1
 90
       50
176
     1
 90
       50
176
     1
290
     0
176
     1
 90
       50
176
     1
 62
   256
176
     0
 40
1.0
176
     0
 90
        2
176
     1
  1
strokes_ogs.tif
176
     1
290
     0
176
     1
 40
1.0
176
     1
 40
1.0
176
     1
  0
VISUALSTYLE
  5
596
102
{ACAD_REACTORS
330
2A
102
}
330
2A
100
AcDbVisualStyle
  2
Sketchy
 70
    24
177
     3
291
     0
 70
    58
 90
        1
176
     1
 90
        2
176
     1
 90
        2
176
     1
 90
        0
176
     1
 40
0.6
176
     1
 40
30.0
176
     1
 62
     7
420
 16777215
176
     1
 90
        2
176
     1
 90
        2
176
     1
 62
     7
176
     1
 62
     7
176
     1
 90
        1
176
     1
 90
        1
176
     1
 40
40.0
176
     1
 90
       11
176
     1
 62
     7
176
     1
 40
1.0
176
     1
 90
        1
176
     1
 90
        6
176
     1
 90
        2
176
     1
 62
     7
176
     1
 90
        6
176
     1
 90
        0
176
     1
 90
        0
176
     1
290
     0
176
     1
 90
        1
176
     1
 40
0.0
176
     1
 90
        0
176
     1
290
     0
176
     1
290
     1
176
     1
290
     1
176
     1
290
     0
176
     1
290
     0
176
     1
290
     0
176
     1
290
     0
176
     1
290
     0
176
     1
290
     0
176
     1
 90
       50
176
     1
 40
0.0
176
     1
 40
1.0
176
     1
 90
        0
176
     1
 62
    18
420
        0
176
     1
 90
       50
176
     1
 90
        3
176
     1
 62
     5
420
      255
176
     1
290
     0
176
     1
 90
       50
176
     1
 90
       50
176
     1
 90
       50
176
     1
290
     0
176
     1
 90
       50
176
     1
 62
   256
176
     0
 40
1.0
176
     0
 90
        2
176
     1
  1
strokes_ogs.tif
176
     1
290
     0
176
     1
 40
1.0
176
     1
 40
1.0
176
     1
  0
VISUALSTYLE
  5
37
102
{ACAD_REACTORS
330
2A
102
}
330
2A
100
AcDbVisualStyle
  2
Thicken
 70
    13
177
     3
291
     1
 70
    58
 90
        2
176
     1
 90
        2
176
     1
 90
        0
176
     1
 90
        0
176
     1
 40
-0.6
176
     1
 40
-30.0
176
     1
 62
     7
176
     1
 90
        1
176
     1
 90
        4
176
     1
 62
     7
176
     1
 62
   257
176
     1
 90
        1
176
     1
 90
        1
176
     1
 40
1.0
176
     1
 90
       12
176
     1
 62
     7
176
     1
 40
1.0
176
     1
 90
        1
176
     1
 90
        6
176
     1
 90
        2
176
     1
 62
     7
176
     1
 90
        5
176
     1
 90
        0
176
     1
 90
        0
176
     1
290
     0
176
     1
 90
        1
176
     1
 40
0.0
176
     1
 90
        0
176
     1
290
     0
176
     1
290
     1
176
     1
290
     1
176
     1
290
     0
176
     1
290
     0
176
     1
290
     0
176
     1
290
     0
176
     1
290
     0
176
     1
290
     0
176
     1
 90
       50
176
     1
 40
0.0
176
     1
 40
1.0
176
     1
 90
        0
176
     1
 62
    18
420
        0
176
     1
 90
       50
176
     1
 90
        3
176
     1
 62
     5
420
      255
176
     1
290
     0
176
     1
 90
       50
176
     1
 90
       50
176
     1
 90
       50
176
     1
290
     0
176
     1
 90
       50
176
     1
 62
   256
176
     0
 40
1.0
176
     0
 90
        2
176
     1
  1
strokes_ogs.tif
176
     1
290
     0
176
     1
 40
1.0
176
     1
 40
1.0
176
     1
  0
VISUALSTYLE
  5
590
102
{ACAD_REACTORS
330
2A
102
}
330
2A
100
AcDbVisualStyle
  2
Wireframe
 70
     5
177
     3
291
     0
 70
    58
 90
        0
176
     1
 90
        2
176
     1
 90
        0
176
     1
 90
        0
176
     1
 40
0.6
176
     1
 40
30.0
176
     1
 62
     7
420
 16777215
176
     1
 90
        1
176
     1
 90
        4
176
     1
 62
     7
176
     1
 62
   257
176
     1
 90
        1
176
     1
 90
        1
176
     1
 40
1.0
176
     1
 90
        0
176
     1
 62
   257
176
     1
 40
1.0
176
     1
 90
        1
176
     1
 90
        6
176
     1
 90
        2
176
     1
 62
     7
176
     1
 90
        3
176
     1
 90
        0
176
     1
 90
        0
176
     1
290
     0
176
     1
 90
        1
176
     1
 40
0.0
176
     1
 90
        0
176
     1
290
     0
176
     1
290
     1
176
     1
290
     1
176
     1
290
     0
176
     1
290
     0
176
     1
290
     0
176
     1
290
     0
176
     1
290
     0
176
     1
290
     0
176
     1
 90
       50
176
     1
 40
0.0
176
     1
 40
1.0
176
     1
 90
        0
176
     1
 62
    18
420
        0
176
     1
 90
       50
176
     1
 90
        3
176
     1
 62
     5
420
      255
176
     1
290
     0
176
     1
 90
       50
176
     1
 90
       50
176
     1
 90
       50
176
     1
290
     0
176
     1
 90
       50
176
     1
 62
   256
176
     0
 40
1.0
176
     0
 90
        2
176
     1
  1
strokes_ogs.tif
176
     1
290
     0
176
     1
 40
1.0
176
     1
 40
1.0
176
     1
  0
VISUALSTYLE
  5
597
102
{ACAD_REACTORS
330
2A
102
}
330
2A
100
AcDbVisualStyle
  2
X-Ray
 70
    25
177
     3
291
     0
 70
    58
 90
        2
176
     1
 90
        2
176
     1
 90
        1
176
     1
 90
        1
176
     1
 40
0.5
176
     1
 40
30.0
176
     1
 62
     7
420
 16777215
176
     1
 90
        1
176
     1
 90
        0
176
     1
 62
     7
176
     1
 62
   257
176
     1
 90
        1
176
     1
 90
        1
176
     1
 40
1.0
176
     1
 90
        8
176
     1
 62
     7
176
     1
 40
1.0
176
     1
 90
        1
176
     1
 90
        6
176
     1
 90
        2
176
     1
 62
     7
176
     1
 90
        3
176
     1
 90
        0
176
     1
 90
        0
176
     1
290
     0
176
     1
 90
       13
176
     1
 40
0.0
176
     1
 90
        0
176
     1
290
     0
176
     1
290
     1
176
     1
290
     1
176
     1
290
     0
176
     1
290
     0
176
     1
290
     0
176
     1
290
     0
176
     1
290
     0
176
     1
290
     0
176
     1
 90
       50
176
     1
 40
0.0
176
     1
 40
1.0
176
     1
 90
        0
176
     1
 62
    18
420
        0
176
     1
 90
       50
176
     1
 90
        3
176
     1
 62
     5
420
      255
176
     1
290
     0
176
     1
 90
       50
176
     1
 90
       50
176
     1
 90
       50
176
     1
290
     0
176
     1
 90
       50
176
     1
 62
   256
176
     0
 40
1.0
176
     0
 90
        2
176
     1
  1
strokes_ogs.tif
176
     1
290
     0
176
     1
 40
1.0
176
     1
 40
1.0
176
     1
  0
DICTIONARYVAR
  5
5A2
102
{ACAD_REACTORS
330
5A1
102
}
330
5A1
100
DictionaryVariables
280
     0
  1
1:1
  0
DICTIONARYVAR
  5
5A4
102
{ACAD_REACTORS
330
5A1
102
}
330
5A1
100
DictionaryVariables
280
     0
  1
Standard
  0
DICTIONARYVAR
  5
5A3
102
{ACAD_REACTORS
330
5A1
102
}
330
5A1
100
DictionaryVariables
280
     0
  1
Standard
  0
DICTIONARYVAR
  5
5A5
102
{ACAD_REACTORS
330
5A1
102
}
330
5A1
100
DictionaryVariables
280
     0
  1
0
  0
DICTIONARY
  5
7E3
330
59A
100
AcDbDictionary
280
     1
281
     1
  3
ACAD_ROUNDTRIP_2008_TABLESTYLE_CELLSTYLEMAP
360
7E4
  0
CELLSTYLEMAP
  5
7E4
102
{ACAD_REACTORS
330
7E3
102
}
330
7E3
100
AcDbCellStyleMap
 90
        3
300
CELLSTYLE
  1
TABLEFORMAT_BEGIN
 90
        5
170
     1
 91
        0
 92
    32768
 62
   257
 93
        1
300
CONTENTFORMAT
  1
CONTENTFORMAT_BEGIN
 90
        0
 91
        0
 92
        4
 93
        0
300

 40
0.0
140
1.0
 94
        5
 62
     0
340
11
144
0.25
309
CONTENTFORMAT_END
171
     1
301
MARGIN
  1
CELLMARGIN_BEGIN
 40
0.06
 40
0.06
 40
0.06
 40
0.06
 40
0.06
 40
0.06
309
CELLMARGIN_END
 94
        6
 95
        1
302
GRIDFORMAT
  1
GRIDFORMAT_BEGIN
 90
        0
 91
        1
 62
     0
 92
       -2
340
14
 93
        0
 40
0.045
309
GRIDFORMAT_END
 95
        2
302
GRIDFORMAT
  1
GRIDFORMAT_BEGIN
 90
        0
 91
        1
 62
     0
 92
       -2
340
14
 93
        0
 40
0.045
309
GRIDFORMAT_END
 95
        4
302
GRIDFORMAT
  1
GRIDFORMAT_BEGIN
 90
        0
 91
        1
 62
     0
 92
       -2
340
14
 93
        0
 40
0.045
309
GRIDFORMAT_END
 95
        8
302
GRIDFORMAT
  1
GRIDFORMAT_BEGIN
 90
        0
 91
        1
 62
     0
 92
       -2
340
14
 93
        0
 40
0.045
309
GRIDFORMAT_END
 95
       16
302
GRIDFORMAT
  1
GRIDFORMAT_BEGIN
 90
        0
 91
        1
 62
     0
 92
       -2
340
14
 93
        0
 40
0.045
309
GRIDFORMAT_END
 95
       32
302
GRIDFORMAT
  1
GRIDFORMAT_BEGIN
 90
        0
 91
        1
 62
     0
 92
       -2
340
14
 93
        0
 40
0.045
309
GRIDFORMAT_END
309
TABLEFORMAT_END
  1
CELLSTYLE_BEGIN
 90
        1
 91
        1
300
_TITLE
309
CELLSTYLE_END
300
CELLSTYLE
  1
TABLEFORMAT_BEGIN
 90
        5
170
     1
 91
        0
 92
        0
 62
   257
 93
        1
300
CONTENTFORMAT
  1
CONTENTFORMAT_BEGIN
 90
        0
 91
        0
 92
        4
 93
        0
300

 40
0.0
140
1.0
 94
        5
 62
     0
340
11
144
0.18
309
CONTENTFORMAT_END
171
     1
301
MARGIN
  1
CELLMARGIN_BEGIN
 40
0.06
 40
0.06
 40
0.06
 40
0.06
 40
0.06
 40
0.06
309
CELLMARGIN_END
 94
        6
 95
        1
302
GRIDFORMAT
  1
GRIDFORMAT_BEGIN
 90
        0
 91
        1
 62
     0
 92
       -2
340
14
 93
        0
 40
0.045
309
GRIDFORMAT_END
 95
        2
302
GRIDFORMAT
  1
GRIDFORMAT_BEGIN
 90
        0
 91
        1
 62
     0
 92
       -2
340
14
 93
        0
 40
0.045
309
GRIDFORMAT_END
 95
        4
302
GRIDFORMAT
  1
GRIDFORMAT_BEGIN
 90
        0
 91
        1
 62
     0
 92
       -2
340
14
 93
        0
 40
0.045
309
GRIDFORMAT_END
 95
        8
302
GRIDFORMAT
  1
GRIDFORMAT_BEGIN
 90
        0
 91
        1
 62
     0
 92
       -2
340
14
 93
        0
 40
0.045
309
GRIDFORMAT_END
 95
       16
302
GRIDFORMAT
  1
GRIDFORMAT_BEGIN
 90
        0
 91
        1
 62
     0
 92
       -2
340
14
 93
        0
 40
0.045
309
GRIDFORMAT_END
 95
       32
302
GRIDFORMAT
  1
GRIDFORMAT_BEGIN
 90
        0
 91
        1
 62
     0
 92
       -2
340
14
 93
        0
 40
0.045
309
GRIDFORMAT_END
309
TABLEFORMAT_END
  1
CELLSTYLE_BEGIN
 90
        2
 91
        1
300
_HEADER
309
CELLSTYLE_END
300
CELLSTYLE
  1
TABLEFORMAT_BEGIN
 90
        5
170
     1
 91
        0
 92
        0
 62
   257
 93
        1
300
CONTENTFORMAT
  1
CONTENTFORMAT_BEGIN
 90
        0
 91
        0
 92
        4
 93
        0
300

 40
0.0
140
1.0
 94
        2
 62
     0
340
11
144
0.18
309
CONTENTFORMAT_END
171
     1
301
MARGIN
  1
CELLMARGIN_BEGIN
 40
0.06
 40
0.06
 40
0.06
 40
0.06
 40
0.06
 40
0.06
309
CELLMARGIN_END
 94
        6
 95
        1
302
GRIDFORMAT
  1
GRIDFORMAT_BEGIN
 90
        0
 91
        1
 62
     0
 92
       -2
340
14
 93
        0
 40
0.045
309
GRIDFORMAT_END
 95
        2
302
GRIDFORMAT
  1
GRIDFORMAT_BEGIN
 90
        0
 91
        1
 62
     0
 92
       -2
340
14
 93
        0
 40
0.045
309
GRIDFORMAT_END
 95
        4
302
GRIDFORMAT
  1
GRIDFORMAT_BEGIN
 90
        0
 91
        1
 62
     0
 92
       -2
340
14
 93
        0
 40
0.045
309
GRIDFORMAT_END
 95
        8
302
GRIDFORMAT
  1
GRIDFORMAT_BEGIN
 90
        0
 91
        1
 62
     0
 92
       -2
340
14
 93
        0
 40
0.045
309
GRIDFORMAT_END
 95
       16
302
GRIDFORMAT
  1
GRIDFORMAT_BEGIN
 90
        0
 91
        1
 62
     0
 92
       -2
340
14
 93
        0
 40
0.045
309
GRIDFORMAT_END
 95
       32
302
GRIDFORMAT
  1
GRIDFORMAT_BEGIN
 90
        0
 91
        1
 62
     0
 92
       -2
340
14
 93
        0
 40
0.045
309
GRIDFORMAT_END
309
TABLEFORMAT_END
  1
CELLSTYLE_BEGIN
 90
        3
 91
        2
300
_DATA
309
CELLSTYLE_END
  0
ENDSEC
  0
EOF
