  0
SECTION
  2
HEADER
  9
$ACADVER
  1
AC1032
  9
$ACADMAINTVER
 90
        4
  9
$DWGCODEPAGE
  3
ANSI_932
  9
$LASTSAVEDBY
  1
9128
  9
$REQUIREDVERSIONS
160
                 0
  9
$INSBASE
 10
0.0
 20
0.0
 30
0.0
  9
$EXTMIN
 10
199.2558942549961
 20
52.2123261453527
 30
0.0
  9
$EXTMAX
 10
279.7205173063092
 20
249.6005953207322
 30
0.0
  9
$LIMMIN
 10
0.0
 20
0.0
  9
$LIMMAX
 10
0.0
 20
0.0
  9
$ORTHOMODE
 70
     0
  9
$REGENMODE
 70
     1
  9
$FILLMODE
 70
     1
  9
$QTEXTMODE
 70
     0
  9
$MIRRTEXT
 70
     1
  9
$LTSCALE
 40
5.08
  9
$ATTMODE
 70
     1
  9
$TEXTSIZE
 40
2.5
  9
$TRACEWID
 40
1.0
  9
$TEXTSTYLE
  7
Standard
  9
$CLAYER
  8
0
  9
$CELTYPE
  6
Continuous
  9
$CECOLOR
 62
   256
  9
$CELTSCALE
 40
1.0
  9
$DISPSILH
 70
     0
  9
$DIMSCALE
 40
1.0
  9
$DIMASZ
 40
0.18
  9
$DIMEXO
 40
0.0625
  9
$DIMDLI
 40
0.38
  9
$DIMRND
 40
0.0
  9
$DIMDLE
 40
0.0
  9
$DIMEXE
 40
0.18
  9
$DIMTP
 40
0.0
  9
$DIMTM
 40
0.0
  9
$DIMTXT
 40
0.18
  9
$DIMCEN
 40
0.09
  9
$DIMTSZ
 40
0.0
  9
$DIMTOL
 70
     0
  9
$DIMLIM
 70
     0
  9
$DIMTIH
 70
     1
  9
$DIMTOH
 70
     1
  9
$DIMSE1
 70
     0
  9
$DIMSE2
 70
     0
  9
$DIMTAD
 70
     0
  9
$DIMZIN
 70
     0
  9
$DIMBLK
  1

  9
$DIMASO
 70
     1
  9
$DIMSHO
 70
     1
  9
$DIMPOST
  1

  9
$DIMAPOST
  1

  9
$DIMALT
 70
     0
  9
$DIMALTD
 70
     2
  9
$DIMALTF
 40
25.4
  9
$DIMLFAC
 40
1.0
  9
$DIMTOFL
 70
     0
  9
$DIMTVP
 40
0.0
  9
$DIMTIX
 70
     0
  9
$DIMSOXD
 70
     0
  9
$DIMSAH
 70
     0
  9
$DIMBLK1
  1

  9
$DIMBLK2
  1

  9
$DIMSTYLE
  2
Standard
  9
$DIMCLRD
 70
     0
  9
$DIMCLRE
 70
     0
  9
$DIMCLRT
 70
     0
  9
$DIMTFAC
 40
1.0
  9
$DIMGAP
 40
0.09
  9
$DIMJUST
 70
     0
  9
$DIMSD1
 70
     0
  9
$DIMSD2
 70
     0
  9
$DIMTOLJ
 70
     1
  9
$DIMTZIN
 70
     0
  9
$DIMALTZ
 70
     0
  9
$DIMALTTZ
 70
     0
  9
$DIMUPT
 70
     0
  9
$DIMDEC
 70
     4
  9
$DIMTDEC
 70
     4
  9
$DIMALTU
 70
     2
  9
$DIMALTTD
 70
     2
  9
$DIMTXSTY
  7
Standard
  9
$DIMAUNIT
 70
     0
  9
$DIMADEC
 70
     0
  9
$DIMALTRND
 40
0.0
  9
$DIMAZIN
 70
     0
  9
$DIMDSEP
 70
     0
  9
$DIMATFIT
 70
     3
  9
$DIMFRAC
 70
     0
  9
$DIMLDRBLK
  1

  9
$DIMLUNIT
 70
     2
  9
$DIMLWD
 70
     0
  9
$DIMLWE
 70
     0
  9
$DIMTMOVE
 70
     0
  9
$DIMFXL
 40
1.0
  9
$DIMFXLON
 70
     0
  9
$DIMJOGANG
 40
0.7853981633974483
  9
$DIMTFILL
 70
     0
  9
$DIMTFILLCLR
 70
     0
  9
$DIMARCSYM
 70
     0
  9
$DIMLTYPE
  6

  9
$DIMLTEX1
  6

  9
$DIMLTEX2
  6

  9
$DIMTXTDIRECTION
 70
     0
  9
$LUNITS
 70
     2
  9
$LUPREC
 70
     4
  9
$SKETCHINC
 40
0.1
  9
$FILLETRAD
 40
0.0
  9
$AUNITS
 70
     0
  9
$AUPREC
 70
     0
  9
$MENU
  1
acad
  9
$ELEVATION
 40
0.0
  9
$PELEVATION
 40
0.0
  9
$THICKNESS
 40
0.0
  9
$LIMCHECK
 70
     0
  9
$CHAMFERA
 40
0.0
  9
$CHAMFERB
 40
0.0
  9
$CHAMFERC
 40
0.0
  9
$CHAMFERD
 40
0.0
  9
$SKPOLY
 70
     0
  9
$TDCREATE
 40
2447893.375
  9
$TDUCREATE
 40
0.0
  9
$TDUPDATE
 40
2459608.567192917
  9
$TDUUPDATE
 40
2459608.192192917
  9
$TDINDWG
 40
0.0006940162
  9
$TDUSRTIMER
 40
0.0000655671
  9
$USRTIMER
 70
     1
  9
$ANGBASE
 50
0.0
  9
$ANGDIR
 70
     0
  9
$PDMODE
 70
     1
  9
$PDSIZE
 40
-2.0
  9
$PLINEWID
 40
0.0
  9
$SPLFRAME
 70
     0
  9
$SPLINETYPE
 70
     6
  9
$SPLINESEGS
 70
     8
  9
$HANDSEED
  5
24F
  9
$SURFTAB1
 70
     6
  9
$SURFTAB2
 70
     6
  9
$SURFTYPE
 70
     6
  9
$SURFU
 70
     6
  9
$SURFV
 70
     6
  9
$UCSBASE
  2

  9
$UCSNAME
  2

  9
$UCSORG
 10
0.0
 20
0.0
 30
0.0
  9
$UCSXDIR
 10
1.0
 20
0.0
 30
0.0
  9
$UCSYDIR
 10
0.0
 20
1.0
 30
0.0
  9
$UCSORTHOREF
  2

  9
$UCSORTHOVIEW
 70
     0
  9
$UCSORGTOP
 10
0.0
 20
0.0
 30
0.0
  9
$UCSORGBOTTOM
 10
0.0
 20
0.0
 30
0.0
  9
$UCSORGLEFT
 10
0.0
 20
0.0
 30
0.0
  9
$UCSORGRIGHT
 10
0.0
 20
0.0
 30
0.0
  9
$UCSORGFRONT
 10
0.0
 20
0.0
 30
0.0
  9
$UCSORGBACK
 10
0.0
 20
0.0
 30
0.0
  9
$PUCSBASE
  2

  9
$PUCSNAME
  2

  9
$PUCSORG
 10
0.0
 20
0.0
 30
0.0
  9
$PUCSXDIR
 10
1.0
 20
0.0
 30
0.0
  9
$PUCSYDIR
 10
0.0
 20
1.0
 30
0.0
  9
$PUCSORTHOREF
  2

  9
$PUCSORTHOVIEW
 70
     0
  9
$PUCSORGTOP
 10
0.0
 20
0.0
 30
0.0
  9
$PUCSORGBOTTOM
 10
0.0
 20
0.0
 30
0.0
  9
$PUCSORGLEFT
 10
0.0
 20
0.0
 30
0.0
  9
$PUCSORGRIGHT
 10
0.0
 20
0.0
 30
0.0
  9
$PUCSORGFRONT
 10
0.0
 20
0.0
 30
0.0
  9
$PUCSORGBACK
 10
0.0
 20
0.0
 30
0.0
  9
$USERI1
 70
     0
  9
$USERI2
 70
     0
  9
$USERI3
 70
     0
  9
$USERI4
 70
     0
  9
$USERI5
 70
     0
  9
$USERR1
 40
0.0
  9
$USERR2
 40
0.0
  9
$USERR3
 40
0.0
  9
$USERR4
 40
0.0
  9
$USERR5
 40
0.0
  9
$WORLDVIEW
 70
     1
  9
$SHADEDGE
 70
     3
  9
$SHADEDIF
 70
    70
  9
$TILEMODE
 70
     1
  9
$MAXACTVP
 70
    16
  9
$PINSBASE
 10
0.0
 20
0.0
 30
0.0
  9
$PLIMCHECK
 70
     0
  9
$PEXTMIN
 10
1.000000000000000E+20
 20
1.000000000000000E+20
 30
1.000000000000000E+20
  9
$PEXTMAX
 10
-1.000000000000000E+20
 20
-1.000000000000000E+20
 30
-1.000000000000000E+20
  9
$PLIMMIN
 10
0.0
 20
0.0
  9
$PLIMMAX
 10
0.0
 20
0.0
  9
$UNITMODE
 70
     0
  9
$VISRETAIN
 70
     0
  9
$PLINEGEN
 70
     1
  9
$PSLTSCALE
 70
     0
  9
$TREEDEPTH
 70
  3020
  9
$CMLSTYLE
  2
Standard
  9
$CMLJUST
 70
     0
  9
$CMLSCALE
 40
1.0
  9
$PROXYGRAPHICS
 70
     0
  9
$MEASUREMENT
 70
     1
  9
$CELWEIGHT
370
     0
  9
$ENDCAPS
280
     0
  9
$JOINSTYLE
280
     0
  9
$LWDISPLAY
290
     1
  9
$INSUNITS
 70
     4
  9
$HYPERLINKBASE
  1

  9
$STYLESHEET
  1

  9
$XEDIT
290
     1
  9
$CEPSNTYPE
380
     0
  9
$PSTYLEMODE
290
     1
  9
$FINGERPRINTGUID
  2

  9
$VERSIONGUID
  2

  9
$EXTNAMES
290
     1
  9
$PSVPSCALE
 40
0.0
  9
$OLESTARTUP
290
     0
  9
$SORTENTS
280
   127
  9
$INDEXCTL
280
     0
  9
$HIDETEXT
280
     1
  9
$XCLIPFRAME
280
     2
  9
$HALOGAP
280
     0
  9
$OBSCOLOR
 70
   257
  9
$OBSLTYPE
280
     0
  9
$INTERSECTIONDISPLAY
280
     0
  9
$INTERSECTIONCOLOR
 70
   257
  9
$DIMASSOC
280
     2
  9
$PROJECTNAME
  1

  9
$CAMERADISPLAY
290
     0
  9
$LENSLENGTH
 40
50.0
  9
$CAMERAHEIGHT
 40
0.0
  9
$STEPSPERSEC
 40
2.0
  9
$STEPSIZE
 40
6.0
  9
$3DDWFPREC
 40
2.0
  9
$PSOLWIDTH
 40
0.25
  9
$PSOLHEIGHT
 40
4.0
  9
$LOFTANG1
 40
1.570796326794897
  9
$LOFTANG2
 40
1.570796326794897
  9
$LOFTMAG1
 40
0.0
  9
$LOFTMAG2
 40
0.0
  9
$LOFTPARAM
 70
     7
  9
$LOFTNORMALS
280
     1
  9
$LATITUDE
 40
37.795
  9
$LONGITUDE
 40
-122.394
  9
$NORTHDIRECTION
 40
0.0
  9
$TIMEZONE
 70
 -8000
  9
$LIGHTGLYPHDISPLAY
280
     1
  9
$TILEMODELIGHTSYNCH
280
     1
  9
$SOLIDHIST
280
     0
  9
$SHOWHIST
280
     1
  9
$DWFFRAME
280
     2
  9
$DGNFRAME
280
     2
  9
$REALWORLDSCALE
290
     1
  9
$INTERFERECOLOR
 62
   256
  9
$CSHADOW
280
     0
  9
$SHADOWPLANELOCATION
 40
0.0
  0
ENDSEC
  0
SECTION
  2
CLASSES
  0
CLASS
  1
LWPOLYLINE
  2
AcDbPolyline
  3
ObjectDBX Classes
 90
        0
 91
        1
280
     0
281
     1
  0
CLASS
  1
IMAGE
  2
AcDbRasterImage
  3
ISM
 90
      127
 91
        4
280
     0
281
     1
  0
CLASS
  1
OLE2FRAME
  2
AcDbOle2Frame
  3
ObjectDBX Classes
 90
        0
 91
        1
280
     0
281
     1
  0
CLASS
  1
HATCH
  2
AcDbHatch
  3
ObjectDBX Classes
 90
        0
 91
        1
280
     0
281
     1
  0
CLASS
  1
DICTIONARYVAR
  2
AcDbDictionaryVar
  3
ObjectDBX Classes
 90
        0
 91
        3
280
     0
281
     0
  0
CLASS
  1
RASTERVARIABLES
  2
AcDbRasterVariables
  3
ISM
 90
        0
 91
        3
280
     0
281
     0
  0
CLASS
  1
IMAGEDEF
  2
AcDbRasterImageDef
  3
ISM
 90
        0
 91
        3
280
     0
281
     0
  0
CLASS
  1
IMAGEDEF_REACTOR
  2
AcDbRasterImageDefReactor
  3
ISM
 90
        1
 91
        3
280
     0
281
     0
  0
CLASS
  1
IDBUFFER
  2
AcDbIdBuffer
  3
ObjectDBX Classes
 90
        0
 91
        3
280
     0
281
     0
  0
CLASS
  1
SPATIAL_FILTER
  2
AcDbSpatialFilter
  3
ObjectDBX Classes
 90
        0
 91
        3
280
     0
281
     0
  0
CLASS
  1
XRECORD
  2
AcDbXrecord
  3
ObjectDBX Classes
 90
        0
 91
        1
280
     0
281
     0
  0
CLASS
  1
SORTENTSTABLE
  2
AcDbSortentsTable
  3
ObjectDBX Classes
 90
        0
 91
        3
280
     0
281
     0
  0
CLASS
  1
LAYER_INDEX
  2
AcDbLayerIndex
  3
ObjectDBX Classes
 90
        0
 91
        3
280
     0
281
     0
  0
CLASS
  1
SPATIAL_INDEX
  2
AcDbSpatialIndex
  3
AutoCAD 2000
 90
        0
 91
        3
280
     0
281
     0
  0
CLASS
  1
OBJECT_PTR
  2
CAseDLPNTableRecord
  3
ASE-LPNTableRecord
 90
        1
 91
        3
280
     0
281
     0
  0
CLASS
  1
LAYOUT
  2
AcDbLayout
  3
ObjectDBX Classes
 90
        0
 91
        1
280
     0
281
     0
  0
CLASS
  1
PLOTSETTINGS
  2
AcDbPlotSettings
  3
ObjectDBX Classes
 90
        0
 91
        3
280
     0
281
     0
  0
CLASS
  1
ACDBDICTIONARYWDFLT
  2
AcDbDictionaryWithDefault
  3
ObjectDBX Classes
 90
        0
 91
        3
280
     0
281
     0
  0
CLASS
  1
ACDBPLACEHOLDER
  2
AcDbPlaceHolder
  3
ObjectDBX Classes
 90
        0
 91
        1
280
     0
281
     0
  0
CLASS
  1
VBA_PROJECT
  2
AcDbVbaProject
  3
ObjectDBX Classes
 90
        0
 91
        1
280
     0
281
     0
  0
CLASS
  1
WIPEOUT
  2
AcDbWipeout
  3
WipeOut|AutoCAD Express Tool|expresstools@autodesk.com
 90
      127
 91
        3
280
     0
281
     1
  0
CLASS
  1
WIPEOUTVARIABLES
  2
AcDbWipeoutVariables
  3
WipeOut|AutoCAD Express Tool|expresstools@autodesk.com
 90
        0
 91
        3
280
     0
281
     0
  0
CLASS
  1
RTEXT
  2
RText
  3
RText|AutoCAD Express Tool|expresstools@autodesk.com
 90
        0
 91
        3
280
     0
281
     1
  0
CLASS
  1
ARCALIGNEDTEXT
  2
AcDbArcAlignedText
  3
ATEXT|AutoCAD Express Tool|expresstools@autodesk.com
 90
        0
 91
        3
280
     0
281
     1
  0
CLASS
  1
SCALE
  2
AcDbScale
  3
ObjectDBX Classes
 90
     1153
 91
        3
280
     0
281
     0
  0
CLASS
  1
VISUALSTYLE
  2
AcDbVisualStyle
  3
ObjectDBX Classes
 90
     4095
 91
        3
280
     0
281
     0
  0
CLASS
  1
MATERIAL
  2
AcDbMaterial
  3
ObjectDBX Classes
 90
     1153
 91
        3
280
     0
281
     0
  0
CLASS
  1
TABLESTYLE
  2
AcDbTableStyle
  3
ObjectDBX Classes
 90
     4095
 91
        3
280
     0
281
     0
  0
CLASS
  1
MLEADERSTYLE
  2
AcDbMLeaderStyle
  3
ACDB_MLEADERSTYLE_CLASS
 90
     4095
 91
        3
280
     0
281
     0
  0
CLASS
  1
SUN
  2
AcDbSun
  3
SCENEOE
 90
     1153
 91
        3
280
     0
281
     0
  0
CLASS
  1
CELLSTYLEMAP
  2
AcDbCellStyleMap
  3
ObjectDBX Classes
 90
     1152
 91
        3
280
     0
281
     0
  0
ENDSEC
  0
SECTION
  2
TABLES
  0
TABLE
  2
VPORT
  5
7
330
0
100
AcDbSymbolTable
 70
     1
  0
VPORT
  5
15
330
7
100
AcDbSymbolTableRecord
100
AcDbViewportTableRecord
  2
*ACTIVE
 70
     0
 10
0.0
 20
0.0
 11
1.0
 21
1.0
 12
272.1852924301786
 22
121.8298285458241
 13
0.0
 23
0.0
 14
1.0
 24
1.0
 15
0.0
 25
0.0
 16
0.0
 26
0.0
 36
1.0
 17
0.0
 27
0.0
 37
0.0
 40
326.4682157663512
 41
0.9324116743471582
 42
50.0
 43
0.0
 44
0.0
 50
0.0
 51
0.0
 71
    16
 72
   100
 73
     1
 74
     1
 75
     0
 76
     0
 77
     0
 78
     0
281
     0
 65
     0
110
0.0
120
0.0
130
0.0
111
1.0
121
0.0
131
0.0
112
0.0
122
1.0
132
0.0
 79
     0
146
0.0
348
216
 60
     3
 61
     5
292
     1
282
     1
141
0.0
142
0.0
 63
   256
361
23A
  0
ENDTAB
  0
TABLE
  2
LTYPE
  5
4
330
0
100
AcDbSymbolTable
 70
    12
  0
LTYPE
  5
11
330
4
100
AcDbSymbolTableRecord
100
AcDbLinetypeTableRecord
  2
ByBlock
 70
     0
  3

 72
    65
 73
     0
 40
0.0
  0
LTYPE
  5
12
330
4
100
AcDbSymbolTableRecord
100
AcDbLinetypeTableRecord
  2
ByLayer
 70
     0
  3

 72
    65
 73
     0
 40
0.0
  0
LTYPE
  5
13
330
4
100
AcDbSymbolTableRecord
100
AcDbLinetypeTableRecord
  2
Continuous
 70
     0
  3
Solid line
 72
    65
 73
     0
 40
0.0
  0
LTYPE
  5
2A
330
4
100
AcDbSymbolTableRecord
100
AcDbLinetypeTableRecord
  2
STYLE_01
 70
     0
  3

 72
    65
 73
     2
 40
0.075
 49
0.05
 74
     0
 49
-0.025
 74
     0
  0
LTYPE
  5
2B
330
4
100
AcDbSymbolTableRecord
100
AcDbLinetypeTableRecord
  2
STYLE_02
 70
     0
  3

 72
    65
 73
     6
 40
0.4999999999999999
 49
0.25
 74
     0
 49
-0.05
 74
     0
 49
0.05
 74
     0
 49
-0.05
 74
     0
 49
0.05
 74
     0
 49
-0.05
 74
     0
  0
LTYPE
  5
2C
330
4
100
AcDbSymbolTableRecord
100
AcDbLinetypeTableRecord
  2
STYLE_03
 70
     0
  3

 72
    65
 73
     4
 40
0.3999999999999999
 49
0.25
 74
     0
 49
-0.05
 74
     0
 49
0.05
 74
     0
 49
-0.05
 74
     0
  0
LTYPE
  5
2D
330
4
100
AcDbSymbolTableRecord
100
AcDbLinetypeTableRecord
  2
STYLE_04
 70
     0
  3

 72
    65
 73
     4
 40
0.7999999999999998
 49
0.4999999999999999
 74
     0
 49
-0.1
 74
     0
 49
0.1
 74
     0
 49
-0.1
 74
     0
  0
LTYPE
  5
2E
330
4
100
AcDbSymbolTableRecord
100
AcDbLinetypeTableRecord
  2
STYLE_05
 70
     0
  3

 72
    65
 73
     2
 40
0.025
 49
0.0005
 74
     0
 49
-0.0245
 74
     0
  0
LTYPE
  5
2F
330
4
100
AcDbSymbolTableRecord
100
AcDbLinetypeTableRecord
  2
STYLE_06
 70
     0
  3

 72
    65
 73
     4
 40
1.04164
 49
0.625
 74
     0
 49
-0.20828
 74
     0
 49
0.06943
 74
     0
 49
-0.13893
 74
     0
  0
LTYPE
  5
30
330
4
100
AcDbSymbolTableRecord
100
AcDbLinetypeTableRecord
  2
STYLE_07
 70
     0
  3

 72
    65
 73
     6
 40
1.875
 49
0.625
 74
     0
 49
-0.20828
 74
     0
 49
0.6250000000000001
 74
     0
 49
-0.2083599999999999
 74
     0
 49
0.06943
 74
     0
 49
-0.1389299999999999
 74
     0
  0
LTYPE
  5
31
330
4
100
AcDbSymbolTableRecord
100
AcDbLinetypeTableRecord
  2
STYLE_08
 70
     0
  3

 72
    65
 73
     6
 40
1.25
 49
0.625
 74
     0
 49
-0.20828
 74
     0
 49
0.06943
 74
     0
 49
-0.13893
 74
     0
 49
0.0694299999999999
 74
     0
 49
-0.13893
 74
     0
  0
LTYPE
  5
32
330
4
100
AcDbSymbolTableRecord
100
AcDbLinetypeTableRecord
  2
STYLE_09
 70
     0
  3

 72
    65
 73
     4
 40
5.0
 49
3.75
 74
     0
 49
-0.2777849999999998
 74
     0
 49
0.6944300000000003
 74
     0
 49
-0.2777849999999998
 74
     0
  0
LTYPE
  5
33
330
4
100
AcDbSymbolTableRecord
100
AcDbLinetypeTableRecord
  2
STYLE_10
 70
     0
  3

 72
    65
 73
     6
 40
5.9375
 49
3.75
 74
     0
 49
-0.2777849999999998
 74
     0
 49
0.6944300000000003
 74
     0
 49
-0.2777849999999998
 74
     0
 49
0.625
 74
     0
 49
-0.3125
 74
     0
  0
LTYPE
  5
34
330
4
100
AcDbSymbolTableRecord
100
AcDbLinetypeTableRecord
  2
STYLE_11
 70
     0
  3

 72
    65
 73
     2
 40
0.1875
 49
0.125
 74
     0
 49
-0.0625
 74
     0
  0
ENDTAB
  0
TABLE
  2
LAYER
  5
2
330
0
100
AcDbSymbolTable
 70
     6
  0
LAYER
  5
14
330
2
100
AcDbSymbolTableRecord
100
AcDbLayerTableRecord
  2
0
 70
     0
 62
     7
  6
Continuous
370
    15
390
1D
347
22D
348
0
  0
LAYER
  5
35
330
2
100
AcDbSymbolTableRecord
100
AcDbLayerTableRecord
  2
Defpoints
 70
     0
 62
     7
  6
Continuous
290
     0
370
    -3
390
1D
347
22D
348
0
  0
LAYER
  5
36
330
2
100
AcDbSymbolTableRecord
100
AcDbLayerTableRecord
  2
一般
 70
     0
 62
     7
  6
Continuous
370
     5
390
1D
347
22D
348
0
  0
LAYER
  5
37
330
2
100
AcDbSymbolTableRecord
100
AcDbLayerTableRecord
  2
寸法
 70
     0
 62
     7
  6
Continuous
370
     5
390
1D
347
22D
348
0
  0
LAYER
  5
38
330
2
100
AcDbSymbolTableRecord
100
AcDbLayerTableRecord
  2
レイヤー_1
 70
     0
 62
    19
  6
Continuous
370
    15
390
1D
347
22D
348
0
  0
LAYER
  5
39
330
2
100
AcDbSymbolTableRecord
100
AcDbLayerTableRecord
  2
FORMAT
 70
     0
 62
     7
  6
Continuous
370
    15
390
1D
347
22D
348
0
  0
ENDTAB
  0
TABLE
  2
STYLE
  5
3
330
0
100
AcDbSymbolTable
 70
     2
  0
STYLE
  5
17
330
3
100
AcDbSymbolTableRecord
100
AcDbTextStyleTableRecord
  2
Standard
 70
     0
 40
0.0
 41
1.0
 50
0.0
 71
     0
 42
2.5
  3
txt
  4
BIGFONT.SHX
  0
STYLE
  5
29
330
3
100
AcDbSymbolTableRecord
100
AcDbTextStyleTableRecord
  2
@ＭＳ Ｐゴシック
 70
     0
 40
0.0
 41
1.0
 50
0.0
 71
     0
 42
0.0
  3
@ＭＳ Ｐゴシック
  4

1001
ACAD
1000
@ＭＳ Ｐゴシック
1071
        0
  0
ENDTAB
  0
TABLE
  2
VIEW
  5
5
330
0
100
AcDbSymbolTable
 70
     0
  0
ENDTAB
  0
TABLE
  2
UCS
  5
6
330
0
100
AcDbSymbolTable
 70
     0
  0
ENDTAB
  0
TABLE
  2
APPID
  5
8
330
0
100
AcDbSymbolTable
 70
     2
  0
APPID
  5
16
330
8
100
AcDbSymbolTableRecord
100
AcDbRegAppTableRecord
  2
ACAD
 70
     0
  0
APPID
  5
24B
330
8
100
AcDbSymbolTableRecord
100
AcDbRegAppTableRecord
  2
PLOTTRANSPARENCY
 70
     0
  0
ENDTAB
  0
TABLE
  2
DIMSTYLE
  5
9
330
0
100
AcDbSymbolTable
 70
     1
100
AcDbDimStyleTable
  0
DIMSTYLE
105
18
330
9
100
AcDbSymbolTableRecord
100
AcDbDimStyleTableRecord
  2
Standard
 70
     0
178
     0
340
17
  0
ENDTAB
  0
TABLE
  2
BLOCK_RECORD
  5
1
330
0
100
AcDbSymbolTable
 70
     5
  0
BLOCK_RECORD
  5
A
330
1
100
AcDbSymbolTableRecord
100
AcDbBlockTableRecord
  2
*MODEL_SPACE
340
20
 70
     0
280
     1
281
     0
  0
BLOCK_RECORD
  5
B
330
1
100
AcDbSymbolTableRecord
100
AcDbBlockTableRecord
  2
*PAPER_SPACE
340
21
 70
     0
280
     1
281
     0
  0
BLOCK_RECORD
  5
24
330
1
100
AcDbSymbolTableRecord
100
AcDbBlockTableRecord
  2
*U0
340
0
102
{BLKREFS
331
1E2
102
}
 70
     0
280
     1
281
     0
  0
BLOCK_RECORD
  5
25
330
1
100
AcDbSymbolTableRecord
100
AcDbBlockTableRecord
  2
*U1
340
0
102
{BLKREFS
331
1E5
102
}
 70
     0
280
     1
281
     0
  0
BLOCK_RECORD
  5
26
330
1
100
AcDbSymbolTableRecord
100
AcDbBlockTableRecord
  2
*U2
340
0
102
{BLKREFS
331
1E8
102
}
 70
     0
280
     1
281
     0
  0
BLOCK_RECORD
  5
27
330
1
100
AcDbSymbolTableRecord
100
AcDbBlockTableRecord
  2
*U3
340
0
102
{BLKREFS
331
1EB
102
}
 70
     0
280
     1
281
     0
  0
BLOCK_RECORD
  5
28
330
1
100
AcDbSymbolTableRecord
100
AcDbBlockTableRecord
  2
*U4
340
0
102
{BLKREFS
331
1EE
102
}
 70
     0
280
     1
281
     0
  0
ENDTAB
  0
ENDSEC
  0
SECTION
  2
BLOCKS
  0
BLOCK
  5
D
330
A
100
AcDbEntity
  8
0
100
AcDbBlockBegin
  2
*MODEL_SPACE
 70
     0
 10
0.0
 20
0.0
 30
0.0
  3
*MODEL_SPACE
  1

  0
ENDBLK
  5
E
330
A
100
AcDbEntity
  8
0
100
AcDbBlockEnd
  0
BLOCK
  5
F
330
B
100
AcDbEntity
 67
     1
  8
0
100
AcDbBlockBegin
  2
*PAPER_SPACE
 70
     0
 10
0.0
 20
0.0
 30
0.0
  3
*PAPER_SPACE
  1

  0
ENDBLK
  5
10
330
B
100
AcDbEntity
 67
     1
  8
0
100
AcDbBlockEnd
  0
BLOCK
  5
3A
330
24
100
AcDbEntity
  8
一般
100
AcDbBlockBegin
  2
*U0
 70
     1
 10
0.0
 20
0.0
 30
0.0
  3
*U0
  1

  0
LINE
  5
3B
330
24
100
AcDbEntity
  8
0
  6
Continuous
 62
     7
370
    15
100
AcDbLine
 10
-52.18074962192895
 20
414.3405313336003
 30
0.0
 11
-28.23532472712895
 21
-469.1412310543997
 31
0.0
  0
LINE
  5
3C
330
24
100
AcDbEntity
  8
0
  6
Continuous
 62
     7
370
    15
100
AcDbLine
 10
70.22248793127119
 20
-464.6003100401998
 30
0.0
 11
46.27761796947062
 21
418.8609777350001
 31
0.0
  0
LINE
  5
3D
330
24
100
AcDbEntity
  8
0
  6
Continuous
 62
     7
370
    15
100
AcDbLine
 10
-49.32017022952913
 20
419.4597722394002
 30
0.0
 11
-0.5572461545293592
 21
408.1015544636001
 31
0.0
  0
ARC
  5
3E
330
24
100
AcDbEntity
  8
0
  6
Continuous
 62
     7
370
    15
100
AcDbCircle
 10
0.1233188700712233
 20
411.0233400130002
 30
0.0
 40
3.000000000000121
100
AcDbArc
 50
256.8880407683
 51
290.2502952888912
  0
LINE
  5
3F
330
24
100
AcDbEntity
  8
0
  6
Continuous
 62
     7
370
    15
100
AcDbLine
 10
1.161686751270743
 20
408.2087715066003
 30
0.0
 11
43.34750651807099
 21
423.7721890832003
 31
0.0
  0
LINE
  5
40
330
24
100
AcDbEntity
  8
0
  6
Continuous
 62
     7
370
    15
100
AcDbLine
 10
41.3213482744709
 20
491.0635705398003
 30
0.0
 11
-7.44157580032924
 21
502.4217883154002
 31
0.0
  0
ARC
  5
41
330
24
100
AcDbEntity
  8
0
  6
Continuous
 62
     7
370
    15
100
AcDbCircle
 10
-50.30796273892928
 20
483.9365816036003
 30
0.0
 40
2.999999999999873
100
AcDbArc
 50
110.2502952888927
 51
181.5525345763981
  0
LINE
  5
42
330
24
100
AcDbEntity
  8
0
  6
Continuous
 62
     7
370
    15
100
AcDbLine
 10
-53.30686059132903
 20
483.8553007122001
 30
0.0
 11
-51.63850564132871
 21
422.3002780716002
 31
0.0
  0
LINE
  5
43
330
24
100
AcDbEntity
  8
0
  6
Continuous
 62
     7
370
    15
100
AcDbLine
 10
-9.16050867612875
 20
502.3145701616003
 30
0.0
 11
-51.346328442929
 21
486.7511525848003
 31
0.0
  0
ARC
  5
44
330
24
100
AcDbEntity
  8
0
  6
Continuous
 62
     7
370
    15
100
AcDbCircle
 10
40.64078589327119
 20
488.1417816260001
 30
0.0
 40
2.999999999999822
100
AcDbArc
 50
1.552534576398124
 51
76.8880407682985
  0
LINE
  5
45
330
24
100
AcDbEntity
  8
0
  6
Continuous
 62
     7
370
    15
100
AcDbLine
 10
45.30803873287096
 20
426.6680385118003
 30
0.0
 11
43.6396837828711
 21
488.2230611522001
 31
0.0
  0
ARC
  5
46
330
24
100
AcDbEntity
  8
0
  6
Continuous
 62
     7
370
    15
100
AcDbCircle
 10
-48.63960777332931
 20
422.3815583870002
 30
0.0
 40
2.999999999999822
100
AcDbArc
 50
181.5525345763981
 51
256.8880407682985
  0
ARC
  5
47
330
24
100
AcDbEntity
  8
0
  6
Continuous
 62
     7
370
    15
100
AcDbCircle
 10
42.30914085907126
 20
426.5867584096003
 30
0.0
 40
2.999999999999873
100
AcDbArc
 50
290.2502952888927
 51
1.552534576398102
  0
ARC
  5
48
330
24
100
AcDbEntity
  8
0
  6
Continuous
 62
     7
370
    15
100
AcDbCircle
 10
-8.122140749929251
 20
499.5000000000001
 30
0.0
 40
2.9999999999999
100
AcDbArc
 50
76.88804076829899
 51
110.2502952888927
  0
SPLINE
  5
49
330
24
100
AcDbEntity
  8
0
  6
Continuous
 62
     7
370
    15
100
AcDbSpline
210
0.0
220
0.0
230
1.0
 70
     8
 71
     2
 72
    16
 73
    13
 74
     0
 42
0.000000001
 43
0.000001
 40
0.0
 40
0.0
 40
0.0
 40
1.0
 40
1.0
 40
2.0
 40
3.0
 40
4.0
 40
5.0
 40
6.0
 40
7.0
 40
8.0
 40
8.0
 40
9.0
 40
9.0
 40
9.0
 10
-52.23766431572903
 20
417.510765661974
 30
0.0
 10
-52.23832056853916
 20
417.510390929237
 30
0.0
 10
-52.23897682134929
 20
417.5100161965
 30
0.0
 10
-52.27988980754844
 20
417.4869537697647
 30
0.0
 10
-52.38420753981381
 20
417.4243577982771
 30
0.0
 10
-52.49672274048179
 20
417.3185479423863
 30
0.0
 10
-52.56540279310547
 20
417.2159083223602
 30
0.0
 10
-52.60294593574917
 20
417.1319717277462
 30
0.0
 10
-52.61596749858608
 20
417.0660290621996
 30
0.0
 10
-52.62307679434797
 20
417.0043349096997
 30
0.0
 10
-52.62546653522713
 20
416.9625013711553
 30
0.0
 10
-52.62550983442747
 20
416.9618271456542
 30
0.0
 10
-52.62555313362781
 20
416.961152920153
 30
0.0
  0
LINE
  5
4A
330
24
100
AcDbEntity
  8
0
  6
Continuous
 62
     7
370
    15
100
AcDbLine
 10
-52.62608885032886
 20
416.9699559514003
 30
0.0
 11
-52.60497462872899
 21
414.5746593522002
 31
0.0
  0
LINE
  5
4B
330
24
100
AcDbEntity
  8
0
  6
Continuous
 62
     7
370
    15
100
AcDbLine
 10
-47.88073755212871
 20
419.1244888934003
 30
0.0
 11
-52.18799458792909
 21
417.5354326602002
 31
0.0
  0
SPLINE
  5
4C
330
24
100
AcDbEntity
  8
0
  6
Continuous
 62
     7
370
    15
100
AcDbSpline
210
0.0
220
0.0
230
1.0
 70
     8
 71
     2
 72
    16
 73
    13
 74
     0
 42
0.000000001
 43
0.000001
 40
0.0
 40
0.0
 40
0.0
 40
1.0
 40
1.0
 40
2.0
 40
3.0
 40
4.0
 40
5.0
 40
6.0
 40
7.0
 40
8.0
 40
8.0
 40
9.0
 40
9.0
 40
9.0
 10
46.57895011440679
 20
421.5277724608078
 30
0.0
 10
46.57881242682448
 20
421.5284954591417
 30
0.0
 10
46.57867473924217
 20
421.5292184574756
 30
0.0
 10
46.57066135560718
 20
421.5741395121846
 30
0.0
 10
46.55406594659372
 20
421.6399408013368
 30
0.0
 10
46.52381109543922
 20
421.7262361037405
 30
0.0
 10
46.44893424496559
 20
421.8256941033911
 30
0.0
 10
46.37437611914584
 20
421.8999125898011
 30
0.0
 10
46.26376891351129
 20
421.9825322786629
 30
0.0
 10
46.13781544749282
 20
422.0404379520886
 30
0.0
 10
46.08993527138546
 20
422.060658009343
 30
0.0
 10
46.08916556357054
 20
422.0609868064383
 30
0.0
 10
46.08839585575561
 20
422.0613156035337
 30
0.0
  0
LINE
  5
4D
330
24
100
AcDbEntity
  8
0
  6
Continuous
 62
     7
370
    15
100
AcDbLine
 10
46.68827367847098
 20
419.1274309754002
 30
0.0
 11
46.57961212167084
 21
421.5203551042001
 31
0.0
  0
LINE
  5
4E
330
24
100
AcDbEntity
  8
0
  6
Continuous
 62
     7
370
    15
100
AcDbLine
 10
46.03589129187095
 20
422.0816364154001
 30
0.0
 11
41.57904159487089
 21
423.1197585218002
 31
0.0
  0
ARC
  5
4F
330
24
100
AcDbEntity
  8
0
  6
Continuous
 62
     7
370
    15
100
AcDbCircle
 10
24.50943238687115
 20
-480.5987328417997
 30
0.0
 40
0.8458722299540891
100
AcDbArc
 50
258.1510689178889
 51
287.1435335427747
  0
LINE
  5
50
330
24
100
AcDbEntity
  8
0
  6
Continuous
 62
     7
370
    15
100
AcDbLine
 10
24.33574780227128
 20
-481.4265815565997
 30
0.0
 11
-28.13164741672926
 21
-469.2054912029997
 31
0.0
  0
POLYLINE
  5
51
330
24
100
AcDbEntity
  8
0
  6
Continuous
 62
     7
370
    15
100
AcDb2dPolyline
 66
     1
 10
0.0
 20
0.0
 30
0.0
 75
     5
  0
VERTEX
  5
52
330
51
100
AcDbEntity
  8
0
  6
Continuous
 62
     7
370
    15
100
AcDbVertex
100
AcDb2dVertex
 10
-5.389855302528751
 20
-346.4799503767998
 30
0.0
  0
VERTEX
  5
53
330
51
100
AcDbEntity
  8
0
  6
Continuous
 62
     7
370
    15
100
AcDbVertex
100
AcDb2dVertex
 10
-3.663327677129011
 20
-346.7153598385998
 30
0.0
  0
VERTEX
  5
54
330
51
100
AcDbEntity
  8
0
  6
Continuous
 62
     7
370
    15
100
AcDbVertex
100
AcDb2dVertex
 10
-1.986361588329139
 20
-346.6097462521998
 30
0.0
  0
VERTEX
  5
55
330
51
100
AcDbEntity
  8
0
  6
Continuous
 62
     7
370
    15
100
AcDbVertex
100
AcDb2dVertex
 10
-0.3982638709289788
 20
-346.1655979399998
 30
0.0
  0
VERTEX
  5
56
330
51
100
AcDbEntity
  8
0
  6
Continuous
 62
     7
370
    15
100
AcDbVertex
100
AcDb2dVertex
 10
1.063740402471019
 20
-345.3932362529998
 30
0.0
  0
VERTEX
  5
57
330
51
100
AcDbEntity
  8
0
  6
Continuous
 62
     7
370
    15
100
AcDbVertex
100
AcDb2dVertex
 10
2.365382399270864
 20
-344.3107931647998
 30
0.0
  0
VERTEX
  5
58
330
51
100
AcDbEntity
  8
0
  6
Continuous
 62
     7
370
    15
100
AcDbVertex
100
AcDb2dVertex
 10
3.476156047471257
 20
-342.9437208421998
 30
0.0
  0
VERTEX
  5
59
330
51
100
AcDbEntity
  8
0
  6
Continuous
 62
     7
370
    15
100
AcDbVertex
100
AcDb2dVertex
 10
4.370022188870742
 20
-341.3239382297998
 30
0.0
  0
VERTEX
  5
5A
330
51
100
AcDbEntity
  8
0
  6
Continuous
 62
     7
370
    15
100
AcDbVertex
100
AcDb2dVertex
 10
5.026032042670984
 20
-339.4895240779998
 30
0.0
  0
VERTEX
  5
5B
330
51
100
AcDbEntity
  8
0
  6
Continuous
 62
     7
370
    15
100
AcDbVertex
100
AcDb2dVertex
 10
5.428808281071277
 20
-337.4834158977998
 30
0.0
  0
VERTEX
  5
5C
330
51
100
AcDbEntity
  8
0
  6
Continuous
 62
     7
370
    15
100
AcDbVertex
100
AcDb2dVertex
 10
5.568908319271038
 20
-335.3525901947998
 30
0.0
  0
VERTEX
  5
5D
330
51
100
AcDbEntity
  8
0
  6
Continuous
 62
     7
370
    15
100
AcDbVertex
100
AcDb2dVertex
 10
5.443052147671104
 20
-333.1470981057998
 30
0.0
  0
VERTEX
  5
5E
330
51
100
AcDbEntity
  8
0
  6
Continuous
 62
     7
370
    15
100
AcDbVertex
100
AcDb2dVertex
 10
5.05418632127067
 20
-330.9185541517998
 30
0.0
  0
VERTEX
  5
5F
330
51
100
AcDbEntity
  8
0
  6
Continuous
 62
     7
370
    15
100
AcDbVertex
100
AcDb2dVertex
 10
4.411427740070856
 20
-328.7192752837998
 30
0.0
  0
VERTEX
  5
60
330
51
100
AcDbEntity
  8
0
  6
Continuous
 62
     7
370
    15
100
AcDbVertex
100
AcDb2dVertex
 10
3.529840366270953
 20
-326.6007027223998
 30
0.0
  0
VERTEX
  5
61
330
51
100
AcDbEntity
  8
0
  6
Continuous
 62
     7
370
    15
100
AcDbVertex
100
AcDb2dVertex
 10
2.430089891471205
 20
-324.6125867087998
 30
0.0
  0
VERTEX
  5
62
330
51
100
AcDbEntity
  8
0
  6
Continuous
 62
     7
370
    15
100
AcDbVertex
100
AcDb2dVertex
 10
1.137951756670653
 20
-322.8014588071998
 30
0.0
  0
VERTEX
  5
63
330
51
100
AcDbEntity
  8
0
  6
Continuous
 62
     7
370
    15
100
AcDbVertex
100
AcDb2dVertex
 10
-0.3162883593290573
 20
-321.2097574481998
 30
0.0
  0
VERTEX
  5
64
330
51
100
AcDbEntity
  8
0
  6
Continuous
 62
     7
370
    15
100
AcDbVertex
100
AcDb2dVertex
 10
-1.898540015929022
 20
-319.8749287923998
 30
0.0
  0
VERTEX
  5
65
330
51
100
AcDbEntity
  8
0
  6
Continuous
 62
     7
370
    15
100
AcDbVertex
100
AcDb2dVertex
 10
-3.571720918328985
 20
-318.8281069005998
 30
0.0
  0
VERTEX
  5
66
330
51
100
AcDbEntity
  8
0
  6
Continuous
 62
     7
370
    15
100
AcDbVertex
100
AcDb2dVertex
 10
-5.296612347329294
 20
-318.0938579553998
 30
0.0
  0
VERTEX
  5
67
330
51
100
AcDbEntity
  8
0
  6
Continuous
 62
     7
370
    15
100
AcDbVertex
100
AcDb2dVertex
 10
-7.032782372329159
 20
-317.6894565045998
 30
0.0
  0
VERTEX
  5
68
330
51
100
AcDbEntity
  8
0
  6
Continuous
 62
     7
370
    15
100
AcDbVertex
100
AcDb2dVertex
 10
-8.739536867929012
 20
-317.6243813221998
 30
0.0
  0
VERTEX
  5
69
330
51
100
AcDbEntity
  8
0
  6
Continuous
 62
     7
370
    15
100
AcDbVertex
100
AcDb2dVertex
 10
-10.37687250452881
 20
-317.9000934311998
 30
0.0
  0
VERTEX
  5
6A
330
51
100
AcDbEntity
  8
0
  6
Continuous
 62
     7
370
    15
100
AcDbVertex
100
AcDb2dVertex
 10
-11.90641234872918
 20
-318.5101007967998
 30
0.0
  0
VERTEX
  5
6B
330
51
100
AcDbEntity
  8
0
  6
Continuous
 62
     7
370
    15
100
AcDbVertex
100
AcDb2dVertex
 10
-13.29230132432894
 20
-319.4402584655998
 30
0.0
  0
VERTEX
  5
6C
330
51
100
AcDbEntity
  8
0
  6
Continuous
 62
     7
370
    15
100
AcDbVertex
100
AcDb2dVertex
 10
-14.50205855892909
 20
-320.6686265555998
 30
0.0
  0
VERTEX
  5
6D
330
51
100
AcDbEntity
  8
0
  6
Continuous
 62
     7
370
    15
100
AcDbVertex
100
AcDb2dVertex
 10
-15.5073286217289
 20
-322.1664257525998
 30
0.0
  0
VERTEX
  5
6E
330
51
100
AcDbEntity
  8
0
  6
Continuous
 62
     7
370
    15
100
AcDbVertex
100
AcDb2dVertex
 10
-16.28454691532897
 20
-323.8986171365998
 30
0.0
  0
VERTEX
  5
6F
330
51
100
AcDbEntity
  8
0
  6
Continuous
 62
     7
370
    15
100
AcDbVertex
100
AcDb2dVertex
 10
-16.81549910192916
 20
-325.8245066877998
 30
0.0
  0
VERTEX
  5
70
330
51
100
AcDbEntity
  8
0
  6
Continuous
 62
     7
370
    15
100
AcDbVertex
100
AcDb2dVertex
 10
-17.08773599652931
 20
-327.8990617491998
 30
0.0
  0
VERTEX
  5
71
330
51
100
AcDbEntity
  8
0
  6
Continuous
 62
     7
370
    15
100
AcDbVertex
100
AcDb2dVertex
 10
-17.09487881452923
 20
-330.0735747383998
 30
0.0
  0
VERTEX
  5
72
330
51
100
AcDbEntity
  8
0
  6
Continuous
 62
     7
370
    15
100
AcDbVertex
100
AcDb2dVertex
 10
-16.83675920252926
 20
-332.2971566817998
 30
0.0
  0
VERTEX
  5
73
330
51
100
AcDbEntity
  8
0
  6
Continuous
 62
     7
370
    15
100
AcDbVertex
100
AcDb2dVertex
 10
-16.31942920332903
 20
-334.5175827525998
 30
0.0
  0
VERTEX
  5
74
330
51
100
AcDbEntity
  8
0
  6
Continuous
 62
     7
370
    15
100
AcDbVertex
100
AcDb2dVertex
 10
-15.55501401552873
 20
-336.6828527187998
 30
0.0
  0
VERTEX
  5
75
330
51
100
AcDbEntity
  8
0
  6
Continuous
 62
     7
370
    15
100
AcDbVertex
100
AcDb2dVertex
 10
-14.56142865712899
 20
-338.7422743721998
 30
0.0
  0
VERTEX
  5
76
330
51
100
AcDbEntity
  8
0
  6
Continuous
 62
     7
370
    15
100
AcDbVertex
100
AcDb2dVertex
 10
-13.36196534192913
 20
-340.6474640255998
 30
0.0
  0
VERTEX
  5
77
330
51
100
AcDbEntity
  8
0
  6
Continuous
 62
     7
370
    15
100
AcDbVertex
100
AcDb2dVertex
 10
-11.98473531532908
 20
-342.3538896253998
 30
0.0
  0
VERTEX
  5
78
330
51
100
AcDbEntity
  8
0
  6
Continuous
 62
     7
370
    15
100
AcDbVertex
100
AcDb2dVertex
 10
-10.46202072472897
 20
-343.8214739121998
 30
0.0
  0
VERTEX
  5
79
330
51
100
AcDbEntity
  8
0
  6
Continuous
 62
     7
370
    15
100
AcDbVertex
100
AcDb2dVertex
 10
-8.829514962728801
 20
-345.0157887983998
 30
0.0
  0
VERTEX
  5
7A
330
51
100
AcDbEntity
  8
0
  6
Continuous
 62
     7
370
    15
100
AcDbVertex
100
AcDb2dVertex
 10
-7.125479145929141
 20
-345.9089301361998
 30
0.0
  0
VERTEX
  5
7B
330
51
100
AcDbEntity
  8
0
  6
Continuous
 62
     7
370
    15
100
AcDbVertex
100
AcDb2dVertex
 10
-5.389855302528751
 20
-346.4799503767998
 30
0.0
  0
SEQEND
  5
7C
330
51
100
AcDbEntity
  8
0
  6
Continuous
 62
     7
370
    15
  0
POLYLINE
  5
7D
330
24
100
AcDbEntity
  8
0
  6
Continuous
 62
     7
370
    15
100
AcDb2dPolyline
 66
     1
 10
0.0
 20
0.0
 30
0.0
 75
     5
  0
VERTEX
  5
7E
330
7D
100
AcDbEntity
  8
0
  6
Continuous
 62
     7
370
    15
100
AcDbVertex
100
AcDb2dVertex
 10
-3.02311959552889
 20
-433.8021775969998
 30
0.0
  0
VERTEX
  5
7F
330
7D
100
AcDbEntity
  8
0
  6
Continuous
 62
     7
370
    15
100
AcDbVertex
100
AcDb2dVertex
 10
-1.894384371329117
 20
-433.8989101107998
 30
0.0
  0
VERTEX
  5
80
330
7D
100
AcDbEntity
  8
0
  6
Continuous
 62
     7
370
    15
100
AcDbVertex
100
AcDb2dVertex
 10
-0.8355625523290584
 20
-433.6560401935998
 30
0.0
  0
VERTEX
  5
81
330
7D
100
AcDbEntity
  8
0
  6
Continuous
 62
     7
370
    15
100
AcDbVertex
100
AcDb2dVertex
 10
0.0962629174710017
 20
-433.0866118849998
 30
0.0
  0
VERTEX
  5
82
330
7D
100
AcDbEntity
  8
0
  6
Continuous
 62
     7
370
    15
100
AcDbVertex
100
AcDb2dVertex
 10
0.8508589046709929
 20
-432.2213740925998
 30
0.0
  0
VERTEX
  5
83
330
7D
100
AcDbEntity
  8
0
  6
Continuous
 62
     7
370
    15
100
AcDbVertex
100
AcDb2dVertex
 10
1.387543009270765
 20
-431.1069226521998
 30
0.0
  0
VERTEX
  5
84
330
7D
100
AcDbEntity
  8
0
  6
Continuous
 62
     7
370
    15
100
AcDbVertex
100
AcDb2dVertex
 10
1.677384658870785
 20
-429.8033868195998
 30
0.0
  0
VERTEX
  5
85
330
7D
100
AcDbEntity
  8
0
  6
Continuous
 62
     7
370
    15
100
AcDbVertex
100
AcDb2dVertex
 10
1.704754890870852
 20
-428.3809466191998
 30
0.0
  0
VERTEX
  5
86
330
7D
100
AcDbEntity
  8
0
  6
Continuous
 62
     7
370
    15
100
AcDbVertex
100
AcDb2dVertex
 10
1.468180537870929
 20
-426.9163577431998
 30
0.0
  0
VERTEX
  5
87
330
7D
100
AcDbEntity
  8
0
  6
Continuous
 62
     7
370
    15
100
AcDbVertex
100
AcDb2dVertex
 10
0.9804166758708632
 20
-425.4886160737998
 30
0.0
  0
VERTEX
  5
88
330
7D
100
AcDbEntity
  8
0
  6
Continuous
 62
     7
370
    15
100
AcDbVertex
100
AcDb2dVertex
 10
0.2677565878707426
 20
-424.1746141721998
 30
0.0
  0
VERTEX
  5
89
330
7D
100
AcDbEntity
  8
0
  6
Continuous
 62
     7
370
    15
100
AcDbVertex
100
AcDb2dVertex
 10
-0.6313803935290636
 20
-423.0451948093998
 30
0.0
  0
VERTEX
  5
8A
330
7D
100
AcDbEntity
  8
0
  6
Continuous
 62
     7
370
    15
100
AcDbVertex
100
AcDb2dVertex
 10
-1.668518525728807
 20
-422.1613339691998
 30
0.0
  0
VERTEX
  5
8B
330
7D
100
AcDbEntity
  8
0
  6
Continuous
 62
     7
370
    15
100
AcDbVertex
100
AcDb2dVertex
 10
-2.787749804328989
 20
-421.5705338375998
 30
0.0
  0
VERTEX
  5
8C
330
7D
100
AcDbEntity
  8
0
  6
Continuous
 62
     7
370
    15
100
AcDbVertex
100
AcDb2dVertex
 10
-3.928732645929351
 20
-421.3047677491998
 30
0.0
  0
VERTEX
  5
8D
330
7D
100
AcDbEntity
  8
0
  6
Continuous
 62
     7
370
    15
100
AcDbVertex
100
AcDb2dVertex
 10
-5.029956496329298
 20
-421.3783631929998
 30
0.0
  0
VERTEX
  5
8E
330
7D
100
AcDbEntity
  8
0
  6
Continuous
 62
     7
370
    15
100
AcDbVertex
100
AcDb2dVertex
 10
-6.032057230129332
 20
-421.7872295659998
 30
0.0
  0
VERTEX
  5
8F
330
7D
100
AcDbEntity
  8
0
  6
Continuous
 62
     7
370
    15
100
AcDbVertex
100
AcDb2dVertex
 10
-6.881007755928742
 20
-422.5094715707998
 30
0.0
  0
VERTEX
  5
90
330
7D
100
AcDbEntity
  8
0
  6
Continuous
 62
     7
370
    15
100
AcDbVertex
100
AcDb2dVertex
 10
-7.531042695929038
 20
-423.5060645559998
 30
0.0
  0
VERTEX
  5
91
330
7D
100
AcDbEntity
  8
0
  6
Continuous
 62
     7
370
    15
100
AcDbVertex
100
AcDb2dVertex
 10
-7.947119109729094
 20
-424.7232771221998
 30
0.0
  0
VERTEX
  5
92
330
7D
100
AcDbEntity
  8
0
  6
Continuous
 62
     7
370
    15
100
AcDbVertex
100
AcDb2dVertex
 10
-8.10680421112874
 20
-426.0955663405998
 30
0.0
  0
VERTEX
  5
93
330
7D
100
AcDbEntity
  8
0
  6
Continuous
 62
     7
370
    15
100
AcDbVertex
100
AcDb2dVertex
 10
-8.001490183129128
 20
-427.5489123317998
 30
0.0
  0
VERTEX
  5
94
330
7D
100
AcDbEntity
  8
0
  6
Continuous
 62
     7
370
    15
100
AcDbVertex
100
AcDb2dVertex
 10
-7.636856037529007
 20
-429.0048934647998
 30
0.0
  0
VERTEX
  5
95
330
7D
100
AcDbEntity
  8
0
  6
Continuous
 62
     7
370
    15
100
AcDbVertex
100
AcDb2dVertex
 10
-7.032557740528766
 20
-430.3851108909998
 30
0.0
  0
VERTEX
  5
96
330
7D
100
AcDbEntity
  8
0
  6
Continuous
 62
     7
370
    15
100
AcDbVertex
100
AcDb2dVertex
 10
-6.22117360192896
 20
-431.6151082551998
 30
0.0
  0
VERTEX
  5
97
330
7D
100
AcDbEntity
  8
0
  6
Continuous
 62
     7
370
    15
100
AcDbVertex
100
AcDb2dVertex
 10
-5.246444817729291
 20
-432.6286251583998
 30
0.0
  0
VERTEX
  5
98
330
7D
100
AcDbEntity
  8
0
  6
Continuous
 62
     7
370
    15
100
AcDbVertex
100
AcDb2dVertex
 10
-4.160920203129074
 20
-433.3709719679998
 30
0.0
  0
VERTEX
  5
99
330
7D
100
AcDbEntity
  8
0
  6
Continuous
 62
     7
370
    15
100
AcDbVertex
100
AcDb2dVertex
 10
-3.02311959552889
 20
-433.8021775969998
 30
0.0
  0
SEQEND
  5
9A
330
7D
100
AcDbEntity
  8
0
  6
Continuous
 62
     7
370
    15
  0
POLYLINE
  5
9B
330
24
100
AcDbEntity
  8
0
  6
Continuous
 62
     7
370
    15
100
AcDb2dPolyline
 66
     1
 10
0.0
 20
0.0
 30
0.0
 75
     5
  0
VERTEX
  5
9C
330
9B
100
AcDbEntity
  8
0
  6
Continuous
 62
     7
370
    15
100
AcDbVertex
100
AcDb2dVertex
 10
-25.37519659612871
 20
390.8919954332001
 30
0.0
  0
VERTEX
  5
9D
330
9B
100
AcDbEntity
  8
0
  6
Continuous
 62
     7
370
    15
100
AcDbVertex
100
AcDb2dVertex
 10
-24.89457947792879
 20
390.6609397538001
 30
0.0
  0
VERTEX
  5
9E
330
9B
100
AcDbEntity
  8
0
  6
Continuous
 62
     7
370
    15
100
AcDbVertex
100
AcDb2dVertex
 10
-24.48063444272929
 20
390.2253302874002
 30
0.0
  0
VERTEX
  5
9F
330
9B
100
AcDbEntity
  8
0
  6
Continuous
 62
     7
370
    15
100
AcDbVertex
100
AcDb2dVertex
 10
-24.19638098652876
 20
389.6514878020001
 30
0.0
  0
VERTEX
  5
A0
330
9B
100
AcDbEntity
  8
0
  6
Continuous
 62
     7
370
    15
100
AcDbVertex
100
AcDb2dVertex
 10
-24.08509405032918
 20
389.0267729840001
 30
0.0
  0
VERTEX
  5
A1
330
9B
100
AcDbEntity
  8
0
  6
Continuous
 62
     7
370
    15
100
AcDbVertex
100
AcDb2dVertex
 10
-24.16371602452909
 20
388.4462931416002
 30
0.0
  0
VERTEX
  5
A2
330
9B
100
AcDbEntity
  8
0
  6
Continuous
 62
     7
370
    15
100
AcDbVertex
100
AcDb2dVertex
 10
-24.42027747112888
 20
387.9984212282003
 30
0.0
  0
VERTEX
  5
A3
330
9B
100
AcDbEntity
  8
0
  6
Continuous
 62
     7
370
    15
100
AcDbVertex
100
AcDb2dVertex
 10
-24.81571921872909
 20
387.7513400654003
 30
0.0
  0
VERTEX
  5
A4
330
9B
100
AcDbEntity
  8
0
  6
Continuous
 62
     7
370
    15
100
AcDbVertex
100
AcDb2dVertex
 10
-25.28983890072913
 20
387.7426686810003
 30
0.0
  0
VERTEX
  5
A5
330
9B
100
AcDbEntity
  8
0
  6
Continuous
 62
     7
370
    15
100
AcDbVertex
100
AcDb2dVertex
 10
-25.77045601892905
 20
387.9737243604003
 30
0.0
  0
VERTEX
  5
A6
330
9B
100
AcDbEntity
  8
0
  6
Continuous
 62
     7
370
    15
100
AcDbVertex
100
AcDb2dVertex
 10
-26.184401054129
 20
388.4093338266001
 30
0.0
  0
VERTEX
  5
A7
330
9B
100
AcDbEntity
  8
0
  6
Continuous
 62
     7
370
    15
100
AcDbVertex
100
AcDb2dVertex
 10
-26.46865451012899
 20
388.9831763122003
 30
0.0
  0
VERTEX
  5
A8
330
9B
100
AcDbEntity
  8
0
  6
Continuous
 62
     7
370
    15
100
AcDbVertex
100
AcDb2dVertex
 10
-26.57994144652911
 20
389.6078911302003
 30
0.0
  0
VERTEX
  5
A9
330
9B
100
AcDbEntity
  8
0
  6
Continuous
 62
     7
370
    15
100
AcDbVertex
100
AcDb2dVertex
 10
-26.50131947232921
 20
390.1883709724003
 30
0.0
  0
VERTEX
  5
AA
330
9B
100
AcDbEntity
  8
0
  6
Continuous
 62
     7
370
    15
100
AcDbVertex
100
AcDb2dVertex
 10
-26.24475802572896
 20
390.6362428860001
 30
0.0
  0
VERTEX
  5
AB
330
9B
100
AcDbEntity
  8
0
  6
Continuous
 62
     7
370
    15
100
AcDbVertex
100
AcDb2dVertex
 10
-25.8493162781292
 20
390.8833240488003
 30
0.0
  0
VERTEX
  5
AC
330
9B
100
AcDbEntity
  8
0
  6
Continuous
 62
     7
370
    15
100
AcDbVertex
100
AcDb2dVertex
 10
-25.37519659612871
 20
390.8919954332001
 30
0.0
  0
SEQEND
  5
AD
330
9B
100
AcDbEntity
  8
0
  6
Continuous
 62
     7
370
    15
  0
LINE
  5
AE
330
24
100
AcDbEntity
  8
0
  6
Continuous
 62
     7
370
    15
100
AcDbLine
 10
70.14940194327073
 20
-464.6612673715998
 30
0.0
 11
24.75876714567085
 21
-481.4070223983998
 31
0.0
  0
LINE
  5
AF
330
24
100
AcDbEntity
  8
0
  6
Continuous
 62
     7
370
    15
100
AcDbLine
 10
-24.50498529532933
 20
388.0322210582002
 30
0.0
 11
-24.40588215972911
 21
388.0140972166001
 31
0.0
  0
ARC
  5
B0
330
24
100
AcDbEntity
  8
0
  6
Continuous
 62
     7
370
    15
100
AcDbCircle
 10
-23.92038837712925
 20
389.8313091350002
 30
0.0
 40
1.891684821748295
100
AcDbArc
 50
145.2294538026007
 51
251.9989120973045
  0
POLYLINE
  5
B1
330
24
100
AcDbEntity
  8
0
  6
Continuous
 62
     7
370
    15
100
AcDb2dPolyline
 66
     1
 10
0.0
 20
0.0
 30
0.0
 75
     5
  0
VERTEX
  5
B2
330
B1
100
AcDbEntity
  8
0
  6
Continuous
 62
     7
370
    15
100
AcDbVertex
100
AcDb2dVertex
 10
-28.13164741672926
 20
-469.2054912029997
 30
0.0
  0
VERTEX
  5
B3
330
B1
100
AcDbEntity
  8
0
  6
Continuous
 62
     7
370
    15
100
AcDbVertex
100
AcDb2dVertex
 10
-28.17212618272924
 20
-469.1937940469998
 30
0.0
  0
VERTEX
  5
B4
330
B1
100
AcDbEntity
  8
0
  6
Continuous
 62
     7
370
    15
100
AcDbVertex
100
AcDb2dVertex
 10
-28.20350663692897
 20
-469.1797640981998
 30
0.0
  0
VERTEX
  5
B5
330
B1
100
AcDbEntity
  8
0
  6
Continuous
 62
     7
370
    15
100
AcDbVertex
100
AcDb2dVertex
 10
-28.22458654372894
 20
-469.1639409459997
 30
0.0
  0
VERTEX
  5
B6
330
B1
100
AcDbEntity
  8
0
  6
Continuous
 62
     7
370
    15
100
AcDbVertex
100
AcDb2dVertex
 10
-28.23455316732906
 20
-469.1469332933999
 30
0.0
  0
VERTEX
  5
B7
330
B1
100
AcDbEntity
  8
0
  6
Continuous
 62
     7
370
    15
100
AcDbVertex
100
AcDb2dVertex
 10
-28.23532472712895
 20
-469.1412310543997
 30
0.0
  0
SEQEND
  5
B8
330
B1
100
AcDbEntity
  8
0
  6
Continuous
 62
     7
370
    15
  0
POLYLINE
  5
B9
330
24
100
AcDbEntity
  8
0
  6
Continuous
 62
     7
370
    15
100
AcDb2dPolyline
 66
     1
 10
0.0
 20
0.0
 30
0.0
 75
     5
  0
VERTEX
  5
BA
330
B9
100
AcDbEntity
  8
0
  6
Continuous
 62
     7
370
    15
100
AcDbVertex
100
AcDb2dVertex
 10
70.22248793127119
 20
-464.6003100401998
 30
0.0
  0
VERTEX
  5
BB
330
B9
100
AcDbEntity
  8
0
  6
Continuous
 62
     7
370
    15
100
AcDbVertex
100
AcDb2dVertex
 10
70.22018970287127
 20
-464.6121468693998
 30
0.0
  0
VERTEX
  5
BC
330
B9
100
AcDbEntity
  8
0
  6
Continuous
 62
     7
370
    15
100
AcDbVertex
100
AcDb2dVertex
 10
70.20722572147088
 20
-464.6295441099998
 30
0.0
  0
VERTEX
  5
BD
330
B9
100
AcDbEntity
  8
0
  6
Continuous
 62
     7
370
    15
100
AcDbVertex
100
AcDb2dVertex
 10
70.18332491047067
 20
-464.6461301001998
 30
0.0
  0
VERTEX
  5
BE
330
B9
100
AcDbEntity
  8
0
  6
Continuous
 62
     7
370
    15
100
AcDbVertex
100
AcDb2dVertex
 10
70.14940194327073
 20
-464.6612673715998
 30
0.0
  0
SEQEND
  5
BF
330
B9
100
AcDbEntity
  8
0
  6
Continuous
 62
     7
370
    15
  0
LINE
  5
C0
330
24
100
AcDbEntity
  8
0
  6
Continuous
 62
     7
370
    15
100
AcDbLine
 10
-15.40160999632916
 20
-332.4768965337998
 30
0.0
 11
-15.29971796332892
 21
-333.0582343561998
 31
0.0
  0
SPLINE
  5
C1
330
24
100
AcDbEntity
  8
0
  6
Continuous
 62
     7
370
    15
100
AcDbSpline
210
0.0
220
0.0
230
1.0
 70
     8
 71
     2
 72
    10
 73
     7
 74
     0
 42
0.000000001
 43
0.000001
 40
0.0
 40
0.0
 40
0.0
 40
1.0
 40
1.0
 40
2.0
 40
2.0
 40
3.0
 40
3.0
 40
3.0
 10
-15.29971850386209
 20
-333.0582151879277
 30
0.0
 10
-15.29677771115097
 20
-333.0812555341626
 30
0.0
 10
-15.29383691843986
 20
-333.1042958803974
 30
0.0
 10
-15.08286415421616
 20
-334.7279286568574
 30
0.0
 10
-14.7582539435325
 20
-336.3260708877852
 30
0.0
 10
-14.75359141452463
 20
-336.3487679772689
 30
0.0
 10
-14.74892888551675
 20
-336.3714650667528
 30
0.0
  0
LINE
  5
C2
330
24
100
AcDbEntity
  8
0
  6
Continuous
 62
     7
370
    15
100
AcDbLine
 10
-14.74892822672927
 20
-336.3714590681998
 30
0.0
 11
-14.65483581512898
 21
-336.6650248687998
 31
0.0
  0
POLYLINE
  5
C3
330
24
100
AcDbEntity
  8
0
  6
Continuous
 62
     7
370
    15
100
AcDb2dPolyline
 66
     1
 10
0.0
 20
0.0
 30
0.0
 75
     5
  0
VERTEX
  5
C4
330
C3
100
AcDbEntity
  8
0
  6
Continuous
 62
     7
370
    15
100
AcDbVertex
100
AcDb2dVertex
 10
-14.65483581512898
 20
-336.6650248687998
 30
0.0
  0
VERTEX
  5
C5
330
C3
100
AcDbEntity
  8
0
  6
Continuous
 62
     7
370
    15
100
AcDbVertex
100
AcDb2dVertex
 10
-13.56863138332891
 20
-338.8195578525998
 30
0.0
  0
VERTEX
  5
C6
330
C3
100
AcDbEntity
  8
0
  6
Continuous
 62
     7
370
    15
100
AcDbVertex
100
AcDb2dVertex
 10
-12.25784289392913
 20
-340.7922233741998
 30
0.0
  0
VERTEX
  5
C7
330
C3
100
AcDbEntity
  8
0
  6
Continuous
 62
     7
370
    15
100
AcDbVertex
100
AcDb2dVertex
 10
-10.7567995503291
 20
-342.5313321163998
 30
0.0
  0
VERTEX
  5
C8
330
C3
100
AcDbEntity
  8
0
  6
Continuous
 62
     7
370
    15
100
AcDbVertex
100
AcDb2dVertex
 10
-9.104809440529145
 20
-343.9913831733998
 30
0.0
  0
VERTEX
  5
C9
330
C3
100
AcDbEntity
  8
0
  6
Continuous
 62
     7
370
    15
100
AcDbVertex
100
AcDb2dVertex
 10
-7.345135718929207
 20
-345.1341503865998
 30
0.0
  0
VERTEX
  5
CA
330
C3
100
AcDbEntity
  8
0
  6
Continuous
 62
     7
370
    15
100
AcDbVertex
100
AcDb2dVertex
 10
-5.523862952129086
 20
-345.9296812165998
 30
0.0
  0
VERTEX
  5
CB
330
C3
100
AcDbEntity
  8
0
  6
Continuous
 62
     7
370
    15
100
AcDbVertex
100
AcDb2dVertex
 10
-3.688687383329118
 20
-346.3571437645998
 30
0.0
  0
VERTEX
  5
CC
330
C3
100
AcDbEntity
  8
0
  6
Continuous
 62
     7
370
    15
100
AcDbVertex
100
AcDb2dVertex
 10
-1.887669889528745
 20
-346.4053433383998
 30
0.0
  0
VERTEX
  5
CD
330
C3
100
AcDbEntity
  8
0
  6
Continuous
 62
     7
370
    15
100
AcDbVertex
100
AcDb2dVertex
 10
-0.1975176075288729
 20
-346.0822442503998
 30
0.0
  0
SEQEND
  5
CE
330
C3
100
AcDbEntity
  8
0
  6
Continuous
 62
     7
370
    15
  0
ARC
  5
CF
330
24
100
AcDbEntity
  8
0
  6
Continuous
 62
     7
370
    15
100
AcDbCircle
 10
2.268491530670879
 20
-328.6332543229998
 30
0.0
 40
18.0833092497453
100
AcDbArc
 50
170.8331254572
 51
192.2719436956
  0
LINE
  5
D0
330
24
100
AcDbEntity
  8
0
  6
Continuous
 62
     7
370
    15
100
AcDbLine
 10
-15.51152879512892
 20
-325.2433382821998
 30
0.0
 11
-15.58386737012915
 21
-325.7523941915998
 31
0.0
  0
SPLINE
  5
D1
330
24
100
AcDbEntity
  8
0
  6
Continuous
 62
     7
370
    15
100
AcDbSpline
210
0.0
220
0.0
230
1.0
 70
     8
 71
     2
 72
    11
 73
     8
 74
     0
 42
0.000000001
 43
0.000001
 40
0.0
 40
0.0
 40
0.0
 40
1.0
 40
1.0
 40
2.0
 40
3.0
 40
3.0
 40
4.0
 40
4.0
 40
4.0
 10
-15.11903036236753
 20
-322.7163344230278
 30
0.0
 10
-15.12228772052298
 20
-322.7305490206865
 30
0.0
 10
-15.12554507867844
 20
-322.7447636183451
 30
0.0
 10
-15.22220188120126
 20
-323.1741548264118
 30
0.0
 10
-15.42508873834549
 20
-324.3516602694624
 30
0.0
 10
-15.50829095507242
 20
-325.2089694859815
 30
0.0
 10
-15.50990998545694
 20
-325.2261501978337
 30
0.0
 10
-15.51152901584145
 20
-325.243330909686
 30
0.0
  0
LINE
  5
D2
330
24
100
AcDbEntity
  8
0
  6
Continuous
 62
     7
370
    15
100
AcDbLine
 10
-15.03889201412903
 20
-322.4950258419998
 30
0.0
 11
-15.11903021052921
 21
-322.7163097291998
 31
0.0
  0
ARC
  5
D3
330
24
100
AcDbEntity
  8
0
  6
Continuous
 62
     7
370
    15
100
AcDbCircle
 10
-6.881959031928993
 20
-326.0570711849998
 30
0.0
 40
8.900770904859614
100
AcDbArc
 50
114.5019032934004
 51
156.4096212174005
  0
POLYLINE
  5
D4
330
24
100
AcDbEntity
  8
0
  6
Continuous
 62
     7
370
    15
100
AcDb2dPolyline
 66
     1
 10
0.0
 20
0.0
 30
0.0
 75
     5
  0
VERTEX
  5
D5
330
D4
100
AcDbEntity
  8
0
  6
Continuous
 62
     7
370
    15
100
AcDbVertex
100
AcDb2dVertex
 10
-2.238265990129086
 20
-433.5126252197998
 30
0.0
  0
VERTEX
  5
D6
330
D4
100
AcDbEntity
  8
0
  6
Continuous
 62
     7
370
    15
100
AcDbVertex
100
AcDb2dVertex
 10
-1.109530765929314
 20
-433.6093577335998
 30
0.0
  0
VERTEX
  5
D7
330
D4
100
AcDbEntity
  8
0
  6
Continuous
 62
     7
370
    15
100
AcDbVertex
100
AcDb2dVertex
 10
-0.5581094019289523
 20
-433.5278119153998
 30
0.0
  0
SEQEND
  5
D8
330
D4
100
AcDbEntity
  8
0
  6
Continuous
 62
     7
370
    15
  0
POLYLINE
  5
D9
330
24
100
AcDbEntity
  8
0
  6
Continuous
 62
     7
370
    15
100
AcDb2dPolyline
 66
     1
 10
0.0
 20
0.0
 30
0.0
 75
     5
  0
VERTEX
  5
DA
330
D9
100
AcDbEntity
  8
0
  6
Continuous
 62
     7
370
    15
100
AcDbVertex
100
AcDb2dVertex
 10
-5.039532802928981
 20
-421.3805469181998
 30
0.0
  0
VERTEX
  5
DB
330
D9
100
AcDbEntity
  8
0
  6
Continuous
 62
     7
370
    15
100
AcDbVertex
100
AcDb2dVertex
 10
-5.247203624729075
 20
-421.4976771887998
 30
0.0
  0
VERTEX
  5
DC
330
D9
100
AcDbEntity
  8
0
  6
Continuous
 62
     7
370
    15
100
AcDbVertex
100
AcDb2dVertex
 10
-6.096154150729028
 20
-422.2199191935998
 30
0.0
  0
VERTEX
  5
DD
330
D9
100
AcDbEntity
  8
0
  6
Continuous
 62
     7
370
    15
100
AcDbVertex
100
AcDb2dVertex
 10
-6.746189090529235
 20
-423.2165121787998
 30
0.0
  0
VERTEX
  5
DE
330
D9
100
AcDbEntity
  8
0
  6
Continuous
 62
     7
370
    15
100
AcDbVertex
100
AcDb2dVertex
 10
-7.162265504328836
 20
-424.4337247449998
 30
0.0
  0
VERTEX
  5
DF
330
D9
100
AcDbEntity
  8
0
  6
Continuous
 62
     7
370
    15
100
AcDbVertex
100
AcDb2dVertex
 10
-7.321950605929025
 20
-425.8060139635998
 30
0.0
  0
VERTEX
  5
E0
330
D9
100
AcDbEntity
  8
0
  6
Continuous
 62
     7
370
    15
100
AcDbVertex
100
AcDb2dVertex
 10
-7.216636577928959
 20
-427.2593599545998
 30
0.0
  0
VERTEX
  5
E1
330
D9
100
AcDbEntity
  8
0
  6
Continuous
 62
     7
370
    15
100
AcDbVertex
100
AcDb2dVertex
 10
-6.852002432129204
 20
-428.7153410875998
 30
0.0
  0
VERTEX
  5
E2
330
D9
100
AcDbEntity
  8
0
  6
Continuous
 62
     7
370
    15
100
AcDbVertex
100
AcDb2dVertex
 10
-6.247704135128963
 20
-430.0955585137998
 30
0.0
  0
VERTEX
  5
E3
330
D9
100
AcDbEntity
  8
0
  6
Continuous
 62
     7
370
    15
100
AcDbVertex
100
AcDb2dVertex
 10
-5.436319996529157
 20
-431.3255558779998
 30
0.0
  0
VERTEX
  5
E4
330
D9
100
AcDbEntity
  8
0
  6
Continuous
 62
     7
370
    15
100
AcDbVertex
100
AcDb2dVertex
 10
-4.461591212529122
 20
-432.3390727813998
 30
0.0
  0
VERTEX
  5
E5
330
D9
100
AcDbEntity
  8
0
  6
Continuous
 62
     7
370
    15
100
AcDbVertex
100
AcDb2dVertex
 10
-3.37606659772927
 20
-433.0814195907998
 30
0.0
  0
VERTEX
  5
E6
330
D9
100
AcDbEntity
  8
0
  6
Continuous
 62
     7
370
    15
100
AcDbVertex
100
AcDb2dVertex
 10
-2.238265990129086
 20
-433.5126252197998
 30
0.0
  0
SEQEND
  5
E7
330
D9
100
AcDbEntity
  8
0
  6
Continuous
 62
     7
370
    15
  0
LINE
  5
E8
330
24
100
AcDbEntity
  8
0
  6
Continuous
 62
     7
370
    15
100
AcDbLine
 10
-50.38555819512884
 20
486.7996040590002
 30
0.0
 11
-1.622634120129071
 21
475.4413862834002
 31
0.0
  0
ARC
  5
E9
330
24
100
AcDbEntity
  8
0
  6
Continuous
 62
     7
370
    15
100
AcDbCircle
 10
0.2376528512709299
 20
472.1754913194003
 30
0.0
 40
3.75855524519734
100
AcDbArc
 50
119.6662788243958
 51
184.8994542863973
  0
LINE
  5
EA
330
24
100
AcDbEntity
  8
0
  6
Continuous
 62
     7
370
    15
100
AcDbLine
 10
-3.507169045529274
 20
471.8544827626002
 30
0.0
 11
-52.27009312032896
 21
483.2127005382002
 31
0.0
  0
ARC
  5
EB
330
24
100
AcDbEntity
  8
0
  6
Continuous
 62
     7
370
    15
100
AcDbCircle
 10
-48.5252712237293
 20
483.5337090952002
 30
0.0
 40
3.75855524519858
100
AcDbArc
 50
119.666278824401
 51
184.8994542864007
  0
LINE
  5
EC
330
24
100
AcDbEntity
  8
0
  6
Continuous
 62
     7
370
    15
100
AcDbLine
 10
-1.838814095528953
 20
410.2994601220001
 30
0.0
 11
-3.507169045529274
 21
471.8544827626002
 31
0.0
  0
LINE
  5
ED
330
24
100
AcDbEntity
  8
0
  6
Continuous
 62
     7
370
    15
100
AcDbLine
 10
-50.60173817032909
 20
421.6576778976001
 30
0.0
 11
-1.838814095528953
 21
410.2994601220001
 31
0.0
  0
LINE
  5
EE
330
24
100
AcDbEntity
  8
0
  6
Continuous
 62
     7
370
    15
100
AcDbLine
 10
-52.27009312032896
 20
483.2127005382002
 30
0.0
 11
-50.60173817032909
 21
421.6576778976001
 31
0.0
  0
LINE
  5
EF
330
24
100
AcDbEntity
  8
0
  6
Continuous
 62
     7
370
    15
100
AcDbLine
 10
40.56318564667118
 20
491.0048038600002
 30
0.0
 11
-8.19973842812896
 21
502.3630216358002
 31
0.0
  0
LINE
  5
F0
330
24
100
AcDbEntity
  8
0
  6
Continuous
 62
     7
370
    15
100
AcDbLine
 10
-1.622634120129071
 20
475.4413862834002
 30
0.0
 11
40.56318564667118
 21
491.0048038600002
 31
0.0
  0
LINE
  5
F1
330
24
100
AcDbEntity
  8
0
  6
Continuous
 62
     7
370
    15
100
AcDbLine
 10
-8.19973842812896
 20
502.3630216358002
 30
0.0
 11
-50.38555819512884
 21
486.7996040590002
 31
0.0
  0
ARC
  5
F2
330
24
100
AcDbEntity
  8
0
  6
Continuous
 62
     7
370
    15
100
AcDbCircle
 10
-2.835886811528773
 20
472.0953727334003
 30
0.0
 40
3.559183722266259
100
AcDbArc
 50
359.2707545889998
 51
70.0695342943012
  0
ARC
  5
F3
330
24
100
AcDbEntity
  8
0
  6
Continuous
 62
     7
370
    15
100
AcDbCircle
 10
-1.770330390329029
 20
480.1329546276003
 30
0.0
 40
8.458705866505115
100
AcDbArc
 50
258.1510953239006
 51
287.143507136798
  0
LINE
  5
F4
330
24
100
AcDbEntity
  8
0
  6
Continuous
 62
     7
370
    15
100
AcDbLine
 10
0.7230086292706872
 20
472.0500736148002
 30
0.0
 11
2.391363579471097
 21
410.4950509742001
 31
0.0
  0
ARC
  5
F5
330
24
100
AcDbEntity
  8
0
  6
Continuous
 62
     7
370
    15
100
AcDbCircle
 10
-0.1019754403291628
 20
418.5779319870002
 30
0.0
 40
8.458705866503465
100
AcDbArc
 50
258.1510953239015
 51
287.1435071367982
  0
ARC
  5
F6
330
24
100
AcDbEntity
  8
0
  6
Continuous
 62
     7
370
    15
100
AcDbCircle
 10
39.34993295527102
 20
487.6587903102003
 30
0.0
 40
3.559183722267168
100
AcDbArc
 50
359.2707545889999
 51
70.0695342943028
  0
LINE
  5
F7
330
24
100
AcDbEntity
  8
0
  6
Continuous
 62
     7
370
    15
100
AcDbLine
 10
42.90882839627103
 20
487.6134911914002
 30
0.0
 11
0.7230086292706872
 21
472.0500736148002
 31
0.0
  0
LINE
  5
F8
330
24
100
AcDbEntity
  8
0
  6
Continuous
 62
     7
370
    15
100
AcDbLine
 10
44.57718334627089
 20
426.0584685508003
 30
0.0
 11
42.90882839627103
 21
487.6134911914002
 31
0.0
  0
LINE
  5
F9
330
24
100
AcDbEntity
  8
0
  6
Continuous
 62
     7
370
    15
100
AcDbLine
 10
2.391363579471097
 20
410.4950509742001
 30
0.0
 11
44.57718334627089
 21
426.0584685508003
 31
0.0
  0
ARC
  5
FA
330
24
100
AcDbEntity
  8
0
  6
Continuous
 62
     7
370
    15
100
AcDbCircle
 10
0.4229798756709968
 20
407.2515977118002
 30
0.0
 40
2.696108742181795
100
AcDbArc
 50
258.1511373682004
 51
287.1434650925071
  0
ARC
  5
FB
330
24
100
AcDbEntity
  8
0
  6
Continuous
 62
     7
370
    15
100
AcDbCircle
 10
0.4918103402710656
 20
404.6596104984002
 30
0.0
 40
0.6241721153759947
100
AcDbArc
 50
119.5847677881971
 51
184.2884866506916
  0
ARC
  5
FC
330
24
100
AcDbEntity
  8
0
  6
Continuous
 62
     7
370
    15
100
AcDbCircle
 10
0.4478153712711972
 20
406.4615467774003
 30
0.0
 40
1.286552194575338
100
AcDbArc
 50
258.1512863270048
 51
287.1433161335902
  0
ARC
  5
FD
330
24
100
AcDbEntity
  8
0
  6
Continuous
 62
     7
370
    15
100
AcDbCircle
 10
0.6258371234712357
 20
404.6755435000001
 30
0.0
 40
0.5918621510206706
100
AcDbArc
 50
359.9742930503076
 51
70.12591745183016
  0
ARC
  5
FE
330
24
100
AcDbEntity
  8
0
  6
Continuous
 62
     7
370
    15
100
AcDbCircle
 10
0.4845813126708052
 20
404.9677029590001
 30
0.0
 40
2.81959226821259
100
AcDbArc
 50
258.1512011611985
 51
287.1434012995045
  0
LINE
  5
FF
330
24
100
AcDbEntity
  8
0
  6
Continuous
 62
     7
370
    15
100
AcDbLine
 10
-0.0943646637292588
 20
402.2081881256003
 30
0.0
 11
-0.1306142055291204
 21
404.6129359406003
 31
0.0
  0
LINE
  5
100
330
24
100
AcDbEntity
  8
0
  6
Continuous
 62
     7
370
    15
100
AcDbLine
 10
1.217699214871125
 20
404.6752779488003
 30
0.0
 11
1.315696312271037
 21
402.2733851574002
 31
0.0
  0
LINE
  5
101
330
24
100
AcDbEntity
  8
0
  6
Continuous
 62
     7
370
    15
100
AcDbLine
 10
-0.1306142055291204
 20
404.6129359406003
 30
0.0
 11
-52.29560419172912
 21
416.7635878502002
 31
0.0
  0
ARC
  5
102
330
24
100
AcDbEntity
  8
0
  6
Continuous
 62
     7
370
    15
100
AcDbCircle
 10
-51.67317964592939
 20
416.8102624082002
 30
0.0
 40
0.6241721153747547
100
AcDbArc
 50
119.5847677881657
 51
184.288486650805
  0
LINE
  5
103
330
24
100
AcDbEntity
  8
0
  6
Continuous
 62
     7
370
    15
100
AcDbLine
 10
-51.98134009272916
 20
417.3530588418001
 30
0.0
 11
0.1836498932712019
 21
405.2024069322002
 31
0.0
  0
ARC
  5
104
330
24
100
AcDbEntity
  8
0
  6
Continuous
 62
     7
370
    15
100
AcDbCircle
 10
7.221223188871143
 20
445.6420691952002
 30
0.0
 40
33.15532166894625
100
AcDbArc
 50
285.1140280582997
 51
295.3865625194999
  0
ARC
  5
105
330
24
100
AcDbEntity
  8
0
  6
Continuous
 62
     7
370
    15
100
AcDbCircle
 10
-11.17722467692919
 20
456.6712760326003
 30
0.0
 40
45.26319299482272
100
AcDbArc
 50
249.4845103961004
 51
264.2085137705003
  0
POLYLINE
  5
106
330
24
100
AcDbEntity
  8
0
  6
Continuous
 62
     7
370
    15
100
AcDb2dPolyline
 66
     1
 10
0.0
 20
0.0
 30
0.0
 75
     5
  0
VERTEX
  5
107
330
106
100
AcDbEntity
  8
0
  6
Continuous
 62
     7
370
    15
100
AcDbVertex
100
AcDb2dVertex
 10
45.95606087767101
 20
421.8813933924001
 30
0.0
  0
VERTEX
  5
108
330
106
100
AcDbEntity
  8
0
  6
Continuous
 62
     7
370
    15
100
AcDbVertex
100
AcDb2dVertex
 10
46.00765380747089
 20
421.9044174592003
 30
0.0
  0
VERTEX
  5
109
330
106
100
AcDbEntity
  8
0
  6
Continuous
 62
     7
370
    15
100
AcDbVertex
100
AcDb2dVertex
 10
46.0440072136712
 20
421.9296435914001
 30
0.0
  0
VERTEX
  5
10A
330
106
100
AcDbEntity
  8
0
  6
Continuous
 62
     7
370
    15
100
AcDbVertex
100
AcDb2dVertex
 10
46.06372163547122
 20
421.9561029168002
 30
0.0
  0
VERTEX
  5
10B
330
106
100
AcDbEntity
  8
0
  6
Continuous
 62
     7
370
    15
100
AcDbVertex
100
AcDb2dVertex
 10
46.06604657147091
 20
421.9827795180003
 30
0.0
  0
VERTEX
  5
10C
330
106
100
AcDbEntity
  8
0
  6
Continuous
 62
     7
370
    15
100
AcDbVertex
100
AcDb2dVertex
 10
46.05088468387067
 20
422.0086475804002
 30
0.0
  0
VERTEX
  5
10D
330
106
100
AcDbEntity
  8
0
  6
Continuous
 62
     7
370
    15
100
AcDbVertex
100
AcDb2dVertex
 10
46.0188267614708
 20
422.0327131062003
 30
0.0
  0
VERTEX
  5
10E
330
106
100
AcDbEntity
  8
0
  6
Continuous
 62
     7
370
    15
100
AcDbVertex
100
AcDb2dVertex
 10
45.97109738427071
 20
422.0540515004003
 30
0.0
  0
VERTEX
  5
10F
330
106
100
AcDbEntity
  8
0
  6
Continuous
 62
     7
370
    15
100
AcDbVertex
100
AcDb2dVertex
 10
45.90953286307104
 20
422.0718435026002
 30
0.0
  0
SEQEND
  5
110
330
106
100
AcDbEntity
  8
0
  6
Continuous
 62
     7
370
    15
  0
LINE
  5
111
330
24
100
AcDbEntity
  8
0
  6
Continuous
 62
     7
370
    15
100
AcDbLine
 10
0.8270431362711932
 20
405.2321555250002
 30
0.0
 11
45.95606087767101
 21
421.8813933924001
 31
0.0
  0
POLYLINE
  5
112
330
24
100
AcDbEntity
  8
0
  6
Continuous
 62
     7
370
    15
100
AcDb2dPolyline
 66
     1
 10
0.0
 20
0.0
 30
0.0
 75
     5
  0
VERTEX
  5
113
330
112
100
AcDbEntity
  8
0
  6
Continuous
 62
     7
370
    15
100
AcDbVertex
100
AcDb2dVertex
 10
-52.02786810732913
 20
417.5435089520003
 30
0.0
  0
VERTEX
  5
114
330
112
100
AcDbEntity
  8
0
  6
Continuous
 62
     7
370
    15
100
AcDbVertex
100
AcDb2dVertex
 10
-52.0794610373291
 20
417.5204848852003
 30
0.0
  0
VERTEX
  5
115
330
112
100
AcDbEntity
  8
0
  6
Continuous
 62
     7
370
    15
100
AcDbVertex
100
AcDb2dVertex
 10
-52.11581444332887
 20
417.4952587530003
 30
0.0
  0
VERTEX
  5
116
330
112
100
AcDbEntity
  8
0
  6
Continuous
 62
     7
370
    15
100
AcDbVertex
100
AcDb2dVertex
 10
-52.13552886532897
 20
417.4687994276002
 30
0.0
  0
VERTEX
  5
117
330
112
100
AcDbEntity
  8
0
  6
Continuous
 62
     7
370
    15
100
AcDbVertex
100
AcDb2dVertex
 10
-52.13785380112903
 20
417.4421228264001
 30
0.0
  0
VERTEX
  5
118
330
112
100
AcDbEntity
  8
0
  6
Continuous
 62
     7
370
    15
100
AcDbVertex
100
AcDb2dVertex
 10
-52.12269191352924
 20
417.4162547642003
 30
0.0
  0
VERTEX
  5
119
330
112
100
AcDbEntity
  8
0
  6
Continuous
 62
     7
370
    15
100
AcDbVertex
100
AcDb2dVertex
 10
-52.09063399132901
 20
417.3921892382001
 30
0.0
  0
VERTEX
  5
11A
330
112
100
AcDbEntity
  8
0
  6
Continuous
 62
     7
370
    15
100
AcDbVertex
100
AcDb2dVertex
 10
-52.04290461392929
 20
417.3708508442002
 30
0.0
  0
VERTEX
  5
11B
330
112
100
AcDbEntity
  8
0
  6
Continuous
 62
     7
370
    15
100
AcDbVertex
100
AcDb2dVertex
 10
-51.98134009272916
 20
417.3530588418001
 30
0.0
  0
SEQEND
  5
11C
330
112
100
AcDbEntity
  8
0
  6
Continuous
 62
     7
370
    15
  0
LINE
  5
11D
330
24
100
AcDbEntity
  8
0
  6
Continuous
 62
     7
370
    15
100
AcDbLine
 10
46.34671695627095
 20
421.3245158162002
 30
0.0
 11
1.217699214871125
 21
404.6752779488003
 31
0.0
  0
ARC
  5
11E
330
24
100
AcDbEntity
  8
0
  6
Continuous
 62
     7
370
    15
100
AcDbCircle
 10
45.75485486487106
 20
421.3247813676002
 30
0.0
 40
0.5918621510211254
100
AcDbArc
 50
359.9742930503076
 51
70.12591745165707
  0
LINE
  5
11F
330
24
100
AcDbEntity
  8
0
  6
Continuous
 62
     7
370
    15
100
AcDbLine
 10
-52.25935464972871
 20
414.3588400352002
 30
0.0
 11
-0.0943646637292588
 21
402.2081881256003
 31
0.0
  0
LINE
  5
120
330
24
100
AcDbEntity
  8
0
  6
Continuous
 62
     7
370
    15
100
AcDbLine
 10
-52.29560419172912
 20
416.7635878502002
 30
0.0
 11
-52.25935464972871
 21
414.3588400352002
 31
0.0
  0
LINE
  5
121
330
24
100
AcDbEntity
  8
0
  6
Continuous
 62
     7
370
    15
100
AcDbLine
 10
1.315696312271037
 20
402.2733851574002
 30
0.0
 11
46.44471405367086
 21
418.9226230248001
 31
0.0
  0
LINE
  5
122
330
24
100
AcDbEntity
  8
0
  6
Continuous
 62
     7
370
    15
100
AcDbLine
 10
46.44471405367086
 20
418.9226230248001
 30
0.0
 11
46.34671695627095
 21
421.3245158162002
 31
0.0
  0
SPLINE
  5
123
330
24
100
AcDbEntity
  8
0
  6
Continuous
 62
     7
370
    15
100
AcDbSpline
210
0.0
220
0.0
230
1.0
 70
     8
 71
     2
 72
    14
 73
    11
 74
     0
 42
0.000000001
 43
0.000001
 40
0.0
 40
0.0
 40
0.0
 40
1.0
 40
1.0
 40
2.0
 40
3.0
 40
4.0
 40
5.0
 40
6.0
 40
6.0
 40
7.0
 40
7.0
 40
7.0
 10
-24.71338326617614
 20
390.5044321145775
 30
0.0
 10
-24.71404140310209
 20
390.4951644860441
 30
0.0
 10
-24.71469954002804
 20
390.4858968575107
 30
0.0
 10
-24.72575578191526
 20
390.2774072889534
 30
0.0
 10
-24.67013743231927
 20
389.9019817492039
 30
0.0
 10
-24.56565583062046
 20
389.5665733882507
 30
0.0
 10
-24.41202702885629
 20
389.2518768722579
 30
0.0
 10
-24.2213435648432
 20
388.9778131074737
 30
0.0
 10
-24.10223589060296
 20
388.8535822038597
 30
0.0
 10
-24.09559935986339
 20
388.8469164462466
 30
0.0
 10
-24.08896282912382
 20
388.8402506886335
 30
0.0
  0
LINE
  5
124
330
24
100
AcDbEntity
  8
0
  6
Continuous
 62
     7
370
    15
100
AcDbLine
 10
-52.62554585072893
 20
416.9611013656003
 30
0.0
 11
-52.62608885032886
 21
416.9699559514003
 31
0.0
  0
POLYLINE
  5
125
330
24
100
AcDbEntity
  8
0
  6
Continuous
 62
     7
370
    15
100
AcDb2dPolyline
 66
     1
 10
0.0
 20
0.0
 30
0.0
 75
     5
  0
VERTEX
  5
126
330
125
100
AcDbEntity
  8
0
  6
Continuous
 62
     7
370
    15
100
AcDbVertex
100
AcDb2dVertex
 10
-52.18799458792909
 20
417.5354326602002
 30
0.0
  0
VERTEX
  5
127
330
125
100
AcDbEntity
  8
0
  6
Continuous
 62
     7
370
    15
100
AcDbVertex
100
AcDb2dVertex
 10
-52.23368220212932
 20
417.5132542786001
 30
0.0
  0
VERTEX
  5
128
330
125
100
AcDbEntity
  8
0
  6
Continuous
 62
     7
370
    15
100
AcDbVertex
100
AcDb2dVertex
 10
-52.23824753572898
 20
417.5103936902002
 30
0.0
  0
SEQEND
  5
129
330
125
100
AcDbEntity
  8
0
  6
Continuous
 62
     7
370
    15
  0
POLYLINE
  5
12A
330
24
100
AcDbEntity
  8
0
  6
Continuous
 62
     7
370
    15
100
AcDb2dPolyline
 66
     1
 10
0.0
 20
0.0
 30
0.0
 75
     5
  0
VERTEX
  5
12B
330
12A
100
AcDbEntity
  8
0
  6
Continuous
 62
     7
370
    15
100
AcDbVertex
100
AcDb2dVertex
 10
-52.25935464972871
 20
414.3588400352002
 30
0.0
  0
VERTEX
  5
12C
330
12A
100
AcDbEntity
  8
0
  6
Continuous
 62
     7
370
    15
100
AcDbVertex
100
AcDb2dVertex
 10
-52.39427780492905
 20
414.3978310980002
 30
0.0
  0
VERTEX
  5
12D
330
12A
100
AcDbEntity
  8
0
  6
Continuous
 62
     7
370
    15
100
AcDbVertex
100
AcDb2dVertex
 10
-52.4988818819288
 20
414.4445972132002
 30
0.0
  0
VERTEX
  5
12E
330
12A
100
AcDbEntity
  8
0
  6
Continuous
 62
     7
370
    15
100
AcDbVertex
100
AcDb2dVertex
 10
-52.56914704632936
 20
414.4973397990003
 30
0.0
  0
VERTEX
  5
12F
330
12A
100
AcDbEntity
  8
0
  6
Continuous
 62
     7
370
    15
100
AcDbVertex
100
AcDb2dVertex
 10
-52.60237369212927
 20
414.5540325490002
 30
0.0
  0
VERTEX
  5
130
330
12A
100
AcDbEntity
  8
0
  6
Continuous
 62
     7
370
    15
100
AcDbVertex
100
AcDb2dVertex
 10
-52.60497462872899
 20
414.5746593522002
 30
0.0
  0
SEQEND
  5
131
330
12A
100
AcDbEntity
  8
0
  6
Continuous
 62
     7
370
    15
  0
LINE
  5
132
330
24
100
AcDbEntity
  8
0
  6
Continuous
 62
     7
370
    15
100
AcDbLine
 10
46.03589129187095
 20
422.0816364154001
 30
0.0
 11
46.08878565987062
 21
422.0610975882001
 31
0.0
  0
LINE
  5
133
330
24
100
AcDbEntity
  8
0
  6
Continuous
 62
     7
370
    15
100
AcDbLine
 10
46.57886189527063
 20
421.5284162362003
 30
0.0
 11
46.57961212167084
 21
421.5203551042001
 31
0.0
  0
POLYLINE
  5
134
330
24
100
AcDbEntity
  8
0
  6
Continuous
 62
     7
370
    15
100
AcDb2dPolyline
 66
     1
 10
0.0
 20
0.0
 30
0.0
 75
     5
  0
VERTEX
  5
135
330
134
100
AcDbEntity
  8
0
  6
Continuous
 62
     7
370
    15
100
AcDbVertex
100
AcDb2dVertex
 10
46.68827367847098
 20
419.1274309754002
 30
0.0
  0
VERTEX
  5
136
330
134
100
AcDbEntity
  8
0
  6
Continuous
 62
     7
370
    15
100
AcDbVertex
100
AcDb2dVertex
 10
46.68066919127114
 20
419.0863565336002
 30
0.0
  0
VERTEX
  5
137
330
134
100
AcDbEntity
  8
0
  6
Continuous
 62
     7
370
    15
100
AcDbVertex
100
AcDb2dVertex
 10
46.63745647907081
 20
419.0283670680002
 30
0.0
  0
VERTEX
  5
138
330
134
100
AcDbEntity
  8
0
  6
Continuous
 62
     7
370
    15
100
AcDbVertex
100
AcDb2dVertex
 10
46.55778441907069
 20
418.9730805716002
 30
0.0
  0
VERTEX
  5
139
330
134
100
AcDbEntity
  8
0
  6
Continuous
 62
     7
370
    15
100
AcDbVertex
100
AcDb2dVertex
 10
46.44471405367086
 20
418.9226230248001
 30
0.0
  0
SEQEND
  5
13A
330
134
100
AcDbEntity
  8
0
  6
Continuous
 62
     7
370
    15
  0
LINE
  5
13B
330
24
100
AcDbEntity
  8
0
  6
Continuous
 62
     7
370
    15
100
AcDbLine
 10
0.3876994098709545
 20
402.1519764550002
 30
0.0
 11
24.33574780227128
 21
-481.4265815565997
 31
0.0
  0
LINE
  5
13C
330
24
100
AcDbEntity
  8
0
  6
Continuous
 62
     7
370
    15
100
AcDbLine
 10
0.8108271078708711
 20
402.1675377918003
 30
0.0
 11
24.75876714567085
 21
-481.4070223983998
 31
0.0
  0
LINE
  5
13D
330
24
100
AcDbEntity
  8
0
  6
Continuous
 62
     7
370
    15
100
AcDbLine
 10
-52.07816635692915
 20
414.3166366914003
 30
0.0
 11
-28.13164741672926
 21
-469.2054912029997
 31
0.0
  0
LINE
  5
13E
330
24
100
AcDbEntity
  8
0
  6
Continuous
 62
     7
370
    15
100
AcDbLine
 10
46.20361975207062
 20
418.8336776940001
 30
0.0
 11
70.14940194327073
 21
-464.6612673715998
 31
0.0
  0
LINE
  5
13F
330
24
100
AcDbEntity
  8
0
  6
Continuous
 62
     7
370
    15
100
AcDbLine
 10
0.2801289534709284
 20
-321.8148168757998
 30
0.0
 11
0.9217114174712222
 21
-345.4864121141998
 31
0.0
  0
LINE
  5
140
330
24
100
AcDbEntity
  8
0
  6
Continuous
 62
     7
370
    15
100
AcDbLine
 10
0.4133049792708405
 20
-321.9585117449998
 30
0.0
 11
1.048739016471252
 21
-345.4032568501998
 31
0.0
  0
LINE
  5
141
330
24
100
AcDbEntity
  8
0
  6
Continuous
 62
     7
370
    15
100
AcDbLine
 10
1.824684360271029
 20
-323.7079875769998
 30
0.0
 11
2.382617078671053
 21
-344.2932719641998
 31
0.0
  0
LINE
  5
142
330
24
100
AcDbEntity
  8
0
  6
Continuous
 62
     7
370
    15
100
AcDbLine
 10
1.959158524271068
 20
-323.8995780861998
 30
0.0
 11
2.508348081070842
 21
-344.1622779433998
 31
0.0
  0
LINE
  5
143
330
24
100
AcDbEntity
  8
0
  6
Continuous
 62
     7
370
    15
100
AcDbLine
 10
5.396483464470755
 20
-332.7769621051998
 30
0.0
 11
5.505075348070939
 21
-336.7835290883998
 31
0.0
  0
LINE
  5
144
330
24
100
AcDbEntity
  8
0
  6
Continuous
 62
     7
370
    15
100
AcDbLine
 10
5.486644852271191
 20
-333.5616823099998
 30
0.0
 11
5.553574515870885
 21
-336.0310950433998
 31
0.0
  0
ARC
  5
145
330
24
100
AcDbEntity
  8
0
  6
Continuous
 62
     7
370
    15
100
AcDbCircle
 10
-48.48113308912934
 20
421.4215879882003
 30
0.0
 40
2.133706717271632
100
AcDbArc
 50
173.6473414701994
 51
246.8443809553031
  0
ARC
  5
146
330
24
100
AcDbEntity
  8
0
  6
Continuous
 62
     7
370
    15
100
AcDbCircle
 10
0.2817909856708027
 20
410.0633702124002
 30
0.0
 40
2.133706717271632
100
AcDbArc
 50
173.6473414701994
 51
246.8443809553031
  0
ARC
  5
147
330
24
100
AcDbEntity
  8
0
  6
Continuous
 62
     7
370
    15
100
AcDbCircle
 10
0.1802224386706328
 20
410.2104836508003
 30
0.0
 40
2.22937742550582
100
AcDbArc
 50
296.1192865249077
 51
7.333486605301005
  0
ARC
  5
148
330
24
100
AcDbEntity
  8
0
  6
Continuous
 62
     7
370
    15
100
AcDbCircle
 10
42.36604220567097
 20
425.7739012276003
 30
0.0
 40
2.229377425506028
100
AcDbArc
 50
296.1192865248922
 51
7.333486605299527
  0
ARC
  5
149
330
24
100
AcDbEntity
  8
0
  6
Continuous
 62
     7
370
    15
100
AcDbCircle
 10
41.03765677747061
 20
489.8035409448001
 30
0.0
 40
1.291570921561819
100
AcDbArc
 50
77.31161683828876
 51
111.5528761921904
  0
ARC
  5
14A
330
24
100
AcDbEntity
  8
0
  6
Continuous
 62
     7
370
    15
100
AcDbCircle
 10
-7.725267297329076
 20
501.1617587206002
 30
0.0
 40
1.291570921485946
100
AcDbArc
 50
77.3116168373035
 51
111.5528761932153
  0
POLYLINE
  5
14B
330
24
100
AcDbEntity
  8
0
  6
Continuous
 62
     7
370
    15
100
AcDb2dPolyline
 66
     1
 10
0.0
 20
0.0
 30
0.0
 75
     5
  0
VERTEX
  5
14C
330
14B
100
AcDbEntity
  8
0
  6
Continuous
 62
     7
370
    15
100
AcDbVertex
100
AcDb2dVertex
 10
-53.30686059132903
 20
483.8553007122001
 30
0.0
  0
VERTEX
  5
14D
330
14B
100
AcDbEntity
  8
0
  6
Continuous
 62
     7
370
    15
100
AcDbVertex
100
AcDb2dVertex
 10
-53.29914743112885
 20
483.7982774236003
 30
0.0
  0
VERTEX
  5
14E
330
14B
100
AcDbEntity
  8
0
  6
Continuous
 62
     7
370
    15
100
AcDbVertex
100
AcDb2dVertex
 10
-53.19947274632931
 20
483.6281989304001
 30
0.0
  0
VERTEX
  5
14F
330
14B
100
AcDbEntity
  8
0
  6
Continuous
 62
     7
370
    15
100
AcDbVertex
100
AcDb2dVertex
 10
-52.98867968992908
 20
483.4699702742001
 30
0.0
  0
VERTEX
  5
150
330
14B
100
AcDbEntity
  8
0
  6
Continuous
 62
     7
370
    15
100
AcDbVertex
100
AcDb2dVertex
 10
-52.67486540232903
 20
483.3296743826003
 30
0.0
  0
VERTEX
  5
151
330
14B
100
AcDbEntity
  8
0
  6
Continuous
 62
     7
370
    15
100
AcDbVertex
100
AcDb2dVertex
 10
-52.27009312032896
 20
483.2127005382002
 30
0.0
  0
SEQEND
  5
152
330
14B
100
AcDbEntity
  8
0
  6
Continuous
 62
     7
370
    15
  0
ARC
  5
153
330
24
100
AcDbEntity
  8
0
  6
Continuous
 62
     7
370
    15
100
AcDbCircle
 10
-50.78669879012931
 20
485.2039960932003
 30
0.0
 40
1.645259419636349
100
AcDbArc
 50
75.88812531098888
 51
109.8858154261872
  0
POLYLINE
  5
154
330
24
100
AcDbEntity
  8
0
  6
Continuous
 62
     7
370
    15
100
AcDb2dPolyline
 66
     1
 10
0.0
 20
0.0
 30
0.0
 75
     5
  0
VERTEX
  5
155
330
154
100
AcDbEntity
  8
0
  6
Continuous
 62
     7
370
    15
100
AcDbVertex
100
AcDb2dVertex
 10
-51.63850564132871
 20
422.3002780716002
 30
0.0
  0
VERTEX
  5
156
330
154
100
AcDbEntity
  8
0
  6
Continuous
 62
     7
370
    15
100
AcDbVertex
100
AcDb2dVertex
 10
-51.63079248112899
 20
422.2432547830002
 30
0.0
  0
VERTEX
  5
157
330
154
100
AcDbEntity
  8
0
  6
Continuous
 62
     7
370
    15
100
AcDbVertex
100
AcDb2dVertex
 10
-51.53111779632899
 20
422.0731762898002
 30
0.0
  0
VERTEX
  5
158
330
154
100
AcDbEntity
  8
0
  6
Continuous
 62
     7
370
    15
100
AcDbVertex
100
AcDb2dVertex
 10
-51.32032473972912
 20
421.9149476336003
 30
0.0
  0
VERTEX
  5
159
330
154
100
AcDbEntity
  8
0
  6
Continuous
 62
     7
370
    15
100
AcDbVertex
100
AcDb2dVertex
 10
-51.00651045232916
 20
421.7746517420002
 30
0.0
  0
VERTEX
  5
15A
330
154
100
AcDbEntity
  8
0
  6
Continuous
 62
     7
370
    15
100
AcDbVertex
100
AcDb2dVertex
 10
-50.60173817032909
 20
421.6576778976001
 30
0.0
  0
SEQEND
  5
15B
330
154
100
AcDbEntity
  8
0
  6
Continuous
 62
     7
370
    15
  0
ARC
  5
15C
330
24
100
AcDbEntity
  8
0
  6
Continuous
 62
     7
370
    15
100
AcDbCircle
 10
-8.600879023329064
 20
500.7674136698002
 30
0.0
 40
1.645259419639327
100
AcDbArc
 50
75.88812531099862
 51
109.8858154261995
  0
POLYLINE
  5
15D
330
24
100
AcDbEntity
  8
0
  6
Continuous
 62
     7
370
    15
100
AcDb2dPolyline
 66
     1
 10
0.0
 20
0.0
 30
0.0
 75
     5
  0
VERTEX
  5
15E
330
15D
100
AcDbEntity
  8
0
  6
Continuous
 62
     7
370
    15
100
AcDbVertex
100
AcDb2dVertex
 10
43.6396837828711
 20
488.2230611522001
 30
0.0
  0
VERTEX
  5
15F
330
15D
100
AcDbEntity
  8
0
  6
Continuous
 62
     7
370
    15
100
AcDbVertex
100
AcDb2dVertex
 10
43.61669662567102
 20
488.1046910618003
 30
0.0
  0
VERTEX
  5
160
330
15D
100
AcDbEntity
  8
0
  6
Continuous
 62
     7
370
    15
100
AcDbVertex
100
AcDb2dVertex
 10
43.4870613054709
 20
487.9307220086001
 30
0.0
  0
VERTEX
  5
161
330
15D
100
AcDbEntity
  8
0
  6
Continuous
 62
     7
370
    15
100
AcDbVertex
100
AcDb2dVertex
 10
43.24804192927105
 20
487.7648647304003
 30
0.0
  0
VERTEX
  5
162
330
15D
100
AcDbEntity
  8
0
  6
Continuous
 62
     7
370
    15
100
AcDbVertex
100
AcDb2dVertex
 10
42.90882839627103
 20
487.6134911914002
 30
0.0
  0
SEQEND
  5
163
330
15D
100
AcDbEntity
  8
0
  6
Continuous
 62
     7
370
    15
  0
POLYLINE
  5
164
330
24
100
AcDbEntity
  8
0
  6
Continuous
 62
     7
370
    15
100
AcDb2dPolyline
 66
     1
 10
0.0
 20
0.0
 30
0.0
 75
     5
  0
VERTEX
  5
165
330
164
100
AcDbEntity
  8
0
  6
Continuous
 62
     7
370
    15
100
AcDbVertex
100
AcDb2dVertex
 10
44.57718334627089
 20
426.0584685508003
 30
0.0
  0
VERTEX
  5
166
330
164
100
AcDbEntity
  8
0
  6
Continuous
 62
     7
370
    15
100
AcDbVertex
100
AcDb2dVertex
 10
44.91639687927091
 20
426.2098420898002
 30
0.0
  0
VERTEX
  5
167
330
164
100
AcDbEntity
  8
0
  6
Continuous
 62
     7
370
    15
100
AcDbVertex
100
AcDb2dVertex
 10
45.15541625547076
 20
426.3756993680003
 30
0.0
  0
VERTEX
  5
168
330
164
100
AcDbEntity
  8
0
  6
Continuous
 62
     7
370
    15
100
AcDbVertex
100
AcDb2dVertex
 10
45.28505157567088
 20
426.5496684212002
 30
0.0
  0
VERTEX
  5
169
330
164
100
AcDbEntity
  8
0
  6
Continuous
 62
     7
370
    15
100
AcDbVertex
100
AcDb2dVertex
 10
45.30803873287096
 20
426.6680385118003
 30
0.0
  0
SEQEND
  5
16A
330
164
100
AcDbEntity
  8
0
  6
Continuous
 62
     7
370
    15
  0
LINE
  5
16B
330
24
100
AcDbEntity
  8
0
  6
Continuous
 62
     7
370
    15
100
AcDbLine
 10
45.90953286307104
 20
422.0718435026002
 30
0.0
 11
41.5138674608711
 21
423.0957141144003
 31
0.0
  0
LINE
  5
16C
330
24
100
AcDbEntity
  8
0
  6
Continuous
 62
     7
370
    15
100
AcDbLine
 10
-47.79600134252905
 20
419.1047518046001
 30
0.0
 11
-52.02786810732913
 21
417.5435089520003
 31
0.0
  0
POLYLINE
  5
16D
330
24
100
AcDbEntity
  8
0
  6
Continuous
 62
     7
370
    15
100
AcDb2dPolyline
 66
     1
 10
0.0
 20
0.0
 30
0.0
 75
     5
  0
VERTEX
  5
16E
330
16D
100
AcDbEntity
  8
0
  6
Continuous
 62
     7
370
    15
100
AcDbVertex
100
AcDb2dVertex
 10
-52.29560419172912
 20
416.7635878502002
 30
0.0
  0
VERTEX
  5
16F
330
16D
100
AcDbEntity
  8
0
  6
Continuous
 62
     7
370
    15
100
AcDbVertex
100
AcDb2dVertex
 10
-52.42462005332936
 20
416.8008715330003
 30
0.0
  0
VERTEX
  5
170
330
16D
100
AcDbEntity
  8
0
  6
Continuous
 62
     7
370
    15
100
AcDbVertex
100
AcDb2dVertex
 10
-52.52464404812917
 20
416.8455897898003
 30
0.0
  0
VERTEX
  5
171
330
16D
100
AcDbEntity
  8
0
  6
Continuous
 62
     7
370
    15
100
AcDbVertex
100
AcDb2dVertex
 10
-52.5918295683291
 20
416.8960225146003
 30
0.0
  0
VERTEX
  5
172
330
16D
100
AcDbEntity
  8
0
  6
Continuous
 62
     7
370
    15
100
AcDbVertex
100
AcDb2dVertex
 10
-52.6236024211289
 20
416.9502327368001
 30
0.0
  0
VERTEX
  5
173
330
16D
100
AcDbEntity
  8
0
  6
Continuous
 62
     7
370
    15
100
AcDbVertex
100
AcDb2dVertex
 10
-52.62554585072893
 20
416.9611013656003
 30
0.0
  0
SEQEND
  5
174
330
16D
100
AcDbEntity
  8
0
  6
Continuous
 62
     7
370
    15
  0
ARC
  5
175
330
24
100
AcDbEntity
  8
0
  6
Continuous
 62
     7
370
    15
100
AcDbCircle
 10
-52.09471664372904
 20
417.2774664000002
 30
0.0
 40
0.2743125338432229
100
AcDbArc
 50
75.89528678310842
 51
109.879468841851
  0
ARC
  5
176
330
24
100
AcDbEntity
  8
0
  6
Continuous
 62
     7
370
    15
100
AcDbCircle
 10
45.98854449267083
 20
421.8724535400003
 30
0.0
 40
0.2144742287897917
100
AcDbArc
 50
77.24647022743738
 51
111.6167806039872
  0
POLYLINE
  5
177
330
24
100
AcDbEntity
  8
0
  6
Continuous
 62
     7
370
    15
100
AcDb2dPolyline
 66
     1
 10
0.0
 20
0.0
 30
0.0
 75
     5
  0
VERTEX
  5
178
330
177
100
AcDbEntity
  8
0
  6
Continuous
 62
     7
370
    15
100
AcDbVertex
100
AcDb2dVertex
 10
46.57961212167084
 20
421.5203551042001
 30
0.0
  0
VERTEX
  5
179
330
177
100
AcDbEntity
  8
0
  6
Continuous
 62
     7
370
    15
100
AcDbVertex
100
AcDb2dVertex
 10
46.57233852887067
 20
421.4810791338001
 30
0.0
  0
VERTEX
  5
17A
330
177
100
AcDbEntity
  8
0
  6
Continuous
 62
     7
370
    15
100
AcDbVertex
100
AcDb2dVertex
 10
46.5310206458712
 20
421.4256295336003
 30
0.0
  0
VERTEX
  5
17B
330
177
100
AcDbEntity
  8
0
  6
Continuous
 62
     7
370
    15
100
AcDbVertex
100
AcDb2dVertex
 10
46.4548369210711
 20
421.3727639554003
 30
0.0
  0
VERTEX
  5
17C
330
177
100
AcDbEntity
  8
0
  6
Continuous
 62
     7
370
    15
100
AcDbVertex
100
AcDb2dVertex
 10
46.34671695627095
 20
421.3245158162002
 30
0.0
  0
SEQEND
  5
17D
330
177
100
AcDbEntity
  8
0
  6
Continuous
 62
     7
370
    15
  0
SPLINE
  5
17E
330
24
100
AcDbEntity
  8
0
  6
Continuous
 62
     7
370
    15
100
AcDbSpline
210
0.0
220
0.0
230
1.0
 70
     8
 71
     2
 72
    11
 73
     8
 74
     0
 42
0.000000001
 43
0.000001
 40
0.0
 40
0.0
 40
0.0
 40
1.0
 40
1.0
 40
2.0
 40
3.0
 40
3.0
 40
4.0
 40
4.0
 40
4.0
 10
-8.223104268012769
 20
468.1451273904016
 30
0.0
 10
-8.211673512100553
 20
468.0070375863418
 30
0.0
 10
-8.200242756188338
 20
467.8689477822819
 30
0.0
 10
-6.583547218705
 20
447.4175930945356
 30
0.0
 10
-2.662265747159374
 20
420.0868474684138
 30
0.0
 10
-1.496063439290076
 20
412.5615672923894
 30
0.0
 10
-1.495957335742098
 20
412.5608778687888
 30
0.0
 10
-1.49585123219412
 20
412.5601884451881
 30
0.0
  0
SPLINE
  5
17F
330
24
100
AcDbEntity
  8
0
  6
Continuous
 62
     7
370
    15
100
AcDbSpline
210
0.0
220
0.0
230
1.0
 70
     8
 71
     2
 72
    17
 73
    14
 74
     0
 42
0.000000001
 43
0.000001
 40
0.0
 40
0.0
 40
0.0
 40
1.0
 40
1.0
 40
2.0
 40
3.0
 40
4.0
 40
5.0
 40
6.0
 40
7.0
 40
8.0
 40
9.0
 40
9.0
 40
10.0
 40
10.0
 40
10.0
 10
17.92825803147981
 20
419.726232715277
 30
0.0
 10
17.92940334334754
 20
419.7160317352441
 30
0.0
 10
17.93054865521527
 20
419.7058307552112
 30
0.0
 10
17.97419952389328
 20
419.4000665950131
 30
0.0
 10
17.94175575229975
 20
418.5507126743968
 30
0.0
 10
16.8940223495697
 20
417.0618553269161
 30
0.0
 10
13.80399409191478
 20
415.3031463889889
 30
0.0
 10
10.19090767856415
 20
414.1983493724514
 30
0.0
 10
7.117135736306871
 20
413.4985306034658
 30
0.0
 10
2.960109833741633
 20
412.8615976533607
 30
0.0
 10
-0.4017449532984685
 20
412.6218941561336
 30
0.0
 10
-1.427521011572473
 20
412.5641261303164
 30
0.0
 10
-1.461688748321187
 20
412.5621571663136
 30
0.0
 10
-1.495856485069901
 20
412.5601882023108
 30
0.0
  0
SPLINE
  5
180
330
24
100
AcDbEntity
  8
0
  6
Continuous
 62
     7
370
    15
100
AcDbSpline
210
0.0
220
0.0
230
1.0
 70
     8
 71
     2
 72
    11
 73
     8
 74
     0
 42
0.000000001
 43
0.000001
 40
0.0
 40
0.0
 40
0.0
 40
1.0
 40
1.0
 40
2.0
 40
3.0
 40
3.0
 40
4.0
 40
4.0
 40
4.0
 10
11.00038327775611
 20
472.112911457377
 30
0.0
 10
11.02560783885861
 20
471.9839504693258
 30
0.0
 10
11.05083239996112
 20
471.8549894812746
 30
0.0
 10
13.6249695776437
 20
459.0120702405383
 30
0.0
 10
17.35193576214579
 20
433.0928829992851
 30
0.0
 10
17.92820316081225
 20
419.7275598383816
 30
0.0
 10
17.92823040621079
 20
419.7268970542782
 30
0.0
 10
17.92825765160934
 20
419.7262342701748
 30
0.0
  0
SPLINE
  5
181
330
24
100
AcDbEntity
  8
0
  6
Continuous
 62
     7
370
    15
100
AcDbSpline
210
0.0
220
0.0
230
1.0
 70
     8
 71
     2
 72
    11
 73
     8
 74
     0
 42
0.000000001
 43
0.000001
 40
0.0
 40
0.0
 40
0.0
 40
1.0
 40
1.0
 40
2.0
 40
3.0
 40
3.0
 40
4.0
 40
4.0
 40
4.0
 10
1.458831650068994
 20
468.5927913522791
 30
0.0
 10
1.505235122629308
 20
468.6104358619538
 30
0.0
 10
1.551638595189623
 20
468.6280803716285
 30
0.0
 10
4.994819055609248
 20
469.9467725218866
 30
0.0
 10
9.54987786543689
 20
471.5950316388188
 30
0.0
 10
10.90969868049616
 20
472.0805056335922
 30
0.0
 10
10.95504097912613
 20
472.0967085454846
 30
0.0
 10
11.00038327775611
 20
472.112911457377
 30
0.0
  0
SPLINE
  5
182
330
24
100
AcDbEntity
  8
0
  6
Continuous
 62
     7
370
    15
100
AcDbSpline
210
0.0
220
0.0
230
1.0
 70
     8
 71
     2
 72
    12
 73
     9
 74
     0
 42
0.000000001
 43
0.000001
 40
0.0
 40
0.0
 40
0.0
 40
1.0
 40
1.0
 40
2.0
 40
3.0
 40
4.0
 40
4.0
 40
5.0
 40
5.0
 40
5.0
 10
-1.49585123219412
 20
412.5601884451881
 30
0.0
 10
-1.495784621620707
 20
412.5608858545769
 30
0.0
 10
-1.495718011047295
 20
412.5615832639656
 30
0.0
 10
-0.9340707272644906
 20
418.3880442518483
 30
0.0
 10
1.123528292550425
 20
442.6561381992839
 30
0.0
 10
1.430489545281041
 20
464.7097970143494
 30
0.0
 10
1.45665710656386
 20
468.3154541513169
 30
0.0
 10
1.457744378316427
 20
468.454122751798
 30
0.0
 10
1.458831650068994
 20
468.5927913522791
 30
0.0
  0
SPLINE
  5
183
330
24
100
AcDbEntity
  8
0
  6
Continuous
 62
     7
370
    15
100
AcDbSpline
210
0.0
220
0.0
230
1.0
 70
     8
 71
     2
 72
    16
 73
    13
 74
     0
 42
0.000000001
 43
0.000001
 40
0.0
 40
0.0
 40
0.0
 40
1.0
 40
1.0
 40
2.0
 40
3.0
 40
4.0
 40
5.0
 40
6.0
 40
7.0
 40
8.0
 40
8.0
 40
9.0
 40
9.0
 40
9.0
 10
-0.0745804708662874
 20
470.6914608158608
 30
0.0
 10
-0.0856773807295141
 20
470.6881392462826
 30
0.0
 10
-0.0967742905927409
 20
470.6848176767045
 30
0.0
 10
-0.3839597621458708
 20
470.5978833194769
 30
0.0
 10
-1.293918903753813
 20
470.3393715272622
 30
0.0
 10
-2.315757456527074
 20
470.2026379775342
 30
0.0
 10
-3.49771451023161
 20
470.0868470309482
 30
0.0
 10
-4.932738149766458
 20
470.1069995060524
 30
0.0
 10
-6.029938020463753
 20
470.1902307040051
 30
0.0
 10
-6.771775099837207
 20
470.3282398321409
 30
0.0
 10
-6.976566680387343
 20
470.3689983282894
 30
0.0
 10
-6.983407785183765
 20
470.3703495878588
 30
0.0
 10
-6.990248889980187
 20
470.3717008474281
 30
0.0
  0
SPLINE
  5
184
330
24
100
AcDbEntity
  8
0
  6
Continuous
 62
     7
370
    15
100
AcDbSpline
210
0.0
220
0.0
230
1.0
 70
     8
 71
     2
 72
    16
 73
    13
 74
     0
 42
0.000000001
 43
0.000001
 40
0.0
 40
0.0
 40
0.0
 40
1.0
 40
1.0
 40
2.0
 40
3.0
 40
4.0
 40
5.0
 40
6.0
 40
7.0
 40
8.0
 40
8.0
 40
9.0
 40
9.0
 40
9.0
 10
-8.223104268012769
 20
468.1451273904016
 30
0.0
 10
-8.212798317025765
 20
468.1433768024365
 30
0.0
 10
-8.202492366038761
 20
468.1416262144713
 30
0.0
 10
-7.894511820308246
 20
468.0885675164244
 30
0.0
 10
-6.657597228619572
 20
467.8946434286537
 30
0.0
 10
-4.839817319757906
 20
467.8190702173343
 30
0.0
 10
-3.396577839535887
 20
467.8384896247493
 30
0.0
 10
-1.954603637238499
 20
467.9339191108455
 30
0.0
 10
-0.3348551504641293
 20
468.140659894677
 30
0.0
 10
0.9253201679953307
 20
468.4469906244539
 30
0.0
 10
1.425326335094276
 20
468.583739868135
 30
0.0
 10
1.442078992581635
 20
468.588265610207
 30
0.0
 10
1.458831650068994
 20
468.5927913522791
 30
0.0
  0
ARC
  5
185
330
24
100
AcDbEntity
  8
0
  6
Continuous
 62
     7
370
    15
100
AcDbCircle
 10
-5.750483874996455
 20
468.2306388391017
 30
0.0
 40
2.474098586427311
100
AcDbArc
 50
120.0726472809947
 51
181.9806895034976
  0
SPLINE
  5
186
330
24
100
AcDbEntity
  8
0
  6
Continuous
 62
     7
370
    15
100
AcDbSpline
210
0.0
220
0.0
230
1.0
 70
     8
 71
     2
 72
    10
 73
     7
 74
     0
 42
0.000000001
 43
0.000001
 40
0.0
 40
0.0
 40
0.0
 40
1.0
 40
1.0
 40
2.0
 40
2.0
 40
3.0
 40
3.0
 40
3.0
 10
-6.990248889980187
 20
470.3717008474281
 30
0.0
 10
-7.048024610712439
 20
470.3848113082073
 30
0.0
 10
-7.105800331444691
 20
470.3979217689865
 30
0.0
 10
-12.5462013557676
 20
471.6271794001981
 30
0.0
 10
-17.86048427420791
 20
472.9029814907732
 30
0.0
 10
-17.9171199923146
 20
472.9165206356157
 30
0.0
 10
-17.97375571042129
 20
472.9300597804582
 30
0.0
  0
SPLINE
  5
187
330
24
100
AcDbEntity
  8
0
  6
Continuous
 62
     7
370
    15
100
AcDbSpline
210
0.0
220
0.0
230
1.0
 70
     8
 71
     2
 72
    10
 73
     7
 74
     0
 42
0.000000001
 43
0.000001
 40
0.0
 40
0.0
 40
0.0
 40
1.0
 40
1.0
 40
2.0
 40
2.0
 40
3.0
 40
3.0
 40
3.0
 10
-19.25225956589247
 20
470.7141191014636
 30
0.0
 10
-19.1953478914047
 20
470.7014649152621
 30
0.0
 10
-19.13843621691694
 20
470.6888107290607
 30
0.0
 10
-13.79763029707055
 20
469.5106321900633
 30
0.0
 10
-8.339054818615743
 20
468.1733394501879
 30
0.0
 10
-8.281079543314256
 20
468.1592334202948
 30
0.0
 10
-8.223104268012769
 20
468.1451273904016
 30
0.0
  0
ARC
  5
188
330
24
100
AcDbEntity
  8
0
  6
Continuous
 62
     7
370
    15
100
AcDbCircle
 10
-0.8924063507961293
 20
468.4843732671017
 30
0.0
 40
2.353736310158761
100
AcDbArc
 50
2.640099244601133
 51
69.66805082450306
  0
SPLINE
  5
189
330
24
100
AcDbEntity
  8
0
  6
Continuous
 62
     7
370
    15
100
AcDbSpline
210
0.0
220
0.0
230
1.0
 70
     8
 71
     2
 72
    10
 73
     7
 74
     0
 42
0.000000001
 43
0.000001
 40
0.0
 40
0.0
 40
0.0
 40
1.0
 40
1.0
 40
2.0
 40
2.0
 40
3.0
 40
3.0
 40
3.0
 10
9.427479709612733
 20
474.197011525673
 30
0.0
 10
9.382417433016151
 20
474.1800165748239
 30
0.0
 10
9.33735515641957
 20
474.1630216239747
 30
0.0
 10
4.748991476753879
 20
472.4273521728854
 30
0.0
 10
0.018027095701207
 20
470.7248853058853
 30
0.0
 10
-0.0282766875825402
 20
470.708173060873
 30
0.0
 10
-0.0745804708662874
 20
470.6914608158608
 30
0.0
  0
POLYLINE
  5
18A
330
24
100
AcDbEntity
  8
0
  6
Continuous
 62
     7
370
    15
100
AcDb2dPolyline
 66
     1
 10
0.0
 20
0.0
 30
0.0
 75
     5
  0
VERTEX
  5
18B
330
18A
100
AcDbEntity
  8
0
  6
Continuous
 62
     7
370
    15
100
AcDbVertex
100
AcDb2dVertex
 10
-23.94833332179632
 20
417.7899866479019
 30
0.0
  0
VERTEX
  5
18C
330
18A
100
AcDbEntity
  8
0
  6
Continuous
 62
     7
370
    15
100
AcDbVertex
100
AcDb2dVertex
 10
-23.96684362759651
 20
418.6072585529017
 30
0.0
  0
VERTEX
  5
18D
330
18A
100
AcDbEntity
  8
0
  6
Continuous
 62
     7
370
    15
100
AcDbVertex
100
AcDb2dVertex
 10
-23.32385954899609
 20
419.8336199639017
 30
0.0
  0
VERTEX
  5
18E
330
18A
100
AcDbEntity
  8
0
  6
Continuous
 62
     7
370
    15
100
AcDbVertex
100
AcDb2dVertex
 10
-21.90022595139634
 20
421.0186497387018
 30
0.0
  0
VERTEX
  5
18F
330
18A
100
AcDbEntity
  8
0
  6
Continuous
 62
     7
370
    15
100
AcDbVertex
100
AcDb2dVertex
 10
-19.75065361059614
 20
422.1168084069017
 30
0.0
  0
VERTEX
  5
190
330
18A
100
AcDbEntity
  8
0
  6
Continuous
 62
     7
370
    15
100
AcDbVertex
100
AcDb2dVertex
 10
-16.95774870759623
 20
423.0858941577018
 30
0.0
  0
VERTEX
  5
191
330
18A
100
AcDbEntity
  8
0
  6
Continuous
 62
     7
370
    15
100
AcDbVertex
100
AcDb2dVertex
 10
-13.62884096639618
 20
423.8886655977018
 30
0.0
  0
VERTEX
  5
192
330
18A
100
AcDbEntity
  8
0
  6
Continuous
 62
     7
370
    15
100
AcDbVertex
100
AcDb2dVertex
 10
-9.891859192796339
 20
424.4942726831017
 30
0.0
  0
VERTEX
  5
193
330
18A
100
AcDbEntity
  8
0
  6
Continuous
 62
     7
370
    15
100
AcDbVertex
100
AcDb2dVertex
 10
-7.244263120996486
 20
424.7766412761017
 30
0.0
  0
VERTEX
  5
194
330
18A
100
AcDbEntity
  8
0
  6
Continuous
 62
     7
370
    15
100
AcDbVertex
100
AcDb2dVertex
 10
-4.52421880519659
 20
424.9560311609017
 30
0.0
  0
SEQEND
  5
195
330
18A
100
AcDbEntity
  8
0
  6
Continuous
 62
     7
370
    15
  0
POLYLINE
  5
196
330
24
100
AcDbEntity
  8
0
  6
Continuous
 62
     7
370
    15
100
AcDb2dPolyline
 66
     1
 10
0.0
 20
0.0
 30
0.0
 75
     5
  0
VERTEX
  5
197
330
196
100
AcDbEntity
  8
0
  6
Continuous
 62
     7
370
    15
100
AcDbVertex
100
AcDb2dVertex
 10
-4.52421880519659
 20
424.9560311609017
 30
0.0
  0
VERTEX
  5
198
330
196
100
AcDbEntity
  8
0
  6
Continuous
 62
     7
370
    15
100
AcDbVertex
100
AcDb2dVertex
 10
-1.778274180396231
 20
425.0293723709018
 30
0.0
  0
VERTEX
  5
199
330
196
100
AcDbEntity
  8
0
  6
Continuous
 62
     7
370
    15
100
AcDbVertex
100
AcDb2dVertex
 10
2.286528516603546
 20
424.9383014889019
 30
0.0
  0
VERTEX
  5
19A
330
196
100
AcDbEntity
  8
0
  6
Continuous
 62
     7
370
    15
100
AcDbVertex
100
AcDb2dVertex
 10
6.147785812603622
 20
424.6097290495017
 30
0.0
  0
VERTEX
  5
19B
330
196
100
AcDbEntity
  8
0
  6
Continuous
 62
     7
370
    15
100
AcDbVertex
100
AcDb2dVertex
 10
9.657113743003727
 20
424.0562823543017
 30
0.0
  0
VERTEX
  5
19C
330
196
100
AcDbEntity
  8
0
  6
Continuous
 62
     7
370
    15
100
AcDbVertex
100
AcDb2dVertex
 10
12.67965011320349
 20
423.2992298301018
 30
0.0
  0
VERTEX
  5
19D
330
196
100
AcDbEntity
  8
0
  6
Continuous
 62
     7
370
    15
100
AcDbVertex
100
AcDb2dVertex
 10
15.09924063660356
 20
422.3676645697018
 30
0.0
  0
VERTEX
  5
19E
330
196
100
AcDbEntity
  8
0
  6
Continuous
 62
     7
370
    15
100
AcDbVertex
100
AcDb2dVertex
 10
16.82290191040375
 20
421.2973863291019
 30
0.0
  0
VERTEX
  5
19F
330
196
100
AcDbEntity
  8
0
  6
Continuous
 62
     7
370
    15
100
AcDbVertex
100
AcDb2dVertex
 10
17.55148657880364
 20
420.5269420475018
 30
0.0
  0
VERTEX
  5
1A0
330
196
100
AcDbEntity
  8
0
  6
Continuous
 62
     7
370
    15
100
AcDbVertex
100
AcDb2dVertex
 10
17.92825803140341
 20
419.7262327153018
 30
0.0
  0
SEQEND
  5
1A1
330
196
100
AcDbEntity
  8
0
  6
Continuous
 62
     7
370
    15
  0
POLYLINE
  5
1A2
330
24
100
AcDbEntity
  8
0
  6
Continuous
 62
     7
370
    15
100
AcDb2dPolyline
 66
     1
 10
0.0
 20
0.0
 30
0.0
 75
     5
  0
VERTEX
  5
1A3
330
1A2
100
AcDbEntity
  8
0
  6
Continuous
 62
     7
370
    15
100
AcDbVertex
100
AcDb2dVertex
 10
-1.495856484996231
 20
412.5601882023017
 30
0.0
  0
VERTEX
  5
1A4
330
1A2
100
AcDbEntity
  8
0
  6
Continuous
 62
     7
370
    15
100
AcDbVertex
100
AcDb2dVertex
 10
-4.24180110979659
 20
412.4868469923018
 30
0.0
  0
VERTEX
  5
1A5
330
1A2
100
AcDbEntity
  8
0
  6
Continuous
 62
     7
370
    15
100
AcDbVertex
100
AcDb2dVertex
 10
-8.306603806996456
 20
412.5779178743018
 30
0.0
  0
VERTEX
  5
1A6
330
1A2
100
AcDbEntity
  8
0
  6
Continuous
 62
     7
370
    15
100
AcDbVertex
100
AcDb2dVertex
 10
-12.16786110279644
 20
412.9064903137017
 30
0.0
  0
VERTEX
  5
1A7
330
1A2
100
AcDbEntity
  8
0
  6
Continuous
 62
     7
370
    15
100
AcDbVertex
100
AcDb2dVertex
 10
-15.67718903319609
 20
413.4599370089019
 30
0.0
  0
VERTEX
  5
1A8
330
1A2
100
AcDbEntity
  8
0
  6
Continuous
 62
     7
370
    15
100
AcDbVertex
100
AcDb2dVertex
 10
-18.69972540339631
 20
414.2169895331018
 30
0.0
  0
VERTEX
  5
1A9
330
1A2
100
AcDbEntity
  8
0
  6
Continuous
 62
     7
370
    15
100
AcDbVertex
100
AcDb2dVertex
 10
-21.11931592679638
 20
415.1485547935018
 30
0.0
  0
VERTEX
  5
1AA
330
1A2
100
AcDbEntity
  8
0
  6
Continuous
 62
     7
370
    15
100
AcDbVertex
100
AcDb2dVertex
 10
-22.84297720059612
 20
416.2188330341017
 30
0.0
  0
VERTEX
  5
1AB
330
1A2
100
AcDbEntity
  8
0
  6
Continuous
 62
     7
370
    15
100
AcDbVertex
100
AcDb2dVertex
 10
-23.57156186899646
 20
416.9892773155017
 30
0.0
  0
VERTEX
  5
1AC
330
1A2
100
AcDbEntity
  8
0
  6
Continuous
 62
     7
370
    15
100
AcDbVertex
100
AcDb2dVertex
 10
-23.94833332179632
 20
417.7899866479019
 30
0.0
  0
SEQEND
  5
1AD
330
1A2
100
AcDbEntity
  8
0
  6
Continuous
 62
     7
370
    15
  0
SPLINE
  5
1AE
330
24
100
AcDbEntity
  8
0
  6
Continuous
 62
     7
370
    15
100
AcDbSpline
210
0.0
220
0.0
230
1.0
 70
     8
 71
     2
 72
    18
 73
    15
 74
     0
 42
0.000000001
 43
0.000001
 40
0.0
 40
0.0
 40
0.0
 40
1.0
 40
1.0
 40
2.0
 40
3.0
 40
4.0
 40
5.0
 40
6.0
 40
7.0
 40
8.0
 40
9.0
 40
10.0
 40
10.0
 40
11.0
 40
11.0
 40
11.0
 10
-19.95242429326071
 20
473.5800580609465
 30
0.0
 10
-19.95828909900342
 20
473.5777760032332
 30
0.0
 10
-19.96415390474612
 20
473.57549394552
 30
0.0
 10
-20.14095896052003
 20
473.5071982011212
 30
0.0
 10
-20.48402468954327
 20
473.3686320993087
 30
0.0
 10
-21.15522918809483
 20
473.0425187152533
 30
0.0
 10
-21.57585955742933
 20
472.5185711332687
 30
0.0
 10
-21.57832500220501
 20
472.0279742631027
 30
0.0
 10
-21.26435085493903
 20
471.6236160443713
 30
0.0
 10
-20.86247860422281
 20
471.3365914932591
 30
0.0
 10
-20.30614144013543
 20
471.0760500331304
 30
0.0
 10
-19.63046593302533
 20
470.8378718465273
 30
0.0
 10
-19.27578697504759
 20
470.7218740007721
 30
0.0
 10
-19.26402327047003
 20
470.7179965511178
 30
0.0
 10
-19.25225956589247
 20
470.7141191014636
 30
0.0
  0
SPLINE
  5
1AF
330
24
100
AcDbEntity
  8
0
  6
Continuous
 62
     7
370
    15
100
AcDbSpline
210
0.0
220
0.0
230
1.0
 70
     8
 71
     2
 72
    11
 73
     8
 74
     0
 42
0.000000001
 43
0.000001
 40
0.0
 40
0.0
 40
0.0
 40
1.0
 40
1.0
 40
2.0
 40
3.0
 40
3.0
 40
4.0
 40
4.0
 40
4.0
 10
-19.95242429326071
 20
473.5800580609465
 30
0.0
 10
-19.97050301145872
 20
473.4453472327425
 30
0.0
 10
-19.98858172965674
 20
473.3106364045385
 30
0.0
 10
-21.85164462811417
 20
459.9212104793818
 30
0.0
 10
-24.1244940539218
 20
432.2546170306297
 30
0.0
 10
-23.94835315286354
 20
417.7914156503056
 30
0.0
 10
-23.94834304735763
 20
417.7907003716451
 30
0.0
 10
-23.94833294185172
 20
417.7899850929847
 30
0.0
  0
SPLINE
  5
1B0
330
24
100
AcDbEntity
  8
0
  6
Continuous
 62
     7
370
    15
100
AcDbSpline
210
0.0
220
0.0
230
1.0
 70
     8
 71
     2
 72
    11
 73
     8
 74
     0
 42
0.000000001
 43
0.000001
 40
0.0
 40
0.0
 40
0.0
 40
1.0
 40
1.0
 40
2.0
 40
3.0
 40
3.0
 40
4.0
 40
4.0
 40
4.0
 10
-23.94833294185172
 20
417.7899850929847
 30
0.0
 10
-23.94833055725893
 20
417.7906492467323
 30
0.0
 10
-23.94832817266614
 20
417.7913134004799
 30
0.0
 10
-23.84093749750945
 20
431.1814250983715
 30
0.0
 10
-21.21838103432946
 20
457.4067735239768
 30
0.0
 10
-19.29022752479158
 20
470.4521083396295
 30
0.0
 10
-19.27124354534202
 20
470.5831137205465
 30
0.0
 10
-19.25225956589247
 20
470.7141191014636
 30
0.0
  0
ARC
  5
1B1
330
24
100
AcDbEntity
  8
0
  6
Continuous
 62
     7
370
    15
100
AcDbCircle
 10
-18.67816221799648
 20
473.7124325897017
 30
0.0
 40
1.281119374668466
100
AcDbArc
 50
80.82437539469885
 51
185.9308002246977
  0
ARC
  5
1B2
330
24
100
AcDbEntity
  8
0
  6
Continuous
 62
     7
370
    15
100
AcDbCircle
 10
-16.81331971459621
 20
470.7837457837019
 30
0.0
 40
2.439933497701699
100
AcDbArc
 50
118.3985199090049
 51
181.6352317246011
  0
SPLINE
  5
1B3
330
24
100
AcDbEntity
  8
0
  6
Continuous
 62
     7
370
    15
100
AcDbSpline
210
0.0
220
0.0
230
1.0
 70
     8
 71
     2
 72
    18
 73
    15
 74
     0
 42
0.000000001
 43
0.000001
 40
0.0
 40
0.0
 40
0.0
 40
1.0
 40
1.0
 40
2.0
 40
3.0
 40
4.0
 40
5.0
 40
6.0
 40
7.0
 40
8.0
 40
9.0
 40
10.0
 40
10.0
 40
11.0
 40
11.0
 40
11.0
 10
-17.97375571042129
 20
472.9300597804582
 30
0.0
 10
-17.98091909492108
 20
472.9321960587403
 30
0.0
 10
-17.98808247942087
 20
472.9343323370223
 30
0.0
 10
-18.20420458805847
 20
472.9981527900219
 30
0.0
 10
-18.62120444744095
 20
473.1291476303562
 30
0.0
 10
-19.15599895563491
 20
473.3391811246983
 30
0.0
 10
-19.57825970252679
 20
473.6868813126295
 30
0.0
 10
-19.67084496523466
 20
474.0727585838371
 30
0.0
 10
-19.50384885708444
 20
474.3607962488471
 30
0.0
 10
-19.22118299363319
 20
474.6321099397684
 30
0.0
 10
-18.79877595178095
 20
474.8372137785071
 30
0.0
 10
-18.58846628237597
 20
474.9287390156027
 30
0.0
 10
-18.4810203686502
 20
474.9741303203674
 30
0.0
 10
-18.47744686734699
 20
474.9756446649166
 30
0.0
 10
-18.47387336604378
 20
474.9771590094657
 30
0.0
  0
SPLINE
  5
1B4
330
24
100
AcDbEntity
  8
0
  6
Continuous
 62
     7
370
    15
100
AcDbSpline
210
0.0
220
0.0
230
1.0
 70
     8
 71
     2
 72
    11
 73
     8
 74
     0
 42
0.000000001
 43
0.000001
 40
0.0
 40
0.0
 40
0.0
 40
1.0
 40
1.0
 40
2.0
 40
3.0
 40
3.0
 40
4.0
 40
4.0
 40
4.0
 10
17.92825765160934
 20
419.7262342701748
 30
0.0
 10
17.92821791624784
 20
419.7269481786295
 30
0.0
 10
17.92817818088634
 20
419.7276620870842
 30
0.0
 10
17.07859215574764
 20
434.1711656725571
 30
0.0
 10
12.99401759588955
 20
461.526645355306
 30
0.0
 10
10.35247845460891
 20
474.7135164885664
 30
0.0
 10
10.32634850249838
 20
474.8461834527131
 30
0.0
 10
10.30021855038786
 20
474.9788504168599
 30
0.0
  0
SPLINE
  5
1B5
330
24
100
AcDbEntity
  8
0
  6
Continuous
 62
     7
370
    15
100
AcDbSpline
210
0.0
220
0.0
230
1.0
 70
     8
 71
     2
 72
    18
 73
    15
 74
     0
 42
0.000000001
 43
0.000001
 40
0.0
 40
0.0
 40
0.0
 40
1.0
 40
1.0
 40
2.0
 40
3.0
 40
4.0
 40
5.0
 40
6.0
 40
7.0
 40
8.0
 40
9.0
 40
10.0
 40
10.0
 40
11.0
 40
11.0
 40
11.0
 10
11.00038327775611
 20
472.112911457377
 30
0.0
 10
11.00623662923818
 20
472.1156161273598
 30
0.0
 10
11.01208998072025
 20
472.1183207973426
 30
0.0
 10
11.18854993532523
 20
472.1993492700434
 30
0.0
 10
11.53094352585868
 20
472.3627143427949
 30
0.0
 10
12.20081055760466
 20
472.7381744499074
 30
0.0
 10
12.62046730254907
 20
473.2980484089527
 30
0.0
 10
12.62271581166488
 20
473.7966467594496
 30
0.0
 10
12.30912297086571
 20
474.1869351161769
 30
0.0
 10
11.90783998449889
 20
474.4522182946774
 30
0.0
 10
11.35237983129264
 20
474.680401876457
 30
0.0
 10
10.67780469019227
 20
474.8779813556679
 30
0.0
 10
10.32370740194757
 20
474.9725181247032
 30
0.0
 10
10.31196297616771
 20
474.9756842707816
 30
0.0
 10
10.30021855038786
 20
474.9788504168599
 30
0.0
  0
SPLINE
  5
1B6
330
24
100
AcDbEntity
  8
0
  6
Continuous
 62
     7
370
    15
100
AcDbSpline
210
0.0
220
0.0
230
1.0
 70
     8
 71
     2
 72
    11
 73
     8
 74
     0
 42
0.000000001
 43
0.000001
 40
0.0
 40
0.0
 40
0.0
 40
1.0
 40
1.0
 40
2.0
 40
3.0
 40
3.0
 40
4.0
 40
4.0
 40
4.0
 10
-0.7289367474918365
 20
477.5478421279216
 30
0.0
 10
-0.7332210732408768
 20
477.4222598216311
 30
0.0
 10
-0.7375053989899172
 20
477.2966775153405
 30
0.0
 10
-1.310563129709855
 20
458.7943080326983
 30
0.0
 10
-3.76505059296823
 20
432.4728532255521
 30
0.0
 10
-4.524086551510202
 20
424.9574081956383
 30
0.0
 10
-4.524155304779008
 20
424.956719556805
 30
0.0
 10
-4.524224058047814
 20
424.9560309179716
 30
0.0
  0
SPLINE
  5
1B7
330
24
100
AcDbEntity
  8
0
  6
Continuous
 62
     7
370
    15
100
AcDbSpline
210
0.0
220
0.0
230
1.0
 70
     8
 71
     2
 72
    11
 73
     8
 74
     0
 42
0.000000001
 43
0.000001
 40
0.0
 40
0.0
 40
0.0
 40
1.0
 40
1.0
 40
2.0
 40
3.0
 40
3.0
 40
4.0
 40
4.0
 40
4.0
 10
10.30021855038786
 20
474.9788504168599
 30
0.0
 10
10.24325716318936
 20
474.9933387853118
 30
0.0
 10
10.18629577599086
 20
475.0078271537637
 30
0.0
 10
6.66333434339095
 20
475.9252003914499
 30
0.0
 10
1.357240801597534
 20
477.1079851243325
 30
0.0
 10
-0.6130856067002171
 20
477.5232978566884
 30
0.0
 10
-0.6710111770960268
 20
477.535569992305
 30
0.0
 10
-0.7289367474918365
 20
477.5478421279216
 30
0.0
  0
POLYLINE
  5
1B8
330
24
100
AcDbEntity
  8
0
  6
Continuous
 62
     7
370
    15
100
AcDb2dPolyline
 66
     1
 10
0.0
 20
0.0
 30
0.0
 75
     5
  0
VERTEX
  5
1B9
330
1B8
100
AcDbEntity
  8
0
  6
Continuous
 62
     7
370
    15
100
AcDbVertex
100
AcDb2dVertex
 10
10.30021855040378
 20
474.9788504169018
 30
0.0
  0
VERTEX
  5
1BA
330
1B8
100
AcDbEntity
  8
0
  6
Continuous
 62
     7
370
    15
100
AcDbVertex
100
AcDb2dVertex
 10
10.24650432640374
 20
475.3104309691017
 30
0.0
  0
VERTEX
  5
1BB
330
1B8
100
AcDbEntity
  8
0
  6
Continuous
 62
     7
370
    15
100
AcDbVertex
100
AcDb2dVertex
 10
10.14938362760359
 20
475.6086210255017
 30
0.0
  0
VERTEX
  5
1BC
330
1B8
100
AcDbEntity
  8
0
  6
Continuous
 62
     7
370
    15
100
AcDbVertex
100
AcDb2dVertex
 10
10.01218269920356
 20
475.8632083465017
 30
0.0
  0
VERTEX
  5
1BD
330
1B8
100
AcDbEntity
  8
0
  6
Continuous
 62
     7
370
    15
100
AcDbVertex
100
AcDb2dVertex
 10
9.839600697603608
 20
476.0654676343019
 30
0.0
  0
VERTEX
  5
1BE
330
1B8
100
AcDbEntity
  8
0
  6
Continuous
 62
     7
370
    15
100
AcDbVertex
100
AcDb2dVertex
 10
9.637547872603598
 20
476.2084793479017
 30
0.0
  0
VERTEX
  5
1BF
330
1B8
100
AcDbEntity
  8
0
  6
Continuous
 62
     7
370
    15
100
AcDbVertex
100
AcDb2dVertex
 10
9.412943871203886
 20
476.2873438219018
 30
0.0
  0
VERTEX
  5
1C0
330
1B8
100
AcDbEntity
  8
0
  6
Continuous
 62
     7
370
    15
100
AcDbVertex
100
AcDb2dVertex
 10
9.173481618603553
 20
476.2993560813017
 30
0.0
  0
VERTEX
  5
1C1
330
1B8
100
AcDbEntity
  8
0
  6
Continuous
 62
     7
370
    15
100
AcDbVertex
100
AcDb2dVertex
 10
8.927362054003886
 20
476.2441107547019
 30
0.0
  0
SEQEND
  5
1C2
330
1B8
100
AcDbEntity
  8
0
  6
Continuous
 62
     7
370
    15
  0
ARC
  5
1C3
330
24
100
AcDbEntity
  8
0
  6
Continuous
 62
     7
370
    15
100
AcDbCircle
 10
8.670944891803636
 20
471.9904448887017
 30
0.0
 40
2.332655408364367
100
AcDbArc
 50
3.009465077600423
 51
71.0754093710981
  0
SPLINE
  5
1C4
330
24
100
AcDbEntity
  8
0
  6
Continuous
 62
     7
370
    15
100
AcDbSpline
210
0.0
220
0.0
230
1.0
 70
     8
 71
     2
 72
    18
 73
    15
 74
     0
 42
0.000000001
 43
0.000001
 40
0.0
 40
0.0
 40
0.0
 40
1.0
 40
1.0
 40
2.0
 40
3.0
 40
4.0
 40
5.0
 40
6.0
 40
7.0
 40
8.0
 40
9.0
 40
10.0
 40
10.0
 40
11.0
 40
11.0
 40
11.0
 10
8.927362053990244
 20
476.2441107546805
 30
0.0
 10
8.934525438489807
 20
476.2419744763985
 30
0.0
 10
8.94168882298937
 20
476.2398381981164
 30
0.0
 10
9.157810931626962
 20
476.1760177451162
 30
0.0
 10
9.574810791009902
 20
476.0450229047841
 30
0.0
 10
10.10960529920295
 20
475.8349894104398
 30
0.0
 10
10.53186604609528
 20
475.48728922251
 30
0.0
 10
10.6244513088027
 20
475.1014119513014
 30
0.0
 10
10.45745520065294
 20
474.8133742862914
 30
0.0
 10
10.17478933720123
 20
474.5420605953708
 30
0.0
 10
9.752382295349442
 20
474.3369567566318
 30
0.0
 10
9.542072625944918
 20
474.2454315195358
 30
0.0
 10
9.434626712218694
 20
474.2000402147713
 30
0.0
 10
9.431053210915714
 20
474.1985258702222
 30
0.0
 10
9.427479709612733
 20
474.197011525673
 30
0.0
  0
SPLINE
  5
1C5
330
24
100
AcDbEntity
  8
0
  6
Continuous
 62
     7
370
    15
100
AcDbSpline
210
0.0
220
0.0
230
1.0
 70
     8
 71
     2
 72
    11
 73
     8
 74
     0
 42
0.000000001
 43
0.000001
 40
0.0
 40
0.0
 40
0.0
 40
1.0
 40
1.0
 40
2.0
 40
3.0
 40
3.0
 40
4.0
 40
4.0
 40
4.0
 10
-10.41087266557314
 20
477.1001781660444
 30
0.0
 10
-10.45732202678982
 20
477.0842267476779
 30
0.0
 10
-10.50377138800649
 20
477.0682753293114
 30
0.0
 10
-13.95118296317286
 20
475.9056928630533
 30
0.0
 10
-18.50342624141512
 20
474.153552908011
 30
0.0
 10
-19.86183145890345
 20
473.6158495357034
 30
0.0
 10
-19.90712787608208
 20
473.597953798325
 30
0.0
 10
-19.95242429326071
 20
473.5800580609465
 30
0.0
  0
SPLINE
  5
1C6
330
24
100
AcDbEntity
  8
0
  6
Continuous
 62
     7
370
    15
100
AcDbSpline
210
0.0
220
0.0
230
1.0
 70
     8
 71
     2
 72
    11
 73
     8
 74
     0
 42
0.000000001
 43
0.000001
 40
0.0
 40
0.0
 40
0.0
 40
1.0
 40
1.0
 40
2.0
 40
3.0
 40
3.0
 40
4.0
 40
4.0
 40
4.0
 10
-4.524224058047814
 20
424.9560309179716
 30
0.0
 10
-4.524328018900626
 20
424.956711571017
 30
0.0
 10
-4.524431979753437
 20
424.9573922240623
 30
0.0
 10
-5.955736205009082
 20
434.1266813649446
 30
0.0
 10
-9.343543492976544
 20
460.0739524276081
 30
0.0
 10
-10.39440526174211
 20
476.8501711463056
 30
0.0
 10
-10.40263896365763
 20
476.975174656175
 30
0.0
 10
-10.41087266557314
 20
477.1001781660444
 30
0.0
  0
POLYLINE
  5
1C7
330
24
100
AcDbEntity
  8
0
  6
Continuous
 62
     7
370
    15
100
AcDb2dPolyline
 66
     1
 10
0.0
 20
0.0
 30
0.0
 75
     5
  0
VERTEX
  5
1C8
330
1C7
100
AcDbEntity
  8
0
  6
Continuous
 62
     7
370
    15
100
AcDbVertex
100
AcDb2dVertex
 10
-0.7289367473963395
 20
477.5478421279018
 30
0.0
  0
VERTEX
  5
1C9
330
1C7
100
AcDbEntity
  8
0
  6
Continuous
 62
     7
370
    15
100
AcDbVertex
100
AcDb2dVertex
 10
-0.7811259053964861
 20
477.8790674505018
 30
0.0
  0
VERTEX
  5
1CA
330
1C7
100
AcDbEntity
  8
0
  6
Continuous
 62
     7
370
    15
100
AcDbVertex
100
AcDb2dVertex
 10
-0.875209850196363
 20
478.1765501641017
 30
0.0
  0
VERTEX
  5
1CB
330
1C7
100
AcDbEntity
  8
0
  6
Continuous
 62
     7
370
    15
100
AcDbVertex
100
AcDb2dVertex
 10
-1.007967246196579
 20
478.4301024647017
 30
0.0
  0
VERTEX
  5
1CC
330
1C7
100
AcDbEntity
  8
0
  6
Continuous
 62
     7
370
    15
100
AcDbVertex
100
AcDb2dVertex
 10
-1.17485102099635
 20
478.6310344799018
 30
0.0
  0
VERTEX
  5
1CD
330
1C7
100
AcDbEntity
  8
0
  6
Continuous
 62
     7
370
    15
100
AcDbVertex
100
AcDb2dVertex
 10
-1.370145254796164
 20
478.7724719329018
 30
0.0
  0
VERTEX
  5
1CE
330
1C7
100
AcDbEntity
  8
0
  6
Continuous
 62
     7
370
    15
100
AcDbVertex
100
AcDb2dVertex
 10
-1.587162651596365
 20
478.8495692793018
 30
0.0
  0
VERTEX
  5
1CF
330
1C7
100
AcDbEntity
  8
0
  6
Continuous
 62
     7
370
    15
100
AcDbVertex
100
AcDb2dVertex
 10
-1.818469392196214
 20
478.8596818969019
 30
0.0
  0
VERTEX
  5
1D0
330
1C7
100
AcDbEntity
  8
0
  6
Continuous
 62
     7
370
    15
100
AcDbVertex
100
AcDb2dVertex
 10
-2.056144766396294
 20
478.8024696877018
 30
0.0
  0
SEQEND
  5
1D1
330
1C7
100
AcDbEntity
  8
0
  6
Continuous
 62
     7
370
    15
  0
SPLINE
  5
1D2
330
24
100
AcDbEntity
  8
0
  6
Continuous
 62
     7
370
    15
100
AcDbSpline
210
0.0
220
0.0
230
1.0
 70
     8
 71
     2
 72
    10
 73
     7
 74
     0
 42
0.000000001
 43
0.000001
 40
0.0
 40
0.0
 40
0.0
 40
1.0
 40
1.0
 40
2.0
 40
2.0
 40
3.0
 40
3.0
 40
3.0
 10
-2.056144766451773
 20
478.8024696877106
 30
0.0
 10
-1.998369045719294
 20
478.7893592269314
 30
0.0
 10
-1.940593324986814
 20
478.7762487661522
 30
0.0
 10
3.49980769933655
 20
477.5469911349413
 30
0.0
 10
8.814090617776408
 20
476.2711890443655
 30
0.0
 10
8.870726335883326
 20
476.257649899523
 30
0.0
 10
8.927362053990244
 20
476.2441107546805
 30
0.0
  0
ARC
  5
1D3
330
24
100
AcDbEntity
  8
0
  6
Continuous
 62
     7
370
    15
100
AcDbCircle
 10
-9.172823565996161
 20
477.2517237473018
 30
0.0
 40
1.247289716231599
100
AcDbArc
 50
80.72589856040086
 51
186.9786742276043
  0
SPLINE
  5
1D4
330
24
100
AcDbEntity
  8
0
  6
Continuous
 62
     7
370
    15
100
AcDbSpline
210
0.0
220
0.0
230
1.0
 70
     8
 71
     2
 72
    10
 73
     7
 74
     0
 42
0.000000001
 43
0.000001
 40
0.0
 40
0.0
 40
0.0
 40
1.0
 40
1.0
 40
2.0
 40
2.0
 40
3.0
 40
3.0
 40
3.0
 10
-18.47387336604378
 20
474.9771590094657
 30
0.0
 10
-18.42881108944766
 20
474.9941539603149
 30
0.0
 10
-18.38374881285153
 20
475.011148911164
 30
0.0
 10
-13.79538513318538
 20
476.7468183622533
 30
0.0
 10
-9.064420752132257
 20
478.4492852292534
 30
0.0
 10
-9.018116968848965
 20
478.4659974742657
 30
0.0
 10
-8.971813185565672
 20
478.482709719278
 30
0.0
  0
SPLINE
  5
1D5
330
24
100
AcDbEntity
  8
0
  6
Continuous
 62
     7
370
    15
100
AcDbSpline
210
0.0
220
0.0
230
1.0
 70
     8
 71
     2
 72
    16
 73
    13
 74
     0
 42
0.000000001
 43
0.000001
 40
0.0
 40
0.0
 40
0.0
 40
1.0
 40
1.0
 40
2.0
 40
3.0
 40
4.0
 40
5.0
 40
6.0
 40
7.0
 40
8.0
 40
8.0
 40
9.0
 40
9.0
 40
9.0
 10
-0.7289367474918365
 20
477.5478421279216
 30
0.0
 10
-0.7392576771271635
 20
477.5501453627008
 30
0.0
 10
-0.7495786067624906
 20
477.5524485974801
 30
0.0
 10
-1.058011803823312
 20
477.6222081557775
 30
0.0
 10
-2.296614179428609
 20
477.8784041103321
 30
0.0
 10
-4.115462082475908
 20
477.9933816500092
 30
0.0
 10
-5.559017747971204
 20
477.985628100416
 30
0.0
 10
-7.000800092460842
 20
477.8831198978406
 30
0.0
 10
-8.619666473271984
 20
477.6438332504846
 30
0.0
 10
-9.878175325574368
 20
477.2760171862759
 30
0.0
 10
-10.3774177720702
 20
477.111089982618
 30
0.0
 10
-10.39414521882167
 20
477.1056340743312
 30
0.0
 10
-10.41087266557314
 20
477.1001781660444
 30
0.0
  0
SPLINE
  5
1D6
330
24
100
AcDbEntity
  8
0
  6
Continuous
 62
     7
370
    15
100
AcDbSpline
210
0.0
220
0.0
230
1.0
 70
     8
 71
     2
 72
    16
 73
    13
 74
     0
 42
0.000000001
 43
0.000001
 40
0.0
 40
0.0
 40
0.0
 40
1.0
 40
1.0
 40
2.0
 40
3.0
 40
4.0
 40
5.0
 40
6.0
 40
7.0
 40
8.0
 40
8.0
 40
9.0
 40
9.0
 40
9.0
 10
-8.971813185565672
 20
478.482709719278
 30
0.0
 10
-8.960716275702218
 20
478.4860312888561
 30
0.0
 10
-8.949619365838764
 20
478.4893528584342
 30
0.0
 10
-8.66243389428518
 20
478.5762872156628
 30
0.0
 10
-7.752474752677692
 20
478.8347990078756
 30
0.0
 10
-6.730636199904886
 20
478.971532557605
 30
0.0
 10
-5.548679146199895
 20
479.0873235041894
 30
0.0
 10
-4.113655506664593
 20
479.0671710290866
 30
0.0
 10
-3.016455635968207
 20
478.9839398311332
 30
0.0
 10
-2.274618556594298
 20
478.8459307029981
 30
0.0
 10
-2.069826976043707
 20
478.8051722068493
 30
0.0
 10
-2.06298587124774
 20
478.80382094728
 30
0.0
 10
-2.056144766451773
 20
478.8024696877106
 30
0.0
  0
LINE
  5
1D7
330
24
100
AcDbEntity
  8
0
  6
Continuous
 62
     7
370
    15
100
AcDbLine
 10
17.79618847560369
 20
418.4401188083017
 30
0.0
 11
17.71925715300359
 21
423.5656263711018
 31
0.0
  0
SPLINE
  5
1D8
330
24
100
AcDbEntity
  8
0
  6
Continuous
 62
     7
370
    15
100
AcDbSpline
210
0.0
220
0.0
230
1.0
 70
     8
 71
     2
 72
    11
 73
     8
 74
     0
 42
0.000000001
 43
0.000001
 40
0.0
 40
0.0
 40
0.0
 40
1.0
 40
1.0
 40
2.0
 40
3.0
 40
3.0
 40
4.0
 40
4.0
 40
4.0
 10
-21.53317565526503
 20
472.3354268144093
 30
0.0
 10
-21.54414068549863
 20
472.229201345141
 30
0.0
 10
-21.55510571573222
 20
472.1229758758726
 30
0.0
 10
-22.18556991878858
 20
466.2320132583328
 30
0.0
 10
-23.9688954056296
 20
441.5960585846159
 30
0.0
 10
-23.94805281933667
 20
422.3556569166698
 30
0.0
 10
-23.94818236571199
 20
422.2123598243879
 30
0.0
 10
-23.94831191208731
 20
422.0690627321061
 30
0.0
  0
SPLINE
  5
1D9
330
24
100
AcDbEntity
  8
0
  6
Continuous
 62
     7
370
    15
100
AcDbSpline
210
0.0
220
0.0
230
1.0
 70
     8
 71
     2
 72
    17
 73
    14
 74
     0
 42
0.000000001
 43
0.000001
 40
0.0
 40
0.0
 40
0.0
 40
1.0
 40
1.0
 40
2.0
 40
3.0
 40
4.0
 40
5.0
 40
6.0
 40
7.0
 40
8.0
 40
9.0
 40
9.0
 40
10.0
 40
10.0
 40
10.0
 10
-19.11554177057723
 20
474.9299496117707
 30
0.0
 10
-19.11705019233226
 20
474.9294723039231
 30
0.0
 10
-19.1185586140873
 20
474.9289949960756
 30
0.0
 10
-19.44153793205032
 20
474.8316728180392
 30
0.0
 10
-19.93942072161826
 20
474.5861724336577
 30
0.0
 10
-20.34701511875709
 20
474.3158665360901
 30
0.0
 10
-20.77428755395339
 20
473.9684736213643
 30
0.0
 10
-21.09600751274274
 20
473.5914620912525
 30
0.0
 10
-21.31370248631082
 20
473.253680234936
 30
0.0
 10
-21.45220728046387
 20
472.8763713677737
 30
0.0
 10
-21.53148569992754
 20
472.5490076090126
 30
0.0
 10
-21.56635118176199
 20
472.3827431465637
 30
0.0
 10
-21.56753007522524
 20
472.3772100226786
 30
0.0
 10
-21.56870896868849
 20
472.3716768987935
 30
0.0
  0
SPLINE
  5
1DA
330
24
100
AcDbEntity
  8
0
  6
Continuous
 62
     7
370
    15
100
AcDbSpline
210
0.0
220
0.0
230
1.0
 70
     8
 71
     2
 72
    11
 73
     8
 74
     0
 42
0.000000001
 43
0.000001
 40
0.0
 40
0.0
 40
0.0
 40
1.0
 40
1.0
 40
2.0
 40
3.0
 40
3.0
 40
4.0
 40
4.0
 40
4.0
 10
17.77306974782324
 20
422.7636492555442
 30
0.0
 10
17.76905536202458
 20
422.8393725382842
 30
0.0
 10
17.76504097622593
 20
422.9150958210242
 30
0.0
 10
16.7951367119772
 20
441.6627101297785
 30
0.0
 10
13.68943659568823
 20
466.646571164128
 30
0.0
 10
12.61102369025458
 20
473.3883550332315
 30
0.0
 10
12.59067033564634
 20
473.5178371999729
 30
0.0
 10
12.57031698103811
 20
473.6473193667142
 30
0.0
  0
SPLINE
  5
1DB
330
24
100
AcDbEntity
  8
0
  6
Continuous
 62
     7
370
    15
100
AcDbSpline
210
0.0
220
0.0
230
1.0
 70
     8
 71
     2
 72
    17
 73
    14
 74
     0
 42
0.000000001
 43
0.000001
 40
0.0
 40
0.0
 40
0.0
 40
1.0
 40
1.0
 40
2.0
 40
3.0
 40
4.0
 40
5.0
 40
6.0
 40
7.0
 40
8.0
 40
9.0
 40
9.0
 40
10.0
 40
10.0
 40
10.0
 10
12.57928716981815
 20
473.650500223239
 30
0.0
 10
12.57920090849758
 20
473.6525506349275
 30
0.0
 10
12.579114647177
 20
473.654601046616
 30
0.0
 10
12.57674240225243
 20
473.7161630861161
 30
0.0
 10
12.56185745611266
 20
473.9852275948359
 30
0.0
 10
12.41465880916895
 20
474.3598311623276
 30
0.0
 10
11.98475668189668
 20
475.0346465781191
 30
0.0
 10
11.22894212893744
 20
475.6077032639051
 30
0.0
 10
10.56341081976826
 20
475.9433161595169
 30
0.0
 10
10.0177800881179
 20
476.1171308650818
 30
0.0
 10
9.63453917691141
 20
476.2158096725472
 30
0.0
 10
9.44017393142122
 20
476.2627590273636
 30
0.0
 10
9.433704712661218
 20
476.2643323747408
 30
0.0
 10
9.427235493901215
 20
476.265905722118
 30
0.0
  0
LINE
  5
1DC
330
24
100
AcDbEntity
  8
0
  6
Continuous
 62
     7
370
    15
100
AcDbLine
 10
-23.95464834779659
 20
422.9087138437018
 30
0.0
 11
-23.78943054119645
 21
419.1341985187017
 31
0.0
  0
SPLINE
  5
1DD
330
24
100
AcDbEntity
  8
0
  6
Continuous
 62
     7
370
    15
100
AcDbSpline
210
0.0
220
0.0
230
1.0
 70
     8
 71
     2
 72
    10
 73
     7
 74
     0
 42
0.000000001
 43
0.000001
 40
0.0
 40
0.0
 40
0.0
 40
1.0
 40
1.0
 40
2.0
 40
2.0
 40
3.0
 40
3.0
 40
3.0
 10
9.424989464339895
 20
476.2720085109
 30
0.0
 10
9.36983532124328
 20
476.2853859732983
 30
0.0
 10
9.314681178146664
 20
476.2987634356965
 30
0.0
 10
4.022520015231756
 20
477.5893349651436
 30
0.0
 10
-1.458585982991728
 20
478.8133204077418
 30
0.0
 10
-1.518067602675721
 20
478.8266837544851
 30
0.0
 10
-1.577549222359714
 20
478.8400471012284
 30
0.0
  0
SPLINE
  5
1DE
330
24
100
AcDbEntity
  8
0
  6
Continuous
 62
     7
370
    15
100
AcDbSpline
210
0.0
220
0.0
230
1.0
 70
     8
 71
     2
 72
    11
 73
     8
 74
     0
 42
0.000000001
 43
0.000001
 40
0.0
 40
0.0
 40
0.0
 40
1.0
 40
1.0
 40
2.0
 40
3.0
 40
3.0
 40
4.0
 40
4.0
 40
4.0
 10
-9.5718125416738
 20
478.4504959785833
 30
0.0
 10
-9.616656852336739
 20
478.4345083122439
 30
0.0
 10
-9.661501162999677
 20
478.4185206459046
 30
0.0
 10
-13.08130289832251
 20
477.2085303481523
 30
0.0
 10
-17.61690589009594
 20
475.5055992204506
 30
0.0
 10
-19.02243742155087
 20
474.9705561786678
 30
0.0
 10
-19.06931613819824
 20
474.9527280558583
 30
0.0
 10
-19.11619485484561
 20
474.9348999330488
 30
0.0
  0
SPLINE
  5
1DF
330
24
100
AcDbEntity
  8
0
  6
Continuous
 62
     7
370
    15
100
AcDbSpline
210
0.0
220
0.0
230
1.0
 70
     8
 71
     2
 72
    15
 73
    12
 74
     0
 42
0.000000001
 43
0.000001
 40
0.0
 40
0.0
 40
0.0
 40
1.0
 40
1.0
 40
2.0
 40
3.0
 40
4.0
 40
5.0
 40
6.0
 40
7.0
 40
7.0
 40
8.0
 40
8.0
 40
8.0
 10
-1.576442608813061
 20
478.8366261897753
 30
0.0
 10
-1.57808003256627
 20
478.8370877382075
 30
0.0
 10
-1.579717456319479
 20
478.8375492866397
 30
0.0
 10
-1.984955377887211
 20
478.9546623728919
 30
0.0
 10
-3.088336316367979
 20
479.0955583336835
 30
0.0
 10
-4.588441457538003
 20
479.1870239353572
 30
0.0
 10
-6.513259858499161
 20
479.1155230479495
 30
0.0
 10
-8.337816255365844
 20
478.8417454981487
 30
0.0
 10
-9.295605575130132
 20
478.5465550754749
 30
0.0
 10
-9.565205240709012
 20
478.4572786085181
 30
0.0
 10
-9.574214239486075
 20
478.4543173364804
 30
0.0
 10
-9.583223238263137
 20
478.4513560644426
 30
0.0
  0
ENDBLK
  5
1E0
330
24
100
AcDbEntity
  8
一般
100
AcDbBlockEnd
  0
BLOCK
  5
1E1
330
25
100
AcDbEntity
  8
一般
100
AcDbBlockBegin
  2
*U1
 70
     1
 10
0.0
 20
0.0
 30
0.0
  3
*U1
  1

  0
INSERT
  5
1E2
330
25
100
AcDbEntity
  8
一般
 62
     7
100
AcDbBlockReference
  2
*U0
 10
0.0
 20
0.0
 30
0.0
  0
ENDBLK
  5
1E3
330
25
100
AcDbEntity
  8
一般
100
AcDbBlockEnd
  0
BLOCK
  5
1E4
330
26
100
AcDbEntity
  8
一般
100
AcDbBlockBegin
  2
*U2
 70
     1
 10
0.0
 20
0.0
 30
0.0
  3
*U2
  1

  0
INSERT
  5
1E5
330
26
100
AcDbEntity
  8
一般
 62
     7
100
AcDbBlockReference
  2
*U1
 10
0.0
 20
0.0
 30
0.0
  0
ENDBLK
  5
1E6
330
26
100
AcDbEntity
  8
一般
100
AcDbBlockEnd
  0
BLOCK
  5
1E7
330
27
100
AcDbEntity
  8
一般
100
AcDbBlockBegin
  2
*U3
 70
     1
 10
0.0
 20
0.0
 30
0.0
  3
*U3
  1

  0
INSERT
  5
1E8
330
27
100
AcDbEntity
  8
一般
 62
     7
100
AcDbBlockReference
  2
*U2
 10
0.0
 20
0.0
 30
0.0
  0
ENDBLK
  5
1E9
330
27
100
AcDbEntity
  8
一般
100
AcDbBlockEnd
  0
BLOCK
  5
1EA
330
28
100
AcDbEntity
  8
一般
100
AcDbBlockBegin
  2
*U4
 70
     1
 10
0.0
 20
0.0
 30
0.0
  3
*U4
  1

  0
INSERT
  5
1EB
330
28
100
AcDbEntity
  8
一般
 62
     7
100
AcDbBlockReference
  2
*U3
 10
0.0
 20
0.0
 30
0.0
  0
ENDBLK
  5
1EC
330
28
100
AcDbEntity
  8
一般
100
AcDbBlockEnd
  0
ENDSEC
  0
SECTION
  2
ENTITIES
  0
MTEXT
  5
1ED
330
A
100
AcDbEntity
  8
0
 62
     7
100
AcDbMText
 10
248.8661341611535
 20
97.50769572759364
 30
0.0
 40
3.171823606692336
 41
0.0
 46
3.31460921359608
 71
     1
 72
     1
  1
{HFD-D96P/B/E}
  7
@ＭＳ Ｐゴシック
 73
     1
 44
0.8762322015334065
  0
INSERT
  5
1EE
330
A
100
AcDbEntity
  8
一般
 62
     7
100
AcDbBlockReference
  2
*U4
 10
212.5333555375976
 20
148.8477215228446
 30
0.0
 41
0.2
 42
0.2
 43
0.2
 50
358.4409119362417
  0
ENDSEC
  0
SECTION
  2
OBJECTS
  0
DICTIONARY
  5
19
330
0
100
AcDbDictionary
281
     1
  3
ACAD_DETAILVIEWSTYLE
350
238
  3
ACAD_GROUP
350
1A
  3
ACAD_LAYOUT
350
1E
  3
ACAD_MATERIAL
350
22A
  3
ACAD_MLEADERSTYLE
350
230
  3
ACAD_MLINESTYLE
350
1B
  3
ACAD_PLOTSETTINGS
350
22
  3
ACAD_PLOTSTYLENAME
350
1F
  3
ACAD_SCALELIST
350
1EF
  3
ACAD_SECTIONVIEWSTYLE
350
239
  3
ACAD_TABLESTYLE
350
22E
  3
ACAD_VISUALSTYLE
350
211
  3
ACAD_WIPEOUT_VARS
350
23
  3
ACDB_RECOMPOSE_DATA
350
24E
  3
AcDbVariableDictionary
350
233
  3
APPDATA
350
232
  0
SUN
  5
23A
330
15
100
AcDbSun
 90
        1
290
     0
 63
     7
421
 16777215
 40
1.0
291
     1
 91
  2455826
 92
 54000000
292
     0
 70
     2
 71
   256
280
     1
  0
DICTIONARY
  5
238
102
{ACAD_REACTORS
330
19
102
}
330
19
100
AcDbDictionary
281
     1
  0
DICTIONARY
  5
1A
102
{ACAD_REACTORS
330
19
102
}
330
19
100
AcDbDictionary
281
     1
  0
DICTIONARY
  5
1E
102
{ACAD_REACTORS
330
19
102
}
330
19
100
AcDbDictionary
281
     1
  3
Layout1
350
21
  3
Model
350
20
  0
DICTIONARY
  5
22A
102
{ACAD_REACTORS
330
19
102
}
330
19
100
AcDbDictionary
281
     1
  3
ByBlock
350
22C
  3
ByLayer
350
22B
  3
Global
350
22D
  0
DICTIONARY
  5
230
102
{ACAD_REACTORS
330
19
102
}
330
19
100
AcDbDictionary
281
     1
  3
Standard
350
231
  0
DICTIONARY
  5
1B
102
{ACAD_REACTORS
330
19
102
}
330
19
100
AcDbDictionary
281
     1
  3
Standard
350
1C
  0
DICTIONARY
  5
22
102
{ACAD_REACTORS
330
19
102
}
330
19
100
AcDbDictionary
281
     1
  0
ACDBDICTIONARYWDFLT
  5
1F
102
{ACAD_REACTORS
330
19
102
}
330
19
100
AcDbDictionary
281
     1
  3
Normal
350
1D
100
AcDbDictionaryWithDefault
340
1D
  0
DICTIONARY
  5
1EF
102
{ACAD_REACTORS
330
19
102
}
330
19
100
AcDbDictionary
281
     1
  3
A0
350
1F0
  3
A1
350
1F1
  3
A2
350
1F2
  3
A3
350
1F3
  3
A4
350
1F4
  3
A5
350
1F5
  3
A6
350
1F6
  3
A7
350
1F7
  3
A8
350
1F8
  3
A9
350
1F9
  3
B0
350
1FA
  3
B1
350
1FB
  3
B2
350
1FC
  3
B3
350
1FD
  3
B4
350
1FE
  3
B5
350
1FF
  3
B6
350
200
  3
B7
350
201
  3
B8
350
202
  3
B9
350
203
  3
C0
350
204
  3
C1
350
205
  3
C2
350
206
  3
C3
350
207
  3
C4
350
208
  3
C5
350
209
  3
C6
350
20A
  3
C7
350
20B
  3
C8
350
20C
  3
C9
350
20D
  3
D0
350
20E
  3
D1
350
20F
  3
D2
350
210
  0
DICTIONARY
  5
239
102
{ACAD_REACTORS
330
19
102
}
330
19
100
AcDbDictionary
281
     1
  0
DICTIONARY
  5
22E
102
{ACAD_REACTORS
330
19
102
}
330
19
100
AcDbDictionary
281
     1
  3
Standard
350
22F
  0
DICTIONARY
  5
211
102
{ACAD_REACTORS
330
19
102
}
330
19
100
AcDbDictionary
281
     1
  3
2dWireframe
350
216
  3
Basic
350
219
  3
Brighten
350
21D
  3
ColorChange
350
221
  3
Conceptual
350
21B
  3
Dim
350
21C
  3
EdgeColorOff
350
224
  3
Facepattern
350
220
  3
Flat
350
212
  3
FlatWithEdges
350
213
  3
Gouraud
350
214
  3
GouraudWithEdges
350
215
  3
Hidden
350
218
  3
JitterOff
350
222
  3
Linepattern
350
21F
  3
OverhangOff
350
223
  3
Realistic
350
21A
  3
Shaded
350
229
  3
Shaded with edges
350
228
  3
Shades of Gray
350
225
  3
Sketchy
350
226
  3
Thicken
350
21E
  3
Wireframe
350
217
  3
X-Ray
350
227
  0
WIPEOUTVARIABLES
  5
23
330
19
100
AcDbWipeoutVariables
 70
     1
  0
XRECORD
  5
24E
102
{ACAD_REACTORS
330
19
102
}
330
19
100
AcDbXrecord
280
     1
 90
        1
330
22F
  0
DICTIONARY
  5
233
102
{ACAD_REACTORS
330
19
102
}
330
19
100
AcDbDictionary
281
     1
  3
CANNOSCALE
350
234
  3
CMLEADERSTYLE
350
236
  3
CTABLESTYLE
350
235
  3
MSLTSCALE
350
237
  0
DICTIONARY
  5
232
102
{ACAD_REACTORS
330
19
102
}
330
19
100
AcDbDictionary
281
     1
  0
LAYOUT
  5
21
102
{ACAD_REACTORS
330
1E
102
}
330
1E
100
AcDbPlotSettings
  1

  2

  4

  6

 40
0.0
 41
0.0
 42
0.0
 43
0.0
 44
0.0
 45
0.0
 46
0.0
 47
0.0
 48
0.0
 49
0.0
140
0.0
141
0.0
142
1.0
143
1.0
 70
     0
 72
     0
 73
     0
 74
     0
  7

 75
     0
 76
     0
 77
     2
 78
   300
147
1.0
148
0.0
149
0.0
100
AcDbLayout
  1
Layout1
 70
     0
 71
     0
 10
0.0
 20
0.0
 11
0.0
 21
0.0
 12
0.0
 22
0.0
 32
0.0
 14
0.0
 24
0.0
 34
0.0
 15
0.0
 25
0.0
 35
0.0
146
0.0
 13
0.0
 23
0.0
 33
0.0
 16
0.0
 26
0.0
 36
0.0
 17
0.0
 27
0.0
 37
0.0
 76
     0
330
B
  0
LAYOUT
  5
20
102
{ACAD_REACTORS
330
1E
102
}
330
1E
100
AcDbPlotSettings
  1

  2

  4

  6

 40
0.0
 41
0.0
 42
0.0
 43
0.0
 44
0.0
 45
0.0
 46
0.0
 47
0.0
 48
0.0
 49
0.0
140
0.0
141
0.0
142
1.0
143
1.0
 70
  1024
 72
     0
 73
     0
 74
     0
  7

 75
     0
 76
     0
 77
     2
 78
   300
147
1.0
148
0.0
149
0.0
100
AcDbLayout
  1
Model
 70
     0
 71
     1
 10
0.0
 20
0.0
 11
0.0
 21
0.0
 12
0.0
 22
0.0
 32
0.0
 14
199.2558942549961
 24
52.2123261453527
 34
0.0
 15
279.7205173063092
 25
249.6005953207322
 35
0.0
146
0.0
 13
0.0
 23
0.0
 33
0.0
 16
0.0
 26
0.0
 36
0.0
 17
0.0
 27
0.0
 37
0.0
 76
     0
330
A
331
15
  0
MATERIAL
  5
22C
102
{ACAD_REACTORS
330
22A
102
}
330
22A
100
AcDbMaterial
  1
ByBlock
 72
     1
 94
      127
  0
MATERIAL
  5
22B
102
{ACAD_REACTORS
330
22A
102
}
330
22A
100
AcDbMaterial
  1
ByLayer
 72
     1
 94
      127
  0
MATERIAL
  5
22D
102
{ACAD_REACTORS
330
22A
102
}
330
22A
100
AcDbMaterial
  1
Global
 72
     1
 94
      127
  0
MLEADERSTYLE
  5
231
102
{ACAD_REACTORS
330
230
102
}
330
230
100
AcDbMLeaderStyle
179
     2
170
     2
171
     1
172
     0
 90
        2
 40
0.0
 41
0.0
173
     1
 91
-1056964608
340
11
 92
       -2
290
     1
 42
2.0
291
     1
 43
8.0
  3
Standard
341
0
 44
4.0
300

342
17
174
     1
178
     1
175
     1
176
     0
 93
-1056964608
 45
4.0
292
     0
297
     0
 46
4.0
343
0
 94
-1056964608
 47
1.0
 49
1.0
140
1.0
293
     1
141
0.0
294
     1
177
     0
142
1.0
295
     0
296
     0
143
3.75
271
     0
272
     9
273
     9
298
     0
  0
MLINESTYLE
  5
1C
102
{ACAD_REACTORS
330
1B
102
}
330
1B
100
AcDbMlineStyle
  2
Standard
 70
     0
  3

 62
     0
 51
90.0
 52
90.0
 71
     2
 49
0.5
 62
   256
  6
BYLAYER
 49
-0.5
 62
   256
  6
BYLAYER
  0
ACDBPLACEHOLDER
  5
1D
102
{ACAD_REACTORS
330
1F
102
}
330
1F
  0
SCALE
  5
1F0
102
{ACAD_REACTORS
330
1EF
102
}
330
1EF
100
AcDbScale
 70
     0
300
1:1
140
1.0
141
1.0
290
     1
  0
SCALE
  5
1F1
102
{ACAD_REACTORS
330
1EF
102
}
330
1EF
100
AcDbScale
 70
     0
300
1:2
140
1.0
141
2.0
290
     0
  0
SCALE
  5
1F2
102
{ACAD_REACTORS
330
1EF
102
}
330
1EF
100
AcDbScale
 70
     0
300
1:4
140
1.0
141
4.0
290
     0
  0
SCALE
  5
1F3
102
{ACAD_REACTORS
330
1EF
102
}
330
1EF
100
AcDbScale
 70
     0
300
1:5
140
1.0
141
5.0
290
     0
  0
SCALE
  5
1F4
102
{ACAD_REACTORS
330
1EF
102
}
330
1EF
100
AcDbScale
 70
     0
300
1:8
140
1.0
141
8.0
290
     0
  0
SCALE
  5
1F5
102
{ACAD_REACTORS
330
1EF
102
}
330
1EF
100
AcDbScale
 70
     0
300
1:10
140
1.0
141
10.0
290
     0
  0
SCALE
  5
1F6
102
{ACAD_REACTORS
330
1EF
102
}
330
1EF
100
AcDbScale
 70
     0
300
1:16
140
1.0
141
16.0
290
     0
  0
SCALE
  5
1F7
102
{ACAD_REACTORS
330
1EF
102
}
330
1EF
100
AcDbScale
 70
     0
300
1:20
140
1.0
141
20.0
290
     0
  0
SCALE
  5
1F8
102
{ACAD_REACTORS
330
1EF
102
}
330
1EF
100
AcDbScale
 70
     0
300
1:30
140
1.0
141
30.0
290
     0
  0
SCALE
  5
1F9
102
{ACAD_REACTORS
330
1EF
102
}
330
1EF
100
AcDbScale
 70
     0
300
1:40
140
1.0
141
40.0
290
     0
  0
SCALE
  5
1FA
102
{ACAD_REACTORS
330
1EF
102
}
330
1EF
100
AcDbScale
 70
     0
300
1:50
140
1.0
141
50.0
290
     0
  0
SCALE
  5
1FB
102
{ACAD_REACTORS
330
1EF
102
}
330
1EF
100
AcDbScale
 70
     0
300
1:100
140
1.0
141
100.0
290
     0
  0
SCALE
  5
1FC
102
{ACAD_REACTORS
330
1EF
102
}
330
1EF
100
AcDbScale
 70
     0
300
2:1
140
2.0
141
1.0
290
     0
  0
SCALE
  5
1FD
102
{ACAD_REACTORS
330
1EF
102
}
330
1EF
100
AcDbScale
 70
     0
300
4:1
140
4.0
141
1.0
290
     0
  0
SCALE
  5
1FE
102
{ACAD_REACTORS
330
1EF
102
}
330
1EF
100
AcDbScale
 70
     0
300
8:1
140
8.0
141
1.0
290
     0
  0
SCALE
  5
1FF
102
{ACAD_REACTORS
330
1EF
102
}
330
1EF
100
AcDbScale
 70
     0
300
10:1
140
10.0
141
1.0
290
     0
  0
SCALE
  5
200
102
{ACAD_REACTORS
330
1EF
102
}
330
1EF
100
AcDbScale
 70
     0
300
100:1
140
100.0
141
1.0
290
     0
  0
SCALE
  5
201
102
{ACAD_REACTORS
330
1EF
102
}
330
1EF
100
AcDbScale
 70
     0
300
1/128" = 1'-0"
140
0.0078125
141
12.0
290
     0
  0
SCALE
  5
202
102
{ACAD_REACTORS
330
1EF
102
}
330
1EF
100
AcDbScale
 70
     0
300
1/64" = 1'-0"
140
0.015625
141
12.0
290
     0
  0
SCALE
  5
203
102
{ACAD_REACTORS
330
1EF
102
}
330
1EF
100
AcDbScale
 70
     0
300
1/32" = 1'-0"
140
0.03125
141
12.0
290
     0
  0
SCALE
  5
204
102
{ACAD_REACTORS
330
1EF
102
}
330
1EF
100
AcDbScale
 70
     0
300
1/16" = 1'-0"
140
0.0625
141
12.0
290
     0
  0
SCALE
  5
205
102
{ACAD_REACTORS
330
1EF
102
}
330
1EF
100
AcDbScale
 70
     0
300
3/32" = 1'-0"
140
0.09375
141
12.0
290
     0
  0
SCALE
  5
206
102
{ACAD_REACTORS
330
1EF
102
}
330
1EF
100
AcDbScale
 70
     0
300
1/8" = 1'-0"
140
0.125
141
12.0
290
     0
  0
SCALE
  5
207
102
{ACAD_REACTORS
330
1EF
102
}
330
1EF
100
AcDbScale
 70
     0
300
3/16" = 1'-0"
140
0.1875
141
12.0
290
     0
  0
SCALE
  5
208
102
{ACAD_REACTORS
330
1EF
102
}
330
1EF
100
AcDbScale
 70
     0
300
1/4" = 1'-0"
140
0.25
141
12.0
290
     0
  0
SCALE
  5
209
102
{ACAD_REACTORS
330
1EF
102
}
330
1EF
100
AcDbScale
 70
     0
300
3/8" = 1'-0"
140
0.375
141
12.0
290
     0
  0
SCALE
  5
20A
102
{ACAD_REACTORS
330
1EF
102
}
330
1EF
100
AcDbScale
 70
     0
300
1/2" = 1'-0"
140
0.5
141
12.0
290
     0
  0
SCALE
  5
20B
102
{ACAD_REACTORS
330
1EF
102
}
330
1EF
100
AcDbScale
 70
     0
300
3/4" = 1'-0"
140
0.75
141
12.0
290
     0
  0
SCALE
  5
20C
102
{ACAD_REACTORS
330
1EF
102
}
330
1EF
100
AcDbScale
 70
     0
300
1" = 1'-0"
140
1.0
141
12.0
290
     0
  0
SCALE
  5
20D
102
{ACAD_REACTORS
330
1EF
102
}
330
1EF
100
AcDbScale
 70
     0
300
1-1/2" = 1'-0"
140
1.5
141
12.0
290
     0
  0
SCALE
  5
20E
102
{ACAD_REACTORS
330
1EF
102
}
330
1EF
100
AcDbScale
 70
     0
300
3" = 1'-0"
140
3.0
141
12.0
290
     0
  0
SCALE
  5
20F
102
{ACAD_REACTORS
330
1EF
102
}
330
1EF
100
AcDbScale
 70
     0
300
6" = 1'-0"
140
6.0
141
12.0
290
     0
  0
SCALE
  5
210
102
{ACAD_REACTORS
330
1EF
102
}
330
1EF
100
AcDbScale
 70
     0
300
1'-0" = 1'-0"
140
12.0
141
12.0
290
     0
  0
TABLESTYLE
  5
22F
102
{ACAD_REACTORS
330
22E
102
}
102
{ACAD_XDICTIONARY
360
24C
102
}
330
22E
100
AcDbTableStyle
  3
Standard
 70
     0
 71
     0
 40
1.5
 41
1.5
280
     0
281
     0
  7
Standard
140
4.5
170
     2
 62
     0
 63
   257
283
     0
 90
        4
 91
        0
  1

274
    -2
284
     1
 64
     0
275
    -2
285
     1
 65
     0
276
    -2
286
     1
 66
     0
277
    -2
287
     1
 67
     0
278
    -2
288
     1
 68
     0
279
    -2
289
     1
 69
     0
  7
Standard
140
6.0
170
     5
 62
     0
 63
   257
283
     0
 90
        4
 91
        0
  1

274
    -2
284
     1
 64
     0
275
    -2
285
     1
 65
     0
276
    -2
286
     1
 66
     0
277
    -2
287
     1
 67
     0
278
    -2
288
     1
 68
     0
279
    -2
289
     1
 69
     0
  7
Standard
140
4.5
170
     5
 62
     0
 63
   257
283
     0
 90
        4
 91
        0
  1

274
    -2
284
     1
 64
     0
275
    -2
285
     1
 65
     0
276
    -2
286
     1
 66
     0
277
    -2
287
     1
 67
     0
278
    -2
288
     1
 68
     0
279
    -2
289
     1
 69
     0
  0
VISUALSTYLE
  5
216
102
{ACAD_REACTORS
330
211
102
}
330
211
100
AcDbVisualStyle
  2
2dWireframe
 70
     4
177
     3
291
     0
 70
    58
 90
        0
176
     1
 90
        2
176
     1
 90
        0
176
     1
 90
        0
176
     1
 40
0.6
176
     1
 40
30.0
176
     1
 62
     7
420
 16777215
176
     1
 90
        1
176
     1
 90
        4
176
     1
 62
     7
176
     1
 62
   257
176
     1
 90
        1
176
     1
 90
        1
176
     1
 40
1.0
176
     1
 90
        0
176
     1
 62
   257
176
     1
 40
1.0
176
     1
 90
        1
176
     1
 90
        6
176
     1
 90
        2
176
     1
 62
     7
176
     1
 90
        5
176
     1
 90
        0
176
     1
 90
        0
176
     1
290
     0
176
     1
 90
        1
176
     1
 40
0.0
176
     1
 90
        0
176
     1
290
     1
176
     1
290
     1
176
     1
290
     0
176
     1
290
     0
176
     1
290
     0
176
     1
290
     0
176
     1
290
     0
176
     1
290
     0
176
     1
290
     0
176
     1
 90
       50
176
     1
 40
0.0
176
     1
 40
1.0
176
     1
 90
        0
176
     1
 62
    18
420
        0
176
     1
 90
       50
176
     1
 90
        3
176
     1
 62
     5
420
      255
176
     1
290
     0
176
     1
 90
       50
176
     1
 90
       50
176
     1
 90
       50
176
     1
290
     0
176
     1
 90
       50
176
     1
 62
   256
176
     0
 40
1.0
176
     0
 90
        2
176
     1
  1
strokes_ogs.tif
176
     1
290
     0
176
     1
 40
1.0
176
     1
 40
1.0
176
     1
  0
VISUALSTYLE
  5
219
102
{ACAD_REACTORS
330
211
102
}
330
211
100
AcDbVisualStyle
  2
Basic
 70
     7
177
     3
291
     1
 70
    58
 90
        1
176
     1
 90
        0
176
     1
 90
        1
176
     1
 90
        0
176
     1
 40
0.6
176
     1
 40
30.0
176
     1
 62
     7
420
 16777215
176
     1
 90
        0
176
     1
 90
        4
176
     1
 62
     7
176
     1
 62
   257
176
     1
 90
        1
176
     1
 90
        1
176
     1
 40
1.0
176
     1
 90
        8
176
     1
 62
     7
176
     1
 40
1.0
176
     1
 90
        1
176
     1
 90
        6
176
     1
 90
        2
176
     1
 62
     7
176
     1
 90
        5
176
     1
 90
        0
176
     1
 90
        0
176
     1
290
     0
176
     1
 90
        1
176
     1
 40
0.0
176
     1
 90
        0
176
     1
290
     0
176
     1
290
     1
176
     1
290
     1
176
     1
290
     0
176
     1
290
     0
176
     1
290
     0
176
     1
290
     0
176
     1
290
     0
176
     1
290
     0
176
     1
 90
       50
176
     1
 40
0.0
176
     1
 40
1.0
176
     1
 90
        0
176
     1
 62
    18
420
        0
176
     1
 90
       50
176
     1
 90
        3
176
     1
 62
     5
420
      255
176
     1
290
     0
176
     1
 90
       50
176
     1
 90
       50
176
     1
 90
       50
176
     1
290
     0
176
     1
 90
       50
176
     1
 62
   256
176
     0
 40
1.0
176
     0
 90
        2
176
     1
  1
strokes_ogs.tif
176
     1
290
     0
176
     1
 40
1.0
176
     1
 40
1.0
176
     1
  0
VISUALSTYLE
  5
21D
102
{ACAD_REACTORS
330
211
102
}
330
211
100
AcDbVisualStyle
  2
Brighten
 70
    12
177
     3
291
     1
 70
    58
 90
        2
176
     1
 90
        2
176
     1
 90
        0
176
     1
 90
        0
176
     1
 40
0.6
176
     1
 40
30.0
176
     1
 62
     7
420
 16777215
176
     1
 90
        1
176
     1
 90
        4
176
     1
 62
     7
176
     1
 62
   257
176
     1
 90
        1
176
     1
 90
        1
176
     1
 40
1.0
176
     1
 90
        8
176
     1
 62
     7
176
     1
 40
1.0
176
     1
 90
        1
176
     1
 90
        6
176
     1
 90
        2
176
     1
 62
     7
176
     1
 90
        5
176
     1
 90
        0
176
     1
 90
        0
176
     1
290
     0
176
     1
 90
        1
176
     1
 40
50.0
176
     1
 90
        0
176
     1
290
     0
176
     1
290
     1
176
     1
290
     1
176
     1
290
     0
176
     1
290
     0
176
     1
290
     0
176
     1
290
     0
176
     1
290
     0
176
     1
290
     0
176
     1
 90
       50
176
     1
 40
0.0
176
     1
 40
1.0
176
     1
 90
        0
176
     1
 62
    18
420
        0
176
     1
 90
       50
176
     1
 90
        3
176
     1
 62
     5
420
      255
176
     1
290
     0
176
     1
 90
       50
176
     1
 90
       50
176
     1
 90
       50
176
     1
290
     0
176
     1
 90
       50
176
     1
 62
   256
176
     0
 40
1.0
176
     0
 90
        2
176
     1
  1
strokes_ogs.tif
176
     1
290
     0
176
     1
 40
1.0
176
     1
 40
1.0
176
     1
  0
VISUALSTYLE
  5
221
102
{ACAD_REACTORS
330
211
102
}
330
211
100
AcDbVisualStyle
  2
ColorChange
 70
    16
177
     3
291
     1
 70
    58
 90
        2
176
     1
 90
        2
176
     1
 90
        3
176
     1
 90
        0
176
     1
 40
0.6
176
     1
 40
30.0
176
     1
 62
     8
420
  8421504
176
     1
 90
        1
176
     1
 90
        4
176
     1
 62
     7
176
     1
 62
   257
176
     1
 90
        1
176
     1
 90
        1
176
     1
 40
1.0
176
     1
 90
        8
176
     1
 62
     8
420
  8421504
176
     1
 40
1.0
176
     1
 90
        1
176
     1
 90
        6
176
     1
 90
        2
176
     1
 62
     7
176
     1
 90
        5
176
     1
 90
        0
176
     1
 90
        0
176
     1
290
     0
176
     1
 90
        1
176
     1
 40
0.0
176
     1
 90
        0
176
     1
290
     0
176
     1
290
     1
176
     1
290
     1
176
     1
290
     0
176
     1
290
     0
176
     1
290
     0
176
     1
290
     0
176
     1
290
     0
176
     1
290
     0
176
     1
 90
       50
176
     1
 40
0.0
176
     1
 40
1.0
176
     1
 90
        0
176
     1
 62
    18
420
        0
176
     1
 90
       50
176
     1
 90
        3
176
     1
 62
     5
420
      255
176
     1
290
     0
176
     1
 90
       50
176
     1
 90
       50
176
     1
 90
       50
176
     1
290
     0
176
     1
 90
       50
176
     1
 62
   256
176
     0
 40
1.0
176
     0
 90
        2
176
     1
  1
strokes_ogs.tif
176
     1
290
     0
176
     1
 40
1.0
176
     1
 40
1.0
176
     1
  0
VISUALSTYLE
  5
21B
102
{ACAD_REACTORS
330
211
102
}
330
211
100
AcDbVisualStyle
  2
Conceptual
 70
     9
177
     3
291
     0
 70
    58
 90
        3
176
     1
 90
        2
176
     1
 90
        0
176
     1
 90
        0
176
     1
 40
0.6
176
     1
 40
30.0
176
     1
 62
     7
420
 16777215
176
     1
 90
        2
176
     1
 90
        2
176
     1
 62
     7
176
     1
 62
   257
176
     1
 90
        1
176
     1
 90
        1
176
     1
 40
179.0
176
     1
 90
        8
176
     1
 62
     7
176
     1
 40
1.0
176
     1
 90
        1
176
     1
 90
        6
176
     1
 90
        2
176
     1
 62
     7
176
     1
 90
        3
176
     1
 90
        0
176
     1
 90
        0
176
     1
290
     0
176
     1
 90
        1
176
     1
 40
0.0
176
     1
 90
        0
176
     1
290
     0
176
     1
290
     1
176
     1
290
     1
176
     1
290
     0
176
     1
290
     0
176
     1
290
     0
176
     1
290
     0
176
     1
290
     0
176
     1
290
     0
176
     1
 90
       50
176
     1
 40
0.0
176
     1
 40
1.0
176
     1
 90
        0
176
     1
 62
    18
420
        0
176
     1
 90
       50
176
     1
 90
        3
176
     1
 62
     5
420
      255
176
     1
290
     0
176
     1
 90
       50
176
     1
 90
       50
176
     1
 90
       50
176
     1
290
     0
176
     1
 90
       50
176
     1
 62
   256
176
     0
 40
1.0
176
     0
 90
        2
176
     1
  1
strokes_ogs.tif
176
     1
290
     0
176
     1
 40
1.0
176
     1
 40
1.0
176
     1
  0
VISUALSTYLE
  5
21C
102
{ACAD_REACTORS
330
211
102
}
330
211
100
AcDbVisualStyle
  2
Dim
 70
    11
177
     3
291
     1
 70
    58
 90
        2
176
     1
 90
        2
176
     1
 90
        0
176
     1
 90
        0
176
     1
 40
0.6
176
     1
 40
30.0
176
     1
 62
     7
420
 16777215
176
     1
 90
        1
176
     1
 90
        4
176
     1
 62
     7
176
     1
 62
   257
176
     1
 90
        1
176
     1
 90
        1
176
     1
 40
1.0
176
     1
 90
        8
176
     1
 62
     7
176
     1
 40
1.0
176
     1
 90
        1
176
     1
 90
        6
176
     1
 90
        2
176
     1
 62
     7
176
     1
 90
        5
176
     1
 90
        0
176
     1
 90
        0
176
     1
290
     0
176
     1
 90
        1
176
     1
 40
-50.0
176
     1
 90
        0
176
     1
290
     0
176
     1
290
     1
176
     1
290
     1
176
     1
290
     0
176
     1
290
     0
176
     1
290
     0
176
     1
290
     0
176
     1
290
     0
176
     1
290
     0
176
     1
 90
       50
176
     1
 40
0.0
176
     1
 40
1.0
176
     1
 90
        0
176
     1
 62
    18
420
        0
176
     1
 90
       50
176
     1
 90
        3
176
     1
 62
     5
420
      255
176
     1
290
     0
176
     1
 90
       50
176
     1
 90
       50
176
     1
 90
       50
176
     1
290
     0
176
     1
 90
       50
176
     1
 62
   256
176
     0
 40
1.0
176
     0
 90
        2
176
     1
  1
strokes_ogs.tif
176
     1
290
     0
176
     1
 40
1.0
176
     1
 40
1.0
176
     1
  0
VISUALSTYLE
  5
224
102
{ACAD_REACTORS
330
211
102
}
330
211
100
AcDbVisualStyle
  2
EdgeColorOff
 70
    22
177
     3
291
     1
 70
    58
 90
        2
176
     0
 90
        2
176
     0
 90
        0
176
     0
 90
        0
176
     0
 40
0.6
176
     0
 40
30.0
176
     0
 62
     7
420
 16777215
176
     0
 90
        1
176
     0
 90
        4
176
     0
 62
     7
176
     0
 62
   257
176
     0
 90
        1
176
     0
 90
        1
176
     0
 40
1.0
176
     0
 90
        8
176
     2
 62
     7
176
     0
 40
1.0
176
     0
 90
        1
176
     0
 90
        6
176
     0
 90
        2
176
     0
 62
     7
176
     0
 90
        5
176
     0
 90
        0
176
     0
 90
        0
176
     0
290
     0
176
     0
 90
        1
176
     0
 40
0.0
176
     0
 90
        0
176
     0
290
     0
176
     0
290
     1
176
     0
290
     1
176
     0
290
     0
176
     0
290
     0
176
     0
290
     0
176
     0
290
     0
176
     0
290
     0
176
     0
290
     0
176
     0
 90
       50
176
     0
 40
0.0
176
     0
 40
1.0
176
     0
 90
        0
176
     0
 62
    18
420
        0
176
     0
 90
       50
176
     0
 90
        3
176
     0
 62
     5
420
      255
176
     0
290
     0
176
     0
 90
       50
176
     0
 90
       50
176
     0
 90
       50
176
     0
290
     0
176
     0
 90
       50
176
     0
 62
   256
176
     0
 40
1.0
176
     0
 90
        2
176
     0
  1
strokes_ogs.tif
176
     0
290
     0
176
     0
 40
1.0
176
     0
 40
1.0
176
     0
  0
VISUALSTYLE
  5
220
102
{ACAD_REACTORS
330
211
102
}
330
211
100
AcDbVisualStyle
  2
Facepattern
 70
    15
177
     3
291
     1
 70
    58
 90
        2
176
     1
 90
        2
176
     1
 90
        0
176
     1
 90
        0
176
     1
 40
0.6
176
     1
 40
30.0
176
     1
 62
     7
420
 16777215
176
     1
 90
        1
176
     1
 90
        4
176
     1
 62
     7
176
     1
 62
   257
176
     1
 90
        1
176
     1
 90
        1
176
     1
 40
1.0
176
     1
 90
        8
176
     1
 62
     7
176
     1
 40
1.0
176
     1
 90
        1
176
     1
 90
        6
176
     1
 90
        2
176
     1
 62
     7
176
     1
 90
        5
176
     1
 90
        0
176
     1
 90
        0
176
     1
290
     0
176
     1
 90
        1
176
     1
 40
0.0
176
     1
 90
        0
176
     1
290
     0
176
     1
290
     1
176
     1
290
     1
176
     1
290
     0
176
     1
290
     0
176
     1
290
     0
176
     1
290
     0
176
     1
290
     0
176
     1
290
     0
176
     1
 90
       50
176
     1
 40
0.0
176
     1
 40
1.0
176
     1
 90
        0
176
     1
 62
    18
420
        0
176
     1
 90
       50
176
     1
 90
        3
176
     1
 62
     5
420
      255
176
     1
290
     0
176
     1
 90
       50
176
     1
 90
       50
176
     1
 90
       50
176
     1
290
     0
176
     1
 90
       50
176
     1
 62
   256
176
     0
 40
1.0
176
     0
 90
        2
176
     1
  1
strokes_ogs.tif
176
     1
290
     0
176
     1
 40
1.0
176
     1
 40
1.0
176
     1
  0
VISUALSTYLE
  5
212
102
{ACAD_REACTORS
330
211
102
}
330
211
100
AcDbVisualStyle
  2
Flat
 70
     0
177
     3
291
     1
 70
    58
 90
        2
176
     1
 90
        1
176
     1
 90
        1
176
     1
 90
        2
176
     1
 40
0.6
176
     1
 40
30.0
176
     1
 62
     7
420
 16777215
176
     1
 90
        0
176
     1
 90
        0
176
     1
 62
     7
176
     1
 62
   257
176
     1
 90
        1
176
     1
 90
        1
176
     1
 40
1.0
176
     1
 90
        8
176
     1
 62
     7
176
     1
 40
1.0
176
     1
 90
        1
176
     1
 90
        6
176
     1
 90
        2
176
     1
 62
     7
176
     1
 90
        5
176
     1
 90
        0
176
     1
 90
        0
176
     1
290
     0
176
     1
 90
       13
176
     1
 40
0.0
176
     1
 90
        0
176
     1
290
     0
176
     1
290
     1
176
     1
290
     1
176
     1
290
     0
176
     1
290
     0
176
     1
290
     0
176
     1
290
     0
176
     1
290
     0
176
     1
290
     0
176
     1
 90
       50
176
     1
 40
0.0
176
     1
 40
1.0
176
     1
 90
        0
176
     1
 62
    18
420
        0
176
     1
 90
       50
176
     1
 90
        3
176
     1
 62
     5
420
      255
176
     1
290
     0
176
     1
 90
       50
176
     1
 90
       50
176
     1
 90
       50
176
     1
290
     0
176
     1
 90
       50
176
     1
 62
   256
176
     0
 40
1.0
176
     0
 90
        2
176
     1
  1
strokes_ogs.tif
176
     1
290
     0
176
     1
 40
1.0
176
     1
 40
1.0
176
     1
  0
VISUALSTYLE
  5
213
102
{ACAD_REACTORS
330
211
102
}
330
211
100
AcDbVisualStyle
  2
FlatWithEdges
 70
     1
177
     3
291
     1
 70
    58
 90
        2
176
     1
 90
        1
176
     1
 90
        1
176
     1
 90
        2
176
     1
 40
0.6
176
     1
 40
30.0
176
     1
 62
     7
420
 16777215
176
     1
 90
        1
176
     1
 90
        0
176
     1
 62
     7
176
     1
 62
   257
176
     1
 90
        1
176
     1
 90
        1
176
     1
 40
1.0
176
     1
 90
        0
176
     1
 62
   257
176
     1
 40
1.0
176
     1
 90
        1
176
     1
 90
        6
176
     1
 90
        2
176
     1
 62
     7
176
     1
 90
        5
176
     1
 90
        0
176
     1
 90
        0
176
     1
290
     0
176
     1
 90
       13
176
     1
 40
0.0
176
     1
 90
        0
176
     1
290
     0
176
     1
290
     1
176
     1
290
     1
176
     1
290
     0
176
     1
290
     0
176
     1
290
     0
176
     1
290
     0
176
     1
290
     0
176
     1
290
     0
176
     1
 90
       50
176
     1
 40
0.0
176
     1
 40
1.0
176
     1
 90
        0
176
     1
 62
    18
420
        0
176
     1
 90
       50
176
     1
 90
        3
176
     1
 62
     5
420
      255
176
     1
290
     0
176
     1
 90
       50
176
     1
 90
       50
176
     1
 90
       50
176
     1
290
     0
176
     1
 90
       50
176
     1
 62
   256
176
     0
 40
1.0
176
     0
 90
        2
176
     1
  1
strokes_ogs.tif
176
     1
290
     0
176
     1
 40
1.0
176
     1
 40
1.0
176
     1
  0
VISUALSTYLE
  5
214
102
{ACAD_REACTORS
330
211
102
}
330
211
100
AcDbVisualStyle
  2
Gouraud
 70
     2
177
     3
291
     1
 70
    58
 90
        2
176
     1
 90
        2
176
     1
 90
        1
176
     1
 90
        2
176
     1
 40
0.6
176
     1
 40
30.0
176
     1
 62
     7
420
 16777215
176
     1
 90
        0
176
     1
 90
        0
176
     1
 62
     7
176
     1
 62
   257
176
     1
 90
        1
176
     1
 90
        1
176
     1
 40
1.0
176
     1
 90
        0
176
     1
 62
     7
176
     1
 40
1.0
176
     1
 90
        1
176
     1
 90
        6
176
     1
 90
        2
176
     1
 62
     7
176
     1
 90
        5
176
     1
 90
        0
176
     1
 90
        0
176
     1
290
     0
176
     1
 90
       13
176
     1
 40
0.0
176
     1
 90
        0
176
     1
290
     0
176
     1
290
     1
176
     1
290
     1
176
     1
290
     0
176
     1
290
     0
176
     1
290
     0
176
     1
290
     0
176
     1
290
     0
176
     1
290
     0
176
     1
 90
       50
176
     1
 40
0.0
176
     1
 40
1.0
176
     1
 90
        0
176
     1
 62
    18
420
        0
176
     1
 90
       50
176
     1
 90
        3
176
     1
 62
     5
420
      255
176
     1
290
     0
176
     1
 90
       50
176
     1
 90
       50
176
     1
 90
       50
176
     1
290
     0
176
     1
 90
       50
176
     1
 62
   256
176
     0
 40
1.0
176
     0
 90
        2
176
     1
  1
strokes_ogs.tif
176
     1
290
     0
176
     1
 40
1.0
176
     1
 40
1.0
176
     1
  0
VISUALSTYLE
  5
215
102
{ACAD_REACTORS
330
211
102
}
330
211
100
AcDbVisualStyle
  2
GouraudWithEdges
 70
     3
177
     3
291
     1
 70
    58
 90
        2
176
     1
 90
        2
176
     1
 90
        1
176
     1
 90
        2
176
     1
 40
0.6
176
     1
 40
30.0
176
     1
 62
     7
420
 16777215
176
     1
 90
        1
176
     1
 90
        0
176
     1
 62
     7
176
     1
 62
   257
176
     1
 90
        1
176
     1
 90
        1
176
     1
 40
1.0
176
     1
 90
        0
176
     1
 62
   257
176
     1
 40
1.0
176
     1
 90
        1
176
     1
 90
        6
176
     1
 90
        2
176
     1
 62
     7
176
     1
 90
        5
176
     1
 90
        0
176
     1
 90
        0
176
     1
290
     0
176
     1
 90
       13
176
     1
 40
0.0
176
     1
 90
        0
176
     1
290
     0
176
     1
290
     1
176
     1
290
     1
176
     1
290
     0
176
     1
290
     0
176
     1
290
     0
176
     1
290
     0
176
     1
290
     0
176
     1
290
     0
176
     1
 90
       50
176
     1
 40
0.0
176
     1
 40
1.0
176
     1
 90
        0
176
     1
 62
    18
420
        0
176
     1
 90
       50
176
     1
 90
        3
176
     1
 62
     5
420
      255
176
     1
290
     0
176
     1
 90
       50
176
     1
 90
       50
176
     1
 90
       50
176
     1
290
     0
176
     1
 90
       50
176
     1
 62
   256
176
     0
 40
1.0
176
     0
 90
        2
176
     1
  1
strokes_ogs.tif
176
     1
290
     0
176
     1
 40
1.0
176
     1
 40
1.0
176
     1
  0
VISUALSTYLE
  5
218
102
{ACAD_REACTORS
330
211
102
}
330
211
100
AcDbVisualStyle
  2
Hidden
 70
     6
177
     3
291
     0
 70
    58
 90
        1
176
     1
 90
        2
176
     1
 90
        2
176
     1
 90
        0
176
     1
 40
0.6
176
     1
 40
30.0
176
     1
 62
     7
420
 16777215
176
     1
 90
        2
176
     1
 90
        2
176
     1
 62
     7
176
     1
 62
   257
176
     1
 90
        2
176
     1
 90
        1
176
     1
 40
40.0
176
     1
 90
        0
176
     1
 62
   257
176
     1
 40
1.0
176
     1
 90
        1
176
     1
 90
        6
176
     1
 90
        2
176
     1
 62
     7
176
     1
 90
        3
176
     1
 90
        0
176
     1
 90
        0
176
     1
290
     0
176
     1
 90
        1
176
     1
 40
0.0
176
     1
 90
        0
176
     1
290
     0
176
     1
290
     1
176
     1
290
     1
176
     1
290
     0
176
     1
290
     0
176
     1
290
     0
176
     1
290
     0
176
     1
290
     0
176
     1
290
     0
176
     1
 90
       50
176
     1
 40
0.0
176
     1
 40
1.0
176
     1
 90
        0
176
     1
 62
    18
420
        0
176
     1
 90
       50
176
     1
 90
        3
176
     1
 62
     5
420
      255
176
     1
290
     0
176
     1
 90
       50
176
     1
 90
       50
176
     1
 90
       50
176
     1
290
     0
176
     1
 90
       50
176
     1
 62
   256
176
     0
 40
1.0
176
     0
 90
        2
176
     1
  1
strokes_ogs.tif
176
     1
290
     0
176
     1
 40
1.0
176
     1
 40
1.0
176
     1
  0
VISUALSTYLE
  5
222
102
{ACAD_REACTORS
330
211
102
}
330
211
100
AcDbVisualStyle
  2
JitterOff
 70
    20
177
     3
291
     1
 70
    58
 90
        2
176
     0
 90
        2
176
     0
 90
        0
176
     0
 90
        0
176
     0
 40
0.6
176
     0
 40
30.0
176
     0
 62
     7
420
 16777215
176
     0
 90
        1
176
     0
 90
        4
176
     0
 62
     7
176
     0
 62
   257
176
     0
 90
        1
176
     0
 90
        1
176
     0
 40
1.0
176
     0
 90
       10
176
     2
 62
     7
176
     0
 40
1.0
176
     0
 90
        1
176
     0
 90
        6
176
     0
 90
        2
176
     0
 62
     7
176
     0
 90
        5
176
     0
 90
        0
176
     0
 90
        0
176
     0
290
     0
176
     0
 90
        1
176
     0
 40
0.0
176
     0
 90
        0
176
     0
290
     0
176
     0
290
     1
176
     0
290
     1
176
     0
290
     0
176
     0
290
     0
176
     0
290
     0
176
     0
290
     0
176
     0
290
     0
176
     0
290
     0
176
     0
 90
       50
176
     0
 40
0.0
176
     0
 40
1.0
176
     0
 90
        0
176
     0
 62
    18
420
        0
176
     0
 90
       50
176
     0
 90
        3
176
     0
 62
     5
420
      255
176
     0
290
     0
176
     0
 90
       50
176
     0
 90
       50
176
     0
 90
       50
176
     0
290
     0
176
     0
 90
       50
176
     0
 62
   256
176
     0
 40
1.0
176
     0
 90
        2
176
     0
  1
strokes_ogs.tif
176
     0
290
     0
176
     0
 40
1.0
176
     0
 40
1.0
176
     0
  0
VISUALSTYLE
  5
21F
102
{ACAD_REACTORS
330
211
102
}
330
211
100
AcDbVisualStyle
  2
Linepattern
 70
    14
177
     3
291
     1
 70
    58
 90
        2
176
     1
 90
        2
176
     1
 90
        0
176
     1
 90
        0
176
     1
 40
0.6
176
     1
 40
30.0
176
     1
 62
     7
420
 16777215
176
     1
 90
        1
176
     1
 90
        4
176
     1
 62
     7
176
     1
 62
   257
176
     1
 90
        7
176
     1
 90
        7
176
     1
 40
1.0
176
     1
 90
        8
176
     1
 62
     7
176
     1
 40
1.0
176
     1
 90
        1
176
     1
 90
        6
176
     1
 90
        2
176
     1
 62
     7
176
     1
 90
        5
176
     1
 90
        0
176
     1
 90
        0
176
     1
290
     0
176
     1
 90
        1
176
     1
 40
0.0
176
     1
 90
        0
176
     1
290
     0
176
     1
290
     1
176
     1
290
     1
176
     1
290
     0
176
     1
290
     0
176
     1
290
     0
176
     1
290
     0
176
     1
290
     0
176
     1
290
     0
176
     1
 90
       50
176
     1
 40
0.0
176
     1
 40
1.0
176
     1
 90
        0
176
     1
 62
    18
420
        0
176
     1
 90
       50
176
     1
 90
        3
176
     1
 62
     5
420
      255
176
     1
290
     0
176
     1
 90
       50
176
     1
 90
       50
176
     1
 90
       50
176
     1
290
     0
176
     1
 90
       50
176
     1
 62
   256
176
     0
 40
1.0
176
     0
 90
        2
176
     1
  1
strokes_ogs.tif
176
     1
290
     0
176
     1
 40
1.0
176
     1
 40
1.0
176
     1
  0
VISUALSTYLE
  5
223
102
{ACAD_REACTORS
330
211
102
}
330
211
100
AcDbVisualStyle
  2
OverhangOff
 70
    21
177
     3
291
     1
 70
    58
 90
        2
176
     0
 90
        2
176
     0
 90
        0
176
     0
 90
        0
176
     0
 40
0.6
176
     0
 40
30.0
176
     0
 62
     7
420
 16777215
176
     0
 90
        1
176
     0
 90
        4
176
     0
 62
     7
176
     0
 62
   257
176
     0
 90
        1
176
     0
 90
        1
176
     0
 40
1.0
176
     0
 90
        9
176
     2
 62
     7
176
     0
 40
1.0
176
     0
 90
        1
176
     0
 90
        6
176
     0
 90
        2
176
     0
 62
     7
176
     0
 90
        5
176
     0
 90
        0
176
     0
 90
        0
176
     0
290
     0
176
     0
 90
        1
176
     0
 40
0.0
176
     0
 90
        0
176
     0
290
     0
176
     0
290
     1
176
     0
290
     1
176
     0
290
     0
176
     0
290
     0
176
     0
290
     0
176
     0
290
     0
176
     0
290
     0
176
     0
290
     0
176
     0
 90
       50
176
     0
 40
0.0
176
     0
 40
1.0
176
     0
 90
        0
176
     0
 62
    18
420
        0
176
     0
 90
       50
176
     0
 90
        3
176
     0
 62
     5
420
      255
176
     0
290
     0
176
     0
 90
       50
176
     0
 90
       50
176
     0
 90
       50
176
     0
290
     0
176
     0
 90
       50
176
     0
 62
   256
176
     0
 40
1.0
176
     0
 90
        2
176
     0
  1
strokes_ogs.tif
176
     0
290
     0
176
     0
 40
1.0
176
     0
 40
1.0
176
     0
  0
VISUALSTYLE
  5
21A
102
{ACAD_REACTORS
330
211
102
}
330
211
100
AcDbVisualStyle
  2
Realistic
 70
     8
177
     3
291
     0
 70
    58
 90
        2
176
     1
 90
        3
176
     1
 90
        0
176
     1
 90
        2
176
     1
 40
0.6
176
     1
 40
30.0
176
     1
 62
     7
420
 16777215
176
     1
 90
        0
176
     1
 90
        0
176
     1
 62
     7
176
     1
 62
   257
176
     1
 90
        1
176
     1
 90
        1
176
     1
 40
1.0
176
     1
 90
        8
176
     1
 62
   257
176
     1
 40
1.0
176
     1
 90
        1
176
     1
 90
        6
176
     1
 90
        2
176
     1
 62
     7
176
     1
 90
        3
176
     1
 90
        0
176
     1
 90
        0
176
     1
290
     0
176
     1
 90
       13
176
     1
 40
0.0
176
     1
 90
        0
176
     1
290
     0
176
     1
290
     1
176
     1
290
     1
176
     1
290
     0
176
     1
290
     0
176
     1
290
     0
176
     1
290
     0
176
     1
290
     0
176
     1
290
     0
176
     1
 90
       50
176
     1
 40
0.0
176
     1
 40
1.0
176
     1
 90
        0
176
     1
 62
    18
420
        0
176
     1
 90
       50
176
     1
 90
        3
176
     1
 62
     5
420
      255
176
     1
290
     0
176
     1
 90
       50
176
     1
 90
       50
176
     1
 90
       50
176
     1
290
     0
176
     1
 90
       50
176
     1
 62
   256
176
     0
 40
1.0
176
     0
 90
        2
176
     1
  1
strokes_ogs.tif
176
     1
290
     0
176
     1
 40
1.0
176
     1
 40
1.0
176
     1
  0
VISUALSTYLE
  5
229
102
{ACAD_REACTORS
330
211
102
}
330
211
100
AcDbVisualStyle
  2
Shaded
 70
    27
177
     3
291
     0
 70
    58
 90
        2
176
     1
 90
        2
176
     1
 90
        1
176
     1
 90
        2
176
     1
 40
0.6
176
     1
 40
30.0
176
     1
 62
     7
420
 16777215
176
     1
 90
        0
176
     1
 90
        4
176
     1
 62
     7
176
     1
 62
   257
176
     1
 90
        1
176
     1
 90
        1
176
     1
 40
1.0
176
     1
 90
        8
176
     1
 62
   257
176
     1
 40
1.0
176
     1
 90
        1
176
     1
 90
        6
176
     1
 90
        2
176
     1
 62
     8
420
  7895160
176
     1
 90
        3
176
     1
 90
        0
176
     1
 90
        0
176
     1
290
     0
176
     1
 90
        5
176
     1
 40
0.0
176
     1
 90
        0
176
     1
290
     0
176
     1
290
     1
176
     1
290
     1
176
     1
290
     0
176
     1
290
     0
176
     1
290
     0
176
     1
290
     0
176
     1
290
     0
176
     1
290
     0
176
     1
 90
       50
176
     1
 40
0.0
176
     1
 40
1.0
176
     1
 90
        0
176
     1
 62
    18
420
        0
176
     1
 90
       50
176
     1
 90
        3
176
     1
 62
     5
420
      255
176
     1
290
     0
176
     1
 90
       50
176
     1
 90
       50
176
     1
 90
       50
176
     1
290
     0
176
     1
 90
       50
176
     1
 62
   256
176
     0
 40
1.0
176
     0
 90
        2
176
     1
  1
strokes_ogs.tif
176
     1
290
     0
176
     1
 40
1.0
176
     1
 40
1.0
176
     1
  0
VISUALSTYLE
  5
228
102
{ACAD_REACTORS
330
211
102
}
330
211
100
AcDbVisualStyle
  2
Shaded with edges
 70
    26
177
     3
291
     0
 70
    58
 90
        2
176
     1
 90
        2
176
     1
 90
        1
176
     1
 90
        2
176
     1
 40
0.6
176
     1
 40
30.0
176
     1
 62
     7
420
 16777215
176
     1
 90
        1
176
     1
 90
       10
176
     1
 62
     7
176
     1
 62
   257
176
     1
 90
        2
176
     1
 90
        1
176
     1
 40
1.0
176
     1
 90
        8
176
     1
 62
   257
176
     1
 40
1.0
176
     1
 90
        1
176
     1
 90
        6
176
     1
 90
        2
176
     1
 62
     7
176
     1
 90
        3
176
     1
 90
        0
176
     1
 90
        0
176
     1
290
     0
176
     1
 90
        5
176
     1
 40
0.0
176
     1
 90
        0
176
     1
290
     0
176
     1
290
     1
176
     1
290
     1
176
     1
290
     0
176
     1
290
     0
176
     1
290
     0
176
     1
290
     0
176
     1
290
     0
176
     1
290
     0
176
     1
 90
       50
176
     1
 40
0.0
176
     1
 40
1.0
176
     1
 90
        0
176
     1
 62
    18
420
        0
176
     1
 90
       50
176
     1
 90
        3
176
     1
 62
     5
420
      255
176
     1
290
     0
176
     1
 90
       50
176
     1
 90
       50
176
     1
 90
       50
176
     1
290
     0
176
     1
 90
       50
176
     1
 62
   256
176
     0
 40
1.0
176
     0
 90
        2
176
     1
  1
strokes_ogs.tif
176
     1
290
     0
176
     1
 40
1.0
176
     1
 40
1.0
176
     1
  0
VISUALSTYLE
  5
225
102
{ACAD_REACTORS
330
211
102
}
330
211
100
AcDbVisualStyle
  2
Shades of Gray
 70
    23
177
     3
291
     0
 70
    58
 90
        2
176
     1
 90
        2
176
     1
 90
        3
176
     1
 90
        0
176
     1
 40
0.6
176
     1
 40
30.0
176
     1
 62
     7
420
 16777215
176
     1
 90
        2
176
     1
 90
        2
176
     1
 62
     7
176
     1
 62
     7
176
     1
 90
        1
176
     1
 90
        1
176
     1
 40
40.0
176
     1
 90
        8
176
     1
 62
     7
176
     1
 40
1.0
176
     1
 90
        1
176
     1
 90
        6
176
     1
 90
        2
176
     1
 62
     7
176
     1
 90
        3
176
     1
 90
        0
176
     1
 90
        0
176
     1
290
     0
176
     1
 90
        1
176
     1
 40
0.0
176
     1
 90
        0
176
     1
290
     0
176
     1
290
     1
176
     1
290
     1
176
     1
290
     0
176
     1
290
     0
176
     1
290
     0
176
     1
290
     0
176
     1
290
     0
176
     1
290
     0
176
     1
 90
       50
176
     1
 40
0.0
176
     1
 40
1.0
176
     1
 90
        0
176
     1
 62
    18
420
        0
176
     1
 90
       50
176
     1
 90
        3
176
     1
 62
     5
420
      255
176
     1
290
     0
176
     1
 90
       50
176
     1
 90
       50
176
     1
 90
       50
176
     1
290
     0
176
     1
 90
       50
176
     1
 62
   256
176
     0
 40
1.0
176
     0
 90
        2
176
     1
  1
strokes_ogs.tif
176
     1
290
     0
176
     1
 40
1.0
176
     1
 40
1.0
176
     1
  0
VISUALSTYLE
  5
226
102
{ACAD_REACTORS
330
211
102
}
330
211
100
AcDbVisualStyle
  2
Sketchy
 70
    24
177
     3
291
     0
 70
    58
 90
        1
176
     1
 90
        2
176
     1
 90
        2
176
     1
 90
        0
176
     1
 40
0.6
176
     1
 40
30.0
176
     1
 62
     7
420
 16777215
176
     1
 90
        2
176
     1
 90
        2
176
     1
 62
     7
176
     1
 62
     7
176
     1
 90
        1
176
     1
 90
        1
176
     1
 40
40.0
176
     1
 90
       11
176
     1
 62
     7
176
     1
 40
1.0
176
     1
 90
        1
176
     1
 90
        6
176
     1
 90
        2
176
     1
 62
     7
176
     1
 90
        6
176
     1
 90
        0
176
     1
 90
        0
176
     1
290
     0
176
     1
 90
        1
176
     1
 40
0.0
176
     1
 90
        0
176
     1
290
     0
176
     1
290
     1
176
     1
290
     1
176
     1
290
     0
176
     1
290
     0
176
     1
290
     0
176
     1
290
     0
176
     1
290
     0
176
     1
290
     0
176
     1
 90
       50
176
     1
 40
0.0
176
     1
 40
1.0
176
     1
 90
        0
176
     1
 62
    18
420
        0
176
     1
 90
       50
176
     1
 90
        3
176
     1
 62
     5
420
      255
176
     1
290
     0
176
     1
 90
       50
176
     1
 90
       50
176
     1
 90
       50
176
     1
290
     0
176
     1
 90
       50
176
     1
 62
   256
176
     0
 40
1.0
176
     0
 90
        2
176
     1
  1
strokes_ogs.tif
176
     1
290
     0
176
     1
 40
1.0
176
     1
 40
1.0
176
     1
  0
VISUALSTYLE
  5
21E
102
{ACAD_REACTORS
330
211
102
}
330
211
100
AcDbVisualStyle
  2
Thicken
 70
    13
177
     3
291
     1
 70
    58
 90
        2
176
     1
 90
        2
176
     1
 90
        0
176
     1
 90
        0
176
     1
 40
0.6
176
     1
 40
30.0
176
     1
 62
     7
420
 16777215
176
     1
 90
        1
176
     1
 90
        4
176
     1
 62
     7
176
     1
 62
   257
176
     1
 90
        1
176
     1
 90
        1
176
     1
 40
1.0
176
     1
 90
       12
176
     1
 62
     7
176
     1
 40
1.0
176
     1
 90
        1
176
     1
 90
        6
176
     1
 90
        2
176
     1
 62
     7
176
     1
 90
        5
176
     1
 90
        0
176
     1
 90
        0
176
     1
290
     0
176
     1
 90
        1
176
     1
 40
0.0
176
     1
 90
        0
176
     1
290
     0
176
     1
290
     1
176
     1
290
     1
176
     1
290
     0
176
     1
290
     0
176
     1
290
     0
176
     1
290
     0
176
     1
290
     0
176
     1
290
     0
176
     1
 90
       50
176
     1
 40
0.0
176
     1
 40
1.0
176
     1
 90
        0
176
     1
 62
    18
420
        0
176
     1
 90
       50
176
     1
 90
        3
176
     1
 62
     5
420
      255
176
     1
290
     0
176
     1
 90
       50
176
     1
 90
       50
176
     1
 90
       50
176
     1
290
     0
176
     1
 90
       50
176
     1
 62
   256
176
     0
 40
1.0
176
     0
 90
        2
176
     1
  1
strokes_ogs.tif
176
     1
290
     0
176
     1
 40
1.0
176
     1
 40
1.0
176
     1
  0
VISUALSTYLE
  5
217
102
{ACAD_REACTORS
330
211
102
}
330
211
100
AcDbVisualStyle
  2
Wireframe
 70
     5
177
     3
291
     0
 70
    58
 90
        0
176
     1
 90
        2
176
     1
 90
        0
176
     1
 90
        0
176
     1
 40
0.6
176
     1
 40
30.0
176
     1
 62
     7
420
 16777215
176
     1
 90
        1
176
     1
 90
        4
176
     1
 62
     7
176
     1
 62
   257
176
     1
 90
        1
176
     1
 90
        1
176
     1
 40
1.0
176
     1
 90
        0
176
     1
 62
   257
176
     1
 40
1.0
176
     1
 90
        1
176
     1
 90
        6
176
     1
 90
        2
176
     1
 62
     7
176
     1
 90
        3
176
     1
 90
        0
176
     1
 90
        0
176
     1
290
     0
176
     1
 90
        1
176
     1
 40
0.0
176
     1
 90
        0
176
     1
290
     0
176
     1
290
     1
176
     1
290
     1
176
     1
290
     0
176
     1
290
     0
176
     1
290
     0
176
     1
290
     0
176
     1
290
     0
176
     1
290
     0
176
     1
 90
       50
176
     1
 40
0.0
176
     1
 40
1.0
176
     1
 90
        0
176
     1
 62
    18
420
        0
176
     1
 90
       50
176
     1
 90
        3
176
     1
 62
     5
420
      255
176
     1
290
     0
176
     1
 90
       50
176
     1
 90
       50
176
     1
 90
       50
176
     1
290
     0
176
     1
 90
       50
176
     1
 62
   256
176
     0
 40
1.0
176
     0
 90
        2
176
     1
  1
strokes_ogs.tif
176
     1
290
     0
176
     1
 40
1.0
176
     1
 40
1.0
176
     1
  0
VISUALSTYLE
  5
227
102
{ACAD_REACTORS
330
211
102
}
330
211
100
AcDbVisualStyle
  2
X-Ray
 70
    25
177
     3
291
     0
 70
    58
 90
        2
176
     1
 90
        2
176
     1
 90
        1
176
     1
 90
        1
176
     1
 40
0.5
176
     1
 40
30.0
176
     1
 62
     7
420
 16777215
176
     1
 90
        1
176
     1
 90
        0
176
     1
 62
     7
176
     1
 62
   257
176
     1
 90
        1
176
     1
 90
        1
176
     1
 40
1.0
176
     1
 90
        8
176
     1
 62
     7
176
     1
 40
1.0
176
     1
 90
        1
176
     1
 90
        6
176
     1
 90
        2
176
     1
 62
     7
176
     1
 90
        3
176
     1
 90
        0
176
     1
 90
        0
176
     1
290
     0
176
     1
 90
       13
176
     1
 40
0.0
176
     1
 90
        0
176
     1
290
     0
176
     1
290
     1
176
     1
290
     1
176
     1
290
     0
176
     1
290
     0
176
     1
290
     0
176
     1
290
     0
176
     1
290
     0
176
     1
290
     0
176
     1
 90
       50
176
     1
 40
0.0
176
     1
 40
1.0
176
     1
 90
        0
176
     1
 62
    18
420
        0
176
     1
 90
       50
176
     1
 90
        3
176
     1
 62
     5
420
      255
176
     1
290
     0
176
     1
 90
       50
176
     1
 90
       50
176
     1
 90
       50
176
     1
290
     0
176
     1
 90
       50
176
     1
 62
   256
176
     0
 40
1.0
176
     0
 90
        2
176
     1
  1
strokes_ogs.tif
176
     1
290
     0
176
     1
 40
1.0
176
     1
 40
1.0
176
     1
  0
DICTIONARYVAR
  5
234
102
{ACAD_REACTORS
330
233
102
}
330
233
100
DictionaryVariables
280
     0
  1
1:1
  0
DICTIONARYVAR
  5
236
102
{ACAD_REACTORS
330
233
102
}
330
233
100
DictionaryVariables
280
     0
  1
Standard
  0
DICTIONARYVAR
  5
235
102
{ACAD_REACTORS
330
233
102
}
330
233
100
DictionaryVariables
280
     0
  1
Standard
  0
DICTIONARYVAR
  5
237
102
{ACAD_REACTORS
330
233
102
}
330
233
100
DictionaryVariables
280
     0
  1
0
  0
DICTIONARY
  5
24C
330
22F
100
AcDbDictionary
280
     1
281
     1
  3
ACAD_ROUNDTRIP_2008_TABLESTYLE_CELLSTYLEMAP
360
24D
  0
CELLSTYLEMAP
  5
24D
102
{ACAD_REACTORS
330
24C
102
}
330
24C
100
AcDbCellStyleMap
 90
        3
300
CELLSTYLE
  1
TABLEFORMAT_BEGIN
 90
        5
170
     1
 91
        0
 92
    32768
 62
   257
 93
        1
300
CONTENTFORMAT
  1
CONTENTFORMAT_BEGIN
 90
        0
 91
        0
 92
        4
 93
        0
300

 40
0.0
140
1.0
 94
        5
 62
     0
340
17
144
6.0
309
CONTENTFORMAT_END
171
     1
301
MARGIN
  1
CELLMARGIN_BEGIN
 40
1.5
 40
1.5
 40
1.5
 40
1.5
 40
1.5
 40
1.5
309
CELLMARGIN_END
 94
        6
 95
        1
302
GRIDFORMAT
  1
GRIDFORMAT_BEGIN
 90
        0
 91
        1
 62
     0
 92
       -2
340
11
 93
        0
 40
0.045
309
GRIDFORMAT_END
 95
        2
302
GRIDFORMAT
  1
GRIDFORMAT_BEGIN
 90
        0
 91
        1
 62
     0
 92
       -2
340
11
 93
        0
 40
0.045
309
GRIDFORMAT_END
 95
        4
302
GRIDFORMAT
  1
GRIDFORMAT_BEGIN
 90
        0
 91
        1
 62
     0
 92
       -2
340
11
 93
        0
 40
0.045
309
GRIDFORMAT_END
 95
        8
302
GRIDFORMAT
  1
GRIDFORMAT_BEGIN
 90
        0
 91
        1
 62
     0
 92
       -2
340
11
 93
        0
 40
0.045
309
GRIDFORMAT_END
 95
       16
302
GRIDFORMAT
  1
GRIDFORMAT_BEGIN
 90
        0
 91
        1
 62
     0
 92
       -2
340
11
 93
        0
 40
0.045
309
GRIDFORMAT_END
 95
       32
302
GRIDFORMAT
  1
GRIDFORMAT_BEGIN
 90
        0
 91
        1
 62
     0
 92
       -2
340
11
 93
        0
 40
0.045
309
GRIDFORMAT_END
309
TABLEFORMAT_END
  1
CELLSTYLE_BEGIN
 90
        1
 91
        1
300
_TITLE
309
CELLSTYLE_END
300
CELLSTYLE
  1
TABLEFORMAT_BEGIN
 90
        5
170
     1
 91
        0
 92
        0
 62
   257
 93
        1
300
CONTENTFORMAT
  1
CONTENTFORMAT_BEGIN
 90
        0
 91
        0
 92
        4
 93
        0
300

 40
0.0
140
1.0
 94
        5
 62
     0
340
17
144
4.5
309
CONTENTFORMAT_END
171
     1
301
MARGIN
  1
CELLMARGIN_BEGIN
 40
1.5
 40
1.5
 40
1.5
 40
1.5
 40
1.5
 40
1.5
309
CELLMARGIN_END
 94
        6
 95
        1
302
GRIDFORMAT
  1
GRIDFORMAT_BEGIN
 90
        0
 91
        1
 62
     0
 92
       -2
340
11
 93
        0
 40
0.045
309
GRIDFORMAT_END
 95
        2
302
GRIDFORMAT
  1
GRIDFORMAT_BEGIN
 90
        0
 91
        1
 62
     0
 92
       -2
340
11
 93
        0
 40
0.045
309
GRIDFORMAT_END
 95
        4
302
GRIDFORMAT
  1
GRIDFORMAT_BEGIN
 90
        0
 91
        1
 62
     0
 92
       -2
340
11
 93
        0
 40
0.045
309
GRIDFORMAT_END
 95
        8
302
GRIDFORMAT
  1
GRIDFORMAT_BEGIN
 90
        0
 91
        1
 62
     0
 92
       -2
340
11
 93
        0
 40
0.045
309
GRIDFORMAT_END
 95
       16
302
GRIDFORMAT
  1
GRIDFORMAT_BEGIN
 90
        0
 91
        1
 62
     0
 92
       -2
340
11
 93
        0
 40
0.045
309
GRIDFORMAT_END
 95
       32
302
GRIDFORMAT
  1
GRIDFORMAT_BEGIN
 90
        0
 91
        1
 62
     0
 92
       -2
340
11
 93
        0
 40
0.045
309
GRIDFORMAT_END
309
TABLEFORMAT_END
  1
CELLSTYLE_BEGIN
 90
        2
 91
        1
300
_HEADER
309
CELLSTYLE_END
300
CELLSTYLE
  1
TABLEFORMAT_BEGIN
 90
        5
170
     1
 91
        0
 92
        0
 62
   257
 93
        1
300
CONTENTFORMAT
  1
CONTENTFORMAT_BEGIN
 90
        0
 91
        0
 92
        4
 93
        0
300

 40
0.0
140
1.0
 94
        2
 62
     0
340
17
144
4.5
309
CONTENTFORMAT_END
171
     1
301
MARGIN
  1
CELLMARGIN_BEGIN
 40
1.5
 40
1.5
 40
1.5
 40
1.5
 40
1.5
 40
1.5
309
CELLMARGIN_END
 94
        6
 95
        1
302
GRIDFORMAT
  1
GRIDFORMAT_BEGIN
 90
        0
 91
        1
 62
     0
 92
       -2
340
11
 93
        0
 40
0.045
309
GRIDFORMAT_END
 95
        2
302
GRIDFORMAT
  1
GRIDFORMAT_BEGIN
 90
        0
 91
        1
 62
     0
 92
       -2
340
11
 93
        0
 40
0.045
309
GRIDFORMAT_END
 95
        4
302
GRIDFORMAT
  1
GRIDFORMAT_BEGIN
 90
        0
 91
        1
 62
     0
 92
       -2
340
11
 93
        0
 40
0.045
309
GRIDFORMAT_END
 95
        8
302
GRIDFORMAT
  1
GRIDFORMAT_BEGIN
 90
        0
 91
        1
 62
     0
 92
       -2
340
11
 93
        0
 40
0.045
309
GRIDFORMAT_END
 95
       16
302
GRIDFORMAT
  1
GRIDFORMAT_BEGIN
 90
        0
 91
        1
 62
     0
 92
       -2
340
11
 93
        0
 40
0.045
309
GRIDFORMAT_END
 95
       32
302
GRIDFORMAT
  1
GRIDFORMAT_BEGIN
 90
        0
 91
        1
 62
     0
 92
       -2
340
11
 93
        0
 40
0.045
309
GRIDFORMAT_END
309
TABLEFORMAT_END
  1
CELLSTYLE_BEGIN
 90
        3
 91
        2
300
_DATA
309
CELLSTYLE_END
  0
ENDSEC
  0
EOF
