  0
SECTION
  2
HEADER
  9
$ACADVER
  1
AC1032
  9
$ACADMAINTVER
 90
        4
  9
$DWGCODEPAGE
  3
ANSI_932
  9
$LASTSAVEDBY
  1
9128
  9
$REQUIREDVERSIONS
160
                 0
  9
$INSBASE
 10
0.0
 20
0.0
 30
0.0
  9
$EXTMIN
 10
204.3023444298664
 20
55.04106017188128
 30
0.0
  9
$EXTMAX
 10
278.1920146285479
 20
223.7717564589793
 30
0.0
  9
$LIMMIN
 10
0.0
 20
0.0
  9
$LIMMAX
 10
0.0
 20
0.0
  9
$ORTHOMODE
 70
     0
  9
$REGENMODE
 70
     1
  9
$FILLMODE
 70
     1
  9
$QTEXTMODE
 70
     0
  9
$MIRRTEXT
 70
     1
  9
$LTSCALE
 40
5.08
  9
$ATTMODE
 70
     1
  9
$TEXTSIZE
 40
2.5
  9
$TRACEWID
 40
1.0
  9
$TEXTSTYLE
  7
Standard
  9
$CLAYER
  8
0
  9
$CELTYPE
  6
Continuous
  9
$CECOLOR
 62
   256
  9
$CELTSCALE
 40
1.0
  9
$DISPSILH
 70
     0
  9
$DIMSCALE
 40
1.0
  9
$DIMASZ
 40
0.18
  9
$DIMEXO
 40
0.0625
  9
$DIMDLI
 40
0.38
  9
$DIMRND
 40
0.0
  9
$DIMDLE
 40
0.0
  9
$DIMEXE
 40
0.18
  9
$DIMTP
 40
0.0
  9
$DIMTM
 40
0.0
  9
$DIMTXT
 40
0.18
  9
$DIMCEN
 40
0.09
  9
$DIMTSZ
 40
0.0
  9
$DIMTOL
 70
     0
  9
$DIMLIM
 70
     0
  9
$DIMTIH
 70
     1
  9
$DIMTOH
 70
     1
  9
$DIMSE1
 70
     0
  9
$DIMSE2
 70
     0
  9
$DIMTAD
 70
     0
  9
$DIMZIN
 70
     0
  9
$DIMBLK
  1

  9
$DIMASO
 70
     1
  9
$DIMSHO
 70
     1
  9
$DIMPOST
  1

  9
$DIMAPOST
  1

  9
$DIMALT
 70
     0
  9
$DIMALTD
 70
     2
  9
$DIMALTF
 40
25.4
  9
$DIMLFAC
 40
1.0
  9
$DIMTOFL
 70
     0
  9
$DIMTVP
 40
0.0
  9
$DIMTIX
 70
     0
  9
$DIMSOXD
 70
     0
  9
$DIMSAH
 70
     0
  9
$DIMBLK1
  1

  9
$DIMBLK2
  1

  9
$DIMSTYLE
  2
Standard
  9
$DIMCLRD
 70
     0
  9
$DIMCLRE
 70
     0
  9
$DIMCLRT
 70
     0
  9
$DIMTFAC
 40
1.0
  9
$DIMGAP
 40
0.09
  9
$DIMJUST
 70
     0
  9
$DIMSD1
 70
     0
  9
$DIMSD2
 70
     0
  9
$DIMTOLJ
 70
     1
  9
$DIMTZIN
 70
     0
  9
$DIMALTZ
 70
     0
  9
$DIMALTTZ
 70
     0
  9
$DIMUPT
 70
     0
  9
$DIMDEC
 70
     4
  9
$DIMTDEC
 70
     4
  9
$DIMALTU
 70
     2
  9
$DIMALTTD
 70
     2
  9
$DIMTXSTY
  7
Standard
  9
$DIMAUNIT
 70
     0
  9
$DIMADEC
 70
     0
  9
$DIMALTRND
 40
0.0
  9
$DIMAZIN
 70
     0
  9
$DIMDSEP
 70
     0
  9
$DIMATFIT
 70
     3
  9
$DIMFRAC
 70
     0
  9
$DIMLDRBLK
  1

  9
$DIMLUNIT
 70
     2
  9
$DIMLWD
 70
     0
  9
$DIMLWE
 70
     0
  9
$DIMTMOVE
 70
     0
  9
$DIMFXL
 40
1.0
  9
$DIMFXLON
 70
     0
  9
$DIMJOGANG
 40
0.7853981633974483
  9
$DIMTFILL
 70
     0
  9
$DIMTFILLCLR
 70
     0
  9
$DIMARCSYM
 70
     0
  9
$DIMLTYPE
  6

  9
$DIMLTEX1
  6

  9
$DIMLTEX2
  6

  9
$DIMTXTDIRECTION
 70
     0
  9
$LUNITS
 70
     2
  9
$LUPREC
 70
     4
  9
$SKETCHINC
 40
0.1
  9
$FILLETRAD
 40
0.0
  9
$AUNITS
 70
     0
  9
$AUPREC
 70
     0
  9
$MENU
  1
acad
  9
$ELEVATION
 40
0.0
  9
$PELEVATION
 40
0.0
  9
$THICKNESS
 40
0.0
  9
$LIMCHECK
 70
     0
  9
$CHAMFERA
 40
0.0
  9
$CHAMFERB
 40
0.0
  9
$CHAMFERC
 40
0.0
  9
$CHAMFERD
 40
0.0
  9
$SKPOLY
 70
     0
  9
$TDCREATE
 40
2447893.375
  9
$TDUCREATE
 40
0.0
  9
$TDUPDATE
 40
2459608.567109086
  9
$TDUUPDATE
 40
2459608.192109086
  9
$TDINDWG
 40
0.0008823495
  9
$TDUSRTIMER
 40
0.0001022454
  9
$USRTIMER
 70
     1
  9
$ANGBASE
 50
0.0
  9
$ANGDIR
 70
     0
  9
$PDMODE
 70
     1
  9
$PDSIZE
 40
-2.0
  9
$PLINEWID
 40
0.0
  9
$SPLFRAME
 70
     0
  9
$SPLINETYPE
 70
     6
  9
$SPLINESEGS
 70
     8
  9
$HANDSEED
  5
23F
  9
$SURFTAB1
 70
     6
  9
$SURFTAB2
 70
     6
  9
$SURFTYPE
 70
     6
  9
$SURFU
 70
     6
  9
$SURFV
 70
     6
  9
$UCSBASE
  2

  9
$UCSNAME
  2

  9
$UCSORG
 10
0.0
 20
0.0
 30
0.0
  9
$UCSXDIR
 10
1.0
 20
0.0
 30
0.0
  9
$UCSYDIR
 10
0.0
 20
1.0
 30
0.0
  9
$UCSORTHOREF
  2

  9
$UCSORTHOVIEW
 70
     0
  9
$UCSORGTOP
 10
0.0
 20
0.0
 30
0.0
  9
$UCSORGBOTTOM
 10
0.0
 20
0.0
 30
0.0
  9
$UCSORGLEFT
 10
0.0
 20
0.0
 30
0.0
  9
$UCSORGRIGHT
 10
0.0
 20
0.0
 30
0.0
  9
$UCSORGFRONT
 10
0.0
 20
0.0
 30
0.0
  9
$UCSORGBACK
 10
0.0
 20
0.0
 30
0.0
  9
$PUCSBASE
  2

  9
$PUCSNAME
  2

  9
$PUCSORG
 10
0.0
 20
0.0
 30
0.0
  9
$PUCSXDIR
 10
1.0
 20
0.0
 30
0.0
  9
$PUCSYDIR
 10
0.0
 20
1.0
 30
0.0
  9
$PUCSORTHOREF
  2

  9
$PUCSORTHOVIEW
 70
     0
  9
$PUCSORGTOP
 10
0.0
 20
0.0
 30
0.0
  9
$PUCSORGBOTTOM
 10
0.0
 20
0.0
 30
0.0
  9
$PUCSORGLEFT
 10
0.0
 20
0.0
 30
0.0
  9
$PUCSORGRIGHT
 10
0.0
 20
0.0
 30
0.0
  9
$PUCSORGFRONT
 10
0.0
 20
0.0
 30
0.0
  9
$PUCSORGBACK
 10
0.0
 20
0.0
 30
0.0
  9
$USERI1
 70
     0
  9
$USERI2
 70
     0
  9
$USERI3
 70
     0
  9
$USERI4
 70
     0
  9
$USERI5
 70
     0
  9
$USERR1
 40
0.0
  9
$USERR2
 40
0.0
  9
$USERR3
 40
0.0
  9
$USERR4
 40
0.0
  9
$USERR5
 40
0.0
  9
$WORLDVIEW
 70
     1
  9
$SHADEDGE
 70
     3
  9
$SHADEDIF
 70
    70
  9
$TILEMODE
 70
     1
  9
$MAXACTVP
 70
    16
  9
$PINSBASE
 10
0.0
 20
0.0
 30
0.0
  9
$PLIMCHECK
 70
     0
  9
$PEXTMIN
 10
1.000000000000000E+20
 20
1.000000000000000E+20
 30
1.000000000000000E+20
  9
$PEXTMAX
 10
-1.000000000000000E+20
 20
-1.000000000000000E+20
 30
-1.000000000000000E+20
  9
$PLIMMIN
 10
0.0
 20
0.0
  9
$PLIMMAX
 10
0.0
 20
0.0
  9
$UNITMODE
 70
     0
  9
$VISRETAIN
 70
     0
  9
$PLINEGEN
 70
     1
  9
$PSLTSCALE
 70
     0
  9
$TREEDEPTH
 70
  3020
  9
$CMLSTYLE
  2
Standard
  9
$CMLJUST
 70
     0
  9
$CMLSCALE
 40
1.0
  9
$PROXYGRAPHICS
 70
     0
  9
$MEASUREMENT
 70
     1
  9
$CELWEIGHT
370
     0
  9
$ENDCAPS
280
     0
  9
$JOINSTYLE
280
     0
  9
$LWDISPLAY
290
     1
  9
$INSUNITS
 70
     4
  9
$HYPERLINKBASE
  1

  9
$STYLESHEET
  1

  9
$XEDIT
290
     1
  9
$CEPSNTYPE
380
     0
  9
$PSTYLEMODE
290
     1
  9
$FINGERPRINTGUID
  2

  9
$VERSIONGUID
  2

  9
$EXTNAMES
290
     1
  9
$PSVPSCALE
 40
0.0
  9
$OLESTARTUP
290
     0
  9
$SORTENTS
280
   127
  9
$INDEXCTL
280
     0
  9
$HIDETEXT
280
     1
  9
$XCLIPFRAME
280
     2
  9
$HALOGAP
280
     0
  9
$OBSCOLOR
 70
   257
  9
$OBSLTYPE
280
     0
  9
$INTERSECTIONDISPLAY
280
     0
  9
$INTERSECTIONCOLOR
 70
   257
  9
$DIMASSOC
280
     2
  9
$PROJECTNAME
  1

  9
$CAMERADISPLAY
290
     0
  9
$LENSLENGTH
 40
50.0
  9
$CAMERAHEIGHT
 40
0.0
  9
$STEPSPERSEC
 40
2.0
  9
$STEPSIZE
 40
6.0
  9
$3DDWFPREC
 40
2.0
  9
$PSOLWIDTH
 40
0.25
  9
$PSOLHEIGHT
 40
4.0
  9
$LOFTANG1
 40
1.570796326794897
  9
$LOFTANG2
 40
1.570796326794897
  9
$LOFTMAG1
 40
0.0
  9
$LOFTMAG2
 40
0.0
  9
$LOFTPARAM
 70
     7
  9
$LOFTNORMALS
280
     1
  9
$LATITUDE
 40
37.795
  9
$LONGITUDE
 40
-122.394
  9
$NORTHDIRECTION
 40
0.0
  9
$TIMEZONE
 70
 -8000
  9
$LIGHTGLYPHDISPLAY
280
     1
  9
$TILEMODELIGHTSYNCH
280
     1
  9
$SOLIDHIST
280
     0
  9
$SHOWHIST
280
     1
  9
$DWFFRAME
280
     2
  9
$DGNFRAME
280
     2
  9
$REALWORLDSCALE
290
     1
  9
$INTERFERECOLOR
 62
   256
  9
$CSHADOW
280
     0
  9
$SHADOWPLANELOCATION
 40
0.0
  0
ENDSEC
  0
SECTION
  2
CLASSES
  0
CLASS
  1
LWPOLYLINE
  2
AcDbPolyline
  3
ObjectDBX Classes
 90
        0
 91
        1
280
     0
281
     1
  0
CLASS
  1
IMAGE
  2
AcDbRasterImage
  3
ISM
 90
      127
 91
        4
280
     0
281
     1
  0
CLASS
  1
OLE2FRAME
  2
AcDbOle2Frame
  3
ObjectDBX Classes
 90
        0
 91
        1
280
     0
281
     1
  0
CLASS
  1
HATCH
  2
AcDbHatch
  3
ObjectDBX Classes
 90
        0
 91
        1
280
     0
281
     1
  0
CLASS
  1
DICTIONARYVAR
  2
AcDbDictionaryVar
  3
ObjectDBX Classes
 90
        0
 91
        3
280
     0
281
     0
  0
CLASS
  1
RASTERVARIABLES
  2
AcDbRasterVariables
  3
ISM
 90
        0
 91
        3
280
     0
281
     0
  0
CLASS
  1
IMAGEDEF
  2
AcDbRasterImageDef
  3
ISM
 90
        0
 91
        3
280
     0
281
     0
  0
CLASS
  1
IMAGEDEF_REACTOR
  2
AcDbRasterImageDefReactor
  3
ISM
 90
        1
 91
        3
280
     0
281
     0
  0
CLASS
  1
IDBUFFER
  2
AcDbIdBuffer
  3
ObjectDBX Classes
 90
        0
 91
        3
280
     0
281
     0
  0
CLASS
  1
SPATIAL_FILTER
  2
AcDbSpatialFilter
  3
ObjectDBX Classes
 90
        0
 91
        3
280
     0
281
     0
  0
CLASS
  1
XRECORD
  2
AcDbXrecord
  3
ObjectDBX Classes
 90
        0
 91
        1
280
     0
281
     0
  0
CLASS
  1
SORTENTSTABLE
  2
AcDbSortentsTable
  3
ObjectDBX Classes
 90
        0
 91
        3
280
     0
281
     0
  0
CLASS
  1
LAYER_INDEX
  2
AcDbLayerIndex
  3
ObjectDBX Classes
 90
        0
 91
        3
280
     0
281
     0
  0
CLASS
  1
SPATIAL_INDEX
  2
AcDbSpatialIndex
  3
AutoCAD 2000
 90
        0
 91
        3
280
     0
281
     0
  0
CLASS
  1
OBJECT_PTR
  2
CAseDLPNTableRecord
  3
ASE-LPNTableRecord
 90
        1
 91
        3
280
     0
281
     0
  0
CLASS
  1
LAYOUT
  2
AcDbLayout
  3
ObjectDBX Classes
 90
        0
 91
        1
280
     0
281
     0
  0
CLASS
  1
PLOTSETTINGS
  2
AcDbPlotSettings
  3
ObjectDBX Classes
 90
        0
 91
        3
280
     0
281
     0
  0
CLASS
  1
ACDBDICTIONARYWDFLT
  2
AcDbDictionaryWithDefault
  3
ObjectDBX Classes
 90
        0
 91
        3
280
     0
281
     0
  0
CLASS
  1
ACDBPLACEHOLDER
  2
AcDbPlaceHolder
  3
ObjectDBX Classes
 90
        0
 91
        1
280
     0
281
     0
  0
CLASS
  1
VBA_PROJECT
  2
AcDbVbaProject
  3
ObjectDBX Classes
 90
        0
 91
        1
280
     0
281
     0
  0
CLASS
  1
WIPEOUT
  2
AcDbWipeout
  3
WipeOut|AutoCAD Express Tool|expresstools@autodesk.com
 90
      127
 91
        3
280
     0
281
     1
  0
CLASS
  1
WIPEOUTVARIABLES
  2
AcDbWipeoutVariables
  3
WipeOut|AutoCAD Express Tool|expresstools@autodesk.com
 90
        0
 91
        3
280
     0
281
     0
  0
CLASS
  1
RTEXT
  2
RText
  3
RText|AutoCAD Express Tool|expresstools@autodesk.com
 90
        0
 91
        3
280
     0
281
     1
  0
CLASS
  1
ARCALIGNEDTEXT
  2
AcDbArcAlignedText
  3
ATEXT|AutoCAD Express Tool|expresstools@autodesk.com
 90
        0
 91
        3
280
     0
281
     1
  0
CLASS
  1
SCALE
  2
AcDbScale
  3
ObjectDBX Classes
 90
     1153
 91
        3
280
     0
281
     0
  0
CLASS
  1
VISUALSTYLE
  2
AcDbVisualStyle
  3
ObjectDBX Classes
 90
     4095
 91
        3
280
     0
281
     0
  0
CLASS
  1
MATERIAL
  2
AcDbMaterial
  3
ObjectDBX Classes
 90
     1153
 91
        3
280
     0
281
     0
  0
CLASS
  1
TABLESTYLE
  2
AcDbTableStyle
  3
ObjectDBX Classes
 90
     4095
 91
        3
280
     0
281
     0
  0
CLASS
  1
MLEADERSTYLE
  2
AcDbMLeaderStyle
  3
ACDB_MLEADERSTYLE_CLASS
 90
     4095
 91
        3
280
     0
281
     0
  0
CLASS
  1
SUN
  2
AcDbSun
  3
SCENEOE
 90
     1153
 91
        3
280
     0
281
     0
  0
CLASS
  1
CELLSTYLEMAP
  2
AcDbCellStyleMap
  3
ObjectDBX Classes
 90
     1152
 91
        3
280
     0
281
     0
  0
ENDSEC
  0
SECTION
  2
TABLES
  0
TABLE
  2
VPORT
  5
7
330
0
100
AcDbSymbolTable
 70
     1
  0
VPORT
  5
15
330
7
100
AcDbSymbolTableRecord
100
AcDbViewportTableRecord
  2
*ACTIVE
 70
     0
 10
0.0
 20
0.0
 11
1.0
 21
1.0
 12
240.7168433253789
 22
126.3741909143714
 13
0.0
 23
0.0
 14
1.0
 24
1.0
 15
0.0
 25
0.0
 16
0.0
 26
0.0
 36
1.0
 17
0.0
 27
0.0
 37
0.0
 40
297.777977815593
 41
0.9324116743471582
 42
50.0
 43
0.0
 44
0.0
 50
0.0
 51
0.0
 71
    16
 72
   100
 73
     1
 74
     1
 75
     0
 76
     0
 77
     0
 78
     0
281
     0
 65
     0
110
0.0
120
0.0
130
0.0
111
1.0
121
0.0
131
0.0
112
0.0
122
1.0
132
0.0
 79
     0
146
0.0
348
206
 60
     3
 61
     5
292
     1
282
     1
141
0.0
142
0.0
 63
   256
361
22A
  0
ENDTAB
  0
TABLE
  2
LTYPE
  5
4
330
0
100
AcDbSymbolTable
 70
    12
  0
LTYPE
  5
11
330
4
100
AcDbSymbolTableRecord
100
AcDbLinetypeTableRecord
  2
ByBlock
 70
     0
  3

 72
    65
 73
     0
 40
0.0
  0
LTYPE
  5
12
330
4
100
AcDbSymbolTableRecord
100
AcDbLinetypeTableRecord
  2
ByLayer
 70
     0
  3

 72
    65
 73
     0
 40
0.0
  0
LTYPE
  5
13
330
4
100
AcDbSymbolTableRecord
100
AcDbLinetypeTableRecord
  2
Continuous
 70
     0
  3
Solid line
 72
    65
 73
     0
 40
0.0
  0
LTYPE
  5
26
330
4
100
AcDbSymbolTableRecord
100
AcDbLinetypeTableRecord
  2
STYLE_01
 70
     0
  3

 72
    65
 73
     2
 40
0.075
 49
0.05
 74
     0
 49
-0.025
 74
     0
  0
LTYPE
  5
27
330
4
100
AcDbSymbolTableRecord
100
AcDbLinetypeTableRecord
  2
STYLE_02
 70
     0
  3

 72
    65
 73
     6
 40
0.4999999999999999
 49
0.25
 74
     0
 49
-0.05
 74
     0
 49
0.05
 74
     0
 49
-0.05
 74
     0
 49
0.05
 74
     0
 49
-0.05
 74
     0
  0
LTYPE
  5
28
330
4
100
AcDbSymbolTableRecord
100
AcDbLinetypeTableRecord
  2
STYLE_03
 70
     0
  3

 72
    65
 73
     4
 40
0.3999999999999999
 49
0.25
 74
     0
 49
-0.05
 74
     0
 49
0.05
 74
     0
 49
-0.05
 74
     0
  0
LTYPE
  5
29
330
4
100
AcDbSymbolTableRecord
100
AcDbLinetypeTableRecord
  2
STYLE_04
 70
     0
  3

 72
    65
 73
     4
 40
0.7999999999999998
 49
0.4999999999999999
 74
     0
 49
-0.1
 74
     0
 49
0.1
 74
     0
 49
-0.1
 74
     0
  0
LTYPE
  5
2A
330
4
100
AcDbSymbolTableRecord
100
AcDbLinetypeTableRecord
  2
STYLE_05
 70
     0
  3

 72
    65
 73
     2
 40
0.025
 49
0.0005
 74
     0
 49
-0.0245
 74
     0
  0
LTYPE
  5
2B
330
4
100
AcDbSymbolTableRecord
100
AcDbLinetypeTableRecord
  2
STYLE_06
 70
     0
  3

 72
    65
 73
     4
 40
1.04164
 49
0.625
 74
     0
 49
-0.20828
 74
     0
 49
0.06943
 74
     0
 49
-0.13893
 74
     0
  0
LTYPE
  5
2C
330
4
100
AcDbSymbolTableRecord
100
AcDbLinetypeTableRecord
  2
STYLE_07
 70
     0
  3

 72
    65
 73
     6
 40
1.875
 49
0.625
 74
     0
 49
-0.20828
 74
     0
 49
0.6250000000000001
 74
     0
 49
-0.2083599999999999
 74
     0
 49
0.06943
 74
     0
 49
-0.1389299999999999
 74
     0
  0
LTYPE
  5
2D
330
4
100
AcDbSymbolTableRecord
100
AcDbLinetypeTableRecord
  2
STYLE_08
 70
     0
  3

 72
    65
 73
     6
 40
1.25
 49
0.625
 74
     0
 49
-0.20828
 74
     0
 49
0.06943
 74
     0
 49
-0.13893
 74
     0
 49
0.0694299999999999
 74
     0
 49
-0.13893
 74
     0
  0
LTYPE
  5
2E
330
4
100
AcDbSymbolTableRecord
100
AcDbLinetypeTableRecord
  2
STYLE_09
 70
     0
  3

 72
    65
 73
     4
 40
5.0
 49
3.75
 74
     0
 49
-0.2777849999999998
 74
     0
 49
0.6944300000000003
 74
     0
 49
-0.2777849999999998
 74
     0
  0
LTYPE
  5
2F
330
4
100
AcDbSymbolTableRecord
100
AcDbLinetypeTableRecord
  2
STYLE_10
 70
     0
  3

 72
    65
 73
     6
 40
5.9375
 49
3.75
 74
     0
 49
-0.2777849999999998
 74
     0
 49
0.6944300000000003
 74
     0
 49
-0.2777849999999998
 74
     0
 49
0.625
 74
     0
 49
-0.3125
 74
     0
  0
LTYPE
  5
30
330
4
100
AcDbSymbolTableRecord
100
AcDbLinetypeTableRecord
  2
STYLE_11
 70
     0
  3

 72
    65
 73
     2
 40
0.1875
 49
0.125
 74
     0
 49
-0.0625
 74
     0
  0
ENDTAB
  0
TABLE
  2
LAYER
  5
2
330
0
100
AcDbSymbolTable
 70
     6
  0
LAYER
  5
14
330
2
100
AcDbSymbolTableRecord
100
AcDbLayerTableRecord
  2
0
 70
     0
 62
     7
  6
Continuous
370
    15
390
1D
347
21D
348
0
  0
LAYER
  5
31
330
2
100
AcDbSymbolTableRecord
100
AcDbLayerTableRecord
  2
Defpoints
 70
     0
 62
     7
  6
Continuous
290
     0
370
    -3
390
1D
347
21D
348
0
  0
LAYER
  5
32
330
2
100
AcDbSymbolTableRecord
100
AcDbLayerTableRecord
  2
一般
 70
     0
 62
     7
  6
Continuous
370
     5
390
1D
347
21D
348
0
  0
LAYER
  5
33
330
2
100
AcDbSymbolTableRecord
100
AcDbLayerTableRecord
  2
寸法
 70
     0
 62
     7
  6
Continuous
370
     5
390
1D
347
21D
348
0
  0
LAYER
  5
34
330
2
100
AcDbSymbolTableRecord
100
AcDbLayerTableRecord
  2
レイヤー_1
 70
     0
 62
    19
  6
Continuous
370
    15
390
1D
347
21D
348
0
  0
LAYER
  5
35
330
2
100
AcDbSymbolTableRecord
100
AcDbLayerTableRecord
  2
FORMAT
 70
     0
 62
     7
  6
Continuous
370
    15
390
1D
347
21D
348
0
  0
ENDTAB
  0
TABLE
  2
STYLE
  5
3
330
0
100
AcDbSymbolTable
 70
     2
  0
STYLE
  5
17
330
3
100
AcDbSymbolTableRecord
100
AcDbTextStyleTableRecord
  2
Standard
 70
     0
 40
0.0
 41
1.0
 50
0.0
 71
     0
 42
2.5
  3
txt
  4
BIGFONT.SHX
  0
STYLE
  5
25
330
3
100
AcDbSymbolTableRecord
100
AcDbTextStyleTableRecord
  2
Arial
 70
     0
 40
0.0
 41
1.0
 50
0.0
 71
     0
 42
0.0
  3
Arial
  4

1001
ACAD
1000
Arial
1071
        0
  0
ENDTAB
  0
TABLE
  2
VIEW
  5
5
330
0
100
AcDbSymbolTable
 70
     0
  0
ENDTAB
  0
TABLE
  2
UCS
  5
6
330
0
100
AcDbSymbolTable
 70
     0
  0
ENDTAB
  0
TABLE
  2
APPID
  5
8
330
0
100
AcDbSymbolTable
 70
     2
  0
APPID
  5
16
330
8
100
AcDbSymbolTableRecord
100
AcDbRegAppTableRecord
  2
ACAD
 70
     0
  0
APPID
  5
23B
330
8
100
AcDbSymbolTableRecord
100
AcDbRegAppTableRecord
  2
PLOTTRANSPARENCY
 70
     0
  0
ENDTAB
  0
TABLE
  2
DIMSTYLE
  5
9
330
0
100
AcDbSymbolTable
 70
     1
100
AcDbDimStyleTable
  0
DIMSTYLE
105
18
330
9
100
AcDbSymbolTableRecord
100
AcDbDimStyleTableRecord
  2
Standard
 70
     0
178
     0
340
17
  0
ENDTAB
  0
TABLE
  2
BLOCK_RECORD
  5
1
330
0
100
AcDbSymbolTable
 70
     1
  0
BLOCK_RECORD
  5
A
330
1
100
AcDbSymbolTableRecord
100
AcDbBlockTableRecord
  2
*MODEL_SPACE
340
20
 70
     0
280
     1
281
     0
  0
BLOCK_RECORD
  5
B
330
1
100
AcDbSymbolTableRecord
100
AcDbBlockTableRecord
  2
*PAPER_SPACE
340
21
 70
     0
280
     1
281
     0
  0
BLOCK_RECORD
  5
24
330
1
100
AcDbSymbolTableRecord
100
AcDbBlockTableRecord
  2
*U0
340
0
102
{BLKREFS
331
1DE
102
}
 70
     0
280
     1
281
     0
  0
ENDTAB
  0
ENDSEC
  0
SECTION
  2
BLOCKS
  0
BLOCK
  5
D
330
A
100
AcDbEntity
  8
0
100
AcDbBlockBegin
  2
*MODEL_SPACE
 70
     0
 10
0.0
 20
0.0
 30
0.0
  3
*MODEL_SPACE
  1

  0
ENDBLK
  5
E
330
A
100
AcDbEntity
  8
0
100
AcDbBlockEnd
  0
BLOCK
  5
F
330
B
100
AcDbEntity
 67
     1
  8
0
100
AcDbBlockBegin
  2
*PAPER_SPACE
 70
     0
 10
0.0
 20
0.0
 30
0.0
  3
*PAPER_SPACE
  1

  0
ENDBLK
  5
10
330
B
100
AcDbEntity
 67
     1
  8
0
100
AcDbBlockEnd
  0
BLOCK
  5
36
330
24
100
AcDbEntity
  8
一般
100
AcDbBlockBegin
  2
*U0
 70
     1
 10
0.0
 20
0.0
 30
0.0
  3
*U0
  1

  0
LINE
  5
37
330
24
100
AcDbEntity
  8
0
  6
Continuous
 62
     7
370
    15
100
AcDbLine
 10
-26.96230131649941
 20
285.3405313336003
 30
0.0
 11
-6.896772615499458
 21
-454.9899801419999
 31
0.0
  0
LINE
  5
38
330
24
100
AcDbEntity
  8
0
  6
Continuous
 62
     7
370
    15
100
AcDbLine
 10
91.56104004290057
 20
-450.4490591275999
 30
0.0
 11
71.49606627510059
 21
289.8609777350001
 31
0.0
  0
LINE
  5
39
330
24
100
AcDbEntity
  8
0
  6
Continuous
 62
     7
370
    15
100
AcDbLine
 10
-24.1017219238995
 20
290.4597722394001
 30
0.0
 11
24.66120215090064
 21
279.1015544636001
 31
0.0
  0
ARC
  5
3A
330
24
100
AcDbEntity
  8
0
  6
Continuous
 62
     7
370
    15
100
AcDbCircle
 10
25.34176717570062
 20
282.0233400130001
 30
0.0
 40
3.000000000000121
100
AcDbArc
 50
256.8880407683
 51
290.2502952889001
  0
LINE
  5
3B
330
24
100
AcDbEntity
  8
0
  6
Continuous
 62
     7
370
    15
100
AcDbLine
 10
26.3801350569006
 20
279.2087715066003
 30
0.0
 11
68.56595482370051
 21
294.7721890832002
 31
0.0
  0
LINE
  5
3C
330
24
100
AcDbEntity
  8
0
  6
Continuous
 62
     7
370
    15
100
AcDbLine
 10
66.53979658010053
 20
362.0635705398002
 30
0.0
 11
17.77687250530062
 21
373.4217883154001
 31
0.0
  0
ARC
  5
3D
330
24
100
AcDbEntity
  8
0
  6
Continuous
 62
     7
370
    15
100
AcDbCircle
 10
-25.08951443329943
 20
354.9365816036002
 30
0.0
 40
3.00000000000003
100
AcDbArc
 50
110.2502952889008
 51
181.552534576398
  0
LINE
  5
3E
330
24
100
AcDbEntity
  8
0
  6
Continuous
 62
     7
370
    15
100
AcDbLine
 10
-28.08841228589949
 20
354.8553007122001
 30
0.0
 11
-26.4200573358994
 21
293.3002780716002
 31
0.0
  0
LINE
  5
3F
330
24
100
AcDbEntity
  8
0
  6
Continuous
 62
     7
370
    15
100
AcDbLine
 10
16.05793962950054
 20
373.3145701616002
 30
0.0
 11
-26.12788013729937
 21
357.7511525848002
 31
0.0
  0
ARC
  5
40
330
24
100
AcDbEntity
  8
0
  6
Continuous
 62
     7
370
    15
100
AcDbCircle
 10
65.8592341989006
 20
359.1417816260001
 30
0.0
 40
3.000000000000049
100
AcDbArc
 50
1.552534576398007
 51
76.8880407682997
  0
LINE
  5
41
330
24
100
AcDbEntity
  8
0
  6
Continuous
 62
     7
370
    15
100
AcDbLine
 10
70.52648703850059
 20
297.6680385118003
 30
0.0
 11
68.85813208830052
 21
359.2230611522
 31
0.0
  0
ARC
  5
42
330
24
100
AcDbEntity
  8
0
  6
Continuous
 62
     7
370
    15
100
AcDbCircle
 10
-23.42115946769945
 20
293.3815583870001
 30
0.0
 40
3.000000000000049
100
AcDbArc
 50
181.552534576398
 51
256.8880407682997
  0
ARC
  5
43
330
24
100
AcDbEntity
  8
0
  6
Continuous
 62
     7
370
    15
100
AcDbCircle
 10
67.52758916450057
 20
297.5867584096002
 30
0.0
 40
2.999999999999991
100
AcDbArc
 50
290.2502952888988
 51
1.552534576398102
  0
ARC
  5
44
330
24
100
AcDbEntity
  8
0
  6
Continuous
 62
     7
370
    15
100
AcDbCircle
 10
17.09630755550052
 20
370.5
 30
0.0
 40
2.9999999999999
100
AcDbArc
 50
76.88804076829899
 51
110.2502952888968
  0
SPLINE
  5
45
330
24
100
AcDbEntity
  8
0
  6
Continuous
 62
     7
370
    15
100
AcDbSpline
210
0.0
220
0.0
230
1.0
 70
     8
 71
     2
 72
    16
 73
    13
 74
     0
 42
0.000000001
 43
0.000001
 40
0.0
 40
0.0
 40
0.0
 40
1.0
 40
1.0
 40
2.0
 40
3.0
 40
4.0
 40
5.0
 40
6.0
 40
7.0
 40
8.0
 40
8.0
 40
9.0
 40
9.0
 40
9.0
 10
-27.01921601017284
 20
288.5107656619739
 30
0.0
 10
-27.01987226298286
 20
288.510390929237
 30
0.0
 10
-27.02052851579288
 20
288.5100161965
 30
0.0
 10
-27.06144150199293
 20
288.4869537697646
 30
0.0
 10
-27.1657592342583
 20
288.4243577982771
 30
0.0
 10
-27.27827443492436
 20
288.3185479423863
 30
0.0
 10
-27.3469544875486
 20
288.2159083223601
 30
0.0
 10
-27.38449763019275
 20
288.1319717277461
 30
0.0
 10
-27.39751919302876
 20
288.0660290621996
 30
0.0
 10
-27.40462848879201
 20
288.0043349096996
 30
0.0
 10
-27.40701822967071
 20
287.9625013711553
 30
0.0
 10
-27.40706152887094
 20
287.9618271456541
 30
0.0
 10
-27.40710482807117
 20
287.961152920153
 30
0.0
  0
LINE
  5
46
330
24
100
AcDbEntity
  8
0
  6
Continuous
 62
     7
370
    15
100
AcDbLine
 10
-27.40764054469946
 20
287.9699559514002
 30
0.0
 11
-27.38652632329945
 21
285.5746593522002
 31
0.0
  0
LINE
  5
47
330
24
100
AcDbEntity
  8
0
  6
Continuous
 62
     7
370
    15
100
AcDbLine
 10
-22.66228924649943
 20
290.1244888934003
 30
0.0
 11
-26.96954628229946
 21
288.5354326602001
 31
0.0
  0
SPLINE
  5
48
330
24
100
AcDbEntity
  8
0
  6
Continuous
 62
     7
370
    15
100
AcDbSpline
210
0.0
220
0.0
230
1.0
 70
     8
 71
     2
 72
    16
 73
    13
 74
     0
 42
0.000000001
 43
0.000001
 40
0.0
 40
0.0
 40
0.0
 40
1.0
 40
1.0
 40
2.0
 40
3.0
 40
4.0
 40
5.0
 40
6.0
 40
7.0
 40
8.0
 40
8.0
 40
9.0
 40
9.0
 40
9.0
 10
71.79739841996332
 20
292.5277724608077
 30
0.0
 10
71.79726073238106
 20
292.5284954591417
 30
0.0
 10
71.79712304479881
 20
292.5292184574756
 30
0.0
 10
71.78910966116314
 20
292.5741395121846
 30
0.0
 10
71.77251425215002
 20
292.6399408013368
 30
0.0
 10
71.74225940099632
 20
292.7262361037404
 30
0.0
 10
71.667382550522
 20
292.8256941033911
 30
0.0
 10
71.5928244247026
 20
292.8999125898011
 30
0.0
 10
71.48221721906702
 20
292.9825322786629
 30
0.0
 10
71.35626375304946
 20
293.0404379520886
 30
0.0
 10
71.30838357694256
 20
293.0606580093429
 30
0.0
 10
71.30761386912747
 20
293.0609868064383
 30
0.0
 10
71.30684416131237
 20
293.0613156035336
 30
0.0
  0
LINE
  5
49
330
24
100
AcDbEntity
  8
0
  6
Continuous
 62
     7
370
    15
100
AcDbLine
 10
71.9067219841005
 20
290.1274309754002
 30
0.0
 11
71.79806042730058
 21
292.5203551042001
 31
0.0
  0
LINE
  5
4A
330
24
100
AcDbEntity
  8
0
  6
Continuous
 62
     7
370
    15
100
AcDbLine
 10
71.25433959750058
 20
293.0816364154001
 30
0.0
 11
66.79748990030055
 21
294.1197585218002
 31
0.0
  0
ARC
  5
4B
330
24
100
AcDbEntity
  8
0
  6
Continuous
 62
     7
370
    15
100
AcDbCircle
 10
45.84798449830055
 20
-466.4474819293998
 30
0.0
 40
0.8458722299548679
100
AcDbArc
 50
258.1510689179
 51
287.143533542799
  0
LINE
  5
4C
330
24
100
AcDbEntity
  8
0
  6
Continuous
 62
     7
370
    15
100
AcDbLine
 10
45.67429991390054
 20
-467.2753306439998
 30
0.0
 11
-6.793095305099428
 21
-455.0542402905999
 31
0.0
  0
POLYLINE
  5
4D
330
24
100
AcDbEntity
  8
0
  6
Continuous
 62
     7
370
    15
100
AcDb2dPolyline
 66
     1
 10
0.0
 20
0.0
 30
0.0
 75
     5
  0
VERTEX
  5
4E
330
4D
100
AcDbEntity
  8
0
  6
Continuous
 62
     7
370
    15
100
AcDbVertex
100
AcDb2dVertex
 10
15.94869680910051
 20
-332.3286994641998
 30
0.0
  0
VERTEX
  5
4F
330
4D
100
AcDbEntity
  8
0
  6
Continuous
 62
     7
370
    15
100
AcDbVertex
100
AcDb2dVertex
 10
17.67522597610059
 20
-332.5641658093999
 30
0.0
  0
VERTEX
  5
50
330
4D
100
AcDbEntity
  8
0
  6
Continuous
 62
     7
370
    15
100
AcDbVertex
100
AcDb2dVertex
 10
19.35219206490058
 20
-332.4585522227998
 30
0.0
  0
VERTEX
  5
51
330
4D
100
AcDbEntity
  8
0
  6
Continuous
 62
     7
370
    15
100
AcDbVertex
100
AcDb2dVertex
 10
20.94028824070051
 20
-332.0143470273999
 30
0.0
  0
VERTEX
  5
52
330
4D
100
AcDbEntity
  8
0
  6
Continuous
 62
     7
370
    15
100
AcDbVertex
100
AcDb2dVertex
 10
22.40229405570062
 20
-331.2420422237998
 30
0.0
  0
VERTEX
  5
53
330
4D
100
AcDbEntity
  8
0
  6
Continuous
 62
     7
370
    15
100
AcDbVertex
100
AcDb2dVertex
 10
23.70393605250058
 20
-330.1595991353998
 30
0.0
  0
VERTEX
  5
54
330
4D
100
AcDbEntity
  8
0
  6
Continuous
 62
     7
370
    15
100
AcDbVertex
100
AcDb2dVertex
 10
24.81470815890054
 20
-328.7924699297999
 30
0.0
  0
VERTEX
  5
55
330
4D
100
AcDbEntity
  8
0
  6
Continuous
 62
     7
370
    15
100
AcDbVertex
100
AcDb2dVertex
 10
25.70857584230055
 20
-327.1727442003998
 30
0.0
  0
VERTEX
  5
56
330
4D
100
AcDbEntity
  8
0
  6
Continuous
 62
     7
370
    15
100
AcDbVertex
100
AcDb2dVertex
 10
26.36458569590059
 20
-325.3383300485999
 30
0.0
  0
VERTEX
  5
57
330
4D
100
AcDbEntity
  8
0
  6
Continuous
 62
     7
370
    15
100
AcDbVertex
100
AcDb2dVertex
 10
26.76736039270054
 20
-323.3321649851999
 30
0.0
  0
VERTEX
  5
58
330
4D
100
AcDbEntity
  8
0
  6
Continuous
 62
     7
370
    15
100
AcDbVertex
100
AcDb2dVertex
 10
26.90746197250053
 20
-321.2013961655999
 30
0.0
  0
VERTEX
  5
59
330
4D
100
AcDbEntity
  8
0
  6
Continuous
 62
     7
370
    15
100
AcDbVertex
100
AcDb2dVertex
 10
26.78160580090048
 20
-318.9959040763999
 30
0.0
  0
VERTEX
  5
5A
330
4D
100
AcDbEntity
  8
0
  6
Continuous
 62
     7
370
    15
100
AcDbVertex
100
AcDb2dVertex
 10
26.3927399745005
 20
-316.7673601225999
 30
0.0
  0
VERTEX
  5
5B
330
4D
100
AcDbEntity
  8
0
  6
Continuous
 62
     7
370
    15
100
AcDbVertex
100
AcDb2dVertex
 10
25.74997985150048
 20
-314.5680243711999
 30
0.0
  0
VERTEX
  5
5C
330
4D
100
AcDbEntity
  8
0
  6
Continuous
 62
     7
370
    15
100
AcDbVertex
100
AcDb2dVertex
 10
24.86839401970053
 20
-312.4495086929998
 30
0.0
  0
VERTEX
  5
5D
330
4D
100
AcDbEntity
  8
0
  6
Continuous
 62
     7
370
    15
100
AcDbVertex
100
AcDb2dVertex
 10
23.76864200310058
 20
-310.4613357963999
 30
0.0
  0
VERTEX
  5
5E
330
4D
100
AcDbEntity
  8
0
  6
Continuous
 62
     7
370
    15
100
AcDbVertex
100
AcDb2dVertex
 10
22.4765038683006
 20
-308.6502078945999
 30
0.0
  0
VERTEX
  5
5F
330
4D
100
AcDbEntity
  8
0
  6
Continuous
 62
     7
370
    15
100
AcDbVertex
100
AcDb2dVertex
 10
21.02226529410063
 20
-307.0585634187998
 30
0.0
  0
VERTEX
  5
60
330
4D
100
AcDbEntity
  8
0
  6
Continuous
 62
     7
370
    15
100
AcDbVertex
100
AcDb2dVertex
 10
19.44001209570047
 20
-305.7236778799998
 30
0.0
  0
VERTEX
  5
61
330
4D
100
AcDbEntity
  8
0
  6
Continuous
 62
     7
370
    15
100
AcDbVertex
100
AcDb2dVertex
 10
17.7668311933005
 20
-304.6768559879999
 30
0.0
  0
VERTEX
  5
62
330
4D
100
AcDbEntity
  8
0
  6
Continuous
 62
     7
370
    15
100
AcDbVertex
100
AcDb2dVertex
 10
16.04194130590054
 20
-303.9426639259999
 30
0.0
  0
VERTEX
  5
63
330
4D
100
AcDbEntity
  8
0
  6
Continuous
 62
     7
370
    15
100
AcDbVertex
100
AcDb2dVertex
 10
14.30577128090056
 20
-303.5382624751998
 30
0.0
  0
VERTEX
  5
64
330
4D
100
AcDbEntity
  8
0
  6
Continuous
 62
     7
370
    15
100
AcDbVertex
100
AcDb2dVertex
 10
12.59901524370048
 20
-303.4731304097998
 30
0.0
  0
VERTEX
  5
65
330
4D
100
AcDbEntity
  8
0
  6
Continuous
 62
     7
370
    15
100
AcDbVertex
100
AcDb2dVertex
 10
10.96167960710056
 20
-303.7488425187998
 30
0.0
  0
VERTEX
  5
66
330
4D
100
AcDbEntity
  8
0
  6
Continuous
 62
     7
370
    15
100
AcDbVertex
100
AcDb2dVertex
 10
9.432141304500533
 20
-304.3589067673998
 30
0.0
  0
VERTEX
  5
67
330
4D
100
AcDbEntity
  8
0
  6
Continuous
 62
     7
370
    15
100
AcDbVertex
100
AcDb2dVertex
 10
8.04625078730055
 20
-305.2890075531998
 30
0.0
  0
VERTEX
  5
68
330
4D
100
AcDbEntity
  8
0
  6
Continuous
 62
     7
370
    15
100
AcDbVertex
100
AcDb2dVertex
 10
6.836493552700631
 20
-306.5173756429999
 30
0.0
  0
VERTEX
  5
69
330
4D
100
AcDbEntity
  8
0
  6
Continuous
 62
     7
370
    15
100
AcDbVertex
100
AcDb2dVertex
 10
5.83122503150048
 20
-308.0152317233998
 30
0.0
  0
VERTEX
  5
6A
330
4D
100
AcDbEntity
  8
0
  6
Continuous
 62
     7
370
    15
100
AcDbVertex
100
AcDb2dVertex
 10
5.054005196300523
 20
-309.7473662241999
 30
0.0
  0
VERTEX
  5
6B
330
4D
100
AcDbEntity
  8
0
  6
Continuous
 62
     7
370
    15
100
AcDbVertex
100
AcDb2dVertex
 10
4.523054551300561
 20
-311.6733126585999
 30
0.0
  0
VERTEX
  5
6C
330
4D
100
AcDbEntity
  8
0
  6
Continuous
 62
     7
370
    15
100
AcDbVertex
100
AcDb2dVertex
 10
4.250817656900608
 20
-313.7478677197998
 30
0.0
  0
VERTEX
  5
6D
330
4D
100
AcDbEntity
  8
0
  6
Continuous
 62
     7
370
    15
100
AcDbVertex
100
AcDb2dVertex
 10
4.243674838700599
 20
-315.9223807091998
 30
0.0
  0
VERTEX
  5
6E
330
4D
100
AcDbEntity
  8
0
  6
Continuous
 62
     7
370
    15
100
AcDbVertex
100
AcDb2dVertex
 10
4.501792908900597
 20
-318.1459057691998
 30
0.0
  0
VERTEX
  5
6F
330
4D
100
AcDbEntity
  8
0
  6
Continuous
 62
     7
370
    15
100
AcDbVertex
100
AcDb2dVertex
 10
5.019124450100549
 20
-320.3663887233999
 30
0.0
  0
VERTEX
  5
70
330
4D
100
AcDbEntity
  8
0
  6
Continuous
 62
     7
370
    15
100
AcDbVertex
100
AcDb2dVertex
 10
5.783539637900503
 20
-322.5316586893999
 30
0.0
  0
VERTEX
  5
71
330
4D
100
AcDbEntity
  8
0
  6
Continuous
 62
     7
370
    15
100
AcDbVertex
100
AcDb2dVertex
 10
6.777123454500497
 20
-324.5910234597998
 30
0.0
  0
VERTEX
  5
72
330
4D
100
AcDbEntity
  8
0
  6
Continuous
 62
     7
370
    15
100
AcDbVertex
100
AcDb2dVertex
 10
7.976588311500564
 20
-326.4962699961998
 30
0.0
  0
VERTEX
  5
73
330
4D
100
AcDbEntity
  8
0
  6
Continuous
 62
     7
370
    15
100
AcDbVertex
100
AcDb2dVertex
 10
9.35381833790052
 20
-328.2026955959998
 30
0.0
  0
VERTEX
  5
74
330
4D
100
AcDbEntity
  8
0
  6
Continuous
 62
     7
370
    15
100
AcDbVertex
100
AcDb2dVertex
 10
10.87653138690052
 20
-329.6702229997998
 30
0.0
  0
VERTEX
  5
75
330
4D
100
AcDbEntity
  8
0
  6
Continuous
 62
     7
370
    15
100
AcDbVertex
100
AcDb2dVertex
 10
12.50903869070055
 20
-330.8645947689999
 30
0.0
  0
VERTEX
  5
76
330
4D
100
AcDbEntity
  8
0
  6
Continuous
 62
     7
370
    15
100
AcDbVertex
100
AcDb2dVertex
 10
14.21307450750055
 20
-331.7577361067999
 30
0.0
  0
VERTEX
  5
77
330
4D
100
AcDbEntity
  8
0
  6
Continuous
 62
     7
370
    15
100
AcDbVertex
100
AcDb2dVertex
 10
15.94869680910051
 20
-332.3286994641998
 30
0.0
  0
SEQEND
  5
78
330
4D
100
AcDbEntity
  8
0
  6
Continuous
 62
     7
370
    15
  0
POLYLINE
  5
79
330
24
100
AcDbEntity
  8
0
  6
Continuous
 62
     7
370
    15
100
AcDb2dPolyline
 66
     1
 10
0.0
 20
0.0
 30
0.0
 75
     5
  0
VERTEX
  5
7A
330
79
100
AcDbEntity
  8
0
  6
Continuous
 62
     7
370
    15
100
AcDbVertex
100
AcDb2dVertex
 10
18.3154325161006
 20
-419.6509266843998
 30
0.0
  0
VERTEX
  5
7B
330
79
100
AcDbEntity
  8
0
  6
Continuous
 62
     7
370
    15
100
AcDbVertex
100
AcDb2dVertex
 10
19.44416928210057
 20
-419.7477160815998
 30
0.0
  0
VERTEX
  5
7C
330
79
100
AcDbEntity
  8
0
  6
Continuous
 62
     7
370
    15
100
AcDbVertex
100
AcDb2dVertex
 10
20.50299110090054
 20
-419.5048461643999
 30
0.0
  0
VERTEX
  5
7D
330
79
100
AcDbEntity
  8
0
  6
Continuous
 62
     7
370
    15
100
AcDbVertex
100
AcDb2dVertex
 10
21.4348165707006
 20
-418.9354178555998
 30
0.0
  0
VERTEX
  5
7E
330
79
100
AcDbEntity
  8
0
  6
Continuous
 62
     7
370
    15
100
AcDbVertex
100
AcDb2dVertex
 10
22.18941255810057
 20
-418.0701800631998
 30
0.0
  0
VERTEX
  5
7F
330
79
100
AcDbEntity
  8
0
  6
Continuous
 62
     7
370
    15
100
AcDbVertex
100
AcDb2dVertex
 10
22.72609666250059
 20
-416.9557286229999
 30
0.0
  0
VERTEX
  5
80
330
79
100
AcDbEntity
  8
0
  6
Continuous
 62
     7
370
    15
100
AcDbVertex
100
AcDb2dVertex
 10
23.01593677030053
 20
-415.6521359069998
 30
0.0
  0
VERTEX
  5
81
330
79
100
AcDbEntity
  8
0
  6
Continuous
 62
     7
370
    15
100
AcDbVertex
100
AcDb2dVertex
 10
23.04330854410057
 20
-414.2297525897998
 30
0.0
  0
VERTEX
  5
82
330
79
100
AcDbEntity
  8
0
  6
Continuous
 62
     7
370
    15
100
AcDbVertex
100
AcDb2dVertex
 10
22.80673419110053
 20
-412.7651637139999
 30
0.0
  0
VERTEX
  5
83
330
79
100
AcDbEntity
  8
0
  6
Continuous
 62
     7
370
    15
100
AcDbVertex
100
AcDb2dVertex
 10
22.31897032930056
 20
-411.3374220445999
 30
0.0
  0
VERTEX
  5
84
330
79
100
AcDbEntity
  8
0
  6
Continuous
 62
     7
370
    15
100
AcDbVertex
100
AcDb2dVertex
 10
21.60631024110057
 20
-410.0234201429998
 30
0.0
  0
VERTEX
  5
85
330
79
100
AcDbEntity
  8
0
  6
Continuous
 62
     7
370
    15
100
AcDbVertex
100
AcDb2dVertex
 10
20.70717325970054
 20
-408.8940007799998
 30
0.0
  0
VERTEX
  5
86
330
79
100
AcDbEntity
  8
0
  6
Continuous
 62
     7
370
    15
100
AcDbVertex
100
AcDb2dVertex
 10
19.67003358590057
 20
-408.0100830567998
 30
0.0
  0
VERTEX
  5
87
330
79
100
AcDbEntity
  8
0
  6
Continuous
 62
     7
370
    15
100
AcDbVertex
100
AcDb2dVertex
 10
18.55080384910048
 20
-407.4193398081998
 30
0.0
  0
VERTEX
  5
88
330
79
100
AcDbEntity
  8
0
  6
Continuous
 62
     7
370
    15
100
AcDbVertex
100
AcDb2dVertex
 10
17.40982100750057
 20
-407.1535737197999
 30
0.0
  0
VERTEX
  5
89
330
79
100
AcDbEntity
  8
0
  6
Continuous
 62
     7
370
    15
100
AcDbVertex
100
AcDb2dVertex
 10
16.30859561510056
 20
-407.2271122805998
 30
0.0
  0
VERTEX
  5
8A
330
79
100
AcDbEntity
  8
0
  6
Continuous
 62
     7
370
    15
100
AcDbVertex
100
AcDb2dVertex
 10
15.3064964231005
 20
-407.6360355367999
 30
0.0
  0
VERTEX
  5
8B
330
79
100
AcDbEntity
  8
0
  6
Continuous
 62
     7
370
    15
100
AcDbVertex
100
AcDb2dVertex
 10
14.45754589730063
 20
-408.3582775415998
 30
0.0
  0
VERTEX
  5
8C
330
79
100
AcDbEntity
  8
0
  6
Continuous
 62
     7
370
    15
100
AcDbVertex
100
AcDb2dVertex
 10
13.80751095750054
 20
-409.3548705267999
 30
0.0
  0
VERTEX
  5
8D
330
79
100
AcDbEntity
  8
0
  6
Continuous
 62
     7
370
    15
100
AcDbVertex
100
AcDb2dVertex
 10
13.3914345437006
 20
-410.5720830927999
 30
0.0
  0
VERTEX
  5
8E
330
79
100
AcDbEntity
  8
0
  6
Continuous
 62
     7
370
    15
100
AcDbVertex
100
AcDb2dVertex
 10
13.23174944210064
 20
-411.9443723113998
 30
0.0
  0
VERTEX
  5
8F
330
79
100
AcDbEntity
  8
0
  6
Continuous
 62
     7
370
    15
100
AcDbVertex
100
AcDb2dVertex
 10
13.3370619283005
 20
-413.3976614191998
 30
0.0
  0
VERTEX
  5
90
330
79
100
AcDbEntity
  8
0
  6
Continuous
 62
     7
370
    15
100
AcDbVertex
100
AcDb2dVertex
 10
13.7016976157006
 20
-414.8536994355998
 30
0.0
  0
VERTEX
  5
91
330
79
100
AcDbEntity
  8
0
  6
Continuous
 62
     7
370
    15
100
AcDbVertex
100
AcDb2dVertex
 10
14.30599591270061
 20
-416.2339168617999
 30
0.0
  0
VERTEX
  5
92
330
79
100
AcDbEntity
  8
0
  6
Continuous
 62
     7
370
    15
100
AcDbVertex
100
AcDb2dVertex
 10
15.1173800515005
 20
-417.4639142259998
 30
0.0
  0
VERTEX
  5
93
330
79
100
AcDbEntity
  8
0
  6
Continuous
 62
     7
370
    15
100
AcDbVertex
100
AcDb2dVertex
 10
16.09210883550054
 20
-418.4774311291998
 30
0.0
  0
VERTEX
  5
94
330
79
100
AcDbEntity
  8
0
  6
Continuous
 62
     7
370
    15
100
AcDbVertex
100
AcDb2dVertex
 10
17.17763345030062
 20
-419.2197779387998
 30
0.0
  0
VERTEX
  5
95
330
79
100
AcDbEntity
  8
0
  6
Continuous
 62
     7
370
    15
100
AcDbVertex
100
AcDb2dVertex
 10
18.3154325161006
 20
-419.6509266843998
 30
0.0
  0
SEQEND
  5
96
330
79
100
AcDbEntity
  8
0
  6
Continuous
 62
     7
370
    15
  0
LINE
  5
97
330
24
100
AcDbEntity
  8
0
  6
Continuous
 62
     7
370
    15
100
AcDbLine
 10
91.48795405490057
 20
-450.5100164589998
 30
0.0
 11
46.09731925730057
 21
-467.2557714859998
 31
0.0
  0
POLYLINE
  5
98
330
24
100
AcDbEntity
  8
0
  6
Continuous
 62
     7
370
    15
100
AcDb2dPolyline
 66
     1
 10
0.0
 20
0.0
 30
0.0
 75
     5
  0
VERTEX
  5
99
330
98
100
AcDbEntity
  8
0
  6
Continuous
 62
     7
370
    15
100
AcDbVertex
100
AcDb2dVertex
 10
-6.793095305099428
 20
-455.0542402905999
 30
0.0
  0
VERTEX
  5
9A
330
98
100
AcDbEntity
  8
0
  6
Continuous
 62
     7
370
    15
100
AcDbVertex
100
AcDb2dVertex
 10
-6.83357407109952
 20
-455.0425431343999
 30
0.0
  0
VERTEX
  5
9B
330
98
100
AcDbEntity
  8
0
  6
Continuous
 62
     7
370
    15
100
AcDbVertex
100
AcDb2dVertex
 10
-6.864954525299481
 20
-455.0285131857999
 30
0.0
  0
VERTEX
  5
9C
330
98
100
AcDbEntity
  8
0
  6
Continuous
 62
     7
370
    15
100
AcDbVertex
100
AcDb2dVertex
 10
-6.886034432299425
 20
-455.0126900333998
 30
0.0
  0
VERTEX
  5
9D
330
98
100
AcDbEntity
  8
0
  6
Continuous
 62
     7
370
    15
100
AcDbVertex
100
AcDb2dVertex
 10
-6.896001055899433
 20
-454.9956823807998
 30
0.0
  0
VERTEX
  5
9E
330
98
100
AcDbEntity
  8
0
  6
Continuous
 62
     7
370
    15
100
AcDbVertex
100
AcDb2dVertex
 10
-6.896772615499458
 20
-454.9899801419999
 30
0.0
  0
SEQEND
  5
9F
330
98
100
AcDbEntity
  8
0
  6
Continuous
 62
     7
370
    15
  0
POLYLINE
  5
A0
330
24
100
AcDbEntity
  8
0
  6
Continuous
 62
     7
370
    15
100
AcDb2dPolyline
 66
     1
 10
0.0
 20
0.0
 30
0.0
 75
     5
  0
VERTEX
  5
A1
330
A0
100
AcDbEntity
  8
0
  6
Continuous
 62
     7
370
    15
100
AcDbVertex
100
AcDb2dVertex
 10
91.56104004290057
 20
-450.4490591275999
 30
0.0
  0
VERTEX
  5
A2
330
A0
100
AcDbEntity
  8
0
  6
Continuous
 62
     7
370
    15
100
AcDbVertex
100
AcDb2dVertex
 10
91.55874181450054
 20
-450.4608959569998
 30
0.0
  0
VERTEX
  5
A3
330
A0
100
AcDbEntity
  8
0
  6
Continuous
 62
     7
370
    15
100
AcDbVertex
100
AcDb2dVertex
 10
91.5457778331006
 20
-450.4782931975998
 30
0.0
  0
VERTEX
  5
A4
330
A0
100
AcDbEntity
  8
0
  6
Continuous
 62
     7
370
    15
100
AcDbVertex
100
AcDb2dVertex
 10
91.52187702210051
 20
-450.4948791877998
 30
0.0
  0
VERTEX
  5
A5
330
A0
100
AcDbEntity
  8
0
  6
Continuous
 62
     7
370
    15
100
AcDbVertex
100
AcDb2dVertex
 10
91.48795405490057
 20
-450.5100164589998
 30
0.0
  0
SEQEND
  5
A6
330
A0
100
AcDbEntity
  8
0
  6
Continuous
 62
     7
370
    15
  0
LINE
  5
A7
330
24
100
AcDbEntity
  8
0
  6
Continuous
 62
     7
370
    15
100
AcDbLine
 10
5.936943656900553
 20
-318.3257025043999
 30
0.0
 11
6.038834148300566
 21
-318.9069834437998
 31
0.0
  0
SPLINE
  5
A8
330
24
100
AcDbEntity
  8
0
  6
Continuous
 62
     7
370
    15
100
AcDbSpline
210
0.0
220
0.0
230
1.0
 70
     8
 71
     2
 72
    10
 73
     7
 74
     0
 42
0.000000001
 43
0.000001
 40
0.0
 40
0.0
 40
0.0
 40
1.0
 40
1.0
 40
2.0
 40
2.0
 40
3.0
 40
3.0
 40
3.0
 10
6.038834532767623
 20
-318.9069984053277
 30
0.0
 10
6.041775325478625
 20
-318.9300387515626
 30
0.0
 10
6.044716118189626
 20
-318.9530790977975
 30
0.0
 10
6.255688882412869
 20
-320.5767118742578
 30
0.0
 10
6.58029909309721
 20
-322.1748541051854
 30
0.0
 10
6.584961622105027
 20
-322.1975511946691
 30
0.0
 10
6.589624151112844
 20
-322.2202482841529
 30
0.0
  0
LINE
  5
A9
330
24
100
AcDbEntity
  8
0
  6
Continuous
 62
     7
370
    15
100
AcDbLine
 10
6.589625426500561
 20
-322.2202650389998
 30
0.0
 11
6.68371783810062
 21
-322.5138308393999
 31
0.0
  0
POLYLINE
  5
AA
330
24
100
AcDbEntity
  8
0
  6
Continuous
 62
     7
370
    15
100
AcDb2dPolyline
 66
     1
 10
0.0
 20
0.0
 30
0.0
 75
     5
  0
VERTEX
  5
AB
330
AA
100
AcDbEntity
  8
0
  6
Continuous
 62
     7
370
    15
100
AcDbVertex
100
AcDb2dVertex
 10
6.68371783810062
 20
-322.5138308393999
 30
0.0
  0
VERTEX
  5
AC
330
AA
100
AcDbEntity
  8
0
  6
Continuous
 62
     7
370
    15
100
AcDbVertex
100
AcDb2dVertex
 10
7.769920728300576
 20
-324.6683069401998
 30
0.0
  0
VERTEX
  5
AD
330
AA
100
AcDbEntity
  8
0
  6
Continuous
 62
     7
370
    15
100
AcDbVertex
100
AcDb2dVertex
 10
9.080709217700587
 20
-326.6409724615998
 30
0.0
  0
VERTEX
  5
AE
330
AA
100
AcDbEntity
  8
0
  6
Continuous
 62
     7
370
    15
100
AcDbVertex
100
AcDb2dVertex
 10
10.5817541029005
 20
-328.3801380869998
 30
0.0
  0
VERTEX
  5
AF
330
AA
100
AcDbEntity
  8
0
  6
Continuous
 62
     7
370
    15
100
AcDbVertex
100
AcDb2dVertex
 10
12.23374421270057
 20
-329.8401891439998
 30
0.0
  0
VERTEX
  5
B0
330
AA
100
AcDbEntity
  8
0
  6
Continuous
 62
     7
370
    15
100
AcDbVertex
100
AcDb2dVertex
 10
13.99341793430062
 20
-330.9829563573998
 30
0.0
  0
VERTEX
  5
B1
330
AA
100
AcDbEntity
  8
0
  6
Continuous
 62
     7
370
    15
100
AcDbVertex
100
AcDb2dVertex
 10
15.81469070130061
 20
-331.7784871873999
 30
0.0
  0
VERTEX
  5
B2
330
AA
100
AcDbEntity
  8
0
  6
Continuous
 62
     7
370
    15
100
AcDbVertex
100
AcDb2dVertex
 10
17.64986627010057
 20
-332.2059497351998
 30
0.0
  0
VERTEX
  5
B3
330
AA
100
AcDbEntity
  8
0
  6
Continuous
 62
     7
370
    15
100
AcDbVertex
100
AcDb2dVertex
 10
19.45088376370063
 20
-332.2541493091998
 30
0.0
  0
VERTEX
  5
B4
330
AA
100
AcDbEntity
  8
0
  6
Continuous
 62
     7
370
    15
100
AcDbVertex
100
AcDb2dVertex
 10
21.14103415210047
 20
-331.9309932557998
 30
0.0
  0
SEQEND
  5
B5
330
AA
100
AcDbEntity
  8
0
  6
Continuous
 62
     7
370
    15
  0
ARC
  5
B6
330
24
100
AcDbEntity
  8
0
  6
Continuous
 62
     7
370
    15
100
AcDbCircle
 10
23.60704518390048
 20
-314.4820602935999
 30
0.0
 40
18.08330924973816
100
AcDbArc
 50
170.8331254572
 51
192.2719436956
  0
LINE
  5
B7
330
24
100
AcDbEntity
  8
0
  6
Continuous
 62
     7
370
    15
100
AcDbLine
 10
5.827023316300483
 20
-311.0920873697998
 30
0.0
 11
5.754686283100568
 21
-311.6012001621999
 31
0.0
  0
SPLINE
  5
B8
330
24
100
AcDbEntity
  8
0
  6
Continuous
 62
     7
370
    15
100
AcDbSpline
210
0.0
220
0.0
230
1.0
 70
     8
 71
     2
 72
    11
 73
     8
 74
     0
 42
0.000000001
 43
0.000001
 40
0.0
 40
0.0
 40
0.0
 40
1.0
 40
1.0
 40
2.0
 40
3.0
 40
3.0
 40
4.0
 40
4.0
 40
4.0
 10
6.219522674262294
 20
-308.5651176404277
 30
0.0
 10
6.216265316106671
 20
-308.5793322380864
 30
0.0
 10
6.213007957951049
 20
-308.593546835745
 30
0.0
 10
6.116351155428561
 20
-309.0229380438114
 30
0.0
 10
5.913464298282861
 20
-310.2004434868622
 30
0.0
 10
5.830262081557294
 20
-311.0577527033811
 30
0.0
 10
5.828643051172776
 20
-311.0749334152334
 30
0.0
 10
5.827024020788258
 20
-311.0921141270857
 30
0.0
  0
LINE
  5
B9
330
24
100
AcDbEntity
  8
0
  6
Continuous
 62
     7
370
    15
100
AcDbLine
 10
6.299660097500578
 20
-308.3437749293998
 30
0.0
 11
6.21952344270062
 21
-308.5651156999998
 31
0.0
  0
ARC
  5
BA
330
24
100
AcDbEntity
  8
0
  6
Continuous
 62
     7
370
    15
100
AcDbCircle
 10
14.45693555090054
 20
-311.9061569055999
 30
0.0
 40
8.90121947631183
100
AcDbArc
 50
114.5030124112005
 51
156.4085176514001
  0
POLYLINE
  5
BB
330
24
100
AcDbEntity
  8
0
  6
Continuous
 62
     7
370
    15
100
AcDb2dPolyline
 66
     1
 10
0.0
 20
0.0
 30
0.0
 75
     5
  0
VERTEX
  5
BC
330
BB
100
AcDbEntity
  8
0
  6
Continuous
 62
     7
370
    15
100
AcDbVertex
100
AcDb2dVertex
 10
19.10028612150063
 20
-419.3613743073998
 30
0.0
  0
VERTEX
  5
BD
330
BB
100
AcDbEntity
  8
0
  6
Continuous
 62
     7
370
    15
100
AcDbVertex
100
AcDb2dVertex
 10
20.22902288750061
 20
-419.4581637043999
 30
0.0
  0
VERTEX
  5
BE
330
BB
100
AcDbEntity
  8
0
  6
Continuous
 62
     7
370
    15
100
AcDbVertex
100
AcDb2dVertex
 10
20.7804428857005
 20
-419.3765610437998
 30
0.0
  0
SEQEND
  5
BF
330
BB
100
AcDbEntity
  8
0
  6
Continuous
 62
     7
370
    15
  0
POLYLINE
  5
C0
330
24
100
AcDbEntity
  8
0
  6
Continuous
 62
     7
370
    15
100
AcDb2dPolyline
 66
     1
 10
0.0
 20
0.0
 30
0.0
 75
     5
  0
VERTEX
  5
C1
330
C0
100
AcDbEntity
  8
0
  6
Continuous
 62
     7
370
    15
100
AcDbVertex
100
AcDb2dVertex
 10
16.29902085030062
 20
-407.2293528889998
 30
0.0
  0
VERTEX
  5
C2
330
C0
100
AcDbEntity
  8
0
  6
Continuous
 62
     7
370
    15
100
AcDbVertex
100
AcDb2dVertex
 10
16.09135002850053
 20
-407.3464831595998
 30
0.0
  0
VERTEX
  5
C3
330
C0
100
AcDbEntity
  8
0
  6
Continuous
 62
     7
370
    15
100
AcDbVertex
100
AcDb2dVertex
 10
15.24239950270055
 20
-408.0687251643998
 30
0.0
  0
VERTEX
  5
C4
330
C0
100
AcDbEntity
  8
0
  6
Continuous
 62
     7
370
    15
100
AcDbVertex
100
AcDb2dVertex
 10
14.5923645627006
 20
-409.0653181495998
 30
0.0
  0
VERTEX
  5
C5
330
C0
100
AcDbEntity
  8
0
  6
Continuous
 62
     7
370
    15
100
AcDbVertex
100
AcDb2dVertex
 10
14.17628814890054
 20
-410.2825307155998
 30
0.0
  0
VERTEX
  5
C6
330
C0
100
AcDbEntity
  8
0
  6
Continuous
 62
     7
370
    15
100
AcDbVertex
100
AcDb2dVertex
 10
14.01660304750055
 20
-411.6548199341998
 30
0.0
  0
VERTEX
  5
C7
330
C0
100
AcDbEntity
  8
0
  6
Continuous
 62
     7
370
    15
100
AcDbVertex
100
AcDb2dVertex
 10
14.12191553370053
 20
-413.1081090419999
 30
0.0
  0
VERTEX
  5
C8
330
C0
100
AcDbEntity
  8
0
  6
Continuous
 62
     7
370
    15
100
AcDbVertex
100
AcDb2dVertex
 10
14.48655122110063
 20
-414.5641470583998
 30
0.0
  0
VERTEX
  5
C9
330
C0
100
AcDbEntity
  8
0
  6
Continuous
 62
     7
370
    15
100
AcDbVertex
100
AcDb2dVertex
 10
15.09084951810053
 20
-415.9443644845998
 30
0.0
  0
VERTEX
  5
CA
330
C0
100
AcDbEntity
  8
0
  6
Continuous
 62
     7
370
    15
100
AcDbVertex
100
AcDb2dVertex
 10
15.90223365690053
 20
-417.1743618487998
 30
0.0
  0
VERTEX
  5
CB
330
C0
100
AcDbEntity
  8
0
  6
Continuous
 62
     7
370
    15
100
AcDbVertex
100
AcDb2dVertex
 10
16.87696244090057
 20
-418.1878787519998
 30
0.0
  0
VERTEX
  5
CC
330
C0
100
AcDbEntity
  8
0
  6
Continuous
 62
     7
370
    15
100
AcDbVertex
100
AcDb2dVertex
 10
17.96248705570054
 20
-418.9302255615999
 30
0.0
  0
VERTEX
  5
CD
330
C0
100
AcDbEntity
  8
0
  6
Continuous
 62
     7
370
    15
100
AcDbVertex
100
AcDb2dVertex
 10
19.10028612150063
 20
-419.3613743073998
 30
0.0
  0
SEQEND
  5
CE
330
C0
100
AcDbEntity
  8
0
  6
Continuous
 62
     7
370
    15
  0
LINE
  5
CF
330
24
100
AcDbEntity
  8
0
  6
Continuous
 62
     7
370
    15
100
AcDbLine
 10
-25.16710988949944
 20
357.7996040590002
 30
0.0
 11
23.59581418530047
 21
346.4413862834002
 31
0.0
  0
ARC
  5
D0
330
24
100
AcDbEntity
  8
0
  6
Continuous
 62
     7
370
    15
100
AcDbCircle
 10
25.45610115670047
 20
343.1754913194002
 30
0.0
 40
3.758555245197762
100
AcDbArc
 50
119.6662788244001
 51
184.8994542863983
  0
LINE
  5
D1
330
24
100
AcDbEntity
  8
0
  6
Continuous
 62
     7
370
    15
100
AcDbLine
 10
21.71127926010058
 20
342.8544827626002
 30
0.0
 11
-27.05164481469944
 21
354.2127005382002
 31
0.0
  0
ARC
  5
D2
330
24
100
AcDbEntity
  8
0
  6
Continuous
 62
     7
370
    15
100
AcDbCircle
 10
-23.30682291809944
 20
354.5337090952001
 30
0.0
 40
3.758555245197762
100
AcDbArc
 50
119.6662788244001
 51
184.8994542863983
  0
LINE
  5
D3
330
24
100
AcDbEntity
  8
0
  6
Continuous
 62
     7
370
    15
100
AcDbLine
 10
23.37963421010056
 20
281.2994601220001
 30
0.0
 11
21.71127926010058
 21
342.8544827626002
 31
0.0
  0
LINE
  5
D4
330
24
100
AcDbEntity
  8
0
  6
Continuous
 62
     7
370
    15
100
AcDbLine
 10
-25.38328986469946
 20
292.6576778976001
 30
0.0
 11
23.37963421010056
 21
281.2994601220001
 31
0.0
  0
LINE
  5
D5
330
24
100
AcDbEntity
  8
0
  6
Continuous
 62
     7
370
    15
100
AcDbLine
 10
-27.05164481469944
 20
354.2127005382002
 30
0.0
 11
-25.38328986469946
 21
292.6576778976001
 31
0.0
  0
LINE
  5
D6
330
24
100
AcDbEntity
  8
0
  6
Continuous
 62
     7
370
    15
100
AcDbLine
 10
65.7816339521006
 20
362.0048038600001
 30
0.0
 11
17.01870987730058
 21
373.3630216358001
 31
0.0
  0
LINE
  5
D7
330
24
100
AcDbEntity
  8
0
  6
Continuous
 62
     7
370
    15
100
AcDbLine
 10
23.59581418530047
 20
346.4413862834002
 30
0.0
 11
65.7816339521006
 21
362.0048038600001
 31
0.0
  0
LINE
  5
D8
330
24
100
AcDbEntity
  8
0
  6
Continuous
 62
     7
370
    15
100
AcDbLine
 10
17.01870987730058
 20
373.3630216358001
 30
0.0
 11
-25.16710988949944
 21
357.7996040590002
 31
0.0
  0
ARC
  5
D9
330
24
100
AcDbEntity
  8
0
  6
Continuous
 62
     7
370
    15
100
AcDbCircle
 10
22.38256149410063
 20
343.0953727334002
 30
0.0
 40
3.559183722266259
100
AcDbArc
 50
359.2707545889998
 51
70.06953429430149
  0
ARC
  5
DA
330
24
100
AcDbEntity
  8
0
  6
Continuous
 62
     7
370
    15
100
AcDbCircle
 10
23.4481179153006
 20
351.1329546276002
 30
0.0
 40
8.458705866505161
100
AcDbArc
 50
258.1510953238991
 51
287.1435071367995
  0
LINE
  5
DB
330
24
100
AcDbEntity
  8
0
  6
Continuous
 62
     7
370
    15
100
AcDbLine
 10
25.94145693490054
 20
343.0500736148002
 30
0.0
 11
27.60981188490064
 21
281.4950509742001
 31
0.0
  0
ARC
  5
DC
330
24
100
AcDbEntity
  8
0
  6
Continuous
 62
     7
370
    15
100
AcDbCircle
 10
25.11647286530058
 20
289.5779319870001
 30
0.0
 40
8.458705866502328
100
AcDbArc
 50
258.1510953239006
 51
287.1435071367998
  0
ARC
  5
DD
330
24
100
AcDbEntity
  8
0
  6
Continuous
 62
     7
370
    15
100
AcDbCircle
 10
64.56838126090054
 20
358.6587903102002
 30
0.0
 40
3.55918372226785
100
AcDbArc
 50
359.270754589
 51
70.06953429430104
  0
LINE
  5
DE
330
24
100
AcDbEntity
  8
0
  6
Continuous
 62
     7
370
    15
100
AcDbLine
 10
68.12727670170057
 20
358.6134911914001
 30
0.0
 11
25.94145693490054
 21
343.0500736148002
 31
0.0
  0
LINE
  5
DF
330
24
100
AcDbEntity
  8
0
  6
Continuous
 62
     7
370
    15
100
AcDbLine
 10
69.79563165170055
 20
297.0584685508002
 30
0.0
 11
68.12727670170057
 21
358.6134911914001
 31
0.0
  0
LINE
  5
E0
330
24
100
AcDbEntity
  8
0
  6
Continuous
 62
     7
370
    15
100
AcDbLine
 10
27.60981188490064
 20
281.4950509742001
 30
0.0
 11
69.79563165170055
 21
297.0584685508002
 31
0.0
  0
ARC
  5
E1
330
24
100
AcDbEntity
  8
0
  6
Continuous
 62
     7
370
    15
100
AcDbCircle
 10
25.64142818130063
 20
278.2515977118001
 30
0.0
 40
2.696108742180882
100
AcDbArc
 50
258.1511373681986
 51
287.1434650924979
  0
ARC
  5
E2
330
24
100
AcDbEntity
  8
0
  6
Continuous
 62
     7
370
    15
100
AcDbCircle
 10
25.71025864590058
 20
275.6596104984001
 30
0.0
 40
0.6241721153754869
100
AcDbArc
 50
119.5847677881996
 51
184.2884866506963
  0
ARC
  5
E3
330
24
100
AcDbEntity
  8
0
  6
Continuous
 62
     7
370
    15
100
AcDbCircle
 10
25.66626367670051
 20
277.4615467774002
 30
0.0
 40
1.286552194574401
100
AcDbArc
 50
258.1512863270064
 51
287.1433161336022
  0
ARC
  5
E4
330
24
100
AcDbEntity
  8
0
  6
Continuous
 62
     7
370
    15
100
AcDbCircle
 10
25.84428542910064
 20
275.6755435000001
 30
0.0
 40
0.5918621510213529
100
AcDbArc
 50
359.9742930503076
 51
70.12591745170971
  0
ARC
  5
E5
330
24
100
AcDbEntity
  8
0
  6
Continuous
 62
     7
370
    15
100
AcDbCircle
 10
25.70302961810057
 20
275.9677029590001
 30
0.0
 40
2.819592268211407
100
AcDbArc
 50
258.1512011612005
 51
287.1434012995003
  0
LINE
  5
E6
330
24
100
AcDbEntity
  8
0
  6
Continuous
 62
     7
370
    15
100
AcDbLine
 10
25.1240836419006
 20
273.2081881256002
 30
0.0
 11
25.08783409990053
 21
275.6129359406003
 31
0.0
  0
LINE
  5
E7
330
24
100
AcDbEntity
  8
0
  6
Continuous
 62
     7
370
    15
100
AcDbLine
 10
26.43614752050053
 20
275.6752779488002
 30
0.0
 11
26.53414461790055
 21
273.2733851574001
 31
0.0
  0
LINE
  5
E8
330
24
100
AcDbEntity
  8
0
  6
Continuous
 62
     7
370
    15
100
AcDbLine
 10
25.08783409990053
 20
275.6129359406003
 30
0.0
 11
-27.07715588609949
 21
287.7635878502002
 31
0.0
  0
ARC
  5
E9
330
24
100
AcDbEntity
  8
0
  6
Continuous
 62
     7
370
    15
100
AcDbCircle
 10
-26.45473134029953
 20
287.8102624082001
 30
0.0
 40
0.6241721153760482
100
AcDbArc
 50
119.5847677882903
 51
184.2884866506924
  0
LINE
  5
EA
330
24
100
AcDbEntity
  8
0
  6
Continuous
 62
     7
370
    15
100
AcDbLine
 10
-26.7628917872994
 20
288.3530588418001
 30
0.0
 11
25.4020981989006
 21
276.2024069322002
 31
0.0
  0
ARC
  5
EB
330
24
100
AcDbEntity
  8
0
  6
Continuous
 62
     7
370
    15
100
AcDbCircle
 10
32.43967149430057
 20
316.6420691952001
 30
0.0
 40
33.15532166893591
100
AcDbArc
 50
285.1140280582998
 51
295.3865625195
  0
ARC
  5
EC
330
24
100
AcDbEntity
  8
0
  6
Continuous
 62
     7
370
    15
100
AcDbCircle
 10
14.04122362850057
 20
327.6712760326002
 30
0.0
 40
45.26319299481603
100
AcDbArc
 50
249.4845103961
 51
264.2085137705
  0
POLYLINE
  5
ED
330
24
100
AcDbEntity
  8
0
  6
Continuous
 62
     7
370
    15
100
AcDb2dPolyline
 66
     1
 10
0.0
 20
0.0
 30
0.0
 75
     5
  0
VERTEX
  5
EE
330
ED
100
AcDbEntity
  8
0
  6
Continuous
 62
     7
370
    15
100
AcDbVertex
100
AcDb2dVertex
 10
71.17450918310055
 20
292.8813933924001
 30
0.0
  0
VERTEX
  5
EF
330
ED
100
AcDbEntity
  8
0
  6
Continuous
 62
     7
370
    15
100
AcDbVertex
100
AcDb2dVertex
 10
71.22610211310052
 20
292.9044174592003
 30
0.0
  0
VERTEX
  5
F0
330
ED
100
AcDbEntity
  8
0
  6
Continuous
 62
     7
370
    15
100
AcDbVertex
100
AcDb2dVertex
 10
71.2624555193006
 20
292.9296435914001
 30
0.0
  0
VERTEX
  5
F1
330
ED
100
AcDbEntity
  8
0
  6
Continuous
 62
     7
370
    15
100
AcDbVertex
100
AcDb2dVertex
 10
71.2821699411005
 20
292.9561029168001
 30
0.0
  0
VERTEX
  5
F2
330
ED
100
AcDbEntity
  8
0
  6
Continuous
 62
     7
370
    15
100
AcDbVertex
100
AcDb2dVertex
 10
71.28449487710054
 20
292.9827795180002
 30
0.0
  0
VERTEX
  5
F3
330
ED
100
AcDbEntity
  8
0
  6
Continuous
 62
     7
370
    15
100
AcDbVertex
100
AcDb2dVertex
 10
71.26933298930055
 20
293.0086475804001
 30
0.0
  0
VERTEX
  5
F4
330
ED
100
AcDbEntity
  8
0
  6
Continuous
 62
     7
370
    15
100
AcDbVertex
100
AcDb2dVertex
 10
71.23727506710054
 20
293.0327131062002
 30
0.0
  0
VERTEX
  5
F5
330
ED
100
AcDbEntity
  8
0
  6
Continuous
 62
     7
370
    15
100
AcDbVertex
100
AcDb2dVertex
 10
71.18954568990057
 20
293.0540515004002
 30
0.0
  0
VERTEX
  5
F6
330
ED
100
AcDbEntity
  8
0
  6
Continuous
 62
     7
370
    15
100
AcDbVertex
100
AcDb2dVertex
 10
71.12798116870056
 20
293.0718435026002
 30
0.0
  0
SEQEND
  5
F7
330
ED
100
AcDbEntity
  8
0
  6
Continuous
 62
     7
370
    15
  0
LINE
  5
F8
330
24
100
AcDbEntity
  8
0
  6
Continuous
 62
     7
370
    15
100
AcDbLine
 10
26.04549144190059
 20
276.2321555250001
 30
0.0
 11
71.17450918310055
 21
292.8813933924001
 31
0.0
  0
POLYLINE
  5
F9
330
24
100
AcDbEntity
  8
0
  6
Continuous
 62
     7
370
    15
100
AcDb2dPolyline
 66
     1
 10
0.0
 20
0.0
 30
0.0
 75
     5
  0
VERTEX
  5
FA
330
F9
100
AcDbEntity
  8
0
  6
Continuous
 62
     7
370
    15
100
AcDbVertex
100
AcDb2dVertex
 10
-26.80941980169951
 20
288.5435089520002
 30
0.0
  0
VERTEX
  5
FB
330
F9
100
AcDbEntity
  8
0
  6
Continuous
 62
     7
370
    15
100
AcDbVertex
100
AcDb2dVertex
 10
-26.86101273169947
 20
288.5204848852002
 30
0.0
  0
VERTEX
  5
FC
330
F9
100
AcDbEntity
  8
0
  6
Continuous
 62
     7
370
    15
100
AcDbVertex
100
AcDb2dVertex
 10
-26.89736613789944
 20
288.4952587530002
 30
0.0
  0
VERTEX
  5
FD
330
F9
100
AcDbEntity
  8
0
  6
Continuous
 62
     7
370
    15
100
AcDbVertex
100
AcDb2dVertex
 10
-26.91708055969946
 20
288.4687994276001
 30
0.0
  0
VERTEX
  5
FE
330
F9
100
AcDbEntity
  8
0
  6
Continuous
 62
     7
370
    15
100
AcDbVertex
100
AcDb2dVertex
 10
-26.91940549569949
 20
288.4421228264001
 30
0.0
  0
VERTEX
  5
FF
330
F9
100
AcDbEntity
  8
0
  6
Continuous
 62
     7
370
    15
100
AcDbVertex
100
AcDb2dVertex
 10
-26.90424360789939
 20
288.4162547642002
 30
0.0
  0
VERTEX
  5
100
330
F9
100
AcDbEntity
  8
0
  6
Continuous
 62
     7
370
    15
100
AcDbVertex
100
AcDb2dVertex
 10
-26.87218568569938
 20
288.3921892382
 30
0.0
  0
VERTEX
  5
101
330
F9
100
AcDbEntity
  8
0
  6
Continuous
 62
     7
370
    15
100
AcDbVertex
100
AcDb2dVertex
 10
-26.82445630849952
 20
288.3708508442001
 30
0.0
  0
VERTEX
  5
102
330
F9
100
AcDbEntity
  8
0
  6
Continuous
 62
     7
370
    15
100
AcDbVertex
100
AcDb2dVertex
 10
-26.7628917872994
 20
288.3530588418001
 30
0.0
  0
SEQEND
  5
103
330
F9
100
AcDbEntity
  8
0
  6
Continuous
 62
     7
370
    15
  0
LINE
  5
104
330
24
100
AcDbEntity
  8
0
  6
Continuous
 62
     7
370
    15
100
AcDbLine
 10
71.56516526190057
 20
292.3245158162002
 30
0.0
 11
26.43614752050053
 21
275.6752779488002
 31
0.0
  0
ARC
  5
105
330
24
100
AcDbEntity
  8
0
  6
Continuous
 62
     7
370
    15
100
AcDbCircle
 10
70.97330317050057
 20
292.3247813676001
 30
0.0
 40
0.5918621510221487
100
AcDbArc
 50
359.9742930503076
 51
70.12591745170295
  0
LINE
  5
106
330
24
100
AcDbEntity
  8
0
  6
Continuous
 62
     7
370
    15
100
AcDbLine
 10
-27.04090634409943
 20
285.3588400352001
 30
0.0
 11
25.1240836419006
 21
273.2081881256002
 31
0.0
  0
LINE
  5
107
330
24
100
AcDbEntity
  8
0
  6
Continuous
 62
     7
370
    15
100
AcDbLine
 10
-27.07715588609949
 20
287.7635878502002
 30
0.0
 11
-27.04090634409943
 21
285.3588400352001
 31
0.0
  0
LINE
  5
108
330
24
100
AcDbEntity
  8
0
  6
Continuous
 62
     7
370
    15
100
AcDbLine
 10
26.53414461790055
 20
273.2733851574001
 30
0.0
 11
71.66316235910051
 21
289.9226230248001
 31
0.0
  0
LINE
  5
109
330
24
100
AcDbEntity
  8
0
  6
Continuous
 62
     7
370
    15
100
AcDbLine
 10
71.66316235910051
 20
289.9226230248001
 30
0.0
 11
71.56516526190057
 21
292.3245158162002
 31
0.0
  0
LINE
  5
10A
330
24
100
AcDbEntity
  8
0
  6
Continuous
 62
     7
370
    15
100
AcDbLine
 10
-27.40709754529939
 20
287.9611013656002
 30
0.0
 11
-27.40764054469946
 21
287.9699559514002
 31
0.0
  0
POLYLINE
  5
10B
330
24
100
AcDbEntity
  8
0
  6
Continuous
 62
     7
370
    15
100
AcDb2dPolyline
 66
     1
 10
0.0
 20
0.0
 30
0.0
 75
     5
  0
VERTEX
  5
10C
330
10B
100
AcDbEntity
  8
0
  6
Continuous
 62
     7
370
    15
100
AcDbVertex
100
AcDb2dVertex
 10
-26.96954628229946
 20
288.5354326602001
 30
0.0
  0
VERTEX
  5
10D
330
10B
100
AcDbEntity
  8
0
  6
Continuous
 62
     7
370
    15
100
AcDbVertex
100
AcDb2dVertex
 10
-27.01523389649947
 20
288.5132542786001
 30
0.0
  0
VERTEX
  5
10E
330
10B
100
AcDbEntity
  8
0
  6
Continuous
 62
     7
370
    15
100
AcDbVertex
100
AcDb2dVertex
 10
-27.01979923009947
 20
288.5103936902001
 30
0.0
  0
SEQEND
  5
10F
330
10B
100
AcDbEntity
  8
0
  6
Continuous
 62
     7
370
    15
  0
POLYLINE
  5
110
330
24
100
AcDbEntity
  8
0
  6
Continuous
 62
     7
370
    15
100
AcDb2dPolyline
 66
     1
 10
0.0
 20
0.0
 30
0.0
 75
     5
  0
VERTEX
  5
111
330
110
100
AcDbEntity
  8
0
  6
Continuous
 62
     7
370
    15
100
AcDbVertex
100
AcDb2dVertex
 10
-27.04090634409943
 20
285.3588400352001
 30
0.0
  0
VERTEX
  5
112
330
110
100
AcDbEntity
  8
0
  6
Continuous
 62
     7
370
    15
100
AcDbVertex
100
AcDb2dVertex
 10
-27.17582949929943
 20
285.3978310980002
 30
0.0
  0
VERTEX
  5
113
330
110
100
AcDbEntity
  8
0
  6
Continuous
 62
     7
370
    15
100
AcDbVertex
100
AcDb2dVertex
 10
-27.2804335762994
 20
285.4445972132001
 30
0.0
  0
VERTEX
  5
114
330
110
100
AcDbEntity
  8
0
  6
Continuous
 62
     7
370
    15
100
AcDbVertex
100
AcDb2dVertex
 10
-27.3506987406995
 20
285.4973397990003
 30
0.0
  0
VERTEX
  5
115
330
110
100
AcDbEntity
  8
0
  6
Continuous
 62
     7
370
    15
100
AcDbVertex
100
AcDb2dVertex
 10
-27.38392538649941
 20
285.5540325490002
 30
0.0
  0
VERTEX
  5
116
330
110
100
AcDbEntity
  8
0
  6
Continuous
 62
     7
370
    15
100
AcDbVertex
100
AcDb2dVertex
 10
-27.38652632329945
 20
285.5746593522002
 30
0.0
  0
SEQEND
  5
117
330
110
100
AcDbEntity
  8
0
  6
Continuous
 62
     7
370
    15
  0
LINE
  5
118
330
24
100
AcDbEntity
  8
0
  6
Continuous
 62
     7
370
    15
100
AcDbLine
 10
71.25433959750058
 20
293.0816364154001
 30
0.0
 11
71.3072339653005
 21
293.0610975882001
 31
0.0
  0
LINE
  5
119
330
24
100
AcDbEntity
  8
0
  6
Continuous
 62
     7
370
    15
100
AcDbLine
 10
71.7973102009006
 20
292.5284162362003
 30
0.0
 11
71.79806042730058
 21
292.5203551042001
 31
0.0
  0
POLYLINE
  5
11A
330
24
100
AcDbEntity
  8
0
  6
Continuous
 62
     7
370
    15
100
AcDb2dPolyline
 66
     1
 10
0.0
 20
0.0
 30
0.0
 75
     5
  0
VERTEX
  5
11B
330
11A
100
AcDbEntity
  8
0
  6
Continuous
 62
     7
370
    15
100
AcDbVertex
100
AcDb2dVertex
 10
71.9067219841005
 20
290.1274309754002
 30
0.0
  0
VERTEX
  5
11C
330
11A
100
AcDbEntity
  8
0
  6
Continuous
 62
     7
370
    15
100
AcDbVertex
100
AcDb2dVertex
 10
71.89911749690054
 20
290.0863565336002
 30
0.0
  0
VERTEX
  5
11D
330
11A
100
AcDbEntity
  8
0
  6
Continuous
 62
     7
370
    15
100
AcDbVertex
100
AcDb2dVertex
 10
71.85590478470056
 20
290.0283670680001
 30
0.0
  0
VERTEX
  5
11E
330
11A
100
AcDbEntity
  8
0
  6
Continuous
 62
     7
370
    15
100
AcDbVertex
100
AcDb2dVertex
 10
71.77623272470055
 20
289.9730805716002
 30
0.0
  0
VERTEX
  5
11F
330
11A
100
AcDbEntity
  8
0
  6
Continuous
 62
     7
370
    15
100
AcDbVertex
100
AcDb2dVertex
 10
71.66316235910051
 20
289.9226230248001
 30
0.0
  0
SEQEND
  5
120
330
11A
100
AcDbEntity
  8
0
  6
Continuous
 62
     7
370
    15
  0
LINE
  5
121
330
24
100
AcDbEntity
  8
0
  6
Continuous
 62
     7
370
    15
100
AcDbLine
 10
25.60614771530049
 20
273.1519764550001
 30
0.0
 11
45.67429991390054
 21
-467.2753306439998
 31
0.0
  0
LINE
  5
122
330
24
100
AcDbEntity
  8
0
  6
Continuous
 62
     7
370
    15
100
AcDbLine
 10
26.0292754135005
 20
273.1675377918003
 30
0.0
 11
46.09731925730057
 21
-467.2557714859998
 31
0.0
  0
LINE
  5
123
330
24
100
AcDbEntity
  8
0
  6
Continuous
 62
     7
370
    15
100
AcDbLine
 10
-26.85971805149939
 20
285.3166366914002
 30
0.0
 11
-6.793095305099428
 21
-455.0542402905999
 31
0.0
  0
LINE
  5
124
330
24
100
AcDbEntity
  8
0
  6
Continuous
 62
     7
370
    15
100
AcDbLine
 10
71.42206805770059
 20
289.8336776940001
 30
0.0
 11
91.48795405490057
 21
-450.5100164589998
 31
0.0
  0
LINE
  5
125
330
24
100
AcDbEntity
  8
0
  6
Continuous
 62
     7
370
    15
100
AcDbLine
 10
21.61868106510053
 20
-307.6635659633999
 30
0.0
 11
22.26026352910048
 21
-331.3351612017998
 31
0.0
  0
LINE
  5
126
330
24
100
AcDbEntity
  8
0
  6
Continuous
 62
     7
370
    15
100
AcDbLine
 10
21.75185863250056
 20
-307.8073177157998
 30
0.0
 11
22.38729266970063
 21
-331.2520628209998
 31
0.0
  0
LINE
  5
127
330
24
100
AcDbEntity
  8
0
  6
Continuous
 62
     7
370
    15
100
AcDbLine
 10
23.16323647190052
 20
-309.5567366645999
 30
0.0
 11
23.72117073190054
 21
-330.1420779349998
 31
0.0
  0
LINE
  5
128
330
24
100
AcDbEntity
  8
0
  6
Continuous
 62
     7
370
    15
100
AcDbLine
 10
23.29771217750056
 20
-309.7483840567998
 30
0.0
 11
23.84690019270056
 21
-330.0110270309999
 31
0.0
  0
LINE
  5
129
330
24
100
AcDbEntity
  8
0
  6
Continuous
 62
     7
370
    15
100
AcDbLine
 10
26.73503711770059
 20
-318.6257680759998
 30
0.0
 11
26.84362900150063
 21
-322.6323350589998
 31
0.0
  0
LINE
  5
12A
330
24
100
AcDbEntity
  8
0
  6
Continuous
 62
     7
370
    15
100
AcDbLine
 10
26.82519850550057
 20
-319.4104882807998
 30
0.0
 11
26.89212816910049
 21
-321.8799010139998
 31
0.0
  0
ARC
  5
12B
330
24
100
AcDbEntity
  8
0
  6
Continuous
 62
     7
370
    15
100
AcDbCircle
 10
-23.26268478369946
 20
292.4215879882002
 30
0.0
 40
2.133706717271971
100
AcDbArc
 50
173.6473414702005
 51
246.8443809553027
  0
ARC
  5
12C
330
24
100
AcDbEntity
  8
0
  6
Continuous
 62
     7
370
    15
100
AcDbCircle
 10
25.50023929130055
 20
281.0633702124001
 30
0.0
 40
2.133706717271632
100
AcDbArc
 50
173.6473414701994
 51
246.8443809552991
  0
ARC
  5
12D
330
24
100
AcDbEntity
  8
0
  6
Continuous
 62
     7
370
    15
100
AcDbCircle
 10
25.39867074430049
 20
281.2104836508002
 30
0.0
 40
2.229377425505924
100
AcDbArc
 50
296.1192865249001
 51
7.33348660530021
  0
ARC
  5
12E
330
24
100
AcDbEntity
  8
0
  6
Continuous
 62
     7
370
    15
100
AcDbCircle
 10
67.58449051110051
 20
296.7739012276002
 30
0.0
 40
2.229377425506178
100
AcDbArc
 50
296.1192865249001
 51
7.333486605299527
  0
ARC
  5
12F
330
24
100
AcDbEntity
  8
0
  6
Continuous
 62
     7
370
    15
100
AcDbCircle
 10
66.25610508310058
 20
360.8035409448001
 30
0.0
 40
1.291570921561523
100
AcDbArc
 50
77.3116168383013
 51
111.5528761922006
  0
ARC
  5
130
330
24
100
AcDbEntity
  8
0
  6
Continuous
 62
     7
370
    15
100
AcDbCircle
 10
17.49318100830055
 20
372.1617587206001
 30
0.0
 40
1.291570921559205
100
AcDbArc
 50
77.31161683829882
 51
111.5528761922011
  0
POLYLINE
  5
131
330
24
100
AcDbEntity
  8
0
  6
Continuous
 62
     7
370
    15
100
AcDb2dPolyline
 66
     1
 10
0.0
 20
0.0
 30
0.0
 75
     5
  0
VERTEX
  5
132
330
131
100
AcDbEntity
  8
0
  6
Continuous
 62
     7
370
    15
100
AcDbVertex
100
AcDb2dVertex
 10
-28.08841228589949
 20
354.8553007122001
 30
0.0
  0
VERTEX
  5
133
330
131
100
AcDbEntity
  8
0
  6
Continuous
 62
     7
370
    15
100
AcDbVertex
100
AcDb2dVertex
 10
-28.08069912549945
 20
354.7982774236003
 30
0.0
  0
VERTEX
  5
134
330
131
100
AcDbEntity
  8
0
  6
Continuous
 62
     7
370
    15
100
AcDbVertex
100
AcDb2dVertex
 10
-27.98102444089943
 20
354.6281989304001
 30
0.0
  0
VERTEX
  5
135
330
131
100
AcDbEntity
  8
0
  6
Continuous
 62
     7
370
    15
100
AcDbVertex
100
AcDb2dVertex
 10
-27.77023138429945
 20
354.4699702742001
 30
0.0
  0
VERTEX
  5
136
330
131
100
AcDbEntity
  8
0
  6
Continuous
 62
     7
370
    15
100
AcDbVertex
100
AcDb2dVertex
 10
-27.4564170966994
 20
354.3296743826002
 30
0.0
  0
VERTEX
  5
137
330
131
100
AcDbEntity
  8
0
  6
Continuous
 62
     7
370
    15
100
AcDbVertex
100
AcDb2dVertex
 10
-27.05164481469944
 20
354.2127005382002
 30
0.0
  0
SEQEND
  5
138
330
131
100
AcDbEntity
  8
0
  6
Continuous
 62
     7
370
    15
  0
ARC
  5
139
330
24
100
AcDbEntity
  8
0
  6
Continuous
 62
     7
370
    15
100
AcDbCircle
 10
-25.56825048469943
 20
356.2039960932003
 30
0.0
 40
1.645259419637424
100
AcDbArc
 50
75.88812531100238
 51
109.8858154261994
  0
POLYLINE
  5
13A
330
24
100
AcDbEntity
  8
0
  6
Continuous
 62
     7
370
    15
100
AcDb2dPolyline
 66
     1
 10
0.0
 20
0.0
 30
0.0
 75
     5
  0
VERTEX
  5
13B
330
13A
100
AcDbEntity
  8
0
  6
Continuous
 62
     7
370
    15
100
AcDbVertex
100
AcDb2dVertex
 10
-26.4200573358994
 20
293.3002780716002
 30
0.0
  0
VERTEX
  5
13C
330
13A
100
AcDbEntity
  8
0
  6
Continuous
 62
     7
370
    15
100
AcDbVertex
100
AcDb2dVertex
 10
-26.41234417549947
 20
293.2432547830002
 30
0.0
  0
VERTEX
  5
13D
330
13A
100
AcDbEntity
  8
0
  6
Continuous
 62
     7
370
    15
100
AcDbVertex
100
AcDb2dVertex
 10
-26.31266949069936
 20
293.0731762898002
 30
0.0
  0
VERTEX
  5
13E
330
13A
100
AcDbEntity
  8
0
  6
Continuous
 62
     7
370
    15
100
AcDbVertex
100
AcDb2dVertex
 10
-26.10187643429947
 20
292.9149476336002
 30
0.0
  0
VERTEX
  5
13F
330
13A
100
AcDbEntity
  8
0
  6
Continuous
 62
     7
370
    15
100
AcDbVertex
100
AcDb2dVertex
 10
-25.78806214669953
 20
292.7746517420001
 30
0.0
  0
VERTEX
  5
140
330
13A
100
AcDbEntity
  8
0
  6
Continuous
 62
     7
370
    15
100
AcDbVertex
100
AcDb2dVertex
 10
-25.38328986469946
 20
292.6576778976001
 30
0.0
  0
SEQEND
  5
141
330
13A
100
AcDbEntity
  8
0
  6
Continuous
 62
     7
370
    15
  0
ARC
  5
142
330
24
100
AcDbEntity
  8
0
  6
Continuous
 62
     7
370
    15
100
AcDbCircle
 10
16.61756928230056
 20
371.7674136698001
 30
0.0
 40
1.645259419640265
100
AcDbArc
 50
75.88812531099867
 51
109.8858154262013
  0
POLYLINE
  5
143
330
24
100
AcDbEntity
  8
0
  6
Continuous
 62
     7
370
    15
100
AcDb2dPolyline
 66
     1
 10
0.0
 20
0.0
 30
0.0
 75
     5
  0
VERTEX
  5
144
330
143
100
AcDbEntity
  8
0
  6
Continuous
 62
     7
370
    15
100
AcDbVertex
100
AcDb2dVertex
 10
68.85813208830052
 20
359.2230611522
 30
0.0
  0
VERTEX
  5
145
330
143
100
AcDbEntity
  8
0
  6
Continuous
 62
     7
370
    15
100
AcDbVertex
100
AcDb2dVertex
 10
68.83514493110056
 20
359.1046910618002
 30
0.0
  0
VERTEX
  5
146
330
143
100
AcDbEntity
  8
0
  6
Continuous
 62
     7
370
    15
100
AcDbVertex
100
AcDb2dVertex
 10
68.70550961090055
 20
358.9307220086001
 30
0.0
  0
VERTEX
  5
147
330
143
100
AcDbEntity
  8
0
  6
Continuous
 62
     7
370
    15
100
AcDbVertex
100
AcDb2dVertex
 10
68.46649023490056
 20
358.7648647304002
 30
0.0
  0
VERTEX
  5
148
330
143
100
AcDbEntity
  8
0
  6
Continuous
 62
     7
370
    15
100
AcDbVertex
100
AcDb2dVertex
 10
68.12727670170057
 20
358.6134911914001
 30
0.0
  0
SEQEND
  5
149
330
143
100
AcDbEntity
  8
0
  6
Continuous
 62
     7
370
    15
  0
POLYLINE
  5
14A
330
24
100
AcDbEntity
  8
0
  6
Continuous
 62
     7
370
    15
100
AcDb2dPolyline
 66
     1
 10
0.0
 20
0.0
 30
0.0
 75
     5
  0
VERTEX
  5
14B
330
14A
100
AcDbEntity
  8
0
  6
Continuous
 62
     7
370
    15
100
AcDbVertex
100
AcDb2dVertex
 10
69.79563165170055
 20
297.0584685508002
 30
0.0
  0
VERTEX
  5
14C
330
14A
100
AcDbEntity
  8
0
  6
Continuous
 62
     7
370
    15
100
AcDbVertex
100
AcDb2dVertex
 10
70.13484518490054
 20
297.2098420898001
 30
0.0
  0
VERTEX
  5
14D
330
14A
100
AcDbEntity
  8
0
  6
Continuous
 62
     7
370
    15
100
AcDbVertex
100
AcDb2dVertex
 10
70.3738645611005
 20
297.3756993680002
 30
0.0
  0
VERTEX
  5
14E
330
14A
100
AcDbEntity
  8
0
  6
Continuous
 62
     7
370
    15
100
AcDbVertex
100
AcDb2dVertex
 10
70.50349988110054
 20
297.5496684212001
 30
0.0
  0
VERTEX
  5
14F
330
14A
100
AcDbEntity
  8
0
  6
Continuous
 62
     7
370
    15
100
AcDbVertex
100
AcDb2dVertex
 10
70.52648703850059
 20
297.6680385118003
 30
0.0
  0
SEQEND
  5
150
330
14A
100
AcDbEntity
  8
0
  6
Continuous
 62
     7
370
    15
  0
LINE
  5
151
330
24
100
AcDbEntity
  8
0
  6
Continuous
 62
     7
370
    15
100
AcDbLine
 10
71.12798116870056
 20
293.0718435026002
 30
0.0
 11
66.7323157665005
 21
294.0957141144002
 31
0.0
  0
LINE
  5
152
330
24
100
AcDbEntity
  8
0
  6
Continuous
 62
     7
370
    15
100
AcDbLine
 10
-22.57755303689942
 20
290.1047518046001
 30
0.0
 11
-26.80941980169951
 21
288.5435089520002
 31
0.0
  0
POLYLINE
  5
153
330
24
100
AcDbEntity
  8
0
  6
Continuous
 62
     7
370
    15
100
AcDb2dPolyline
 66
     1
 10
0.0
 20
0.0
 30
0.0
 75
     5
  0
VERTEX
  5
154
330
153
100
AcDbEntity
  8
0
  6
Continuous
 62
     7
370
    15
100
AcDbVertex
100
AcDb2dVertex
 10
-27.07715588609949
 20
287.7635878502002
 30
0.0
  0
VERTEX
  5
155
330
153
100
AcDbEntity
  8
0
  6
Continuous
 62
     7
370
    15
100
AcDbVertex
100
AcDb2dVertex
 10
-27.2061717476995
 20
287.8008715330002
 30
0.0
  0
VERTEX
  5
156
330
153
100
AcDbEntity
  8
0
  6
Continuous
 62
     7
370
    15
100
AcDbVertex
100
AcDb2dVertex
 10
-27.3061957426994
 20
287.8455897898003
 30
0.0
  0
VERTEX
  5
157
330
153
100
AcDbEntity
  8
0
  6
Continuous
 62
     7
370
    15
100
AcDbVertex
100
AcDb2dVertex
 10
-27.37338126289944
 20
287.8960225146002
 30
0.0
  0
VERTEX
  5
158
330
153
100
AcDbEntity
  8
0
  6
Continuous
 62
     7
370
    15
100
AcDbVertex
100
AcDb2dVertex
 10
-27.4051541154995
 20
287.9502327368
 30
0.0
  0
VERTEX
  5
159
330
153
100
AcDbEntity
  8
0
  6
Continuous
 62
     7
370
    15
100
AcDbVertex
100
AcDb2dVertex
 10
-27.40709754529939
 20
287.9611013656002
 30
0.0
  0
SEQEND
  5
15A
330
153
100
AcDbEntity
  8
0
  6
Continuous
 62
     7
370
    15
  0
ARC
  5
15B
330
24
100
AcDbEntity
  8
0
  6
Continuous
 62
     7
370
    15
100
AcDbCircle
 10
-26.87626833809941
 20
288.2774664000002
 30
0.0
 40
0.2743125338447389
100
AcDbArc
 50
75.89528678321248
 51
109.8794688417299
  0
ARC
  5
15C
330
24
100
AcDbEntity
  8
0
  6
Continuous
 62
     7
370
    15
100
AcDbCircle
 10
71.20699279830058
 20
292.8724535400002
 30
0.0
 40
0.2144742287892729
100
AcDbArc
 50
77.24647022749943
 51
111.6167806041051
  0
POLYLINE
  5
15D
330
24
100
AcDbEntity
  8
0
  6
Continuous
 62
     7
370
    15
100
AcDb2dPolyline
 66
     1
 10
0.0
 20
0.0
 30
0.0
 75
     5
  0
VERTEX
  5
15E
330
15D
100
AcDbEntity
  8
0
  6
Continuous
 62
     7
370
    15
100
AcDbVertex
100
AcDb2dVertex
 10
71.79806042730058
 20
292.5203551042001
 30
0.0
  0
VERTEX
  5
15F
330
15D
100
AcDbEntity
  8
0
  6
Continuous
 62
     7
370
    15
100
AcDbVertex
100
AcDb2dVertex
 10
71.79078683430055
 20
292.4810791338001
 30
0.0
  0
VERTEX
  5
160
330
15D
100
AcDbEntity
  8
0
  6
Continuous
 62
     7
370
    15
100
AcDbVertex
100
AcDb2dVertex
 10
71.74946895130051
 20
292.4256295336002
 30
0.0
  0
VERTEX
  5
161
330
15D
100
AcDbEntity
  8
0
  6
Continuous
 62
     7
370
    15
100
AcDbVertex
100
AcDb2dVertex
 10
71.6732852267005
 20
292.3727639554002
 30
0.0
  0
VERTEX
  5
162
330
15D
100
AcDbEntity
  8
0
  6
Continuous
 62
     7
370
    15
100
AcDbVertex
100
AcDb2dVertex
 10
71.56516526190057
 20
292.3245158162002
 30
0.0
  0
SEQEND
  5
163
330
15D
100
AcDbEntity
  8
0
  6
Continuous
 62
     7
370
    15
  0
SPLINE
  5
164
330
24
100
AcDbEntity
  8
0
  6
Continuous
 62
     7
370
    15
100
AcDbSpline
210
0.0
220
0.0
230
1.0
 70
     8
 71
     2
 72
    11
 73
     8
 74
     0
 42
0.000000001
 43
0.000001
 40
0.0
 40
0.0
 40
0.0
 40
1.0
 40
1.0
 40
2.0
 40
3.0
 40
3.0
 40
4.0
 40
4.0
 40
4.0
 10
17.02829748627414
 20
339.1372525080751
 30
0.0
 10
17.03972824218624
 20
338.9991627040152
 30
0.0
 10
17.05115899809834
 20
338.8610728999553
 30
0.0
 10
18.66785453558157
 20
318.409718212209
 30
0.0
 10
22.58913600712731
 20
291.0789725860872
 30
0.0
 10
23.75533831499649
 20
283.5536924100629
 30
0.0
 10
23.75544441854441
 20
283.5530029864622
 30
0.0
 10
23.75555052209234
 20
283.5523135628616
 30
0.0
  0
SPLINE
  5
165
330
24
100
AcDbEntity
  8
0
  6
Continuous
 62
     7
370
    15
100
AcDbSpline
210
0.0
220
0.0
230
1.0
 70
     8
 71
     2
 72
    17
 73
    14
 74
     0
 42
0.000000001
 43
0.000001
 40
0.0
 40
0.0
 40
0.0
 40
1.0
 40
1.0
 40
2.0
 40
3.0
 40
4.0
 40
5.0
 40
6.0
 40
7.0
 40
8.0
 40
9.0
 40
9.0
 40
10.0
 40
10.0
 40
10.0
 10
43.17965978576638
 20
290.7183578329504
 30
0.0
 10
43.18080509763422
 20
290.7081568529175
 30
0.0
 10
43.18195040950206
 20
290.6979558728846
 30
0.0
 10
43.22560127818008
 20
290.3921917126865
 30
0.0
 10
43.1931575065862
 20
289.5428377920702
 30
0.0
 10
42.1454241038565
 20
288.0539804445895
 30
0.0
 10
39.05539584620124
 20
286.2952715066623
 30
0.0
 10
35.44230943285083
 20
285.1904744901248
 30
0.0
 10
32.36853749059333
 20
284.4906557211393
 30
0.0
 10
28.21151158802843
 20
283.8537227710341
 30
0.0
 10
24.8496568009881
 20
283.6140192738071
 30
0.0
 10
23.82388074271421
 20
283.5562512479898
 30
0.0
 10
23.78971300596538
 20
283.554282283987
 30
0.0
 10
23.75554526921655
 20
283.5523133199842
 30
0.0
  0
SPLINE
  5
166
330
24
100
AcDbEntity
  8
0
  6
Continuous
 62
     7
370
    15
100
AcDbSpline
210
0.0
220
0.0
230
1.0
 70
     8
 71
     2
 72
    11
 73
     8
 74
     0
 42
0.000000001
 43
0.000001
 40
0.0
 40
0.0
 40
0.0
 40
1.0
 40
1.0
 40
2.0
 40
3.0
 40
3.0
 40
4.0
 40
4.0
 40
4.0
 10
36.25178503204279
 20
343.1050365750504
 30
0.0
 10
36.27700959314529
 20
342.9760755869992
 30
0.0
 10
36.3022341542478
 20
342.8471145989481
 30
0.0
 10
38.8763713319305
 20
330.0041953582117
 30
0.0
 10
42.60333751643248
 20
304.0850081169585
 30
0.0
 10
43.17960491509871
 20
290.719684956055
 30
0.0
 10
43.17963216049742
 20
290.7190221719516
 30
0.0
 10
43.17965940589613
 20
290.7183593878482
 30
0.0
  0
SPLINE
  5
167
330
24
100
AcDbEntity
  8
0
  6
Continuous
 62
     7
370
    15
100
AcDbSpline
210
0.0
220
0.0
230
1.0
 70
     8
 71
     2
 72
    11
 73
     8
 74
     0
 42
0.000000001
 43
0.000001
 40
0.0
 40
0.0
 40
0.0
 40
1.0
 40
1.0
 40
2.0
 40
3.0
 40
3.0
 40
4.0
 40
4.0
 40
4.0
 10
26.71023340435556
 20
339.5849164699525
 30
0.0
 10
26.75663687691599
 20
339.6025609796272
 30
0.0
 10
26.80304034947642
 20
339.6202054893019
 30
0.0
 10
30.24622080989582
 20
340.93889763956
 30
0.0
 10
34.80127961972357
 20
342.5871567564922
 30
0.0
 10
36.16110043478295
 20
343.0726307512656
 30
0.0
 10
36.20644273341287
 20
343.088833663158
 30
0.0
 10
36.25178503204279
 20
343.1050365750504
 30
0.0
  0
SPLINE
  5
168
330
24
100
AcDbEntity
  8
0
  6
Continuous
 62
     7
370
    15
100
AcDbSpline
210
0.0
220
0.0
230
1.0
 70
     8
 71
     2
 72
    12
 73
     9
 74
     0
 42
0.000000001
 43
0.000001
 40
0.0
 40
0.0
 40
0.0
 40
1.0
 40
1.0
 40
2.0
 40
3.0
 40
4.0
 40
4.0
 40
5.0
 40
5.0
 40
5.0
 10
23.75555052209234
 20
283.5523135628616
 30
0.0
 10
23.75561713266592
 20
283.5530109722503
 30
0.0
 10
23.7556837432395
 20
283.5537083816391
 30
0.0
 10
24.31733102702196
 20
289.3801693695218
 30
0.0
 10
26.37493004683688
 20
313.6482633169573
 30
0.0
 10
26.68189129956772
 20
335.7019221320228
 30
0.0
 10
26.70805886085054
 20
339.3075792689903
 30
0.0
 10
26.70914613260305
 20
339.4462478694714
 30
0.0
 10
26.71023340435556
 20
339.5849164699525
 30
0.0
  0
SPLINE
  5
169
330
24
100
AcDbEntity
  8
0
  6
Continuous
 62
     7
370
    15
100
AcDbSpline
210
0.0
220
0.0
230
1.0
 70
     8
 71
     2
 72
    16
 73
    13
 74
     0
 42
0.000000001
 43
0.000001
 40
0.0
 40
0.0
 40
0.0
 40
1.0
 40
1.0
 40
2.0
 40
3.0
 40
4.0
 40
5.0
 40
6.0
 40
7.0
 40
8.0
 40
8.0
 40
9.0
 40
9.0
 40
9.0
 10
25.17682128342062
 20
341.6835859335342
 30
0.0
 10
25.16572437355734
 20
341.680264363956
 30
0.0
 10
25.15462746369406
 20
341.6769427943779
 30
0.0
 10
24.86744199214081
 20
341.5900084371503
 30
0.0
 10
23.95748285053264
 20
341.3314966449356
 30
0.0
 10
22.93564429775984
 20
341.1947630952076
 30
0.0
 10
21.7536872440553
 20
341.0789721486216
 30
0.0
 10
20.31866360452
 20
341.0991246237258
 30
0.0
 10
19.22146373382316
 20
341.1823558216785
 30
0.0
 10
18.47962665444948
 20
341.3203649498143
 30
0.0
 10
18.27483507389911
 20
341.3611234459628
 30
0.0
 10
18.26799396910292
 20
341.3624747055322
 30
0.0
 10
18.26115286430672
 20
341.3638259651015
 30
0.0
  0
SPLINE
  5
16A
330
24
100
AcDbEntity
  8
0
  6
Continuous
 62
     7
370
    15
100
AcDbSpline
210
0.0
220
0.0
230
1.0
 70
     8
 71
     2
 72
    16
 73
    13
 74
     0
 42
0.000000001
 43
0.000001
 40
0.0
 40
0.0
 40
0.0
 40
1.0
 40
1.0
 40
2.0
 40
3.0
 40
4.0
 40
5.0
 40
6.0
 40
7.0
 40
8.0
 40
8.0
 40
9.0
 40
9.0
 40
9.0
 10
17.02829748627414
 20
339.1372525080751
 30
0.0
 10
17.03860343726103
 20
339.1355019201099
 30
0.0
 10
17.04890938824792
 20
339.1337513321448
 30
0.0
 10
17.35688993397855
 20
339.0806926340978
 30
0.0
 10
18.59380452566711
 20
338.8867685463271
 30
0.0
 10
20.41158443452889
 20
338.8111953350078
 30
0.0
 10
21.85482391475091
 20
338.8306147424227
 30
0.0
 10
23.2967981170483
 20
338.9260442285189
 30
0.0
 10
24.91654660382267
 20
339.1327850123504
 30
0.0
 10
26.17672192228201
 20
339.4391157421273
 30
0.0
 10
26.67672808938096
 20
339.5758649858084
 30
0.0
 10
26.69348074686826
 20
339.5803907278805
 30
0.0
 10
26.71023340435556
 20
339.5849164699525
 30
0.0
  0
ARC
  5
16B
330
24
100
AcDbEntity
  8
0
  6
Continuous
 62
     7
370
    15
100
AcDbCircle
 10
19.50091787929034
 20
339.2227639567752
 30
0.0
 40
2.474098586427425
100
AcDbArc
 50
120.0726472809993
 51
181.9806895034975
  0
SPLINE
  5
16C
330
24
100
AcDbEntity
  8
0
  6
Continuous
 62
     7
370
    15
100
AcDbSpline
210
0.0
220
0.0
230
1.0
 70
     8
 71
     2
 72
    10
 73
     7
 74
     0
 42
0.000000001
 43
0.000001
 40
0.0
 40
0.0
 40
0.0
 40
1.0
 40
1.0
 40
2.0
 40
2.0
 40
3.0
 40
3.0
 40
3.0
 10
18.26115286430672
 20
341.3638259651015
 30
0.0
 10
18.20337714357436
 20
341.3769364258807
 30
0.0
 10
18.14560142284199
 20
341.3900468866599
 30
0.0
 10
12.70520039851885
 20
342.6193045178715
 30
0.0
 10
7.39091748007877
 20
343.8951066084466
 30
0.0
 10
7.334281761971965
 20
343.9086457532891
 30
0.0
 10
7.277646043865161
 20
343.9221848981317
 30
0.0
  0
SPLINE
  5
16D
330
24
100
AcDbEntity
  8
0
  6
Continuous
 62
     7
370
    15
100
AcDbSpline
210
0.0
220
0.0
230
1.0
 70
     8
 71
     2
 72
    10
 73
     7
 74
     0
 42
0.000000001
 43
0.000001
 40
0.0
 40
0.0
 40
0.0
 40
1.0
 40
1.0
 40
2.0
 40
2.0
 40
3.0
 40
3.0
 40
3.0
 10
5.99914218839433
 20
341.706244219137
 30
0.0
 10
6.056053862882152
 20
341.6935900329356
 30
0.0
 10
6.112965537369973
 20
341.6809358467341
 30
0.0
 10
11.45377145721625
 20
340.5027573077368
 30
0.0
 10
16.91234693567105
 20
339.1654645678613
 30
0.0
 10
16.9703222109726
 20
339.1513585379682
 30
0.0
 10
17.02829748627414
 20
339.1372525080751
 30
0.0
  0
ARC
  5
16E
330
24
100
AcDbEntity
  8
0
  6
Continuous
 62
     7
370
    15
100
AcDbCircle
 10
24.35899540349033
 20
339.4764983847751
 30
0.0
 40
2.353736310158988
100
AcDbArc
 50
2.640099244600878
 51
69.66805082449979
  0
SPLINE
  5
16F
330
24
100
AcDbEntity
  8
0
  6
Continuous
 62
     7
370
    15
100
AcDbSpline
210
0.0
220
0.0
230
1.0
 70
     8
 71
     2
 72
    10
 73
     7
 74
     0
 42
0.000000001
 43
0.000001
 40
0.0
 40
0.0
 40
0.0
 40
1.0
 40
1.0
 40
2.0
 40
2.0
 40
3.0
 40
3.0
 40
3.0
 10
34.67888146389919
 20
345.1891366433464
 30
0.0
 10
34.63381918730283
 20
345.1721416924973
 30
0.0
 10
34.58875691070648
 20
345.1551467416481
 30
0.0
 10
30.00039323104045
 20
343.4194772905589
 30
0.0
 10
25.26942884998766
 20
341.7170104235587
 30
0.0
 10
25.22312506670414
 20
341.7002981785465
 30
0.0
 10
25.17682128342062
 20
341.6835859335342
 30
0.0
  0
POLYLINE
  5
170
330
24
100
AcDbEntity
  8
0
  6
Continuous
 62
     7
370
    15
100
AcDb2dPolyline
 66
     1
 10
0.0
 20
0.0
 30
0.0
 75
     5
  0
VERTEX
  5
171
330
170
100
AcDbEntity
  8
0
  6
Continuous
 62
     7
370
    15
100
AcDbVertex
100
AcDb2dVertex
 10
1.303068432490363
 20
288.7821117655753
 30
0.0
  0
VERTEX
  5
172
330
170
100
AcDbEntity
  8
0
  6
Continuous
 62
     7
370
    15
100
AcDbVertex
100
AcDb2dVertex
 10
1.284558126690399
 20
289.5993836705752
 30
0.0
  0
VERTEX
  5
173
330
170
100
AcDbEntity
  8
0
  6
Continuous
 62
     7
370
    15
100
AcDbVertex
100
AcDb2dVertex
 10
1.927542205290365
 20
290.8257450815751
 30
0.0
  0
VERTEX
  5
174
330
170
100
AcDbEntity
  8
0
  6
Continuous
 62
     7
370
    15
100
AcDbVertex
100
AcDb2dVertex
 10
3.351175802890339
 20
292.0107748563752
 30
0.0
  0
VERTEX
  5
175
330
170
100
AcDbEntity
  8
0
  6
Continuous
 62
     7
370
    15
100
AcDbVertex
100
AcDb2dVertex
 10
5.500748143690316
 20
293.1089335245751
 30
0.0
  0
VERTEX
  5
176
330
170
100
AcDbEntity
  8
0
  6
Continuous
 62
     7
370
    15
100
AcDbVertex
100
AcDb2dVertex
 10
8.293653046690338
 20
294.0780192753752
 30
0.0
  0
VERTEX
  5
177
330
170
100
AcDbEntity
  8
0
  6
Continuous
 62
     7
370
    15
100
AcDbVertex
100
AcDb2dVertex
 10
11.62256078789039
 20
294.8807907153752
 30
0.0
  0
VERTEX
  5
178
330
170
100
AcDbEntity
  8
0
  6
Continuous
 62
     7
370
    15
100
AcDbVertex
100
AcDb2dVertex
 10
15.35954256149034
 20
295.4863978007751
 30
0.0
  0
VERTEX
  5
179
330
170
100
AcDbEntity
  8
0
  6
Continuous
 62
     7
370
    15
100
AcDbVertex
100
AcDb2dVertex
 10
18.00713863329042
 20
295.7687663937751
 30
0.0
  0
VERTEX
  5
17A
330
170
100
AcDbEntity
  8
0
  6
Continuous
 62
     7
370
    15
100
AcDbVertex
100
AcDb2dVertex
 10
20.72718294909032
 20
295.9481562785751
 30
0.0
  0
SEQEND
  5
17B
330
170
100
AcDbEntity
  8
0
  6
Continuous
 62
     7
370
    15
  0
POLYLINE
  5
17C
330
24
100
AcDbEntity
  8
0
  6
Continuous
 62
     7
370
    15
100
AcDb2dPolyline
 66
     1
 10
0.0
 20
0.0
 30
0.0
 75
     5
  0
VERTEX
  5
17D
330
17C
100
AcDbEntity
  8
0
  6
Continuous
 62
     7
370
    15
100
AcDbVertex
100
AcDb2dVertex
 10
20.72718294909032
 20
295.9481562785751
 30
0.0
  0
VERTEX
  5
17E
330
17C
100
AcDbEntity
  8
0
  6
Continuous
 62
     7
370
    15
100
AcDbVertex
100
AcDb2dVertex
 10
23.47312757389034
 20
296.0214974885752
 30
0.0
  0
VERTEX
  5
17F
330
17C
100
AcDbEntity
  8
0
  6
Continuous
 62
     7
370
    15
100
AcDbVertex
100
AcDb2dVertex
 10
27.53793027089034
 20
295.9304266065753
 30
0.0
  0
VERTEX
  5
180
330
17C
100
AcDbEntity
  8
0
  6
Continuous
 62
     7
370
    15
100
AcDbVertex
100
AcDb2dVertex
 10
31.3991875668903
 20
295.6018541671751
 30
0.0
  0
VERTEX
  5
181
330
17C
100
AcDbEntity
  8
0
  6
Continuous
 62
     7
370
    15
100
AcDbVertex
100
AcDb2dVertex
 10
34.90851549729041
 20
295.0484074719752
 30
0.0
  0
VERTEX
  5
182
330
17C
100
AcDbEntity
  8
0
  6
Continuous
 62
     7
370
    15
100
AcDbVertex
100
AcDb2dVertex
 10
37.9310518674904
 20
294.2913549477752
 30
0.0
  0
VERTEX
  5
183
330
17C
100
AcDbEntity
  8
0
  6
Continuous
 62
     7
370
    15
100
AcDbVertex
100
AcDb2dVertex
 10
40.35064239089036
 20
293.3597896873752
 30
0.0
  0
VERTEX
  5
184
330
17C
100
AcDbEntity
  8
0
  6
Continuous
 62
     7
370
    15
100
AcDbVertex
100
AcDb2dVertex
 10
42.07430366469043
 20
292.2895114467753
 30
0.0
  0
VERTEX
  5
185
330
17C
100
AcDbEntity
  8
0
  6
Continuous
 62
     7
370
    15
100
AcDbVertex
100
AcDb2dVertex
 10
42.80288833309032
 20
291.5190671651753
 30
0.0
  0
VERTEX
  5
186
330
17C
100
AcDbEntity
  8
0
  6
Continuous
 62
     7
370
    15
100
AcDbVertex
100
AcDb2dVertex
 10
43.17965978569032
 20
290.7183578329752
 30
0.0
  0
SEQEND
  5
187
330
17C
100
AcDbEntity
  8
0
  6
Continuous
 62
     7
370
    15
  0
POLYLINE
  5
188
330
24
100
AcDbEntity
  8
0
  6
Continuous
 62
     7
370
    15
100
AcDb2dPolyline
 66
     1
 10
0.0
 20
0.0
 30
0.0
 75
     5
  0
VERTEX
  5
189
330
188
100
AcDbEntity
  8
0
  6
Continuous
 62
     7
370
    15
100
AcDbVertex
100
AcDb2dVertex
 10
23.75554526929034
 20
283.5523133199751
 30
0.0
  0
VERTEX
  5
18A
330
188
100
AcDbEntity
  8
0
  6
Continuous
 62
     7
370
    15
100
AcDbVertex
100
AcDb2dVertex
 10
21.00960064449032
 20
283.4789721099752
 30
0.0
  0
VERTEX
  5
18B
330
188
100
AcDbEntity
  8
0
  6
Continuous
 62
     7
370
    15
100
AcDbVertex
100
AcDb2dVertex
 10
16.94479794729034
 20
283.5700429919752
 30
0.0
  0
VERTEX
  5
18C
330
188
100
AcDbEntity
  8
0
  6
Continuous
 62
     7
370
    15
100
AcDbVertex
100
AcDb2dVertex
 10
13.08354065149035
 20
283.8986154313752
 30
0.0
  0
VERTEX
  5
18D
330
188
100
AcDbEntity
  8
0
  6
Continuous
 62
     7
370
    15
100
AcDbVertex
100
AcDb2dVertex
 10
9.574212721090362
 20
284.4520621265753
 30
0.0
  0
VERTEX
  5
18E
330
188
100
AcDbEntity
  8
0
  6
Continuous
 62
     7
370
    15
100
AcDbVertex
100
AcDb2dVertex
 10
6.551676350890375
 20
285.2091146507752
 30
0.0
  0
VERTEX
  5
18F
330
188
100
AcDbEntity
  8
0
  6
Continuous
 62
     7
370
    15
100
AcDbVertex
100
AcDb2dVertex
 10
4.1320858274903
 20
286.1406799111753
 30
0.0
  0
VERTEX
  5
190
330
188
100
AcDbEntity
  8
0
  6
Continuous
 62
     7
370
    15
100
AcDbVertex
100
AcDb2dVertex
 10
2.408424553690338
 20
287.2109581517752
 30
0.0
  0
VERTEX
  5
191
330
188
100
AcDbEntity
  8
0
  6
Continuous
 62
     7
370
    15
100
AcDbVertex
100
AcDb2dVertex
 10
1.679839885290335
 20
287.9814024331751
 30
0.0
  0
VERTEX
  5
192
330
188
100
AcDbEntity
  8
0
  6
Continuous
 62
     7
370
    15
100
AcDbVertex
100
AcDb2dVertex
 10
1.303068432490363
 20
288.7821117655753
 30
0.0
  0
SEQEND
  5
193
330
188
100
AcDbEntity
  8
0
  6
Continuous
 62
     7
370
    15
  0
SPLINE
  5
194
330
24
100
AcDbEntity
  8
0
  6
Continuous
 62
     7
370
    15
100
AcDbSpline
210
0.0
220
0.0
230
1.0
 70
     8
 71
     2
 72
    18
 73
    15
 74
     0
 42
0.000000001
 43
0.000001
 40
0.0
 40
0.0
 40
0.0
 40
1.0
 40
1.0
 40
2.0
 40
3.0
 40
4.0
 40
5.0
 40
6.0
 40
7.0
 40
8.0
 40
9.0
 40
10.0
 40
10.0
 40
11.0
 40
11.0
 40
11.0
 10
5.298977461026197
 20
344.5721831786199
 30
0.0
 10
5.29311265528338
 20
344.5699011209066
 30
0.0
 10
5.287247849540563
 20
344.5676190631934
 30
0.0
 10
5.110442793766538
 20
344.4993233187947
 30
0.0
 10
4.767377064743414
 20
344.3607572169821
 30
0.0
 10
4.096172566192081
 20
344.0346438329267
 30
0.0
 10
3.675542196857123
 20
343.5106962509421
 30
0.0
 10
3.67307675208167
 20
343.0200993807761
 30
0.0
 10
3.987050899347651
 20
342.6157411620447
 30
0.0
 10
4.388923150063874
 20
342.3287166109325
 30
0.0
 10
4.945260314151369
 20
342.0681751508038
 30
0.0
 10
5.620935821261469
 20
341.8299969642007
 30
0.0
 10
5.975614779238981
 20
341.7139991184455
 30
0.0
 10
5.987378483816656
 20
341.7101216687913
 30
0.0
 10
5.99914218839433
 20
341.706244219137
 30
0.0
  0
SPLINE
  5
195
330
24
100
AcDbEntity
  8
0
  6
Continuous
 62
     7
370
    15
100
AcDbSpline
210
0.0
220
0.0
230
1.0
 70
     8
 71
     2
 72
    11
 73
     8
 74
     0
 42
0.000000001
 43
0.000001
 40
0.0
 40
0.0
 40
0.0
 40
1.0
 40
1.0
 40
2.0
 40
3.0
 40
3.0
 40
4.0
 40
4.0
 40
4.0
 10
5.298977461026197
 20
344.5721831786199
 30
0.0
 10
5.280898742828185
 20
344.4374723504159
 30
0.0
 10
5.262820024630173
 20
344.3027615222119
 30
0.0
 10
3.399757126172744
 20
330.9133355970552
 30
0.0
 10
1.126907700364995
 20
303.2467421483031
 30
0.0
 10
1.303048601423029
 20
288.783540767979
 30
0.0
 10
1.303058706928994
 20
288.7828254893186
 30
0.0
 10
1.303068812434958
 20
288.7821102106581
 30
0.0
  0
SPLINE
  5
196
330
24
100
AcDbEntity
  8
0
  6
Continuous
 62
     7
370
    15
100
AcDbSpline
210
0.0
220
0.0
230
1.0
 70
     8
 71
     2
 72
    11
 73
     8
 74
     0
 42
0.000000001
 43
0.000001
 40
0.0
 40
0.0
 40
0.0
 40
1.0
 40
1.0
 40
2.0
 40
3.0
 40
3.0
 40
4.0
 40
4.0
 40
4.0
 10
1.303068812434958
 20
288.7821102106581
 30
0.0
 10
1.303071197027748
 20
288.7827743644057
 30
0.0
 10
1.303073581620538
 20
288.7834385181533
 30
0.0
 10
1.410464256777118
 20
302.1735502160449
 30
0.0
 10
4.033020719957108
 20
328.3988986416502
 30
0.0
 10
5.9611742294951
 20
341.4442334573029
 30
0.0
 10
5.980158208944715
 20
341.5752388382199
 30
0.0
 10
5.99914218839433
 20
341.706244219137
 30
0.0
  0
ARC
  5
197
330
24
100
AcDbEntity
  8
0
  6
Continuous
 62
     7
370
    15
100
AcDbCircle
 10
6.57323953629043
 20
344.7045577073752
 30
0.0
 40
1.281119374668448
100
AcDbArc
 50
80.82437539470389
 51
185.9308002246977
  0
ARC
  5
198
330
24
100
AcDbEntity
  8
0
  6
Continuous
 62
     7
370
    15
100
AcDbCircle
 10
8.438082039690357
 20
341.7758709013753
 30
0.0
 40
2.439933497701591
100
AcDbArc
 50
118.3985199090002
 51
181.6352317246011
  0
SPLINE
  5
199
330
24
100
AcDbEntity
  8
0
  6
Continuous
 62
     7
370
    15
100
AcDbSpline
210
0.0
220
0.0
230
1.0
 70
     8
 71
     2
 72
    18
 73
    15
 74
     0
 42
0.000000001
 43
0.000001
 40
0.0
 40
0.0
 40
0.0
 40
1.0
 40
1.0
 40
2.0
 40
3.0
 40
4.0
 40
5.0
 40
6.0
 40
7.0
 40
8.0
 40
9.0
 40
10.0
 40
10.0
 40
11.0
 40
11.0
 40
11.0
 10
7.277646043865161
 20
343.9221848981317
 30
0.0
 10
7.270482659365541
 20
343.9243211764137
 30
0.0
 10
7.263319274865921
 20
343.9264574546957
 30
0.0
 10
7.047197166228216
 20
343.9902779076953
 30
0.0
 10
6.630197306845616
 20
344.1212727480296
 30
0.0
 10
6.095402798651889
 20
344.3313062423717
 30
0.0
 10
5.67314205176001
 20
344.6790064303029
 30
0.0
 10
5.580556789052252
 20
345.0648837015105
 30
0.0
 10
5.74755289720224
 20
345.3529213665205
 30
0.0
 10
6.030218760653611
 20
345.6242350574418
 30
0.0
 10
6.452625802505736
 20
345.8293388961806
 30
0.0
 10
6.662935471910487
 20
345.9208641332761
 30
0.0
 10
6.770381385636597
 20
345.9662554380408
 30
0.0
 10
6.773954886939691
 20
345.96776978259
 30
0.0
 10
6.777528388242786
 20
345.9692841271391
 30
0.0
  0
SPLINE
  5
19A
330
24
100
AcDbEntity
  8
0
  6
Continuous
 62
     7
370
    15
100
AcDbSpline
210
0.0
220
0.0
230
1.0
 70
     8
 71
     2
 72
    11
 73
     8
 74
     0
 42
0.000000001
 43
0.000001
 40
0.0
 40
0.0
 40
0.0
 40
1.0
 40
1.0
 40
2.0
 40
3.0
 40
3.0
 40
4.0
 40
4.0
 40
4.0
 10
43.17965940589613
 20
290.7183593878482
 30
0.0
 10
43.17961967053452
 20
290.719073296303
 30
0.0
 10
43.17957993517291
 20
290.7197872047577
 30
0.0
 10
42.3299939100342
 20
305.1632907902305
 30
0.0
 10
38.24541935017623
 20
332.5187704729794
 30
0.0
 10
35.60388020889559
 20
345.7056416062398
 30
0.0
 10
35.57775025678507
 20
345.8383085703866
 30
0.0
 10
35.55162030467454
 20
345.9709755345334
 30
0.0
  0
SPLINE
  5
19B
330
24
100
AcDbEntity
  8
0
  6
Continuous
 62
     7
370
    15
100
AcDbSpline
210
0.0
220
0.0
230
1.0
 70
     8
 71
     2
 72
    18
 73
    15
 74
     0
 42
0.000000001
 43
0.000001
 40
0.0
 40
0.0
 40
0.0
 40
1.0
 40
1.0
 40
2.0
 40
3.0
 40
4.0
 40
5.0
 40
6.0
 40
7.0
 40
8.0
 40
9.0
 40
10.0
 40
10.0
 40
11.0
 40
11.0
 40
11.0
 10
36.25178503204279
 20
343.1050365750504
 30
0.0
 10
36.25763838352498
 20
343.1077412450332
 30
0.0
 10
36.26349173500716
 20
343.110445915016
 30
0.0
 10
36.43995168961203
 20
343.1914743877168
 30
0.0
 10
36.78234528014536
 20
343.3548394604683
 30
0.0
 10
37.45221231189134
 20
343.7302995675809
 30
0.0
 10
37.87186905683575
 20
344.2901735266261
 30
0.0
 10
37.87411756595156
 20
344.788771877123
 30
0.0
 10
37.5605247251525
 20
345.1790602338503
 30
0.0
 10
37.15924173878568
 20
345.4443434123509
 30
0.0
 10
36.60378158557933
 20
345.6725269941305
 30
0.0
 10
35.92920644447895
 20
345.8701064733413
 30
0.0
 10
35.57510915623402
 20
345.9646432423767
 30
0.0
 10
35.56336473045428
 20
345.967809388455
 30
0.0
 10
35.55162030467454
 20
345.9709755345334
 30
0.0
  0
SPLINE
  5
19C
330
24
100
AcDbEntity
  8
0
  6
Continuous
 62
     7
370
    15
100
AcDbSpline
210
0.0
220
0.0
230
1.0
 70
     8
 71
     2
 72
    11
 73
     8
 74
     0
 42
0.000000001
 43
0.000001
 40
0.0
 40
0.0
 40
0.0
 40
1.0
 40
1.0
 40
2.0
 40
3.0
 40
3.0
 40
4.0
 40
4.0
 40
4.0
 10
24.52246500679473
 20
348.5399672455951
 30
0.0
 10
24.51818068104575
 20
348.4143849393045
 30
0.0
 10
24.51389635529677
 20
348.288802633014
 30
0.0
 10
23.94083862457671
 20
329.7864331503717
 30
0.0
 10
21.48635116131845
 20
303.4649783432255
 30
0.0
 10
20.72731520277625
 20
295.9495333133117
 30
0.0
 10
20.7272464495075
 20
295.9488446744784
 30
0.0
 10
20.72717769623875
 20
295.948156035645
 30
0.0
  0
SPLINE
  5
19D
330
24
100
AcDbEntity
  8
0
  6
Continuous
 62
     7
370
    15
100
AcDbSpline
210
0.0
220
0.0
230
1.0
 70
     8
 71
     2
 72
    11
 73
     8
 74
     0
 42
0.000000001
 43
0.000001
 40
0.0
 40
0.0
 40
0.0
 40
1.0
 40
1.0
 40
2.0
 40
3.0
 40
3.0
 40
4.0
 40
4.0
 40
4.0
 10
35.55162030467454
 20
345.9709755345334
 30
0.0
 10
35.49465891747593
 20
345.9854639029853
 30
0.0
 10
35.43769753027732
 20
345.9999522714372
 30
0.0
 10
31.91473609767763
 20
346.9173255091234
 30
0.0
 10
26.60864255588399
 20
348.1001102420059
 30
0.0
 10
24.63831614758647
 20
348.5154229743618
 30
0.0
 10
24.5803905771906
 20
348.5276951099784
 30
0.0
 10
24.52246500679473
 20
348.5399672455951
 30
0.0
  0
POLYLINE
  5
19E
330
24
100
AcDbEntity
  8
0
  6
Continuous
 62
     7
370
    15
100
AcDb2dPolyline
 66
     1
 10
0.0
 20
0.0
 30
0.0
 75
     5
  0
VERTEX
  5
19F
330
19E
100
AcDbEntity
  8
0
  6
Continuous
 62
     7
370
    15
100
AcDbVertex
100
AcDb2dVertex
 10
35.55162030469035
 20
345.9709755345752
 30
0.0
  0
VERTEX
  5
1A0
330
19E
100
AcDbEntity
  8
0
  6
Continuous
 62
     7
370
    15
100
AcDbVertex
100
AcDb2dVertex
 10
35.49790608069043
 20
346.3025560867752
 30
0.0
  0
VERTEX
  5
1A1
330
19E
100
AcDbEntity
  8
0
  6
Continuous
 62
     7
370
    15
100
AcDbVertex
100
AcDb2dVertex
 10
35.40078538189039
 20
346.6007461431752
 30
0.0
  0
VERTEX
  5
1A2
330
19E
100
AcDbEntity
  8
0
  6
Continuous
 62
     7
370
    15
100
AcDbVertex
100
AcDb2dVertex
 10
35.26358445349035
 20
346.8553334641751
 30
0.0
  0
VERTEX
  5
1A3
330
19E
100
AcDbEntity
  8
0
  6
Continuous
 62
     7
370
    15
100
AcDbVertex
100
AcDb2dVertex
 10
35.0910024518904
 20
347.0575927519753
 30
0.0
  0
VERTEX
  5
1A4
330
19E
100
AcDbEntity
  8
0
  6
Continuous
 62
     7
370
    15
100
AcDbVertex
100
AcDb2dVertex
 10
34.88894962689039
 20
347.2006044655752
 30
0.0
  0
VERTEX
  5
1A5
330
19E
100
AcDbEntity
  8
0
  6
Continuous
 62
     7
370
    15
100
AcDbVertex
100
AcDb2dVertex
 10
34.66434562549034
 20
347.2794689395752
 30
0.0
  0
VERTEX
  5
1A6
330
19E
100
AcDbEntity
  8
0
  6
Continuous
 62
     7
370
    15
100
AcDbVertex
100
AcDb2dVertex
 10
34.42488337289035
 20
347.2914811989751
 30
0.0
  0
VERTEX
  5
1A7
330
19E
100
AcDbEntity
  8
0
  6
Continuous
 62
     7
370
    15
100
AcDbVertex
100
AcDb2dVertex
 10
34.17876380829034
 20
347.2362358723753
 30
0.0
  0
SEQEND
  5
1A8
330
19E
100
AcDbEntity
  8
0
  6
Continuous
 62
     7
370
    15
  0
ARC
  5
1A9
330
24
100
AcDbEntity
  8
0
  6
Continuous
 62
     7
370
    15
100
AcDbCircle
 10
33.92234664609032
 20
342.9825700063752
 30
0.0
 40
2.332655408364367
100
AcDbArc
 50
3.009465077600423
 51
71.0754093710981
  0
SPLINE
  5
1AA
330
24
100
AcDbEntity
  8
0
  6
Continuous
 62
     7
370
    15
100
AcDbSpline
210
0.0
220
0.0
230
1.0
 70
     8
 71
     2
 72
    18
 73
    15
 74
     0
 42
0.000000001
 43
0.000001
 40
0.0
 40
0.0
 40
0.0
 40
1.0
 40
1.0
 40
2.0
 40
3.0
 40
4.0
 40
5.0
 40
6.0
 40
7.0
 40
8.0
 40
9.0
 40
10.0
 40
10.0
 40
11.0
 40
11.0
 40
11.0
 10
34.17876380827681
 20
347.2362358723539
 30
0.0
 10
34.18592719277638
 20
347.2340995940719
 30
0.0
 10
34.19309057727594
 20
347.2319633157899
 30
0.0
 10
34.40921268591353
 20
347.1681428627896
 30
0.0
 10
34.82621254529658
 20
347.0371480224575
 30
0.0
 10
35.36100705348986
 20
346.8271145281132
 30
0.0
 10
35.78326780038196
 20
346.4794143401834
 30
0.0
 10
35.87585306308961
 20
346.0935370689749
 30
0.0
 10
35.70885695493951
 20
345.8054994039648
 30
0.0
 10
35.42619109148791
 20
345.5341857130442
 30
0.0
 10
35.00378404963612
 20
345.3290818743052
 30
0.0
 10
34.79347438023137
 20
345.2375566372093
 30
0.0
 10
34.68602846650538
 20
345.1921653324447
 30
0.0
 10
34.68245496520228
 20
345.1906509878956
 30
0.0
 10
34.67888146389919
 20
345.1891366433464
 30
0.0
  0
SPLINE
  5
1AB
330
24
100
AcDbEntity
  8
0
  6
Continuous
 62
     7
370
    15
100
AcDbSpline
210
0.0
220
0.0
230
1.0
 70
     8
 71
     2
 72
    11
 73
     8
 74
     0
 42
0.000000001
 43
0.000001
 40
0.0
 40
0.0
 40
0.0
 40
1.0
 40
1.0
 40
2.0
 40
3.0
 40
3.0
 40
4.0
 40
4.0
 40
4.0
 10
14.84052908871342
 20
348.0923032837179
 30
0.0
 10
14.79407972749686
 20
348.0763518653513
 30
0.0
 10
14.7476303662803
 20
348.0604004469848
 30
0.0
 10
11.30021879111393
 20
346.8978179807268
 30
0.0
 10
6.747975512871449
 20
345.1456780256844
 30
0.0
 10
5.389570295383237
 20
344.6079746533769
 30
0.0
 10
5.344273878204717
 20
344.5900789159984
 30
0.0
 10
5.298977461026197
 20
344.5721831786199
 30
0.0
  0
SPLINE
  5
1AC
330
24
100
AcDbEntity
  8
0
  6
Continuous
 62
     7
370
    15
100
AcDbSpline
210
0.0
220
0.0
230
1.0
 70
     8
 71
     2
 72
    11
 73
     8
 74
     0
 42
0.000000001
 43
0.000001
 40
0.0
 40
0.0
 40
0.0
 40
1.0
 40
1.0
 40
2.0
 40
3.0
 40
3.0
 40
4.0
 40
4.0
 40
4.0
 10
20.72717769623875
 20
295.948156035645
 30
0.0
 10
20.727073735386
 20
295.9488366886904
 30
0.0
 10
20.72696977453325
 20
295.9495173417358
 30
0.0
 10
19.29566554927749
 20
305.118806482618
 30
0.0
 10
15.90785826131003
 20
331.0660775452815
 30
0.0
 10
14.85699649254468
 20
347.842296263979
 30
0.0
 10
14.84876279062905
 20
347.9672997738484
 30
0.0
 10
14.84052908871342
 20
348.0923032837179
 30
0.0
  0
POLYLINE
  5
1AD
330
24
100
AcDbEntity
  8
0
  6
Continuous
 62
     7
370
    15
100
AcDb2dPolyline
 66
     1
 10
0.0
 20
0.0
 30
0.0
 75
     5
  0
VERTEX
  5
1AE
330
1AD
100
AcDbEntity
  8
0
  6
Continuous
 62
     7
370
    15
100
AcDbVertex
100
AcDb2dVertex
 10
24.52246500689034
 20
348.5399672455753
 30
0.0
  0
VERTEX
  5
1AF
330
1AD
100
AcDbEntity
  8
0
  6
Continuous
 62
     7
370
    15
100
AcDbVertex
100
AcDb2dVertex
 10
24.47027584889042
 20
348.8711925681752
 30
0.0
  0
VERTEX
  5
1B0
330
1AD
100
AcDbEntity
  8
0
  6
Continuous
 62
     7
370
    15
100
AcDbVertex
100
AcDb2dVertex
 10
24.37619190409032
 20
349.1686752817752
 30
0.0
  0
VERTEX
  5
1B1
330
1AD
100
AcDbEntity
  8
0
  6
Continuous
 62
     7
370
    15
100
AcDbVertex
100
AcDb2dVertex
 10
24.24343450809033
 20
349.4222275823751
 30
0.0
  0
VERTEX
  5
1B2
330
1AD
100
AcDbEntity
  8
0
  6
Continuous
 62
     7
370
    15
100
AcDbVertex
100
AcDb2dVertex
 10
24.07655073329033
 20
349.6231595975752
 30
0.0
  0
VERTEX
  5
1B3
330
1AD
100
AcDbEntity
  8
0
  6
Continuous
 62
     7
370
    15
100
AcDbVertex
100
AcDb2dVertex
 10
23.88125649949041
 20
349.7645970505752
 30
0.0
  0
VERTEX
  5
1B4
330
1AD
100
AcDbEntity
  8
0
  6
Continuous
 62
     7
370
    15
100
AcDbVertex
100
AcDb2dVertex
 10
23.66423910269032
 20
349.8416943969752
 30
0.0
  0
VERTEX
  5
1B5
330
1AD
100
AcDbEntity
  8
0
  6
Continuous
 62
     7
370
    15
100
AcDbVertex
100
AcDb2dVertex
 10
23.43293236209036
 20
349.8518070145753
 30
0.0
  0
VERTEX
  5
1B6
330
1AD
100
AcDbEntity
  8
0
  6
Continuous
 62
     7
370
    15
100
AcDbVertex
100
AcDb2dVertex
 10
23.19525698789039
 20
349.7945948053752
 30
0.0
  0
SEQEND
  5
1B7
330
1AD
100
AcDbEntity
  8
0
  6
Continuous
 62
     7
370
    15
  0
SPLINE
  5
1B8
330
24
100
AcDbEntity
  8
0
  6
Continuous
 62
     7
370
    15
100
AcDbSpline
210
0.0
220
0.0
230
1.0
 70
     8
 71
     2
 72
    10
 73
     7
 74
     0
 42
0.000000001
 43
0.000001
 40
0.0
 40
0.0
 40
0.0
 40
1.0
 40
1.0
 40
2.0
 40
2.0
 40
3.0
 40
3.0
 40
3.0
 10
23.19525698783514
 20
349.7945948053841
 30
0.0
 10
23.25303270856756
 20
349.7814843446048
 30
0.0
 10
23.31080842929998
 20
349.7683738838256
 30
0.0
 10
28.75120945362301
 20
348.5391162526147
 30
0.0
 10
34.06549237206309
 20
347.263314162039
 30
0.0
 10
34.12212809016995
 20
347.2497750171964
 30
0.0
 10
34.17876380827681
 20
347.2362358723539
 30
0.0
  0
ARC
  5
1B9
330
24
100
AcDbEntity
  8
0
  6
Continuous
 62
     7
370
    15
100
AcDbCircle
 10
16.07857818829041
 20
348.2438488649752
 30
0.0
 40
1.247289716231599
100
AcDbArc
 50
80.72589856040086
 51
186.9786742276049
  0
SPLINE
  5
1BA
330
24
100
AcDbEntity
  8
0
  6
Continuous
 62
     7
370
    15
100
AcDbSpline
210
0.0
220
0.0
230
1.0
 70
     8
 71
     2
 72
    10
 73
     7
 74
     0
 42
0.000000001
 43
0.000001
 40
0.0
 40
0.0
 40
0.0
 40
1.0
 40
1.0
 40
2.0
 40
2.0
 40
3.0
 40
3.0
 40
3.0
 10
6.777528388242786
 20
345.9692841271391
 30
0.0
 10
6.822590664839083
 20
345.9862790779883
 30
0.0
 10
6.867652941435381
 20
346.0032740288374
 30
0.0
 10
11.4560166211013
 20
347.7389434799267
 30
0.0
 10
16.1869810021542
 20
349.4414103469268
 30
0.0
 10
16.23328478543772
 20
349.4581225919391
 30
0.0
 10
16.27958856872124
 20
349.4748348369514
 30
0.0
  0
SPLINE
  5
1BB
330
24
100
AcDbEntity
  8
0
  6
Continuous
 62
     7
370
    15
100
AcDbSpline
210
0.0
220
0.0
230
1.0
 70
     8
 71
     2
 72
    16
 73
    13
 74
     0
 42
0.000000001
 43
0.000001
 40
0.0
 40
0.0
 40
0.0
 40
1.0
 40
1.0
 40
2.0
 40
3.0
 40
4.0
 40
5.0
 40
6.0
 40
7.0
 40
8.0
 40
8.0
 40
9.0
 40
9.0
 40
9.0
 10
24.52246500679473
 20
348.5399672455951
 30
0.0
 10
24.51214407715935
 20
348.5422704803743
 30
0.0
 10
24.50182314752396
 20
348.5445737151535
 30
0.0
 10
24.19338995046348
 20
348.6143332734509
 30
0.0
 10
22.95478757485807
 20
348.8705292280055
 30
0.0
 10
21.13593967181077
 20
348.9855067676826
 30
0.0
 10
19.69238400631571
 20
348.9777532180894
 30
0.0
 10
18.25060166182584
 20
348.8752450155141
 30
0.0
 10
16.63173528101447
 20
348.635958368158
 30
0.0
 10
15.37322642871243
 20
348.2681423039493
 30
0.0
 10
14.8739839822166
 20
348.1032151002914
 30
0.0
 10
14.85725653546501
 20
348.0977591920046
 30
0.0
 10
14.84052908871342
 20
348.0923032837179
 30
0.0
  0
SPLINE
  5
1BC
330
24
100
AcDbEntity
  8
0
  6
Continuous
 62
     7
370
    15
100
AcDbSpline
210
0.0
220
0.0
230
1.0
 70
     8
 71
     2
 72
    16
 73
    13
 74
     0
 42
0.000000001
 43
0.000001
 40
0.0
 40
0.0
 40
0.0
 40
1.0
 40
1.0
 40
2.0
 40
3.0
 40
4.0
 40
5.0
 40
6.0
 40
7.0
 40
8.0
 40
8.0
 40
9.0
 40
9.0
 40
9.0
 10
16.27958856872124
 20
349.4748348369514
 30
0.0
 10
16.29068547858452
 20
349.4781564065295
 30
0.0
 10
16.3017823884478
 20
349.4814779761077
 30
0.0
 10
16.58896786000128
 20
349.5684123333362
 30
0.0
 10
17.4989270016091
 20
349.8269241255491
 30
0.0
 10
18.52076555438202
 20
349.9636576752784
 30
0.0
 10
19.70272260808667
 20
350.0794486218628
 30
0.0
 10
21.13774624762186
 20
350.05929614676
 30
0.0
 10
22.2349461183187
 20
349.9760649488066
 30
0.0
 10
22.97678319769216
 20
349.8380558206715
 30
0.0
 10
23.18157477824286
 20
349.7972973245227
 30
0.0
 10
23.188415883039
 20
349.7959460649534
 30
0.0
 10
23.19525698783514
 20
349.7945948053841
 30
0.0
  0
LINE
  5
1BD
330
24
100
AcDbEntity
  8
0
  6
Continuous
 62
     7
370
    15
100
AcDbLine
 10
43.04759022989037
 20
289.4322439259751
 30
0.0
 11
42.97065890729039
 21
294.5577514887752
 31
0.0
  0
SPLINE
  5
1BE
330
24
100
AcDbEntity
  8
0
  6
Continuous
 62
     7
370
    15
100
AcDbSpline
210
0.0
220
0.0
230
1.0
 70
     8
 71
     2
 72
    11
 73
     8
 74
     0
 42
0.000000001
 43
0.000001
 40
0.0
 40
0.0
 40
0.0
 40
1.0
 40
1.0
 40
2.0
 40
3.0
 40
3.0
 40
4.0
 40
4.0
 40
4.0
 10
3.718226099021649
 20
343.3275519320827
 30
0.0
 10
3.707261068787943
 20
343.2213264628144
 30
0.0
 10
3.696296038554237
 20
343.115100993546
 30
0.0
 10
3.065831835498102
 20
337.2241383760062
 30
0.0
 10
1.282506348656852
 20
312.5881837022893
 30
0.0
 10
1.303348934949781
 20
293.3477820343432
 30
0.0
 10
1.303219388574632
 20
293.2044849420614
 30
0.0
 10
1.303089842199483
 20
293.0611878497795
 30
0.0
  0
SPLINE
  5
1BF
330
24
100
AcDbEntity
  8
0
  6
Continuous
 62
     7
370
    15
100
AcDbSpline
210
0.0
220
0.0
230
1.0
 70
     8
 71
     2
 72
    17
 73
    14
 74
     0
 42
0.000000001
 43
0.000001
 40
0.0
 40
0.0
 40
0.0
 40
1.0
 40
1.0
 40
2.0
 40
3.0
 40
4.0
 40
5.0
 40
6.0
 40
7.0
 40
8.0
 40
9.0
 40
9.0
 40
10.0
 40
10.0
 40
10.0
 10
6.135859983709452
 20
345.9220747294441
 30
0.0
 10
6.134351561954418
 20
345.9215974215966
 30
0.0
 10
6.132843140199384
 20
345.9211201137491
 30
0.0
 10
5.809863822236366
 20
345.8237979357127
 30
0.0
 10
5.311981032668427
 20
345.5782975513311
 30
0.0
 10
4.90438663552959
 20
345.3079916537635
 30
0.0
 10
4.47711420033329
 20
344.9605987390377
 30
0.0
 10
4.155394241543945
 20
344.583587208926
 30
0.0
 10
3.937699267975972
 20
344.2458053526095
 30
0.0
 10
3.799194473822809
 20
343.8684964854471
 30
0.0
 10
3.719916054359146
 20
343.541132726686
 30
0.0
 10
3.685050572524801
 20
343.3748682642371
 30
0.0
 10
3.683871679061383
 20
343.369335140352
 30
0.0
 10
3.682692785597965
 20
343.3638020164669
 30
0.0
  0
SPLINE
  5
1C0
330
24
100
AcDbEntity
  8
0
  6
Continuous
 62
     7
370
    15
100
AcDbSpline
210
0.0
220
0.0
230
1.0
 70
     8
 71
     2
 72
    11
 73
     8
 74
     0
 42
0.000000001
 43
0.000001
 40
0.0
 40
0.0
 40
0.0
 40
1.0
 40
1.0
 40
2.0
 40
3.0
 40
3.0
 40
4.0
 40
4.0
 40
4.0
 10
43.0244715021098
 20
293.7557743732177
 30
0.0
 10
43.02045711631121
 20
293.8314976559577
 30
0.0
 10
43.01644273051261
 20
293.9072209386977
 30
0.0
 10
42.046538466264
 20
312.6548352474519
 30
0.0
 10
38.94083834997514
 20
337.6386962818014
 30
0.0
 10
37.86242544454149
 20
344.3804801509049
 30
0.0
 10
37.84207208993314
 20
344.5099623176463
 30
0.0
 10
37.82171873532479
 20
344.6394444843876
 30
0.0
  0
SPLINE
  5
1C1
330
24
100
AcDbEntity
  8
0
  6
Continuous
 62
     7
370
    15
100
AcDbSpline
210
0.0
220
0.0
230
1.0
 70
     8
 71
     2
 72
    17
 73
    14
 74
     0
 42
0.000000001
 43
0.000001
 40
0.0
 40
0.0
 40
0.0
 40
1.0
 40
1.0
 40
2.0
 40
3.0
 40
4.0
 40
5.0
 40
6.0
 40
7.0
 40
8.0
 40
9.0
 40
9.0
 40
10.0
 40
10.0
 40
10.0
 10
37.83068892410483
 20
344.6426253409124
 30
0.0
 10
37.83060266278414
 20
344.6446757526009
 30
0.0
 10
37.83051640146346
 20
344.6467261642894
 30
0.0
 10
37.82814415653911
 20
344.7082882037896
 30
0.0
 10
37.81325921039934
 20
344.9773527125093
 30
0.0
 10
37.66606056345563
 20
345.351956280001
 30
0.0
 10
37.23615843618325
 20
346.0267716957925
 30
0.0
 10
36.48034388322435
 20
346.5998283815786
 30
0.0
 10
35.81481257405483
 20
346.9354412771904
 30
0.0
 10
35.26918184240435
 20
347.1092559827552
 30
0.0
 10
34.88594093119798
 20
347.2079347902206
 30
0.0
 10
34.69157568570779
 20
347.254884145037
 30
0.0
 10
34.6851064669479
 20
347.2564574924142
 30
0.0
 10
34.67863724818801
 20
347.2580308397914
 30
0.0
  0
LINE
  5
1C2
330
24
100
AcDbEntity
  8
0
  6
Continuous
 62
     7
370
    15
100
AcDbLine
 10
1.296753406490325
 20
293.9008389613752
 30
0.0
 11
1.461971213090351
 21
290.1263236363752
 31
0.0
  0
SPLINE
  5
1C3
330
24
100
AcDbEntity
  8
0
  6
Continuous
 62
     7
370
    15
100
AcDbSpline
210
0.0
220
0.0
230
1.0
 70
     8
 71
     2
 72
    10
 73
     7
 74
     0
 42
0.000000001
 43
0.000001
 40
0.0
 40
0.0
 40
0.0
 40
1.0
 40
1.0
 40
2.0
 40
2.0
 40
3.0
 40
3.0
 40
3.0
 10
34.67639121862658
 20
347.2641336285735
 30
0.0
 10
34.62123707552985
 20
347.2775110909717
 30
0.0
 10
34.56608293243312
 20
347.2908885533699
 30
0.0
 10
29.27392176951832
 20
348.581460082817
 30
0.0
 10
23.79281577129495
 20
349.8054455254152
 30
0.0
 10
23.73333415161096
 20
349.8188088721585
 30
0.0
 10
23.67385253192697
 20
349.8321722189018
 30
0.0
  0
SPLINE
  5
1C4
330
24
100
AcDbEntity
  8
0
  6
Continuous
 62
     7
370
    15
100
AcDbSpline
210
0.0
220
0.0
230
1.0
 70
     8
 71
     2
 72
    11
 73
     8
 74
     0
 42
0.000000001
 43
0.000001
 40
0.0
 40
0.0
 40
0.0
 40
1.0
 40
1.0
 40
2.0
 40
3.0
 40
3.0
 40
4.0
 40
4.0
 40
4.0
 10
15.67958921261311
 20
349.4426210962567
 30
0.0
 10
15.63474490195006
 20
349.4266334299173
 30
0.0
 10
15.58990059128701
 20
349.410645763578
 30
0.0
 10
12.17009885596417
 20
348.2006554658257
 30
0.0
 10
7.63449586419074
 20
346.497724338124
 30
0.0
 10
6.228964332735586
 20
345.9626812963413
 30
0.0
 10
6.18208561608833
 20
345.9448531735317
 30
0.0
 10
6.135206899441073
 20
345.9270250507222
 30
0.0
  0
SPLINE
  5
1C5
330
24
100
AcDbEntity
  8
0
  6
Continuous
 62
     7
370
    15
100
AcDbSpline
210
0.0
220
0.0
230
1.0
 70
     8
 71
     2
 72
    15
 73
    12
 74
     0
 42
0.000000001
 43
0.000001
 40
0.0
 40
0.0
 40
0.0
 40
1.0
 40
1.0
 40
2.0
 40
3.0
 40
4.0
 40
5.0
 40
6.0
 40
7.0
 40
7.0
 40
8.0
 40
8.0
 40
8.0
 10
23.67495914547362
 20
349.8287513074487
 30
0.0
 10
23.67332172172047
 20
349.8292128558809
 30
0.0
 10
23.67168429796732
 20
349.8296744043132
 30
0.0
 10
23.26644637639947
 20
349.9467874905653
 30
0.0
 10
22.16306543791848
 20
350.0876834513569
 30
0.0
 10
20.66296029674857
 20
350.1791490530306
 30
0.0
 10
18.73814189578752
 20
350.1076481656229
 30
0.0
 10
16.91358549892095
 20
349.8338706158221
 30
0.0
 10
15.95579617915655
 20
349.5386801931483
 30
0.0
 10
15.68619651357767
 20
349.4494037261915
 30
0.0
 10
15.67718751480049
 20
349.4464424541538
 30
0.0
 10
15.66817851602332
 20
349.443481182116
 30
0.0
  0
POLYLINE
  5
1C6
330
24
100
AcDbEntity
  8
0
  6
Continuous
 62
     7
370
    15
100
AcDb2dPolyline
 66
     1
 10
0.0
 20
0.0
 30
0.0
 75
     5
  0
VERTEX
  5
1C7
330
1C6
100
AcDbEntity
  8
0
  6
Continuous
 62
     7
370
    15
100
AcDbVertex
100
AcDb2dVertex
 10
-0.1567482905594488
 20
261.8919954332408
 30
0.0
  0
VERTEX
  5
1C8
330
1C6
100
AcDbEntity
  8
0
  6
Continuous
 62
     7
370
    15
100
AcDbVertex
100
AcDb2dVertex
 10
0.3238688276404673
 20
261.6609397538408
 30
0.0
  0
VERTEX
  5
1C9
330
1C6
100
AcDbEntity
  8
0
  6
Continuous
 62
     7
370
    15
100
AcDbVertex
100
AcDb2dVertex
 10
0.7378138628399711
 20
261.2253302874408
 30
0.0
  0
VERTEX
  5
1CA
330
1C6
100
AcDbEntity
  8
0
  6
Continuous
 62
     7
370
    15
100
AcDbVertex
100
AcDb2dVertex
 10
1.022067319040502
 20
260.6514878020408
 30
0.0
  0
VERTEX
  5
1CB
330
1C6
100
AcDbEntity
  8
0
  6
Continuous
 62
     7
370
    15
100
AcDbVertex
100
AcDb2dVertex
 10
1.133354255240079
 20
260.0267729840407
 30
0.0
  0
VERTEX
  5
1CC
330
1C6
100
AcDbEntity
  8
0
  6
Continuous
 62
     7
370
    15
100
AcDbVertex
100
AcDb2dVertex
 10
1.054732281040174
 20
259.4462931416409
 30
0.0
  0
VERTEX
  5
1CD
330
1C6
100
AcDbEntity
  8
0
  6
Continuous
 62
     7
370
    15
100
AcDbVertex
100
AcDb2dVertex
 10
0.7981708344403842
 20
258.9984212282409
 30
0.0
  0
VERTEX
  5
1CE
330
1C6
100
AcDbEntity
  8
0
  6
Continuous
 62
     7
370
    15
100
AcDbVertex
100
AcDb2dVertex
 10
0.4027290868401678
 20
258.751340065441
 30
0.0
  0
VERTEX
  5
1CF
330
1C6
100
AcDbEntity
  8
0
  6
Continuous
 62
     7
370
    15
100
AcDbVertex
100
AcDb2dVertex
 10
-0.071390595159869
 20
258.7426686810409
 30
0.0
  0
VERTEX
  5
1D0
330
1C6
100
AcDbEntity
  8
0
  6
Continuous
 62
     7
370
    15
100
AcDbVertex
100
AcDb2dVertex
 10
-0.5520077133597852
 20
258.9737243604409
 30
0.0
  0
VERTEX
  5
1D1
330
1C6
100
AcDbEntity
  8
0
  6
Continuous
 62
     7
370
    15
100
AcDbVertex
100
AcDb2dVertex
 10
-0.9659527485597437
 20
259.4093338266408
 30
0.0
  0
VERTEX
  5
1D2
330
1C6
100
AcDbEntity
  8
0
  6
Continuous
 62
     7
370
    15
100
AcDbVertex
100
AcDb2dVertex
 10
-1.250206204559731
 20
259.9831763122409
 30
0.0
  0
VERTEX
  5
1D3
330
1C6
100
AcDbEntity
  8
0
  6
Continuous
 62
     7
370
    15
100
AcDbVertex
100
AcDb2dVertex
 10
-1.361493140959851
 20
260.6078911302409
 30
0.0
  0
VERTEX
  5
1D4
330
1C6
100
AcDbEntity
  8
0
  6
Continuous
 62
     7
370
    15
100
AcDbVertex
100
AcDb2dVertex
 10
-1.282871166759946
 20
261.188370972441
 30
0.0
  0
VERTEX
  5
1D5
330
1C6
100
AcDbEntity
  8
0
  6
Continuous
 62
     7
370
    15
100
AcDbVertex
100
AcDb2dVertex
 10
-1.026309720159702
 20
261.6362428860407
 30
0.0
  0
VERTEX
  5
1D6
330
1C6
100
AcDbEntity
  8
0
  6
Continuous
 62
     7
370
    15
100
AcDbVertex
100
AcDb2dVertex
 10
-0.6308679725599404
 20
261.883324048841
 30
0.0
  0
VERTEX
  5
1D7
330
1C6
100
AcDbEntity
  8
0
  6
Continuous
 62
     7
370
    15
100
AcDbVertex
100
AcDb2dVertex
 10
-0.1567482905594488
 20
261.8919954332408
 30
0.0
  0
SEQEND
  5
1D8
330
1C6
100
AcDbEntity
  8
0
  6
Continuous
 62
     7
370
    15
  0
LINE
  5
1D9
330
24
100
AcDbEntity
  8
0
  6
Continuous
 62
     7
370
    15
100
AcDbLine
 10
0.7134630102399342
 20
259.0322210582409
 30
0.0
 11
0.812566145840151
 21
259.0140972166408
 31
0.0
  0
ARC
  5
1DA
330
24
100
AcDbEntity
  8
0
  6
Continuous
 62
     7
370
    15
100
AcDbCircle
 10
1.298059928440011
 20
260.8313091350408
 30
0.0
 40
1.891684821748295
100
AcDbArc
 50
145.2294538026007
 51
251.998912097304
  0
SPLINE
  5
1DB
330
24
100
AcDbEntity
  8
0
  6
Continuous
 62
     7
370
    15
100
AcDbSpline
210
0.0
220
0.0
230
1.0
 70
     8
 71
     2
 72
    14
 73
    11
 74
     0
 42
0.000000001
 43
0.000001
 40
0.0
 40
0.0
 40
0.0
 40
1.0
 40
1.0
 40
2.0
 40
3.0
 40
4.0
 40
5.0
 40
6.0
 40
6.0
 40
7.0
 40
7.0
 40
7.0
 10
0.5050650393931164
 20
261.5044321146182
 30
0.0
 10
0.5044069024671671
 20
261.4951644860848
 30
0.0
 10
0.5037487655412178
 20
261.4858968575514
 30
0.0
 10
0.4926925236540001
 20
261.2774072889941
 30
0.0
 10
0.5483108732499886
 20
260.9019817492445
 30
0.0
 10
0.6527924749487966
 20
260.5665733882914
 30
0.0
 10
0.8064212767129675
 20
260.2518768722985
 30
0.0
 10
0.9971047407260585
 20
259.9778131075144
 30
0.0
 10
1.116212414966299
 20
259.8535822039003
 30
0.0
 10
1.122848945705869
 20
259.8469164462873
 30
0.0
 10
1.129485476445439
 20
259.8402506886742
 30
0.0
  0
ENDBLK
  5
1DC
330
24
100
AcDbEntity
  8
一般
100
AcDbBlockEnd
  0
ENDSEC
  0
SECTION
  2
ENTITIES
  0
MTEXT
  5
1DD
330
A
100
AcDbEntity
  8
0
 62
     7
100
AcDbMText
 10
247.8067951781311
 20
90.00959915348103
 30
0.0
 40
3.275681268910827
 41
0.0
 46
3.331367850482311
 71
     1
 72
     1
  1
{HFD-D97P/B/E}
  7
Arial
 73
     1
 44
0.9673603504928809
  0
INSERT
  5
1DE
330
A
100
AcDbEntity
  8
一般
 62
     7
100
AcDbBlockReference
  2
*U0
 10
212.3802403723569
 20
148.9496892390672
 30
0.0
 41
0.2
 42
0.2
 43
0.2
 50
358.4905066673299
  0
ENDSEC
  0
SECTION
  2
OBJECTS
  0
DICTIONARY
  5
19
330
0
100
AcDbDictionary
281
     1
  3
ACAD_DETAILVIEWSTYLE
350
228
  3
ACAD_GROUP
350
1A
  3
ACAD_LAYOUT
350
1E
  3
ACAD_MATERIAL
350
21A
  3
ACAD_MLEADERSTYLE
350
220
  3
ACAD_MLINESTYLE
350
1B
  3
ACAD_PLOTSETTINGS
350
22
  3
ACAD_PLOTSTYLENAME
350
1F
  3
ACAD_SCALELIST
350
1DF
  3
ACAD_SECTIONVIEWSTYLE
350
229
  3
ACAD_TABLESTYLE
350
21E
  3
ACAD_VISUALSTYLE
350
201
  3
ACAD_WIPEOUT_VARS
350
23
  3
ACDB_RECOMPOSE_DATA
350
23E
  3
AcDbVariableDictionary
350
223
  3
APPDATA
350
222
  0
SUN
  5
22A
330
15
100
AcDbSun
 90
        1
290
     0
 63
     7
421
 16777215
 40
1.0
291
     1
 91
  2455826
 92
 54000000
292
     0
 70
     2
 71
   256
280
     1
  0
DICTIONARY
  5
228
102
{ACAD_REACTORS
330
19
102
}
330
19
100
AcDbDictionary
281
     1
  0
DICTIONARY
  5
1A
102
{ACAD_REACTORS
330
19
102
}
330
19
100
AcDbDictionary
281
     1
  0
DICTIONARY
  5
1E
102
{ACAD_REACTORS
330
19
102
}
330
19
100
AcDbDictionary
281
     1
  3
Layout1
350
21
  3
Model
350
20
  0
DICTIONARY
  5
21A
102
{ACAD_REACTORS
330
19
102
}
330
19
100
AcDbDictionary
281
     1
  3
ByBlock
350
21C
  3
ByLayer
350
21B
  3
Global
350
21D
  0
DICTIONARY
  5
220
102
{ACAD_REACTORS
330
19
102
}
330
19
100
AcDbDictionary
281
     1
  3
Standard
350
221
  0
DICTIONARY
  5
1B
102
{ACAD_REACTORS
330
19
102
}
330
19
100
AcDbDictionary
281
     1
  3
Standard
350
1C
  0
DICTIONARY
  5
22
102
{ACAD_REACTORS
330
19
102
}
330
19
100
AcDbDictionary
281
     1
  0
ACDBDICTIONARYWDFLT
  5
1F
102
{ACAD_REACTORS
330
19
102
}
330
19
100
AcDbDictionary
281
     1
  3
Normal
350
1D
100
AcDbDictionaryWithDefault
340
1D
  0
DICTIONARY
  5
1DF
102
{ACAD_REACTORS
330
19
102
}
330
19
100
AcDbDictionary
281
     1
  3
A0
350
1E0
  3
A1
350
1E1
  3
A2
350
1E2
  3
A3
350
1E3
  3
A4
350
1E4
  3
A5
350
1E5
  3
A6
350
1E6
  3
A7
350
1E7
  3
A8
350
1E8
  3
A9
350
1E9
  3
B0
350
1EA
  3
B1
350
1EB
  3
B2
350
1EC
  3
B3
350
1ED
  3
B4
350
1EE
  3
B5
350
1EF
  3
B6
350
1F0
  3
B7
350
1F1
  3
B8
350
1F2
  3
B9
350
1F3
  3
C0
350
1F4
  3
C1
350
1F5
  3
C2
350
1F6
  3
C3
350
1F7
  3
C4
350
1F8
  3
C5
350
1F9
  3
C6
350
1FA
  3
C7
350
1FB
  3
C8
350
1FC
  3
C9
350
1FD
  3
D0
350
1FE
  3
D1
350
1FF
  3
D2
350
200
  0
DICTIONARY
  5
229
102
{ACAD_REACTORS
330
19
102
}
330
19
100
AcDbDictionary
281
     1
  0
DICTIONARY
  5
21E
102
{ACAD_REACTORS
330
19
102
}
330
19
100
AcDbDictionary
281
     1
  3
Standard
350
21F
  0
DICTIONARY
  5
201
102
{ACAD_REACTORS
330
19
102
}
330
19
100
AcDbDictionary
281
     1
  3
2dWireframe
350
206
  3
Basic
350
209
  3
Brighten
350
20D
  3
ColorChange
350
211
  3
Conceptual
350
20B
  3
Dim
350
20C
  3
EdgeColorOff
350
214
  3
Facepattern
350
210
  3
Flat
350
202
  3
FlatWithEdges
350
203
  3
Gouraud
350
204
  3
GouraudWithEdges
350
205
  3
Hidden
350
208
  3
JitterOff
350
212
  3
Linepattern
350
20F
  3
OverhangOff
350
213
  3
Realistic
350
20A
  3
Shaded
350
219
  3
Shaded with edges
350
218
  3
Shades of Gray
350
215
  3
Sketchy
350
216
  3
Thicken
350
20E
  3
Wireframe
350
207
  3
X-Ray
350
217
  0
WIPEOUTVARIABLES
  5
23
330
19
100
AcDbWipeoutVariables
 70
     1
  0
XRECORD
  5
23E
102
{ACAD_REACTORS
330
19
102
}
330
19
100
AcDbXrecord
280
     1
 90
        1
330
21F
  0
DICTIONARY
  5
223
102
{ACAD_REACTORS
330
19
102
}
330
19
100
AcDbDictionary
281
     1
  3
CANNOSCALE
350
224
  3
CMLEADERSTYLE
350
226
  3
CTABLESTYLE
350
225
  3
MSLTSCALE
350
227
  0
DICTIONARY
  5
222
102
{ACAD_REACTORS
330
19
102
}
330
19
100
AcDbDictionary
281
     1
  0
LAYOUT
  5
21
102
{ACAD_REACTORS
330
1E
102
}
330
1E
100
AcDbPlotSettings
  1

  2

  4

  6

 40
0.0
 41
0.0
 42
0.0
 43
0.0
 44
0.0
 45
0.0
 46
0.0
 47
0.0
 48
0.0
 49
0.0
140
0.0
141
0.0
142
1.0
143
1.0
 70
     0
 72
     0
 73
     0
 74
     0
  7

 75
     0
 76
     0
 77
     2
 78
   300
147
1.0
148
0.0
149
0.0
100
AcDbLayout
  1
Layout1
 70
     0
 71
     0
 10
0.0
 20
0.0
 11
0.0
 21
0.0
 12
0.0
 22
0.0
 32
0.0
 14
0.0
 24
0.0
 34
0.0
 15
0.0
 25
0.0
 35
0.0
146
0.0
 13
0.0
 23
0.0
 33
0.0
 16
0.0
 26
0.0
 36
0.0
 17
0.0
 27
0.0
 37
0.0
 76
     0
330
B
  0
LAYOUT
  5
20
102
{ACAD_REACTORS
330
1E
102
}
330
1E
100
AcDbPlotSettings
  1

  2

  4

  6

 40
0.0
 41
0.0
 42
0.0
 43
0.0
 44
0.0
 45
0.0
 46
0.0
 47
0.0
 48
0.0
 49
0.0
140
0.0
141
0.0
142
1.0
143
1.0
 70
  1024
 72
     0
 73
     0
 74
     0
  7

 75
     0
 76
     0
 77
     2
 78
   300
147
1.0
148
0.0
149
0.0
100
AcDbLayout
  1
Model
 70
     0
 71
     1
 10
0.0
 20
0.0
 11
0.0
 21
0.0
 12
0.0
 22
0.0
 32
0.0
 14
204.3023444298664
 24
55.04106017188128
 34
0.0
 15
278.1920146285479
 25
223.7717564589793
 35
0.0
146
0.0
 13
0.0
 23
0.0
 33
0.0
 16
0.0
 26
0.0
 36
0.0
 17
0.0
 27
0.0
 37
0.0
 76
     0
330
A
331
15
  0
MATERIAL
  5
21C
102
{ACAD_REACTORS
330
21A
102
}
330
21A
100
AcDbMaterial
  1
ByBlock
 72
     1
 94
      127
  0
MATERIAL
  5
21B
102
{ACAD_REACTORS
330
21A
102
}
330
21A
100
AcDbMaterial
  1
ByLayer
 72
     1
 94
      127
  0
MATERIAL
  5
21D
102
{ACAD_REACTORS
330
21A
102
}
330
21A
100
AcDbMaterial
  1
Global
 72
     1
 94
      127
  0
MLEADERSTYLE
  5
221
102
{ACAD_REACTORS
330
220
102
}
330
220
100
AcDbMLeaderStyle
179
     2
170
     2
171
     1
172
     0
 90
        2
 40
0.0
 41
0.0
173
     1
 91
-1056964608
340
11
 92
       -2
290
     1
 42
2.0
291
     1
 43
8.0
  3
Standard
341
0
 44
4.0
300

342
17
174
     1
178
     1
175
     1
176
     0
 93
-1056964608
 45
4.0
292
     0
297
     0
 46
4.0
343
0
 94
-1056964608
 47
1.0
 49
1.0
140
1.0
293
     1
141
0.0
294
     1
177
     0
142
1.0
295
     0
296
     0
143
3.75
271
     0
272
     9
273
     9
298
     0
  0
MLINESTYLE
  5
1C
102
{ACAD_REACTORS
330
1B
102
}
330
1B
100
AcDbMlineStyle
  2
Standard
 70
     0
  3

 62
     0
 51
90.0
 52
90.0
 71
     2
 49
0.5
 62
   256
  6
BYLAYER
 49
-0.5
 62
   256
  6
BYLAYER
  0
ACDBPLACEHOLDER
  5
1D
102
{ACAD_REACTORS
330
1F
102
}
330
1F
  0
SCALE
  5
1E0
102
{ACAD_REACTORS
330
1DF
102
}
330
1DF
100
AcDbScale
 70
     0
300
1:1
140
1.0
141
1.0
290
     1
  0
SCALE
  5
1E1
102
{ACAD_REACTORS
330
1DF
102
}
330
1DF
100
AcDbScale
 70
     0
300
1:2
140
1.0
141
2.0
290
     0
  0
SCALE
  5
1E2
102
{ACAD_REACTORS
330
1DF
102
}
330
1DF
100
AcDbScale
 70
     0
300
1:4
140
1.0
141
4.0
290
     0
  0
SCALE
  5
1E3
102
{ACAD_REACTORS
330
1DF
102
}
330
1DF
100
AcDbScale
 70
     0
300
1:5
140
1.0
141
5.0
290
     0
  0
SCALE
  5
1E4
102
{ACAD_REACTORS
330
1DF
102
}
330
1DF
100
AcDbScale
 70
     0
300
1:8
140
1.0
141
8.0
290
     0
  0
SCALE
  5
1E5
102
{ACAD_REACTORS
330
1DF
102
}
330
1DF
100
AcDbScale
 70
     0
300
1:10
140
1.0
141
10.0
290
     0
  0
SCALE
  5
1E6
102
{ACAD_REACTORS
330
1DF
102
}
330
1DF
100
AcDbScale
 70
     0
300
1:16
140
1.0
141
16.0
290
     0
  0
SCALE
  5
1E7
102
{ACAD_REACTORS
330
1DF
102
}
330
1DF
100
AcDbScale
 70
     0
300
1:20
140
1.0
141
20.0
290
     0
  0
SCALE
  5
1E8
102
{ACAD_REACTORS
330
1DF
102
}
330
1DF
100
AcDbScale
 70
     0
300
1:30
140
1.0
141
30.0
290
     0
  0
SCALE
  5
1E9
102
{ACAD_REACTORS
330
1DF
102
}
330
1DF
100
AcDbScale
 70
     0
300
1:40
140
1.0
141
40.0
290
     0
  0
SCALE
  5
1EA
102
{ACAD_REACTORS
330
1DF
102
}
330
1DF
100
AcDbScale
 70
     0
300
1:50
140
1.0
141
50.0
290
     0
  0
SCALE
  5
1EB
102
{ACAD_REACTORS
330
1DF
102
}
330
1DF
100
AcDbScale
 70
     0
300
1:100
140
1.0
141
100.0
290
     0
  0
SCALE
  5
1EC
102
{ACAD_REACTORS
330
1DF
102
}
330
1DF
100
AcDbScale
 70
     0
300
2:1
140
2.0
141
1.0
290
     0
  0
SCALE
  5
1ED
102
{ACAD_REACTORS
330
1DF
102
}
330
1DF
100
AcDbScale
 70
     0
300
4:1
140
4.0
141
1.0
290
     0
  0
SCALE
  5
1EE
102
{ACAD_REACTORS
330
1DF
102
}
330
1DF
100
AcDbScale
 70
     0
300
8:1
140
8.0
141
1.0
290
     0
  0
SCALE
  5
1EF
102
{ACAD_REACTORS
330
1DF
102
}
330
1DF
100
AcDbScale
 70
     0
300
10:1
140
10.0
141
1.0
290
     0
  0
SCALE
  5
1F0
102
{ACAD_REACTORS
330
1DF
102
}
330
1DF
100
AcDbScale
 70
     0
300
100:1
140
100.0
141
1.0
290
     0
  0
SCALE
  5
1F1
102
{ACAD_REACTORS
330
1DF
102
}
330
1DF
100
AcDbScale
 70
     0
300
1/128" = 1'-0"
140
0.0078125
141
12.0
290
     0
  0
SCALE
  5
1F2
102
{ACAD_REACTORS
330
1DF
102
}
330
1DF
100
AcDbScale
 70
     0
300
1/64" = 1'-0"
140
0.015625
141
12.0
290
     0
  0
SCALE
  5
1F3
102
{ACAD_REACTORS
330
1DF
102
}
330
1DF
100
AcDbScale
 70
     0
300
1/32" = 1'-0"
140
0.03125
141
12.0
290
     0
  0
SCALE
  5
1F4
102
{ACAD_REACTORS
330
1DF
102
}
330
1DF
100
AcDbScale
 70
     0
300
1/16" = 1'-0"
140
0.0625
141
12.0
290
     0
  0
SCALE
  5
1F5
102
{ACAD_REACTORS
330
1DF
102
}
330
1DF
100
AcDbScale
 70
     0
300
3/32" = 1'-0"
140
0.09375
141
12.0
290
     0
  0
SCALE
  5
1F6
102
{ACAD_REACTORS
330
1DF
102
}
330
1DF
100
AcDbScale
 70
     0
300
1/8" = 1'-0"
140
0.125
141
12.0
290
     0
  0
SCALE
  5
1F7
102
{ACAD_REACTORS
330
1DF
102
}
330
1DF
100
AcDbScale
 70
     0
300
3/16" = 1'-0"
140
0.1875
141
12.0
290
     0
  0
SCALE
  5
1F8
102
{ACAD_REACTORS
330
1DF
102
}
330
1DF
100
AcDbScale
 70
     0
300
1/4" = 1'-0"
140
0.25
141
12.0
290
     0
  0
SCALE
  5
1F9
102
{ACAD_REACTORS
330
1DF
102
}
330
1DF
100
AcDbScale
 70
     0
300
3/8" = 1'-0"
140
0.375
141
12.0
290
     0
  0
SCALE
  5
1FA
102
{ACAD_REACTORS
330
1DF
102
}
330
1DF
100
AcDbScale
 70
     0
300
1/2" = 1'-0"
140
0.5
141
12.0
290
     0
  0
SCALE
  5
1FB
102
{ACAD_REACTORS
330
1DF
102
}
330
1DF
100
AcDbScale
 70
     0
300
3/4" = 1'-0"
140
0.75
141
12.0
290
     0
  0
SCALE
  5
1FC
102
{ACAD_REACTORS
330
1DF
102
}
330
1DF
100
AcDbScale
 70
     0
300
1" = 1'-0"
140
1.0
141
12.0
290
     0
  0
SCALE
  5
1FD
102
{ACAD_REACTORS
330
1DF
102
}
330
1DF
100
AcDbScale
 70
     0
300
1-1/2" = 1'-0"
140
1.5
141
12.0
290
     0
  0
SCALE
  5
1FE
102
{ACAD_REACTORS
330
1DF
102
}
330
1DF
100
AcDbScale
 70
     0
300
3" = 1'-0"
140
3.0
141
12.0
290
     0
  0
SCALE
  5
1FF
102
{ACAD_REACTORS
330
1DF
102
}
330
1DF
100
AcDbScale
 70
     0
300
6" = 1'-0"
140
6.0
141
12.0
290
     0
  0
SCALE
  5
200
102
{ACAD_REACTORS
330
1DF
102
}
330
1DF
100
AcDbScale
 70
     0
300
1'-0" = 1'-0"
140
12.0
141
12.0
290
     0
  0
TABLESTYLE
  5
21F
102
{ACAD_REACTORS
330
21E
102
}
102
{ACAD_XDICTIONARY
360
23C
102
}
330
21E
100
AcDbTableStyle
  3
Standard
 70
     0
 71
     0
 40
1.5
 41
1.5
280
     0
281
     0
  7
Standard
140
4.5
170
     2
 62
     0
 63
   257
283
     0
 90
        4
 91
        0
  1

274
    -2
284
     1
 64
     0
275
    -2
285
     1
 65
     0
276
    -2
286
     1
 66
     0
277
    -2
287
     1
 67
     0
278
    -2
288
     1
 68
     0
279
    -2
289
     1
 69
     0
  7
Standard
140
6.0
170
     5
 62
     0
 63
   257
283
     0
 90
        4
 91
        0
  1

274
    -2
284
     1
 64
     0
275
    -2
285
     1
 65
     0
276
    -2
286
     1
 66
     0
277
    -2
287
     1
 67
     0
278
    -2
288
     1
 68
     0
279
    -2
289
     1
 69
     0
  7
Standard
140
4.5
170
     5
 62
     0
 63
   257
283
     0
 90
        4
 91
        0
  1

274
    -2
284
     1
 64
     0
275
    -2
285
     1
 65
     0
276
    -2
286
     1
 66
     0
277
    -2
287
     1
 67
     0
278
    -2
288
     1
 68
     0
279
    -2
289
     1
 69
     0
  0
VISUALSTYLE
  5
206
102
{ACAD_REACTORS
330
201
102
}
330
201
100
AcDbVisualStyle
  2
2dWireframe
 70
     4
177
     3
291
     0
 70
    58
 90
        0
176
     1
 90
        2
176
     1
 90
        0
176
     1
 90
        0
176
     1
 40
0.6
176
     1
 40
30.0
176
     1
 62
     7
420
 16777215
176
     1
 90
        1
176
     1
 90
        4
176
     1
 62
     7
176
     1
 62
   257
176
     1
 90
        1
176
     1
 90
        1
176
     1
 40
1.0
176
     1
 90
        0
176
     1
 62
   257
176
     1
 40
1.0
176
     1
 90
        1
176
     1
 90
        6
176
     1
 90
        2
176
     1
 62
     7
176
     1
 90
        5
176
     1
 90
        0
176
     1
 90
        0
176
     1
290
     0
176
     1
 90
        1
176
     1
 40
0.0
176
     1
 90
        0
176
     1
290
     1
176
     1
290
     1
176
     1
290
     0
176
     1
290
     0
176
     1
290
     0
176
     1
290
     0
176
     1
290
     0
176
     1
290
     0
176
     1
290
     0
176
     1
 90
       50
176
     1
 40
0.0
176
     1
 40
1.0
176
     1
 90
        0
176
     1
 62
    18
420
        0
176
     1
 90
       50
176
     1
 90
        3
176
     1
 62
     5
420
      255
176
     1
290
     0
176
     1
 90
       50
176
     1
 90
       50
176
     1
 90
       50
176
     1
290
     0
176
     1
 90
       50
176
     1
 62
   256
176
     0
 40
1.0
176
     0
 90
        2
176
     1
  1
strokes_ogs.tif
176
     1
290
     0
176
     1
 40
1.0
176
     1
 40
1.0
176
     1
  0
VISUALSTYLE
  5
209
102
{ACAD_REACTORS
330
201
102
}
330
201
100
AcDbVisualStyle
  2
Basic
 70
     7
177
     3
291
     1
 70
    58
 90
        1
176
     1
 90
        0
176
     1
 90
        1
176
     1
 90
        0
176
     1
 40
0.6
176
     1
 40
30.0
176
     1
 62
     7
420
 16777215
176
     1
 90
        0
176
     1
 90
        4
176
     1
 62
     7
176
     1
 62
   257
176
     1
 90
        1
176
     1
 90
        1
176
     1
 40
1.0
176
     1
 90
        8
176
     1
 62
     7
176
     1
 40
1.0
176
     1
 90
        1
176
     1
 90
        6
176
     1
 90
        2
176
     1
 62
     7
176
     1
 90
        5
176
     1
 90
        0
176
     1
 90
        0
176
     1
290
     0
176
     1
 90
        1
176
     1
 40
0.0
176
     1
 90
        0
176
     1
290
     0
176
     1
290
     1
176
     1
290
     1
176
     1
290
     0
176
     1
290
     0
176
     1
290
     0
176
     1
290
     0
176
     1
290
     0
176
     1
290
     0
176
     1
 90
       50
176
     1
 40
0.0
176
     1
 40
1.0
176
     1
 90
        0
176
     1
 62
    18
420
        0
176
     1
 90
       50
176
     1
 90
        3
176
     1
 62
     5
420
      255
176
     1
290
     0
176
     1
 90
       50
176
     1
 90
       50
176
     1
 90
       50
176
     1
290
     0
176
     1
 90
       50
176
     1
 62
   256
176
     0
 40
1.0
176
     0
 90
        2
176
     1
  1
strokes_ogs.tif
176
     1
290
     0
176
     1
 40
1.0
176
     1
 40
1.0
176
     1
  0
VISUALSTYLE
  5
20D
102
{ACAD_REACTORS
330
201
102
}
330
201
100
AcDbVisualStyle
  2
Brighten
 70
    12
177
     3
291
     1
 70
    58
 90
        2
176
     1
 90
        2
176
     1
 90
        0
176
     1
 90
        0
176
     1
 40
0.6
176
     1
 40
30.0
176
     1
 62
     7
420
 16777215
176
     1
 90
        1
176
     1
 90
        4
176
     1
 62
     7
176
     1
 62
   257
176
     1
 90
        1
176
     1
 90
        1
176
     1
 40
1.0
176
     1
 90
        8
176
     1
 62
     7
176
     1
 40
1.0
176
     1
 90
        1
176
     1
 90
        6
176
     1
 90
        2
176
     1
 62
     7
176
     1
 90
        5
176
     1
 90
        0
176
     1
 90
        0
176
     1
290
     0
176
     1
 90
        1
176
     1
 40
50.0
176
     1
 90
        0
176
     1
290
     0
176
     1
290
     1
176
     1
290
     1
176
     1
290
     0
176
     1
290
     0
176
     1
290
     0
176
     1
290
     0
176
     1
290
     0
176
     1
290
     0
176
     1
 90
       50
176
     1
 40
0.0
176
     1
 40
1.0
176
     1
 90
        0
176
     1
 62
    18
420
        0
176
     1
 90
       50
176
     1
 90
        3
176
     1
 62
     5
420
      255
176
     1
290
     0
176
     1
 90
       50
176
     1
 90
       50
176
     1
 90
       50
176
     1
290
     0
176
     1
 90
       50
176
     1
 62
   256
176
     0
 40
1.0
176
     0
 90
        2
176
     1
  1
strokes_ogs.tif
176
     1
290
     0
176
     1
 40
1.0
176
     1
 40
1.0
176
     1
  0
VISUALSTYLE
  5
211
102
{ACAD_REACTORS
330
201
102
}
330
201
100
AcDbVisualStyle
  2
ColorChange
 70
    16
177
     3
291
     1
 70
    58
 90
        2
176
     1
 90
        2
176
     1
 90
        3
176
     1
 90
        0
176
     1
 40
0.6
176
     1
 40
30.0
176
     1
 62
     8
420
  8421504
176
     1
 90
        1
176
     1
 90
        4
176
     1
 62
     7
176
     1
 62
   257
176
     1
 90
        1
176
     1
 90
        1
176
     1
 40
1.0
176
     1
 90
        8
176
     1
 62
     8
420
  8421504
176
     1
 40
1.0
176
     1
 90
        1
176
     1
 90
        6
176
     1
 90
        2
176
     1
 62
     7
176
     1
 90
        5
176
     1
 90
        0
176
     1
 90
        0
176
     1
290
     0
176
     1
 90
        1
176
     1
 40
0.0
176
     1
 90
        0
176
     1
290
     0
176
     1
290
     1
176
     1
290
     1
176
     1
290
     0
176
     1
290
     0
176
     1
290
     0
176
     1
290
     0
176
     1
290
     0
176
     1
290
     0
176
     1
 90
       50
176
     1
 40
0.0
176
     1
 40
1.0
176
     1
 90
        0
176
     1
 62
    18
420
        0
176
     1
 90
       50
176
     1
 90
        3
176
     1
 62
     5
420
      255
176
     1
290
     0
176
     1
 90
       50
176
     1
 90
       50
176
     1
 90
       50
176
     1
290
     0
176
     1
 90
       50
176
     1
 62
   256
176
     0
 40
1.0
176
     0
 90
        2
176
     1
  1
strokes_ogs.tif
176
     1
290
     0
176
     1
 40
1.0
176
     1
 40
1.0
176
     1
  0
VISUALSTYLE
  5
20B
102
{ACAD_REACTORS
330
201
102
}
330
201
100
AcDbVisualStyle
  2
Conceptual
 70
     9
177
     3
291
     0
 70
    58
 90
        3
176
     1
 90
        2
176
     1
 90
        0
176
     1
 90
        0
176
     1
 40
0.6
176
     1
 40
30.0
176
     1
 62
     7
420
 16777215
176
     1
 90
        2
176
     1
 90
        2
176
     1
 62
     7
176
     1
 62
   257
176
     1
 90
        1
176
     1
 90
        1
176
     1
 40
179.0
176
     1
 90
        8
176
     1
 62
     7
176
     1
 40
1.0
176
     1
 90
        1
176
     1
 90
        6
176
     1
 90
        2
176
     1
 62
     7
176
     1
 90
        3
176
     1
 90
        0
176
     1
 90
        0
176
     1
290
     0
176
     1
 90
        1
176
     1
 40
0.0
176
     1
 90
        0
176
     1
290
     0
176
     1
290
     1
176
     1
290
     1
176
     1
290
     0
176
     1
290
     0
176
     1
290
     0
176
     1
290
     0
176
     1
290
     0
176
     1
290
     0
176
     1
 90
       50
176
     1
 40
0.0
176
     1
 40
1.0
176
     1
 90
        0
176
     1
 62
    18
420
        0
176
     1
 90
       50
176
     1
 90
        3
176
     1
 62
     5
420
      255
176
     1
290
     0
176
     1
 90
       50
176
     1
 90
       50
176
     1
 90
       50
176
     1
290
     0
176
     1
 90
       50
176
     1
 62
   256
176
     0
 40
1.0
176
     0
 90
        2
176
     1
  1
strokes_ogs.tif
176
     1
290
     0
176
     1
 40
1.0
176
     1
 40
1.0
176
     1
  0
VISUALSTYLE
  5
20C
102
{ACAD_REACTORS
330
201
102
}
330
201
100
AcDbVisualStyle
  2
Dim
 70
    11
177
     3
291
     1
 70
    58
 90
        2
176
     1
 90
        2
176
     1
 90
        0
176
     1
 90
        0
176
     1
 40
0.6
176
     1
 40
30.0
176
     1
 62
     7
420
 16777215
176
     1
 90
        1
176
     1
 90
        4
176
     1
 62
     7
176
     1
 62
   257
176
     1
 90
        1
176
     1
 90
        1
176
     1
 40
1.0
176
     1
 90
        8
176
     1
 62
     7
176
     1
 40
1.0
176
     1
 90
        1
176
     1
 90
        6
176
     1
 90
        2
176
     1
 62
     7
176
     1
 90
        5
176
     1
 90
        0
176
     1
 90
        0
176
     1
290
     0
176
     1
 90
        1
176
     1
 40
-50.0
176
     1
 90
        0
176
     1
290
     0
176
     1
290
     1
176
     1
290
     1
176
     1
290
     0
176
     1
290
     0
176
     1
290
     0
176
     1
290
     0
176
     1
290
     0
176
     1
290
     0
176
     1
 90
       50
176
     1
 40
0.0
176
     1
 40
1.0
176
     1
 90
        0
176
     1
 62
    18
420
        0
176
     1
 90
       50
176
     1
 90
        3
176
     1
 62
     5
420
      255
176
     1
290
     0
176
     1
 90
       50
176
     1
 90
       50
176
     1
 90
       50
176
     1
290
     0
176
     1
 90
       50
176
     1
 62
   256
176
     0
 40
1.0
176
     0
 90
        2
176
     1
  1
strokes_ogs.tif
176
     1
290
     0
176
     1
 40
1.0
176
     1
 40
1.0
176
     1
  0
VISUALSTYLE
  5
214
102
{ACAD_REACTORS
330
201
102
}
330
201
100
AcDbVisualStyle
  2
EdgeColorOff
 70
    22
177
     3
291
     1
 70
    58
 90
        2
176
     0
 90
        2
176
     0
 90
        0
176
     0
 90
        0
176
     0
 40
0.6
176
     0
 40
30.0
176
     0
 62
     7
420
 16777215
176
     0
 90
        1
176
     0
 90
        4
176
     0
 62
     7
176
     0
 62
   257
176
     0
 90
        1
176
     0
 90
        1
176
     0
 40
1.0
176
     0
 90
        8
176
     2
 62
     7
176
     0
 40
1.0
176
     0
 90
        1
176
     0
 90
        6
176
     0
 90
        2
176
     0
 62
     7
176
     0
 90
        5
176
     0
 90
        0
176
     0
 90
        0
176
     0
290
     0
176
     0
 90
        1
176
     0
 40
0.0
176
     0
 90
        0
176
     0
290
     0
176
     0
290
     1
176
     0
290
     1
176
     0
290
     0
176
     0
290
     0
176
     0
290
     0
176
     0
290
     0
176
     0
290
     0
176
     0
290
     0
176
     0
 90
       50
176
     0
 40
0.0
176
     0
 40
1.0
176
     0
 90
        0
176
     0
 62
    18
420
        0
176
     0
 90
       50
176
     0
 90
        3
176
     0
 62
     5
420
      255
176
     0
290
     0
176
     0
 90
       50
176
     0
 90
       50
176
     0
 90
       50
176
     0
290
     0
176
     0
 90
       50
176
     0
 62
   256
176
     0
 40
1.0
176
     0
 90
        2
176
     0
  1
strokes_ogs.tif
176
     0
290
     0
176
     0
 40
1.0
176
     0
 40
1.0
176
     0
  0
VISUALSTYLE
  5
210
102
{ACAD_REACTORS
330
201
102
}
330
201
100
AcDbVisualStyle
  2
Facepattern
 70
    15
177
     3
291
     1
 70
    58
 90
        2
176
     1
 90
        2
176
     1
 90
        0
176
     1
 90
        0
176
     1
 40
0.6
176
     1
 40
30.0
176
     1
 62
     7
420
 16777215
176
     1
 90
        1
176
     1
 90
        4
176
     1
 62
     7
176
     1
 62
   257
176
     1
 90
        1
176
     1
 90
        1
176
     1
 40
1.0
176
     1
 90
        8
176
     1
 62
     7
176
     1
 40
1.0
176
     1
 90
        1
176
     1
 90
        6
176
     1
 90
        2
176
     1
 62
     7
176
     1
 90
        5
176
     1
 90
        0
176
     1
 90
        0
176
     1
290
     0
176
     1
 90
        1
176
     1
 40
0.0
176
     1
 90
        0
176
     1
290
     0
176
     1
290
     1
176
     1
290
     1
176
     1
290
     0
176
     1
290
     0
176
     1
290
     0
176
     1
290
     0
176
     1
290
     0
176
     1
290
     0
176
     1
 90
       50
176
     1
 40
0.0
176
     1
 40
1.0
176
     1
 90
        0
176
     1
 62
    18
420
        0
176
     1
 90
       50
176
     1
 90
        3
176
     1
 62
     5
420
      255
176
     1
290
     0
176
     1
 90
       50
176
     1
 90
       50
176
     1
 90
       50
176
     1
290
     0
176
     1
 90
       50
176
     1
 62
   256
176
     0
 40
1.0
176
     0
 90
        2
176
     1
  1
strokes_ogs.tif
176
     1
290
     0
176
     1
 40
1.0
176
     1
 40
1.0
176
     1
  0
VISUALSTYLE
  5
202
102
{ACAD_REACTORS
330
201
102
}
330
201
100
AcDbVisualStyle
  2
Flat
 70
     0
177
     3
291
     1
 70
    58
 90
        2
176
     1
 90
        1
176
     1
 90
        1
176
     1
 90
        2
176
     1
 40
0.6
176
     1
 40
30.0
176
     1
 62
     7
420
 16777215
176
     1
 90
        0
176
     1
 90
        0
176
     1
 62
     7
176
     1
 62
   257
176
     1
 90
        1
176
     1
 90
        1
176
     1
 40
1.0
176
     1
 90
        8
176
     1
 62
     7
176
     1
 40
1.0
176
     1
 90
        1
176
     1
 90
        6
176
     1
 90
        2
176
     1
 62
     7
176
     1
 90
        5
176
     1
 90
        0
176
     1
 90
        0
176
     1
290
     0
176
     1
 90
       13
176
     1
 40
0.0
176
     1
 90
        0
176
     1
290
     0
176
     1
290
     1
176
     1
290
     1
176
     1
290
     0
176
     1
290
     0
176
     1
290
     0
176
     1
290
     0
176
     1
290
     0
176
     1
290
     0
176
     1
 90
       50
176
     1
 40
0.0
176
     1
 40
1.0
176
     1
 90
        0
176
     1
 62
    18
420
        0
176
     1
 90
       50
176
     1
 90
        3
176
     1
 62
     5
420
      255
176
     1
290
     0
176
     1
 90
       50
176
     1
 90
       50
176
     1
 90
       50
176
     1
290
     0
176
     1
 90
       50
176
     1
 62
   256
176
     0
 40
1.0
176
     0
 90
        2
176
     1
  1
strokes_ogs.tif
176
     1
290
     0
176
     1
 40
1.0
176
     1
 40
1.0
176
     1
  0
VISUALSTYLE
  5
203
102
{ACAD_REACTORS
330
201
102
}
330
201
100
AcDbVisualStyle
  2
FlatWithEdges
 70
     1
177
     3
291
     1
 70
    58
 90
        2
176
     1
 90
        1
176
     1
 90
        1
176
     1
 90
        2
176
     1
 40
0.6
176
     1
 40
30.0
176
     1
 62
     7
420
 16777215
176
     1
 90
        1
176
     1
 90
        0
176
     1
 62
     7
176
     1
 62
   257
176
     1
 90
        1
176
     1
 90
        1
176
     1
 40
1.0
176
     1
 90
        0
176
     1
 62
   257
176
     1
 40
1.0
176
     1
 90
        1
176
     1
 90
        6
176
     1
 90
        2
176
     1
 62
     7
176
     1
 90
        5
176
     1
 90
        0
176
     1
 90
        0
176
     1
290
     0
176
     1
 90
       13
176
     1
 40
0.0
176
     1
 90
        0
176
     1
290
     0
176
     1
290
     1
176
     1
290
     1
176
     1
290
     0
176
     1
290
     0
176
     1
290
     0
176
     1
290
     0
176
     1
290
     0
176
     1
290
     0
176
     1
 90
       50
176
     1
 40
0.0
176
     1
 40
1.0
176
     1
 90
        0
176
     1
 62
    18
420
        0
176
     1
 90
       50
176
     1
 90
        3
176
     1
 62
     5
420
      255
176
     1
290
     0
176
     1
 90
       50
176
     1
 90
       50
176
     1
 90
       50
176
     1
290
     0
176
     1
 90
       50
176
     1
 62
   256
176
     0
 40
1.0
176
     0
 90
        2
176
     1
  1
strokes_ogs.tif
176
     1
290
     0
176
     1
 40
1.0
176
     1
 40
1.0
176
     1
  0
VISUALSTYLE
  5
204
102
{ACAD_REACTORS
330
201
102
}
330
201
100
AcDbVisualStyle
  2
Gouraud
 70
     2
177
     3
291
     1
 70
    58
 90
        2
176
     1
 90
        2
176
     1
 90
        1
176
     1
 90
        2
176
     1
 40
0.6
176
     1
 40
30.0
176
     1
 62
     7
420
 16777215
176
     1
 90
        0
176
     1
 90
        0
176
     1
 62
     7
176
     1
 62
   257
176
     1
 90
        1
176
     1
 90
        1
176
     1
 40
1.0
176
     1
 90
        0
176
     1
 62
     7
176
     1
 40
1.0
176
     1
 90
        1
176
     1
 90
        6
176
     1
 90
        2
176
     1
 62
     7
176
     1
 90
        5
176
     1
 90
        0
176
     1
 90
        0
176
     1
290
     0
176
     1
 90
       13
176
     1
 40
0.0
176
     1
 90
        0
176
     1
290
     0
176
     1
290
     1
176
     1
290
     1
176
     1
290
     0
176
     1
290
     0
176
     1
290
     0
176
     1
290
     0
176
     1
290
     0
176
     1
290
     0
176
     1
 90
       50
176
     1
 40
0.0
176
     1
 40
1.0
176
     1
 90
        0
176
     1
 62
    18
420
        0
176
     1
 90
       50
176
     1
 90
        3
176
     1
 62
     5
420
      255
176
     1
290
     0
176
     1
 90
       50
176
     1
 90
       50
176
     1
 90
       50
176
     1
290
     0
176
     1
 90
       50
176
     1
 62
   256
176
     0
 40
1.0
176
     0
 90
        2
176
     1
  1
strokes_ogs.tif
176
     1
290
     0
176
     1
 40
1.0
176
     1
 40
1.0
176
     1
  0
VISUALSTYLE
  5
205
102
{ACAD_REACTORS
330
201
102
}
330
201
100
AcDbVisualStyle
  2
GouraudWithEdges
 70
     3
177
     3
291
     1
 70
    58
 90
        2
176
     1
 90
        2
176
     1
 90
        1
176
     1
 90
        2
176
     1
 40
0.6
176
     1
 40
30.0
176
     1
 62
     7
420
 16777215
176
     1
 90
        1
176
     1
 90
        0
176
     1
 62
     7
176
     1
 62
   257
176
     1
 90
        1
176
     1
 90
        1
176
     1
 40
1.0
176
     1
 90
        0
176
     1
 62
   257
176
     1
 40
1.0
176
     1
 90
        1
176
     1
 90
        6
176
     1
 90
        2
176
     1
 62
     7
176
     1
 90
        5
176
     1
 90
        0
176
     1
 90
        0
176
     1
290
     0
176
     1
 90
       13
176
     1
 40
0.0
176
     1
 90
        0
176
     1
290
     0
176
     1
290
     1
176
     1
290
     1
176
     1
290
     0
176
     1
290
     0
176
     1
290
     0
176
     1
290
     0
176
     1
290
     0
176
     1
290
     0
176
     1
 90
       50
176
     1
 40
0.0
176
     1
 40
1.0
176
     1
 90
        0
176
     1
 62
    18
420
        0
176
     1
 90
       50
176
     1
 90
        3
176
     1
 62
     5
420
      255
176
     1
290
     0
176
     1
 90
       50
176
     1
 90
       50
176
     1
 90
       50
176
     1
290
     0
176
     1
 90
       50
176
     1
 62
   256
176
     0
 40
1.0
176
     0
 90
        2
176
     1
  1
strokes_ogs.tif
176
     1
290
     0
176
     1
 40
1.0
176
     1
 40
1.0
176
     1
  0
VISUALSTYLE
  5
208
102
{ACAD_REACTORS
330
201
102
}
330
201
100
AcDbVisualStyle
  2
Hidden
 70
     6
177
     3
291
     0
 70
    58
 90
        1
176
     1
 90
        2
176
     1
 90
        2
176
     1
 90
        0
176
     1
 40
0.6
176
     1
 40
30.0
176
     1
 62
     7
420
 16777215
176
     1
 90
        2
176
     1
 90
        2
176
     1
 62
     7
176
     1
 62
   257
176
     1
 90
        2
176
     1
 90
        1
176
     1
 40
40.0
176
     1
 90
        0
176
     1
 62
   257
176
     1
 40
1.0
176
     1
 90
        1
176
     1
 90
        6
176
     1
 90
        2
176
     1
 62
     7
176
     1
 90
        3
176
     1
 90
        0
176
     1
 90
        0
176
     1
290
     0
176
     1
 90
        1
176
     1
 40
0.0
176
     1
 90
        0
176
     1
290
     0
176
     1
290
     1
176
     1
290
     1
176
     1
290
     0
176
     1
290
     0
176
     1
290
     0
176
     1
290
     0
176
     1
290
     0
176
     1
290
     0
176
     1
 90
       50
176
     1
 40
0.0
176
     1
 40
1.0
176
     1
 90
        0
176
     1
 62
    18
420
        0
176
     1
 90
       50
176
     1
 90
        3
176
     1
 62
     5
420
      255
176
     1
290
     0
176
     1
 90
       50
176
     1
 90
       50
176
     1
 90
       50
176
     1
290
     0
176
     1
 90
       50
176
     1
 62
   256
176
     0
 40
1.0
176
     0
 90
        2
176
     1
  1
strokes_ogs.tif
176
     1
290
     0
176
     1
 40
1.0
176
     1
 40
1.0
176
     1
  0
VISUALSTYLE
  5
212
102
{ACAD_REACTORS
330
201
102
}
330
201
100
AcDbVisualStyle
  2
JitterOff
 70
    20
177
     3
291
     1
 70
    58
 90
        2
176
     0
 90
        2
176
     0
 90
        0
176
     0
 90
        0
176
     0
 40
0.6
176
     0
 40
30.0
176
     0
 62
     7
420
 16777215
176
     0
 90
        1
176
     0
 90
        4
176
     0
 62
     7
176
     0
 62
   257
176
     0
 90
        1
176
     0
 90
        1
176
     0
 40
1.0
176
     0
 90
       10
176
     2
 62
     7
176
     0
 40
1.0
176
     0
 90
        1
176
     0
 90
        6
176
     0
 90
        2
176
     0
 62
     7
176
     0
 90
        5
176
     0
 90
        0
176
     0
 90
        0
176
     0
290
     0
176
     0
 90
        1
176
     0
 40
0.0
176
     0
 90
        0
176
     0
290
     0
176
     0
290
     1
176
     0
290
     1
176
     0
290
     0
176
     0
290
     0
176
     0
290
     0
176
     0
290
     0
176
     0
290
     0
176
     0
290
     0
176
     0
 90
       50
176
     0
 40
0.0
176
     0
 40
1.0
176
     0
 90
        0
176
     0
 62
    18
420
        0
176
     0
 90
       50
176
     0
 90
        3
176
     0
 62
     5
420
      255
176
     0
290
     0
176
     0
 90
       50
176
     0
 90
       50
176
     0
 90
       50
176
     0
290
     0
176
     0
 90
       50
176
     0
 62
   256
176
     0
 40
1.0
176
     0
 90
        2
176
     0
  1
strokes_ogs.tif
176
     0
290
     0
176
     0
 40
1.0
176
     0
 40
1.0
176
     0
  0
VISUALSTYLE
  5
20F
102
{ACAD_REACTORS
330
201
102
}
330
201
100
AcDbVisualStyle
  2
Linepattern
 70
    14
177
     3
291
     1
 70
    58
 90
        2
176
     1
 90
        2
176
     1
 90
        0
176
     1
 90
        0
176
     1
 40
0.6
176
     1
 40
30.0
176
     1
 62
     7
420
 16777215
176
     1
 90
        1
176
     1
 90
        4
176
     1
 62
     7
176
     1
 62
   257
176
     1
 90
        7
176
     1
 90
        7
176
     1
 40
1.0
176
     1
 90
        8
176
     1
 62
     7
176
     1
 40
1.0
176
     1
 90
        1
176
     1
 90
        6
176
     1
 90
        2
176
     1
 62
     7
176
     1
 90
        5
176
     1
 90
        0
176
     1
 90
        0
176
     1
290
     0
176
     1
 90
        1
176
     1
 40
0.0
176
     1
 90
        0
176
     1
290
     0
176
     1
290
     1
176
     1
290
     1
176
     1
290
     0
176
     1
290
     0
176
     1
290
     0
176
     1
290
     0
176
     1
290
     0
176
     1
290
     0
176
     1
 90
       50
176
     1
 40
0.0
176
     1
 40
1.0
176
     1
 90
        0
176
     1
 62
    18
420
        0
176
     1
 90
       50
176
     1
 90
        3
176
     1
 62
     5
420
      255
176
     1
290
     0
176
     1
 90
       50
176
     1
 90
       50
176
     1
 90
       50
176
     1
290
     0
176
     1
 90
       50
176
     1
 62
   256
176
     0
 40
1.0
176
     0
 90
        2
176
     1
  1
strokes_ogs.tif
176
     1
290
     0
176
     1
 40
1.0
176
     1
 40
1.0
176
     1
  0
VISUALSTYLE
  5
213
102
{ACAD_REACTORS
330
201
102
}
330
201
100
AcDbVisualStyle
  2
OverhangOff
 70
    21
177
     3
291
     1
 70
    58
 90
        2
176
     0
 90
        2
176
     0
 90
        0
176
     0
 90
        0
176
     0
 40
0.6
176
     0
 40
30.0
176
     0
 62
     7
420
 16777215
176
     0
 90
        1
176
     0
 90
        4
176
     0
 62
     7
176
     0
 62
   257
176
     0
 90
        1
176
     0
 90
        1
176
     0
 40
1.0
176
     0
 90
        9
176
     2
 62
     7
176
     0
 40
1.0
176
     0
 90
        1
176
     0
 90
        6
176
     0
 90
        2
176
     0
 62
     7
176
     0
 90
        5
176
     0
 90
        0
176
     0
 90
        0
176
     0
290
     0
176
     0
 90
        1
176
     0
 40
0.0
176
     0
 90
        0
176
     0
290
     0
176
     0
290
     1
176
     0
290
     1
176
     0
290
     0
176
     0
290
     0
176
     0
290
     0
176
     0
290
     0
176
     0
290
     0
176
     0
290
     0
176
     0
 90
       50
176
     0
 40
0.0
176
     0
 40
1.0
176
     0
 90
        0
176
     0
 62
    18
420
        0
176
     0
 90
       50
176
     0
 90
        3
176
     0
 62
     5
420
      255
176
     0
290
     0
176
     0
 90
       50
176
     0
 90
       50
176
     0
 90
       50
176
     0
290
     0
176
     0
 90
       50
176
     0
 62
   256
176
     0
 40
1.0
176
     0
 90
        2
176
     0
  1
strokes_ogs.tif
176
     0
290
     0
176
     0
 40
1.0
176
     0
 40
1.0
176
     0
  0
VISUALSTYLE
  5
20A
102
{ACAD_REACTORS
330
201
102
}
330
201
100
AcDbVisualStyle
  2
Realistic
 70
     8
177
     3
291
     0
 70
    58
 90
        2
176
     1
 90
        3
176
     1
 90
        0
176
     1
 90
        2
176
     1
 40
0.6
176
     1
 40
30.0
176
     1
 62
     7
420
 16777215
176
     1
 90
        0
176
     1
 90
        0
176
     1
 62
     7
176
     1
 62
   257
176
     1
 90
        1
176
     1
 90
        1
176
     1
 40
1.0
176
     1
 90
        8
176
     1
 62
   257
176
     1
 40
1.0
176
     1
 90
        1
176
     1
 90
        6
176
     1
 90
        2
176
     1
 62
     7
176
     1
 90
        3
176
     1
 90
        0
176
     1
 90
        0
176
     1
290
     0
176
     1
 90
       13
176
     1
 40
0.0
176
     1
 90
        0
176
     1
290
     0
176
     1
290
     1
176
     1
290
     1
176
     1
290
     0
176
     1
290
     0
176
     1
290
     0
176
     1
290
     0
176
     1
290
     0
176
     1
290
     0
176
     1
 90
       50
176
     1
 40
0.0
176
     1
 40
1.0
176
     1
 90
        0
176
     1
 62
    18
420
        0
176
     1
 90
       50
176
     1
 90
        3
176
     1
 62
     5
420
      255
176
     1
290
     0
176
     1
 90
       50
176
     1
 90
       50
176
     1
 90
       50
176
     1
290
     0
176
     1
 90
       50
176
     1
 62
   256
176
     0
 40
1.0
176
     0
 90
        2
176
     1
  1
strokes_ogs.tif
176
     1
290
     0
176
     1
 40
1.0
176
     1
 40
1.0
176
     1
  0
VISUALSTYLE
  5
219
102
{ACAD_REACTORS
330
201
102
}
330
201
100
AcDbVisualStyle
  2
Shaded
 70
    27
177
     3
291
     0
 70
    58
 90
        2
176
     1
 90
        2
176
     1
 90
        1
176
     1
 90
        2
176
     1
 40
0.6
176
     1
 40
30.0
176
     1
 62
     7
420
 16777215
176
     1
 90
        0
176
     1
 90
        4
176
     1
 62
     7
176
     1
 62
   257
176
     1
 90
        1
176
     1
 90
        1
176
     1
 40
1.0
176
     1
 90
        8
176
     1
 62
   257
176
     1
 40
1.0
176
     1
 90
        1
176
     1
 90
        6
176
     1
 90
        2
176
     1
 62
     8
420
  7895160
176
     1
 90
        3
176
     1
 90
        0
176
     1
 90
        0
176
     1
290
     0
176
     1
 90
        5
176
     1
 40
0.0
176
     1
 90
        0
176
     1
290
     0
176
     1
290
     1
176
     1
290
     1
176
     1
290
     0
176
     1
290
     0
176
     1
290
     0
176
     1
290
     0
176
     1
290
     0
176
     1
290
     0
176
     1
 90
       50
176
     1
 40
0.0
176
     1
 40
1.0
176
     1
 90
        0
176
     1
 62
    18
420
        0
176
     1
 90
       50
176
     1
 90
        3
176
     1
 62
     5
420
      255
176
     1
290
     0
176
     1
 90
       50
176
     1
 90
       50
176
     1
 90
       50
176
     1
290
     0
176
     1
 90
       50
176
     1
 62
   256
176
     0
 40
1.0
176
     0
 90
        2
176
     1
  1
strokes_ogs.tif
176
     1
290
     0
176
     1
 40
1.0
176
     1
 40
1.0
176
     1
  0
VISUALSTYLE
  5
218
102
{ACAD_REACTORS
330
201
102
}
330
201
100
AcDbVisualStyle
  2
Shaded with edges
 70
    26
177
     3
291
     0
 70
    58
 90
        2
176
     1
 90
        2
176
     1
 90
        1
176
     1
 90
        2
176
     1
 40
0.6
176
     1
 40
30.0
176
     1
 62
     7
420
 16777215
176
     1
 90
        1
176
     1
 90
       10
176
     1
 62
     7
176
     1
 62
   257
176
     1
 90
        2
176
     1
 90
        1
176
     1
 40
1.0
176
     1
 90
        8
176
     1
 62
   257
176
     1
 40
1.0
176
     1
 90
        1
176
     1
 90
        6
176
     1
 90
        2
176
     1
 62
     7
176
     1
 90
        3
176
     1
 90
        0
176
     1
 90
        0
176
     1
290
     0
176
     1
 90
        5
176
     1
 40
0.0
176
     1
 90
        0
176
     1
290
     0
176
     1
290
     1
176
     1
290
     1
176
     1
290
     0
176
     1
290
     0
176
     1
290
     0
176
     1
290
     0
176
     1
290
     0
176
     1
290
     0
176
     1
 90
       50
176
     1
 40
0.0
176
     1
 40
1.0
176
     1
 90
        0
176
     1
 62
    18
420
        0
176
     1
 90
       50
176
     1
 90
        3
176
     1
 62
     5
420
      255
176
     1
290
     0
176
     1
 90
       50
176
     1
 90
       50
176
     1
 90
       50
176
     1
290
     0
176
     1
 90
       50
176
     1
 62
   256
176
     0
 40
1.0
176
     0
 90
        2
176
     1
  1
strokes_ogs.tif
176
     1
290
     0
176
     1
 40
1.0
176
     1
 40
1.0
176
     1
  0
VISUALSTYLE
  5
215
102
{ACAD_REACTORS
330
201
102
}
330
201
100
AcDbVisualStyle
  2
Shades of Gray
 70
    23
177
     3
291
     0
 70
    58
 90
        2
176
     1
 90
        2
176
     1
 90
        3
176
     1
 90
        0
176
     1
 40
0.6
176
     1
 40
30.0
176
     1
 62
     7
420
 16777215
176
     1
 90
        2
176
     1
 90
        2
176
     1
 62
     7
176
     1
 62
     7
176
     1
 90
        1
176
     1
 90
        1
176
     1
 40
40.0
176
     1
 90
        8
176
     1
 62
     7
176
     1
 40
1.0
176
     1
 90
        1
176
     1
 90
        6
176
     1
 90
        2
176
     1
 62
     7
176
     1
 90
        3
176
     1
 90
        0
176
     1
 90
        0
176
     1
290
     0
176
     1
 90
        1
176
     1
 40
0.0
176
     1
 90
        0
176
     1
290
     0
176
     1
290
     1
176
     1
290
     1
176
     1
290
     0
176
     1
290
     0
176
     1
290
     0
176
     1
290
     0
176
     1
290
     0
176
     1
290
     0
176
     1
 90
       50
176
     1
 40
0.0
176
     1
 40
1.0
176
     1
 90
        0
176
     1
 62
    18
420
        0
176
     1
 90
       50
176
     1
 90
        3
176
     1
 62
     5
420
      255
176
     1
290
     0
176
     1
 90
       50
176
     1
 90
       50
176
     1
 90
       50
176
     1
290
     0
176
     1
 90
       50
176
     1
 62
   256
176
     0
 40
1.0
176
     0
 90
        2
176
     1
  1
strokes_ogs.tif
176
     1
290
     0
176
     1
 40
1.0
176
     1
 40
1.0
176
     1
  0
VISUALSTYLE
  5
216
102
{ACAD_REACTORS
330
201
102
}
330
201
100
AcDbVisualStyle
  2
Sketchy
 70
    24
177
     3
291
     0
 70
    58
 90
        1
176
     1
 90
        2
176
     1
 90
        2
176
     1
 90
        0
176
     1
 40
0.6
176
     1
 40
30.0
176
     1
 62
     7
420
 16777215
176
     1
 90
        2
176
     1
 90
        2
176
     1
 62
     7
176
     1
 62
     7
176
     1
 90
        1
176
     1
 90
        1
176
     1
 40
40.0
176
     1
 90
       11
176
     1
 62
     7
176
     1
 40
1.0
176
     1
 90
        1
176
     1
 90
        6
176
     1
 90
        2
176
     1
 62
     7
176
     1
 90
        6
176
     1
 90
        0
176
     1
 90
        0
176
     1
290
     0
176
     1
 90
        1
176
     1
 40
0.0
176
     1
 90
        0
176
     1
290
     0
176
     1
290
     1
176
     1
290
     1
176
     1
290
     0
176
     1
290
     0
176
     1
290
     0
176
     1
290
     0
176
     1
290
     0
176
     1
290
     0
176
     1
 90
       50
176
     1
 40
0.0
176
     1
 40
1.0
176
     1
 90
        0
176
     1
 62
    18
420
        0
176
     1
 90
       50
176
     1
 90
        3
176
     1
 62
     5
420
      255
176
     1
290
     0
176
     1
 90
       50
176
     1
 90
       50
176
     1
 90
       50
176
     1
290
     0
176
     1
 90
       50
176
     1
 62
   256
176
     0
 40
1.0
176
     0
 90
        2
176
     1
  1
strokes_ogs.tif
176
     1
290
     0
176
     1
 40
1.0
176
     1
 40
1.0
176
     1
  0
VISUALSTYLE
  5
20E
102
{ACAD_REACTORS
330
201
102
}
330
201
100
AcDbVisualStyle
  2
Thicken
 70
    13
177
     3
291
     1
 70
    58
 90
        2
176
     1
 90
        2
176
     1
 90
        0
176
     1
 90
        0
176
     1
 40
0.6
176
     1
 40
30.0
176
     1
 62
     7
420
 16777215
176
     1
 90
        1
176
     1
 90
        4
176
     1
 62
     7
176
     1
 62
   257
176
     1
 90
        1
176
     1
 90
        1
176
     1
 40
1.0
176
     1
 90
       12
176
     1
 62
     7
176
     1
 40
1.0
176
     1
 90
        1
176
     1
 90
        6
176
     1
 90
        2
176
     1
 62
     7
176
     1
 90
        5
176
     1
 90
        0
176
     1
 90
        0
176
     1
290
     0
176
     1
 90
        1
176
     1
 40
0.0
176
     1
 90
        0
176
     1
290
     0
176
     1
290
     1
176
     1
290
     1
176
     1
290
     0
176
     1
290
     0
176
     1
290
     0
176
     1
290
     0
176
     1
290
     0
176
     1
290
     0
176
     1
 90
       50
176
     1
 40
0.0
176
     1
 40
1.0
176
     1
 90
        0
176
     1
 62
    18
420
        0
176
     1
 90
       50
176
     1
 90
        3
176
     1
 62
     5
420
      255
176
     1
290
     0
176
     1
 90
       50
176
     1
 90
       50
176
     1
 90
       50
176
     1
290
     0
176
     1
 90
       50
176
     1
 62
   256
176
     0
 40
1.0
176
     0
 90
        2
176
     1
  1
strokes_ogs.tif
176
     1
290
     0
176
     1
 40
1.0
176
     1
 40
1.0
176
     1
  0
VISUALSTYLE
  5
207
102
{ACAD_REACTORS
330
201
102
}
330
201
100
AcDbVisualStyle
  2
Wireframe
 70
     5
177
     3
291
     0
 70
    58
 90
        0
176
     1
 90
        2
176
     1
 90
        0
176
     1
 90
        0
176
     1
 40
0.6
176
     1
 40
30.0
176
     1
 62
     7
420
 16777215
176
     1
 90
        1
176
     1
 90
        4
176
     1
 62
     7
176
     1
 62
   257
176
     1
 90
        1
176
     1
 90
        1
176
     1
 40
1.0
176
     1
 90
        0
176
     1
 62
   257
176
     1
 40
1.0
176
     1
 90
        1
176
     1
 90
        6
176
     1
 90
        2
176
     1
 62
     7
176
     1
 90
        3
176
     1
 90
        0
176
     1
 90
        0
176
     1
290
     0
176
     1
 90
        1
176
     1
 40
0.0
176
     1
 90
        0
176
     1
290
     0
176
     1
290
     1
176
     1
290
     1
176
     1
290
     0
176
     1
290
     0
176
     1
290
     0
176
     1
290
     0
176
     1
290
     0
176
     1
290
     0
176
     1
 90
       50
176
     1
 40
0.0
176
     1
 40
1.0
176
     1
 90
        0
176
     1
 62
    18
420
        0
176
     1
 90
       50
176
     1
 90
        3
176
     1
 62
     5
420
      255
176
     1
290
     0
176
     1
 90
       50
176
     1
 90
       50
176
     1
 90
       50
176
     1
290
     0
176
     1
 90
       50
176
     1
 62
   256
176
     0
 40
1.0
176
     0
 90
        2
176
     1
  1
strokes_ogs.tif
176
     1
290
     0
176
     1
 40
1.0
176
     1
 40
1.0
176
     1
  0
VISUALSTYLE
  5
217
102
{ACAD_REACTORS
330
201
102
}
330
201
100
AcDbVisualStyle
  2
X-Ray
 70
    25
177
     3
291
     0
 70
    58
 90
        2
176
     1
 90
        2
176
     1
 90
        1
176
     1
 90
        1
176
     1
 40
0.5
176
     1
 40
30.0
176
     1
 62
     7
420
 16777215
176
     1
 90
        1
176
     1
 90
        0
176
     1
 62
     7
176
     1
 62
   257
176
     1
 90
        1
176
     1
 90
        1
176
     1
 40
1.0
176
     1
 90
        8
176
     1
 62
     7
176
     1
 40
1.0
176
     1
 90
        1
176
     1
 90
        6
176
     1
 90
        2
176
     1
 62
     7
176
     1
 90
        3
176
     1
 90
        0
176
     1
 90
        0
176
     1
290
     0
176
     1
 90
       13
176
     1
 40
0.0
176
     1
 90
        0
176
     1
290
     0
176
     1
290
     1
176
     1
290
     1
176
     1
290
     0
176
     1
290
     0
176
     1
290
     0
176
     1
290
     0
176
     1
290
     0
176
     1
290
     0
176
     1
 90
       50
176
     1
 40
0.0
176
     1
 40
1.0
176
     1
 90
        0
176
     1
 62
    18
420
        0
176
     1
 90
       50
176
     1
 90
        3
176
     1
 62
     5
420
      255
176
     1
290
     0
176
     1
 90
       50
176
     1
 90
       50
176
     1
 90
       50
176
     1
290
     0
176
     1
 90
       50
176
     1
 62
   256
176
     0
 40
1.0
176
     0
 90
        2
176
     1
  1
strokes_ogs.tif
176
     1
290
     0
176
     1
 40
1.0
176
     1
 40
1.0
176
     1
  0
DICTIONARYVAR
  5
224
102
{ACAD_REACTORS
330
223
102
}
330
223
100
DictionaryVariables
280
     0
  1
1:1
  0
DICTIONARYVAR
  5
226
102
{ACAD_REACTORS
330
223
102
}
330
223
100
DictionaryVariables
280
     0
  1
Standard
  0
DICTIONARYVAR
  5
225
102
{ACAD_REACTORS
330
223
102
}
330
223
100
DictionaryVariables
280
     0
  1
Standard
  0
DICTIONARYVAR
  5
227
102
{ACAD_REACTORS
330
223
102
}
330
223
100
DictionaryVariables
280
     0
  1
0
  0
DICTIONARY
  5
23C
330
21F
100
AcDbDictionary
280
     1
281
     1
  3
ACAD_ROUNDTRIP_2008_TABLESTYLE_CELLSTYLEMAP
360
23D
  0
CELLSTYLEMAP
  5
23D
102
{ACAD_REACTORS
330
23C
102
}
330
23C
100
AcDbCellStyleMap
 90
        3
300
CELLSTYLE
  1
TABLEFORMAT_BEGIN
 90
        5
170
     1
 91
        0
 92
    32768
 62
   257
 93
        1
300
CONTENTFORMAT
  1
CONTENTFORMAT_BEGIN
 90
        0
 91
        0
 92
        4
 93
        0
300

 40
0.0
140
1.0
 94
        5
 62
     0
340
17
144
6.0
309
CONTENTFORMAT_END
171
     1
301
MARGIN
  1
CELLMARGIN_BEGIN
 40
1.5
 40
1.5
 40
1.5
 40
1.5
 40
1.5
 40
1.5
309
CELLMARGIN_END
 94
        6
 95
        1
302
GRIDFORMAT
  1
GRIDFORMAT_BEGIN
 90
        0
 91
        1
 62
     0
 92
       -2
340
11
 93
        0
 40
0.045
309
GRIDFORMAT_END
 95
        2
302
GRIDFORMAT
  1
GRIDFORMAT_BEGIN
 90
        0
 91
        1
 62
     0
 92
       -2
340
11
 93
        0
 40
0.045
309
GRIDFORMAT_END
 95
        4
302
GRIDFORMAT
  1
GRIDFORMAT_BEGIN
 90
        0
 91
        1
 62
     0
 92
       -2
340
11
 93
        0
 40
0.045
309
GRIDFORMAT_END
 95
        8
302
GRIDFORMAT
  1
GRIDFORMAT_BEGIN
 90
        0
 91
        1
 62
     0
 92
       -2
340
11
 93
        0
 40
0.045
309
GRIDFORMAT_END
 95
       16
302
GRIDFORMAT
  1
GRIDFORMAT_BEGIN
 90
        0
 91
        1
 62
     0
 92
       -2
340
11
 93
        0
 40
0.045
309
GRIDFORMAT_END
 95
       32
302
GRIDFORMAT
  1
GRIDFORMAT_BEGIN
 90
        0
 91
        1
 62
     0
 92
       -2
340
11
 93
        0
 40
0.045
309
GRIDFORMAT_END
309
TABLEFORMAT_END
  1
CELLSTYLE_BEGIN
 90
        1
 91
        1
300
_TITLE
309
CELLSTYLE_END
300
CELLSTYLE
  1
TABLEFORMAT_BEGIN
 90
        5
170
     1
 91
        0
 92
        0
 62
   257
 93
        1
300
CONTENTFORMAT
  1
CONTENTFORMAT_BEGIN
 90
        0
 91
        0
 92
        4
 93
        0
300

 40
0.0
140
1.0
 94
        5
 62
     0
340
17
144
4.5
309
CONTENTFORMAT_END
171
     1
301
MARGIN
  1
CELLMARGIN_BEGIN
 40
1.5
 40
1.5
 40
1.5
 40
1.5
 40
1.5
 40
1.5
309
CELLMARGIN_END
 94
        6
 95
        1
302
GRIDFORMAT
  1
GRIDFORMAT_BEGIN
 90
        0
 91
        1
 62
     0
 92
       -2
340
11
 93
        0
 40
0.045
309
GRIDFORMAT_END
 95
        2
302
GRIDFORMAT
  1
GRIDFORMAT_BEGIN
 90
        0
 91
        1
 62
     0
 92
       -2
340
11
 93
        0
 40
0.045
309
GRIDFORMAT_END
 95
        4
302
GRIDFORMAT
  1
GRIDFORMAT_BEGIN
 90
        0
 91
        1
 62
     0
 92
       -2
340
11
 93
        0
 40
0.045
309
GRIDFORMAT_END
 95
        8
302
GRIDFORMAT
  1
GRIDFORMAT_BEGIN
 90
        0
 91
        1
 62
     0
 92
       -2
340
11
 93
        0
 40
0.045
309
GRIDFORMAT_END
 95
       16
302
GRIDFORMAT
  1
GRIDFORMAT_BEGIN
 90
        0
 91
        1
 62
     0
 92
       -2
340
11
 93
        0
 40
0.045
309
GRIDFORMAT_END
 95
       32
302
GRIDFORMAT
  1
GRIDFORMAT_BEGIN
 90
        0
 91
        1
 62
     0
 92
       -2
340
11
 93
        0
 40
0.045
309
GRIDFORMAT_END
309
TABLEFORMAT_END
  1
CELLSTYLE_BEGIN
 90
        2
 91
        1
300
_HEADER
309
CELLSTYLE_END
300
CELLSTYLE
  1
TABLEFORMAT_BEGIN
 90
        5
170
     1
 91
        0
 92
        0
 62
   257
 93
        1
300
CONTENTFORMAT
  1
CONTENTFORMAT_BEGIN
 90
        0
 91
        0
 92
        4
 93
        0
300

 40
0.0
140
1.0
 94
        2
 62
     0
340
17
144
4.5
309
CONTENTFORMAT_END
171
     1
301
MARGIN
  1
CELLMARGIN_BEGIN
 40
1.5
 40
1.5
 40
1.5
 40
1.5
 40
1.5
 40
1.5
309
CELLMARGIN_END
 94
        6
 95
        1
302
GRIDFORMAT
  1
GRIDFORMAT_BEGIN
 90
        0
 91
        1
 62
     0
 92
       -2
340
11
 93
        0
 40
0.045
309
GRIDFORMAT_END
 95
        2
302
GRIDFORMAT
  1
GRIDFORMAT_BEGIN
 90
        0
 91
        1
 62
     0
 92
       -2
340
11
 93
        0
 40
0.045
309
GRIDFORMAT_END
 95
        4
302
GRIDFORMAT
  1
GRIDFORMAT_BEGIN
 90
        0
 91
        1
 62
     0
 92
       -2
340
11
 93
        0
 40
0.045
309
GRIDFORMAT_END
 95
        8
302
GRIDFORMAT
  1
GRIDFORMAT_BEGIN
 90
        0
 91
        1
 62
     0
 92
       -2
340
11
 93
        0
 40
0.045
309
GRIDFORMAT_END
 95
       16
302
GRIDFORMAT
  1
GRIDFORMAT_BEGIN
 90
        0
 91
        1
 62
     0
 92
       -2
340
11
 93
        0
 40
0.045
309
GRIDFORMAT_END
 95
       32
302
GRIDFORMAT
  1
GRIDFORMAT_BEGIN
 90
        0
 91
        1
 62
     0
 92
       -2
340
11
 93
        0
 40
0.045
309
GRIDFORMAT_END
309
TABLEFORMAT_END
  1
CELLSTYLE_BEGIN
 90
        3
 91
        2
300
_DATA
309
CELLSTYLE_END
  0
ENDSEC
  0
EOF
