  0
SECTION
  2
HEADER
  9
$ACADVER
  1
AC1032
  9
$ACADMAINTVER
 90
        4
  9
$DWGCODEPAGE
  3
ANSI_932
  9
$LASTSAVEDBY
  1
9128
  9
$REQUIREDVERSIONS
160
                 0
  9
$INSBASE
 10
0.0
 20
0.0
 30
0.0
  9
$EXTMIN
 10
189.794556145891
 20
81.27240617505694
 30
0.0
  9
$EXTMAX
 10
262.6011462870507
 20
221.3774544137624
 30
0.0
  9
$LIMMIN
 10
0.0
 20
0.0
  9
$LIMMAX
 10
0.0
 20
0.0
  9
$ORTHOMODE
 70
     0
  9
$REGENMODE
 70
     1
  9
$FILLMODE
 70
     1
  9
$QTEXTMODE
 70
     0
  9
$MIRRTEXT
 70
     1
  9
$LTSCALE
 40
5.08
  9
$ATTMODE
 70
     1
  9
$TEXTSIZE
 40
2.5
  9
$TRACEWID
 40
1.0
  9
$TEXTSTYLE
  7
Standard
  9
$CLAYER
  8
0
  9
$CELTYPE
  6
Continuous
  9
$CECOLOR
 62
   256
  9
$CELTSCALE
 40
1.0
  9
$DISPSILH
 70
     0
  9
$DIMSCALE
 40
1.0
  9
$DIMASZ
 40
0.18
  9
$DIMEXO
 40
0.0625
  9
$DIMDLI
 40
0.38
  9
$DIMRND
 40
0.0
  9
$DIMDLE
 40
0.0
  9
$DIMEXE
 40
0.18
  9
$DIMTP
 40
0.0
  9
$DIMTM
 40
0.0
  9
$DIMTXT
 40
0.18
  9
$DIMCEN
 40
0.09
  9
$DIMTSZ
 40
0.0
  9
$DIMTOL
 70
     0
  9
$DIMLIM
 70
     0
  9
$DIMTIH
 70
     1
  9
$DIMTOH
 70
     1
  9
$DIMSE1
 70
     0
  9
$DIMSE2
 70
     0
  9
$DIMTAD
 70
     0
  9
$DIMZIN
 70
     0
  9
$DIMBLK
  1

  9
$DIMASO
 70
     1
  9
$DIMSHO
 70
     1
  9
$DIMPOST
  1

  9
$DIMAPOST
  1

  9
$DIMALT
 70
     0
  9
$DIMALTD
 70
     2
  9
$DIMALTF
 40
25.4
  9
$DIMLFAC
 40
1.0
  9
$DIMTOFL
 70
     0
  9
$DIMTVP
 40
0.0
  9
$DIMTIX
 70
     0
  9
$DIMSOXD
 70
     0
  9
$DIMSAH
 70
     0
  9
$DIMBLK1
  1

  9
$DIMBLK2
  1

  9
$DIMSTYLE
  2
Standard
  9
$DIMCLRD
 70
     0
  9
$DIMCLRE
 70
     0
  9
$DIMCLRT
 70
     0
  9
$DIMTFAC
 40
1.0
  9
$DIMGAP
 40
0.09
  9
$DIMJUST
 70
     0
  9
$DIMSD1
 70
     0
  9
$DIMSD2
 70
     0
  9
$DIMTOLJ
 70
     1
  9
$DIMTZIN
 70
     0
  9
$DIMALTZ
 70
     0
  9
$DIMALTTZ
 70
     0
  9
$DIMUPT
 70
     0
  9
$DIMDEC
 70
     4
  9
$DIMTDEC
 70
     4
  9
$DIMALTU
 70
     2
  9
$DIMALTTD
 70
     2
  9
$DIMTXSTY
  7
Standard
  9
$DIMAUNIT
 70
     0
  9
$DIMADEC
 70
     0
  9
$DIMALTRND
 40
0.0
  9
$DIMAZIN
 70
     0
  9
$DIMDSEP
 70
     0
  9
$DIMATFIT
 70
     3
  9
$DIMFRAC
 70
     0
  9
$DIMLDRBLK
  1

  9
$DIMLUNIT
 70
     2
  9
$DIMLWD
 70
     0
  9
$DIMLWE
 70
     0
  9
$DIMTMOVE
 70
     0
  9
$DIMFXL
 40
1.0
  9
$DIMFXLON
 70
     0
  9
$DIMJOGANG
 40
0.7853981633974483
  9
$DIMTFILL
 70
     0
  9
$DIMTFILLCLR
 70
     0
  9
$DIMARCSYM
 70
     0
  9
$DIMLTYPE
  6

  9
$DIMLTEX1
  6

  9
$DIMLTEX2
  6

  9
$DIMTXTDIRECTION
 70
     0
  9
$LUNITS
 70
     2
  9
$LUPREC
 70
     4
  9
$SKETCHINC
 40
0.1
  9
$FILLETRAD
 40
0.0
  9
$AUNITS
 70
     0
  9
$AUPREC
 70
     0
  9
$MENU
  1
acad
  9
$ELEVATION
 40
0.0
  9
$PELEVATION
 40
0.0
  9
$THICKNESS
 40
0.0
  9
$LIMCHECK
 70
     0
  9
$CHAMFERA
 40
0.0
  9
$CHAMFERB
 40
0.0
  9
$CHAMFERC
 40
0.0
  9
$CHAMFERD
 40
0.0
  9
$SKPOLY
 70
     0
  9
$TDCREATE
 40
2447893.375
  9
$TDUCREATE
 40
0.0
  9
$TDUPDATE
 40
2459608.566817431
  9
$TDUUPDATE
 40
2459608.191817431
  9
$TDINDWG
 40
0.0031158681
  9
$TDUSRTIMER
 40
0.0001262037
  9
$USRTIMER
 70
     1
  9
$ANGBASE
 50
0.0
  9
$ANGDIR
 70
     0
  9
$PDMODE
 70
     1
  9
$PDSIZE
 40
-2.0
  9
$PLINEWID
 40
0.0
  9
$SPLFRAME
 70
     0
  9
$SPLINETYPE
 70
     6
  9
$SPLINESEGS
 70
     8
  9
$HANDSEED
  5
736
  9
$SURFTAB1
 70
     6
  9
$SURFTAB2
 70
     6
  9
$SURFTYPE
 70
     6
  9
$SURFU
 70
     6
  9
$SURFV
 70
     6
  9
$UCSBASE
  2

  9
$UCSNAME
  2

  9
$UCSORG
 10
0.0
 20
0.0
 30
0.0
  9
$UCSXDIR
 10
1.0
 20
0.0
 30
0.0
  9
$UCSYDIR
 10
0.0
 20
1.0
 30
0.0
  9
$UCSORTHOREF
  2

  9
$UCSORTHOVIEW
 70
     0
  9
$UCSORGTOP
 10
0.0
 20
0.0
 30
0.0
  9
$UCSORGBOTTOM
 10
0.0
 20
0.0
 30
0.0
  9
$UCSORGLEFT
 10
0.0
 20
0.0
 30
0.0
  9
$UCSORGRIGHT
 10
0.0
 20
0.0
 30
0.0
  9
$UCSORGFRONT
 10
0.0
 20
0.0
 30
0.0
  9
$UCSORGBACK
 10
0.0
 20
0.0
 30
0.0
  9
$PUCSBASE
  2

  9
$PUCSNAME
  2

  9
$PUCSORG
 10
0.0
 20
0.0
 30
0.0
  9
$PUCSXDIR
 10
1.0
 20
0.0
 30
0.0
  9
$PUCSYDIR
 10
0.0
 20
1.0
 30
0.0
  9
$PUCSORTHOREF
  2

  9
$PUCSORTHOVIEW
 70
     0
  9
$PUCSORGTOP
 10
0.0
 20
0.0
 30
0.0
  9
$PUCSORGBOTTOM
 10
0.0
 20
0.0
 30
0.0
  9
$PUCSORGLEFT
 10
0.0
 20
0.0
 30
0.0
  9
$PUCSORGRIGHT
 10
0.0
 20
0.0
 30
0.0
  9
$PUCSORGFRONT
 10
0.0
 20
0.0
 30
0.0
  9
$PUCSORGBACK
 10
0.0
 20
0.0
 30
0.0
  9
$USERI1
 70
     0
  9
$USERI2
 70
     0
  9
$USERI3
 70
     0
  9
$USERI4
 70
     0
  9
$USERI5
 70
     0
  9
$USERR1
 40
0.0
  9
$USERR2
 40
0.0
  9
$USERR3
 40
0.0
  9
$USERR4
 40
0.0
  9
$USERR5
 40
0.0
  9
$WORLDVIEW
 70
     1
  9
$SHADEDGE
 70
     3
  9
$SHADEDIF
 70
    70
  9
$TILEMODE
 70
     1
  9
$MAXACTVP
 70
    16
  9
$PINSBASE
 10
0.0
 20
0.0
 30
0.0
  9
$PLIMCHECK
 70
     0
  9
$PEXTMIN
 10
1.000000000000000E+20
 20
1.000000000000000E+20
 30
1.000000000000000E+20
  9
$PEXTMAX
 10
-1.000000000000000E+20
 20
-1.000000000000000E+20
 30
-1.000000000000000E+20
  9
$PLIMMIN
 10
0.0
 20
0.0
  9
$PLIMMAX
 10
0.0
 20
0.0
  9
$UNITMODE
 70
     0
  9
$VISRETAIN
 70
     0
  9
$PLINEGEN
 70
     1
  9
$PSLTSCALE
 70
     0
  9
$TREEDEPTH
 70
  3020
  9
$CMLSTYLE
  2
Standard
  9
$CMLJUST
 70
     0
  9
$CMLSCALE
 40
1.0
  9
$PROXYGRAPHICS
 70
     0
  9
$MEASUREMENT
 70
     1
  9
$CELWEIGHT
370
     0
  9
$ENDCAPS
280
     0
  9
$JOINSTYLE
280
     0
  9
$LWDISPLAY
290
     1
  9
$INSUNITS
 70
     4
  9
$HYPERLINKBASE
  1

  9
$STYLESHEET
  1

  9
$XEDIT
290
     1
  9
$CEPSNTYPE
380
     0
  9
$PSTYLEMODE
290
     1
  9
$FINGERPRINTGUID
  2

  9
$VERSIONGUID
  2

  9
$EXTNAMES
290
     1
  9
$PSVPSCALE
 40
0.0
  9
$OLESTARTUP
290
     0
  9
$SORTENTS
280
   127
  9
$INDEXCTL
280
     0
  9
$HIDETEXT
280
     1
  9
$XCLIPFRAME
280
     2
  9
$HALOGAP
280
     0
  9
$OBSCOLOR
 70
   257
  9
$OBSLTYPE
280
     0
  9
$INTERSECTIONDISPLAY
280
     0
  9
$INTERSECTIONCOLOR
 70
   257
  9
$DIMASSOC
280
     2
  9
$PROJECTNAME
  1

  9
$CAMERADISPLAY
290
     0
  9
$LENSLENGTH
 40
50.0
  9
$CAMERAHEIGHT
 40
0.0
  9
$STEPSPERSEC
 40
2.0
  9
$STEPSIZE
 40
6.0
  9
$3DDWFPREC
 40
2.0
  9
$PSOLWIDTH
 40
0.25
  9
$PSOLHEIGHT
 40
4.0
  9
$LOFTANG1
 40
1.570796326794897
  9
$LOFTANG2
 40
1.570796326794897
  9
$LOFTMAG1
 40
0.0
  9
$LOFTMAG2
 40
0.0
  9
$LOFTPARAM
 70
     7
  9
$LOFTNORMALS
280
     1
  9
$LATITUDE
 40
37.795
  9
$LONGITUDE
 40
-122.394
  9
$NORTHDIRECTION
 40
0.0
  9
$TIMEZONE
 70
 -8000
  9
$LIGHTGLYPHDISPLAY
280
     1
  9
$TILEMODELIGHTSYNCH
280
     1
  9
$SOLIDHIST
280
     0
  9
$SHOWHIST
280
     1
  9
$DWFFRAME
280
     2
  9
$DGNFRAME
280
     2
  9
$REALWORLDSCALE
290
     1
  9
$INTERFERECOLOR
 62
   256
  9
$CSHADOW
280
     0
  9
$SHADOWPLANELOCATION
 40
0.0
  0
ENDSEC
  0
SECTION
  2
CLASSES
  0
CLASS
  1
LWPOLYLINE
  2
AcDbPolyline
  3
ObjectDBX Classes
 90
        0
 91
        1
280
     0
281
     1
  0
CLASS
  1
IMAGE
  2
AcDbRasterImage
  3
ISM
 90
      127
 91
        4
280
     0
281
     1
  0
CLASS
  1
OLE2FRAME
  2
AcDbOle2Frame
  3
ObjectDBX Classes
 90
        0
 91
        1
280
     0
281
     1
  0
CLASS
  1
HATCH
  2
AcDbHatch
  3
ObjectDBX Classes
 90
        0
 91
        1
280
     0
281
     1
  0
CLASS
  1
DICTIONARYVAR
  2
AcDbDictionaryVar
  3
ObjectDBX Classes
 90
        0
 91
        3
280
     0
281
     0
  0
CLASS
  1
RASTERVARIABLES
  2
AcDbRasterVariables
  3
ISM
 90
        0
 91
        3
280
     0
281
     0
  0
CLASS
  1
IMAGEDEF
  2
AcDbRasterImageDef
  3
ISM
 90
        0
 91
        3
280
     0
281
     0
  0
CLASS
  1
IMAGEDEF_REACTOR
  2
AcDbRasterImageDefReactor
  3
ISM
 90
        1
 91
        3
280
     0
281
     0
  0
CLASS
  1
IDBUFFER
  2
AcDbIdBuffer
  3
ObjectDBX Classes
 90
        0
 91
        3
280
     0
281
     0
  0
CLASS
  1
SPATIAL_FILTER
  2
AcDbSpatialFilter
  3
ObjectDBX Classes
 90
        0
 91
        3
280
     0
281
     0
  0
CLASS
  1
XRECORD
  2
AcDbXrecord
  3
ObjectDBX Classes
 90
        0
 91
        1
280
     0
281
     0
  0
CLASS
  1
SORTENTSTABLE
  2
AcDbSortentsTable
  3
ObjectDBX Classes
 90
        0
 91
        3
280
     0
281
     0
  0
CLASS
  1
LAYER_INDEX
  2
AcDbLayerIndex
  3
ObjectDBX Classes
 90
        0
 91
        3
280
     0
281
     0
  0
CLASS
  1
SPATIAL_INDEX
  2
AcDbSpatialIndex
  3
AutoCAD 2000
 90
        0
 91
        3
280
     0
281
     0
  0
CLASS
  1
OBJECT_PTR
  2
CAseDLPNTableRecord
  3
ASE-LPNTableRecord
 90
        1
 91
        3
280
     0
281
     0
  0
CLASS
  1
LAYOUT
  2
AcDbLayout
  3
ObjectDBX Classes
 90
        0
 91
        1
280
     0
281
     0
  0
CLASS
  1
PLOTSETTINGS
  2
AcDbPlotSettings
  3
ObjectDBX Classes
 90
        0
 91
        3
280
     0
281
     0
  0
CLASS
  1
ACDBDICTIONARYWDFLT
  2
AcDbDictionaryWithDefault
  3
ObjectDBX Classes
 90
        0
 91
        3
280
     0
281
     0
  0
CLASS
  1
ACDBPLACEHOLDER
  2
AcDbPlaceHolder
  3
ObjectDBX Classes
 90
        0
 91
        1
280
     0
281
     0
  0
CLASS
  1
VBA_PROJECT
  2
AcDbVbaProject
  3
ObjectDBX Classes
 90
        0
 91
        1
280
     0
281
     0
  0
CLASS
  1
WIPEOUT
  2
AcDbWipeout
  3
WipeOut|AutoCAD Express Tool|expresstools@autodesk.com
 90
      127
 91
        3
280
     0
281
     1
  0
CLASS
  1
WIPEOUTVARIABLES
  2
AcDbWipeoutVariables
  3
WipeOut|AutoCAD Express Tool|expresstools@autodesk.com
 90
        0
 91
        3
280
     0
281
     0
  0
CLASS
  1
RTEXT
  2
RText
  3
RText|AutoCAD Express Tool|expresstools@autodesk.com
 90
        0
 91
        3
280
     0
281
     1
  0
CLASS
  1
ARCALIGNEDTEXT
  2
AcDbArcAlignedText
  3
ATEXT|AutoCAD Express Tool|expresstools@autodesk.com
 90
        0
 91
        3
280
     0
281
     1
  0
CLASS
  1
SCALE
  2
AcDbScale
  3
ObjectDBX Classes
 90
     1153
 91
        3
280
     0
281
     0
  0
CLASS
  1
VISUALSTYLE
  2
AcDbVisualStyle
  3
ObjectDBX Classes
 90
     4095
 91
        3
280
     0
281
     0
  0
CLASS
  1
MATERIAL
  2
AcDbMaterial
  3
ObjectDBX Classes
 90
     1153
 91
        3
280
     0
281
     0
  0
CLASS
  1
TABLESTYLE
  2
AcDbTableStyle
  3
ObjectDBX Classes
 90
     4095
 91
        3
280
     0
281
     0
  0
CLASS
  1
MLEADERSTYLE
  2
AcDbMLeaderStyle
  3
ACDB_MLEADERSTYLE_CLASS
 90
     4095
 91
        3
280
     0
281
     0
  0
CLASS
  1
SUN
  2
AcDbSun
  3
SCENEOE
 90
     1153
 91
        3
280
     0
281
     0
  0
CLASS
  1
DIMASSOC
  2
AcDbDimAssoc
  3
"AcDbDimAssoc|Product Desc:     AcDim ARX App For Dimension|Company:          Autodesk, Inc.|WEB Address:      www.autodesk.com"
 90
        0
 91
        3
280
     0
281
     0
  0
CLASS
  1
CELLSTYLEMAP
  2
AcDbCellStyleMap
  3
ObjectDBX Classes
 90
     1152
 91
        3
280
     0
281
     0
  0
ENDSEC
  0
SECTION
  2
TABLES
  0
TABLE
  2
VPORT
  5
7
330
0
100
AcDbSymbolTable
 70
     1
  0
VPORT
  5
15
330
7
100
AcDbSymbolTableRecord
100
AcDbViewportTableRecord
  2
*ACTIVE
 70
     0
 10
0.0
 20
0.0
 11
1.0
 21
1.0
 12
232.3362533173289
 22
142.6826185543058
 13
0.0
 23
0.0
 14
1.0
 24
1.0
 15
0.0
 25
0.0
 16
0.0
 26
0.0
 36
1.0
 17
0.0
 27
0.0
 37
0.0
 40
354.0908032674432
 41
0.9324116743471582
 42
50.0
 43
0.0
 44
0.0
 50
0.0
 51
0.0
 71
    16
 72
   100
 73
     1
 74
     1
 75
     0
 76
     0
 77
     0
 78
     0
281
     0
 65
     0
110
0.0
120
0.0
130
0.0
111
1.0
121
0.0
131
0.0
112
0.0
122
1.0
132
0.0
 79
     0
146
0.0
348
20A
 60
     3
 61
     5
292
     1
282
     1
141
0.0
142
0.0
 63
   256
361
22E
  0
ENDTAB
  0
TABLE
  2
LTYPE
  5
4
330
0
100
AcDbSymbolTable
 70
    12
  0
LTYPE
  5
11
330
4
100
AcDbSymbolTableRecord
100
AcDbLinetypeTableRecord
  2
ByBlock
 70
     0
  3

 72
    65
 73
     0
 40
0.0
  0
LTYPE
  5
12
330
4
100
AcDbSymbolTableRecord
100
AcDbLinetypeTableRecord
  2
ByLayer
 70
     0
  3

 72
    65
 73
     0
 40
0.0
  0
LTYPE
  5
13
330
4
100
AcDbSymbolTableRecord
100
AcDbLinetypeTableRecord
  2
Continuous
 70
     0
  3
Solid line
 72
    65
 73
     0
 40
0.0
  0
LTYPE
  5
27
330
4
100
AcDbSymbolTableRecord
100
AcDbLinetypeTableRecord
  2
STYLE_01
 70
     0
  3

 72
    65
 73
     2
 40
0.075
 49
0.05
 74
     0
 49
-0.025
 74
     0
  0
LTYPE
  5
28
330
4
100
AcDbSymbolTableRecord
100
AcDbLinetypeTableRecord
  2
STYLE_02
 70
     0
  3

 72
    65
 73
     6
 40
0.4999999999999999
 49
0.25
 74
     0
 49
-0.05
 74
     0
 49
0.05
 74
     0
 49
-0.05
 74
     0
 49
0.05
 74
     0
 49
-0.05
 74
     0
  0
LTYPE
  5
29
330
4
100
AcDbSymbolTableRecord
100
AcDbLinetypeTableRecord
  2
STYLE_03
 70
     0
  3

 72
    65
 73
     4
 40
0.3999999999999999
 49
0.25
 74
     0
 49
-0.05
 74
     0
 49
0.05
 74
     0
 49
-0.05
 74
     0
  0
LTYPE
  5
2A
330
4
100
AcDbSymbolTableRecord
100
AcDbLinetypeTableRecord
  2
STYLE_04
 70
     0
  3

 72
    65
 73
     4
 40
0.7999999999999998
 49
0.4999999999999999
 74
     0
 49
-0.1
 74
     0
 49
0.1
 74
     0
 49
-0.1
 74
     0
  0
LTYPE
  5
2B
330
4
100
AcDbSymbolTableRecord
100
AcDbLinetypeTableRecord
  2
STYLE_05
 70
     0
  3

 72
    65
 73
     2
 40
0.025
 49
0.0005
 74
     0
 49
-0.0245
 74
     0
  0
LTYPE
  5
2C
330
4
100
AcDbSymbolTableRecord
100
AcDbLinetypeTableRecord
  2
STYLE_06
 70
     0
  3

 72
    65
 73
     4
 40
1.04164
 49
0.625
 74
     0
 49
-0.20828
 74
     0
 49
0.06943
 74
     0
 49
-0.13893
 74
     0
  0
LTYPE
  5
2D
330
4
100
AcDbSymbolTableRecord
100
AcDbLinetypeTableRecord
  2
STYLE_07
 70
     0
  3

 72
    65
 73
     6
 40
1.875
 49
0.625
 74
     0
 49
-0.20828
 74
     0
 49
0.6250000000000001
 74
     0
 49
-0.2083599999999999
 74
     0
 49
0.06943
 74
     0
 49
-0.1389299999999999
 74
     0
  0
LTYPE
  5
2E
330
4
100
AcDbSymbolTableRecord
100
AcDbLinetypeTableRecord
  2
STYLE_08
 70
     0
  3

 72
    65
 73
     6
 40
1.25
 49
0.625
 74
     0
 49
-0.20828
 74
     0
 49
0.06943
 74
     0
 49
-0.13893
 74
     0
 49
0.0694299999999999
 74
     0
 49
-0.13893
 74
     0
  0
LTYPE
  5
2F
330
4
100
AcDbSymbolTableRecord
100
AcDbLinetypeTableRecord
  2
STYLE_09
 70
     0
  3

 72
    65
 73
     4
 40
5.0
 49
3.75
 74
     0
 49
-0.2777849999999998
 74
     0
 49
0.6944300000000003
 74
     0
 49
-0.2777849999999998
 74
     0
  0
LTYPE
  5
30
330
4
100
AcDbSymbolTableRecord
100
AcDbLinetypeTableRecord
  2
STYLE_10
 70
     0
  3

 72
    65
 73
     6
 40
5.9375
 49
3.75
 74
     0
 49
-0.2777849999999998
 74
     0
 49
0.6944300000000003
 74
     0
 49
-0.2777849999999998
 74
     0
 49
0.625
 74
     0
 49
-0.3125
 74
     0
  0
LTYPE
  5
31
330
4
100
AcDbSymbolTableRecord
100
AcDbLinetypeTableRecord
  2
STYLE_11
 70
     0
  3

 72
    65
 73
     2
 40
0.1875
 49
0.125
 74
     0
 49
-0.0625
 74
     0
  0
ENDTAB
  0
TABLE
  2
LAYER
  5
2
330
0
100
AcDbSymbolTable
 70
     6
  0
LAYER
  5
14
330
2
100
AcDbSymbolTableRecord
100
AcDbLayerTableRecord
  2
0
 70
     0
 62
     7
  6
Continuous
370
    15
390
1D
347
221
348
0
  0
LAYER
  5
32
330
2
100
AcDbSymbolTableRecord
100
AcDbLayerTableRecord
  2
Defpoints
 70
     0
 62
     7
  6
Continuous
290
     0
370
    -3
390
1D
347
221
348
0
  0
LAYER
  5
33
330
2
100
AcDbSymbolTableRecord
100
AcDbLayerTableRecord
  2
一般
 70
     0
 62
     7
  6
Continuous
370
     5
390
1D
347
221
348
0
  0
LAYER
  5
34
330
2
100
AcDbSymbolTableRecord
100
AcDbLayerTableRecord
  2
寸法
 70
     0
 62
     7
  6
Continuous
370
     5
390
1D
347
221
348
0
  0
LAYER
  5
35
330
2
100
AcDbSymbolTableRecord
100
AcDbLayerTableRecord
  2
レイヤー_1
 70
     0
 62
    19
  6
Continuous
370
    15
390
1D
347
221
348
0
  0
LAYER
  5
36
330
2
100
AcDbSymbolTableRecord
100
AcDbLayerTableRecord
  2
FORMAT
 70
     0
 62
     7
  6
Continuous
370
    15
390
1D
347
221
348
0
  0
ENDTAB
  0
TABLE
  2
STYLE
  5
3
330
0
100
AcDbSymbolTable
 70
     2
  0
STYLE
  5
17
330
3
100
AcDbSymbolTableRecord
100
AcDbTextStyleTableRecord
  2
Standard
 70
     0
 40
0.0
 41
1.0
 50
0.0
 71
     0
 42
2.5
  3
txt
  4
BIGFONT.SHX
  0
STYLE
  5
26
330
3
100
AcDbSymbolTableRecord
100
AcDbTextStyleTableRecord
  2
Arial
 70
     0
 40
0.0
 41
1.0
 50
0.0
 71
     0
 42
0.0
  3
Arial
  4

1001
ACAD
1000
Arial
1071
        0
  0
ENDTAB
  0
TABLE
  2
VIEW
  5
5
330
0
100
AcDbSymbolTable
 70
     0
  0
ENDTAB
  0
TABLE
  2
UCS
  5
6
330
0
100
AcDbSymbolTable
 70
     0
  0
ENDTAB
  0
TABLE
  2
APPID
  5
8
330
0
100
AcDbSymbolTable
 70
     2
  0
APPID
  5
16
330
8
100
AcDbSymbolTableRecord
100
AcDbRegAppTableRecord
  2
ACAD
 70
     0
  0
APPID
  5
732
330
8
100
AcDbSymbolTableRecord
100
AcDbRegAppTableRecord
  2
PLOTTRANSPARENCY
 70
     0
  0
ENDTAB
  0
TABLE
  2
DIMSTYLE
  5
9
330
0
100
AcDbSymbolTable
 70
     1
100
AcDbDimStyleTable
  0
DIMSTYLE
105
18
330
9
100
AcDbSymbolTableRecord
100
AcDbDimStyleTableRecord
  2
Standard
 70
     0
178
     0
340
17
  0
ENDTAB
  0
TABLE
  2
BLOCK_RECORD
  5
1
330
0
100
AcDbSymbolTable
 70
     2
  0
BLOCK_RECORD
  5
A
330
1
100
AcDbSymbolTableRecord
100
AcDbBlockTableRecord
  2
*MODEL_SPACE
340
20
 70
     0
280
     1
281
     0
  0
BLOCK_RECORD
  5
B
330
1
100
AcDbSymbolTableRecord
100
AcDbBlockTableRecord
  2
*PAPER_SPACE
340
21
 70
     0
280
     1
281
     0
  0
BLOCK_RECORD
  5
24
330
1
100
AcDbSymbolTableRecord
100
AcDbBlockTableRecord
  2
*U0
340
0
102
{BLKREFS
331
1DF
102
}
 70
     0
280
     1
281
     0
  0
BLOCK_RECORD
  5
25
330
1
100
AcDbSymbolTableRecord
100
AcDbBlockTableRecord
  2
*U1
340
0
102
{BLKREFS
331
1E2
102
}
 70
     0
280
     1
281
     0
  0
ENDTAB
  0
ENDSEC
  0
SECTION
  2
BLOCKS
  0
BLOCK
  5
D
330
A
100
AcDbEntity
  8
0
100
AcDbBlockBegin
  2
*MODEL_SPACE
 70
     0
 10
0.0
 20
0.0
 30
0.0
  3
*MODEL_SPACE
  1

  0
ENDBLK
  5
E
330
A
100
AcDbEntity
  8
0
100
AcDbBlockEnd
  0
BLOCK
  5
F
330
B
100
AcDbEntity
 67
     1
  8
0
100
AcDbBlockBegin
  2
*PAPER_SPACE
 70
     0
 10
0.0
 20
0.0
 30
0.0
  3
*PAPER_SPACE
  1

  0
ENDBLK
  5
10
330
B
100
AcDbEntity
 67
     1
  8
0
100
AcDbBlockEnd
  0
BLOCK
  5
37
330
24
100
AcDbEntity
  8
一般
100
AcDbBlockBegin
  2
*U0
 70
     1
 10
0.0
 20
0.0
 30
0.0
  3
*U0
  1

  0
POLYLINE
  5
38
330
24
100
AcDbEntity
  8
0
  6
Continuous
 62
     7
370
    15
100
AcDb2dPolyline
 66
     1
 10
0.0
 20
0.0
 30
0.0
 75
     5
  0
VERTEX
  5
39
330
38
100
AcDbEntity
  8
0
  6
Continuous
 62
     7
370
    15
100
AcDbVertex
100
AcDb2dVertex
 10
-72.68184656112982
 20
249.8919954332001
 30
0.0
  0
VERTEX
  5
3A
330
38
100
AcDbEntity
  8
0
  6
Continuous
 62
     7
370
    15
100
AcDbVertex
100
AcDb2dVertex
 10
-72.2012294429299
 20
249.6609397538001
 30
0.0
  0
VERTEX
  5
3B
330
38
100
AcDbEntity
  8
0
  6
Continuous
 62
     7
370
    15
100
AcDbVertex
100
AcDb2dVertex
 10
-71.7872844077304
 20
249.2253302874002
 30
0.0
  0
VERTEX
  5
3C
330
38
100
AcDbEntity
  8
0
  6
Continuous
 62
     7
370
    15
100
AcDbVertex
100
AcDb2dVertex
 10
-71.50303095152987
 20
248.6514878020001
 30
0.0
  0
VERTEX
  5
3D
330
38
100
AcDbEntity
  8
0
  6
Continuous
 62
     7
370
    15
100
AcDbVertex
100
AcDb2dVertex
 10
-71.39174401533029
 20
248.0267729840001
 30
0.0
  0
VERTEX
  5
3E
330
38
100
AcDbEntity
  8
0
  6
Continuous
 62
     7
370
    15
100
AcDbVertex
100
AcDb2dVertex
 10
-71.4703659895302
 20
247.4462931416002
 30
0.0
  0
VERTEX
  5
3F
330
38
100
AcDbEntity
  8
0
  6
Continuous
 62
     7
370
    15
100
AcDbVertex
100
AcDb2dVertex
 10
-71.72692743612998
 20
246.9984212282003
 30
0.0
  0
VERTEX
  5
40
330
38
100
AcDbEntity
  8
0
  6
Continuous
 62
     7
370
    15
100
AcDbVertex
100
AcDb2dVertex
 10
-72.1223691837302
 20
246.7513400654003
 30
0.0
  0
VERTEX
  5
41
330
38
100
AcDbEntity
  8
0
  6
Continuous
 62
     7
370
    15
100
AcDbVertex
100
AcDb2dVertex
 10
-72.59648886573024
 20
246.7426686810003
 30
0.0
  0
VERTEX
  5
42
330
38
100
AcDbEntity
  8
0
  6
Continuous
 62
     7
370
    15
100
AcDbVertex
100
AcDb2dVertex
 10
-73.07710598393015
 20
246.9737243604003
 30
0.0
  0
VERTEX
  5
43
330
38
100
AcDbEntity
  8
0
  6
Continuous
 62
     7
370
    15
100
AcDbVertex
100
AcDb2dVertex
 10
-73.49105101913011
 20
247.4093338266001
 30
0.0
  0
VERTEX
  5
44
330
38
100
AcDbEntity
  8
0
  6
Continuous
 62
     7
370
    15
100
AcDbVertex
100
AcDb2dVertex
 10
-73.7753044751301
 20
247.9831763122003
 30
0.0
  0
VERTEX
  5
45
330
38
100
AcDbEntity
  8
0
  6
Continuous
 62
     7
370
    15
100
AcDbVertex
100
AcDb2dVertex
 10
-73.88659141153022
 20
248.6078911302003
 30
0.0
  0
VERTEX
  5
46
330
38
100
AcDbEntity
  8
0
  6
Continuous
 62
     7
370
    15
100
AcDbVertex
100
AcDb2dVertex
 10
-73.80796943733031
 20
249.1883709724003
 30
0.0
  0
VERTEX
  5
47
330
38
100
AcDbEntity
  8
0
  6
Continuous
 62
     7
370
    15
100
AcDbVertex
100
AcDb2dVertex
 10
-73.55140799073007
 20
249.6362428860001
 30
0.0
  0
VERTEX
  5
48
330
38
100
AcDbEntity
  8
0
  6
Continuous
 62
     7
370
    15
100
AcDbVertex
100
AcDb2dVertex
 10
-73.15596624313031
 20
249.8833240488003
 30
0.0
  0
VERTEX
  5
49
330
38
100
AcDbEntity
  8
0
  6
Continuous
 62
     7
370
    15
100
AcDbVertex
100
AcDb2dVertex
 10
-72.68184656112982
 20
249.8919954332001
 30
0.0
  0
SEQEND
  5
4A
330
38
100
AcDbEntity
  8
0
  6
Continuous
 62
     7
370
    15
  0
LINE
  5
4B
330
24
100
AcDbEntity
  8
0
  6
Continuous
 62
     7
370
    15
100
AcDbLine
 10
-71.81163526033043
 20
247.0322210582002
 30
0.0
 11
-71.71253212473022
 21
247.0140972166001
 31
0.0
  0
ARC
  5
4C
330
24
100
AcDbEntity
  8
0
  6
Continuous
 62
     7
370
    15
100
AcDbCircle
 10
-71.22703834213036
 20
248.8313091350002
 30
0.0
 40
1.891684821748295
100
AcDbArc
 50
145.2294538026007
 51
251.9989120973034
  0
SPLINE
  5
4D
330
24
100
AcDbEntity
  8
0
  6
Continuous
 62
     7
370
    15
100
AcDbSpline
210
0.0
220
0.0
230
1.0
 70
     8
 71
     2
 72
    14
 73
    11
 74
     0
 42
0.000000001
 43
0.000001
 40
0.0
 40
0.0
 40
0.0
 40
1.0
 40
1.0
 40
2.0
 40
3.0
 40
4.0
 40
5.0
 40
6.0
 40
6.0
 40
7.0
 40
7.0
 40
7.0
 10
-72.02003323117725
 20
249.5044321145775
 30
0.0
 10
-72.0206913681032
 20
249.4951644860441
 30
0.0
 10
-72.02134950502915
 20
249.4858968575107
 30
0.0
 10
-72.03240574691637
 20
249.2774072889534
 30
0.0
 10
-71.97678739732038
 20
248.9019817492039
 30
0.0
 10
-71.87230579562157
 20
248.5665733882507
 30
0.0
 10
-71.7186769938574
 20
248.2518768722579
 30
0.0
 10
-71.52799352984431
 20
247.9778131074737
 30
0.0
 10
-71.40888585560407
 20
247.8535822038597
 30
0.0
 10
-71.4022493248645
 20
247.8469164462466
 30
0.0
 10
-71.39561279412493
 20
247.8402506886335
 30
0.0
  0
ENDBLK
  5
4E
330
24
100
AcDbEntity
  8
一般
100
AcDbBlockEnd
  0
BLOCK
  5
4F
330
25
100
AcDbEntity
  8
一般
100
AcDbBlockBegin
  2
*U1
 70
     1
 10
0.0
 20
0.0
 30
0.0
  3
*U1
  1

  0
LINE
  5
50
330
25
100
AcDbEntity
  8
0
  6
Continuous
 62
     7
370
    15
100
AcDbLine
 10
-99.48739958693028
 20
273.3405313336003
 30
0.0
 11
-83.30176553833036
 21
-323.8387861125998
 31
0.0
  0
LINE
  5
51
330
25
100
AcDbEntity
  8
0
  6
Continuous
 62
     7
370
    15
100
AcDbLine
 10
15.15604712006979
 20
-319.2978650983998
 30
0.0
 11
-1.029031995530261
 21
277.8609777350001
 31
0.0
  0
LINE
  5
52
330
25
100
AcDbEntity
  8
0
  6
Continuous
 62
     7
370
    15
100
AcDbLine
 10
-96.62682019453024
 20
278.4597722394002
 30
0.0
 11
-47.86389611973033
 21
267.1015544636001
 31
0.0
  0
ARC
  5
53
330
25
100
AcDbEntity
  8
0
  6
Continuous
 62
     7
370
    15
100
AcDbCircle
 10
-47.18333109493034
 20
270.0233400130002
 30
0.0
 40
3.000000000000121
100
AcDbArc
 50
256.8880407683
 51
290.2502952889011
  0
LINE
  5
54
330
25
100
AcDbEntity
  8
0
  6
Continuous
 62
     7
370
    15
100
AcDbLine
 10
-46.14496321373036
 20
267.2087715066003
 30
0.0
 11
-3.959143446930341
 21
282.7721890832003
 31
0.0
  0
LINE
  5
55
330
25
100
AcDbEntity
  8
0
  6
Continuous
 62
     7
370
    15
100
AcDbLine
 10
-5.985301690530207
 20
350.0635705398003
 30
0.0
 11
-54.74822576533035
 21
361.4217883154002
 31
0.0
  0
ARC
  5
56
330
25
100
AcDbEntity
  8
0
  6
Continuous
 62
     7
370
    15
100
AcDbCircle
 10
-97.61461270393039
 20
342.9365816036003
 30
0.0
 40
3.000000000000243
100
AcDbArc
 50
110.2502952888993
 51
181.5525345763979
  0
LINE
  5
57
330
25
100
AcDbEntity
  8
0
  6
Continuous
 62
     7
370
    15
100
AcDbLine
 10
-100.6135105565302
 20
342.8553007122001
 30
0.0
 11
-98.94515560633027
 21
281.3002780716002
 31
0.0
  0
LINE
  5
58
330
25
100
AcDbEntity
  8
0
  6
Continuous
 62
     7
370
    15
100
AcDbLine
 10
-56.46715864113031
 20
361.3145701616003
 30
0.0
 11
-98.65297840793033
 21
345.7511525848003
 31
0.0
  0
ARC
  5
59
330
25
100
AcDbEntity
  8
0
  6
Continuous
 62
     7
370
    15
100
AcDbCircle
 10
-6.665864071730368
 20
347.1417816260001
 30
0.0
 40
3.000000000000277
100
AcDbArc
 50
1.552534576397889
 51
76.88804076829966
  0
LINE
  5
5A
330
25
100
AcDbEntity
  8
0
  6
Continuous
 62
     7
370
    15
100
AcDbLine
 10
-1.998611232130145
 20
285.6680385118003
 30
0.0
 11
-3.666966182130466
 21
347.2230611522001
 31
0.0
  0
ARC
  5
5B
330
25
100
AcDbEntity
  8
0
  6
Continuous
 62
     7
370
    15
100
AcDbCircle
 10
-95.94625773833042
 20
281.3815583870002
 30
0.0
 40
2.999999999999822
100
AcDbArc
 50
181.5525345763981
 51
256.8880407683033
  0
ARC
  5
5C
330
25
100
AcDbEntity
  8
0
  6
Continuous
 62
     7
370
    15
100
AcDbCircle
 10
-4.997509105930305
 20
285.5867584096003
 30
0.0
 40
2.999999999999817
100
AcDbArc
 50
290.2502952889023
 51
1.552534576398159
  0
ARC
  5
5D
330
25
100
AcDbEntity
  8
0
  6
Continuous
 62
     7
370
    15
100
AcDbCircle
 10
-55.42879071493036
 20
358.5000000000001
 30
0.0
 40
2.9999999999999
100
AcDbArc
 50
76.88804076829899
 51
110.2502952889006
  0
SPLINE
  5
5E
330
25
100
AcDbEntity
  8
0
  6
Continuous
 62
     7
370
    15
100
AcDbSpline
210
0.0
220
0.0
230
1.0
 70
     8
 71
     2
 72
    16
 73
    13
 74
     0
 42
0.000000001
 43
0.000001
 40
0.0
 40
0.0
 40
0.0
 40
1.0
 40
1.0
 40
2.0
 40
3.0
 40
4.0
 40
5.0
 40
6.0
 40
7.0
 40
8.0
 40
8.0
 40
9.0
 40
9.0
 40
9.0
 10
-99.54431428076015
 20
276.510765661974
 30
0.0
 10
-99.54497053357017
 20
276.510390929237
 30
0.0
 10
-99.54562678638018
 20
276.5100161965
 30
0.0
 10
-99.58653977258001
 20
276.4869537697647
 30
0.0
 10
-99.69085750484493
 20
276.4243577982771
 30
0.0
 10
-99.80337270551178
 20
276.3185479423863
 30
0.0
 10
-99.87205275813568
 20
276.2159083223602
 30
0.0
 10
-99.90959590077983
 20
276.1319717277462
 30
0.0
 10
-99.92261746361629
 20
276.0660290621996
 30
0.0
 10
-99.92972675937932
 20
276.0043349096997
 30
0.0
 10
-99.93211650025802
 20
275.9625013711553
 30
0.0
 10
-99.93215979945825
 20
275.9618271456542
 30
0.0
 10
-99.93220309865848
 20
275.961152920153
 30
0.0
  0
LINE
  5
5F
330
25
100
AcDbEntity
  8
0
  6
Continuous
 62
     7
370
    15
100
AcDbLine
 10
-99.93273881533042
 20
275.9699559514003
 30
0.0
 11
-99.91162459393018
 21
273.5746593522002
 31
0.0
  0
LINE
  5
60
330
25
100
AcDbEntity
  8
0
  6
Continuous
 62
     7
370
    15
100
AcDbLine
 10
-95.18738751713028
 20
278.1244888934003
 30
0.0
 11
-99.4946445529302
 21
276.5354326602002
 31
0.0
  0
SPLINE
  5
61
330
25
100
AcDbEntity
  8
0
  6
Continuous
 62
     7
370
    15
100
AcDbSpline
210
0.0
220
0.0
230
1.0
 70
     8
 71
     2
 72
    16
 73
    13
 74
     0
 42
0.000000001
 43
0.000001
 40
0.0
 40
0.0
 40
0.0
 40
1.0
 40
1.0
 40
2.0
 40
3.0
 40
4.0
 40
5.0
 40
6.0
 40
7.0
 40
8.0
 40
8.0
 40
9.0
 40
9.0
 40
9.0
 10
-0.7276998506238783
 20
280.5277724608078
 30
0.0
 10
-0.7278375382061881
 20
280.5284954591417
 30
0.0
 10
-0.7279752257884979
 20
280.5292184574756
 30
0.0
 10
-0.735988609423714
 20
280.5741395121846
 30
0.0
 10
-0.7525840184369486
 20
280.6399408013368
 30
0.0
 10
-0.7828388695914441
 20
280.7262361037405
 30
0.0
 10
-0.8577157200650731
 20
280.8256941033911
 30
0.0
 10
-0.9322738458845947
 20
280.8999125898011
 30
0.0
 10
-1.042881051520055
 20
280.9825322786629
 30
0.0
 10
-1.168834517538073
 20
281.0404379520886
 30
0.0
 10
-1.216714693644974
 20
281.060658009343
 30
0.0
 10
-1.217484401460013
 20
281.0609868064383
 30
0.0
 10
-1.218254109275051
 20
281.0613156035337
 30
0.0
  0
LINE
  5
62
330
25
100
AcDbEntity
  8
0
  6
Continuous
 62
     7
370
    15
100
AcDbLine
 10
-0.6183762865303493
 20
278.1274309754002
 30
0.0
 11
-0.7270378433302653
 21
280.5203551042001
 31
0.0
  0
LINE
  5
63
330
25
100
AcDbEntity
  8
0
  6
Continuous
 62
     7
370
    15
100
AcDbLine
 10
-1.27075867313016
 20
281.0816364154001
 30
0.0
 11
-5.727608370130213
 21
282.1197585218002
 31
0.0
  0
ARC
  5
64
330
25
100
AcDbEntity
  8
0
  6
Continuous
 62
     7
370
    15
100
AcDbCircle
 10
-30.55700842453035
 20
-335.2962878999998
 30
0.0
 40
0.8458722299546454
100
AcDbArc
 50
258.1510689178969
 51
287.1435335427973
  0
LINE
  5
65
330
25
100
AcDbEntity
  8
0
  6
Continuous
 62
     7
370
    15
100
AcDbLine
 10
-30.73069300893036
 20
-336.1241366147998
 30
0.0
 11
-83.19808822793021
 21
-323.9030462611997
 31
0.0
  0
POLYLINE
  5
66
330
25
100
AcDbEntity
  8
0
  6
Continuous
 62
     7
370
    15
100
AcDb2dPolyline
 66
     1
 10
0.0
 20
0.0
 30
0.0
 75
     5
  0
VERTEX
  5
67
330
66
100
AcDbEntity
  8
0
  6
Continuous
 62
     7
370
    15
100
AcDbVertex
100
AcDb2dVertex
 10
-60.45629688473019
 20
-201.1774769933998
 30
0.0
  0
VERTEX
  5
68
330
66
100
AcDbEntity
  8
0
  6
Continuous
 62
     7
370
    15
100
AcDbVertex
100
AcDb2dVertex
 10
-58.72976771753048
 20
-201.4129433383998
 30
0.0
  0
VERTEX
  5
69
330
66
100
AcDbEntity
  8
0
  6
Continuous
 62
     7
370
    15
100
AcDbVertex
100
AcDb2dVertex
 10
-57.05280162873015
 20
-201.3073297519998
 30
0.0
  0
VERTEX
  5
6A
330
66
100
AcDbEntity
  8
0
  6
Continuous
 62
     7
370
    15
100
AcDbVertex
100
AcDb2dVertex
 10
-55.46470468213039
 20
-200.8631529981998
 30
0.0
  0
VERTEX
  5
6B
330
66
100
AcDbEntity
  8
0
  6
Continuous
 62
     7
370
    15
100
AcDbVertex
100
AcDb2dVertex
 10
-54.00270040873039
 20
-200.0907913111998
 30
0.0
  0
VERTEX
  5
6C
330
66
100
AcDbEntity
  8
0
  6
Continuous
 62
     7
370
    15
100
AcDbVertex
100
AcDb2dVertex
 10
-52.70105764113015
 20
-199.0083766645998
 30
0.0
  0
VERTEX
  5
6D
330
66
100
AcDbEntity
  8
0
  6
Continuous
 62
     7
370
    15
100
AcDbVertex
100
AcDb2dVertex
 10
-51.59028476393024
 20
-197.6412759003998
 30
0.0
  0
VERTEX
  5
6E
330
66
100
AcDbEntity
  8
0
  6
Continuous
 62
     7
370
    15
100
AcDbVertex
100
AcDb2dVertex
 10
-50.69641785153027
 20
-196.0215217295998
 30
0.0
  0
VERTEX
  5
6F
330
66
100
AcDbEntity
  8
0
  6
Continuous
 62
     7
370
    15
100
AcDbVertex
100
AcDb2dVertex
 10
-50.04040876873029
 20
-194.1870791361998
 30
0.0
  0
VERTEX
  5
70
330
66
100
AcDbEntity
  8
0
  6
Continuous
 62
     7
370
    15
100
AcDbVertex
100
AcDb2dVertex
 10
-49.63763253013036
 20
-192.1809709559998
 30
0.0
  0
VERTEX
  5
71
330
66
100
AcDbEntity
  8
0
  6
Continuous
 62
     7
370
    15
100
AcDbVertex
100
AcDb2dVertex
 10
-49.49753172113043
 20
-190.0501736945998
 30
0.0
  0
VERTEX
  5
72
330
66
100
AcDbEntity
  8
0
  6
Continuous
 62
     7
370
    15
100
AcDbVertex
100
AcDb2dVertex
 10
-49.62338789273036
 20
-187.8446816055998
 30
0.0
  0
VERTEX
  5
73
330
66
100
AcDbEntity
  8
0
  6
Continuous
 62
     7
370
    15
100
AcDbVertex
100
AcDb2dVertex
 10
-50.01225371913034
 20
-185.6161376515997
 30
0.0
  0
VERTEX
  5
74
330
66
100
AcDbEntity
  8
0
  6
Continuous
 62
     7
370
    15
100
AcDbVertex
100
AcDb2dVertex
 10
-50.65501307133019
 20
-183.4168303419998
 30
0.0
  0
VERTEX
  5
75
330
66
100
AcDbEntity
  8
0
  6
Continuous
 62
     7
370
    15
100
AcDbVertex
100
AcDb2dVertex
 10
-51.53660044493046
 20
-181.2982577805998
 30
0.0
  0
VERTEX
  5
76
330
66
100
AcDbEntity
  8
0
  6
Continuous
 62
     7
370
    15
100
AcDbVertex
100
AcDb2dVertex
 10
-52.63635091973021
 20
-179.3101417671998
 30
0.0
  0
VERTEX
  5
77
330
66
100
AcDbEntity
  8
0
  6
Continuous
 62
     7
370
    15
100
AcDbVertex
100
AcDb2dVertex
 10
-53.9284890545303
 20
-177.4990138653998
 30
0.0
  0
VERTEX
  5
78
330
66
100
AcDbEntity
  8
0
  6
Continuous
 62
     7
370
    15
100
AcDbVertex
100
AcDb2dVertex
 10
-55.3827283997303
 20
-175.9073409479997
 30
0.0
  0
VERTEX
  5
79
330
66
100
AcDbEntity
  8
0
  6
Continuous
 62
     7
370
    15
100
AcDbVertex
100
AcDb2dVertex
 10
-56.96498082713043
 20
-174.5724838505998
 30
0.0
  0
VERTEX
  5
7A
330
66
100
AcDbEntity
  8
0
  6
Continuous
 62
     7
370
    15
100
AcDbVertex
100
AcDb2dVertex
 10
-58.6381617295304
 20
-173.5256619587998
 30
0.0
  0
VERTEX
  5
7B
330
66
100
AcDbEntity
  8
0
  6
Continuous
 62
     7
370
    15
100
AcDbVertex
100
AcDb2dVertex
 10
-60.36305238773031
 20
-172.7914414551998
 30
0.0
  0
VERTEX
  5
7C
330
66
100
AcDbEntity
  8
0
  6
Continuous
 62
     7
370
    15
100
AcDbVertex
100
AcDb2dVertex
 10
-62.09922241273017
 20
-172.3870400043998
 30
0.0
  0
VERTEX
  5
7D
330
66
100
AcDbEntity
  8
0
  6
Continuous
 62
     7
370
    15
100
AcDbVertex
100
AcDb2dVertex
 10
-63.80597767913042
 20
-172.3219363803997
 30
0.0
  0
VERTEX
  5
7E
330
66
100
AcDbEntity
  8
0
  6
Continuous
 62
     7
370
    15
100
AcDbVertex
100
AcDb2dVertex
 10
-65.44331331573022
 20
-172.5976484893998
 30
0.0
  0
VERTEX
  5
7F
330
66
100
AcDbEntity
  8
0
  6
Continuous
 62
     7
370
    15
100
AcDbVertex
100
AcDb2dVertex
 10
-66.9728523891302
 20
-173.2076842965998
 30
0.0
  0
VERTEX
  5
80
330
66
100
AcDbEntity
  8
0
  6
Continuous
 62
     7
370
    15
100
AcDbVertex
100
AcDb2dVertex
 10
-68.35874213553035
 20
-174.1378135237998
 30
0.0
  0
VERTEX
  5
81
330
66
100
AcDbEntity
  8
0
  6
Continuous
 62
     7
370
    15
100
AcDbVertex
100
AcDb2dVertex
 10
-69.56849937013027
 20
-175.3661816137998
 30
0.0
  0
VERTEX
  5
82
330
66
100
AcDbEntity
  8
0
  6
Continuous
 62
     7
370
    15
100
AcDbVertex
100
AcDb2dVertex
 10
-70.5737694329303
 20
-176.8639808107998
 30
0.0
  0
VERTEX
  5
83
330
66
100
AcDbEntity
  8
0
  6
Continuous
 62
     7
370
    15
100
AcDbVertex
100
AcDb2dVertex
 10
-71.35098772653038
 20
-178.5961721947998
 30
0.0
  0
VERTEX
  5
84
330
66
100
AcDbEntity
  8
0
  6
Continuous
 62
     7
370
    15
100
AcDbVertex
100
AcDb2dVertex
 10
-71.88193914233017
 20
-180.5220901875998
 30
0.0
  0
VERTEX
  5
85
330
66
100
AcDbEntity
  8
0
  6
Continuous
 62
     7
370
    15
100
AcDbVertex
100
AcDb2dVertex
 10
-72.15417603693032
 20
-182.5966452489998
 30
0.0
  0
VERTEX
  5
86
330
66
100
AcDbEntity
  8
0
  6
Continuous
 62
     7
370
    15
100
AcDbVertex
100
AcDb2dVertex
 10
-72.16131885493024
 20
-184.7711582381997
 30
0.0
  0
VERTEX
  5
87
330
66
100
AcDbEntity
  8
0
  6
Continuous
 62
     7
370
    15
100
AcDbVertex
100
AcDb2dVertex
 10
-71.9032000139303
 20
-186.9947117399997
 30
0.0
  0
VERTEX
  5
88
330
66
100
AcDbEntity
  8
0
  6
Continuous
 62
     7
370
    15
100
AcDbVertex
100
AcDb2dVertex
 10
-71.38587001453044
 20
-189.2151378107998
 30
0.0
  0
VERTEX
  5
89
330
66
100
AcDbEntity
  8
0
  6
Continuous
 62
     7
370
    15
100
AcDbVertex
100
AcDb2dVertex
 10
-70.6214540559302
 20
-191.3804362185998
 30
0.0
  0
VERTEX
  5
8A
330
66
100
AcDbEntity
  8
0
  6
Continuous
 62
     7
370
    15
100
AcDbVertex
100
AcDb2dVertex
 10
-69.6278694683304
 20
-193.4398294303998
 30
0.0
  0
VERTEX
  5
8B
330
66
100
AcDbEntity
  8
0
  6
Continuous
 62
     7
370
    15
100
AcDbVertex
100
AcDb2dVertex
 10
-68.42840538233014
 20
-195.3450475253998
 30
0.0
  0
VERTEX
  5
8C
330
66
100
AcDbEntity
  8
0
  6
Continuous
 62
     7
370
    15
100
AcDbVertex
100
AcDb2dVertex
 10
-67.05117612653027
 20
-197.0514446835998
 30
0.0
  0
VERTEX
  5
8D
330
66
100
AcDbEntity
  8
0
  6
Continuous
 62
     7
370
    15
100
AcDbVertex
100
AcDb2dVertex
 10
-65.52846153593038
 20
-198.5190289703997
 30
0.0
  0
VERTEX
  5
8E
330
66
100
AcDbEntity
  8
0
  6
Continuous
 62
     7
370
    15
100
AcDbVertex
100
AcDb2dVertex
 10
-63.89595500313027
 20
-199.7133722981998
 30
0.0
  0
VERTEX
  5
8F
330
66
100
AcDbEntity
  8
0
  6
Continuous
 62
     7
370
    15
100
AcDbVertex
100
AcDb2dVertex
 10
-62.19191918633015
 20
-200.6065136359998
 30
0.0
  0
VERTEX
  5
90
330
66
100
AcDbEntity
  8
0
  6
Continuous
 62
     7
370
    15
100
AcDbVertex
100
AcDb2dVertex
 10
-60.45629688473019
 20
-201.1774769933998
 30
0.0
  0
SEQEND
  5
91
330
66
100
AcDbEntity
  8
0
  6
Continuous
 62
     7
370
    15
  0
POLYLINE
  5
92
330
25
100
AcDbEntity
  8
0
  6
Continuous
 62
     7
370
    15
100
AcDb2dPolyline
 66
     1
 10
0.0
 20
0.0
 30
0.0
 75
     5
  0
VERTEX
  5
93
330
92
100
AcDbEntity
  8
0
  6
Continuous
 62
     7
370
    15
100
AcDbVertex
100
AcDb2dVertex
 10
-58.0895604067303
 20
-288.4997326551998
 30
0.0
  0
VERTEX
  5
94
330
92
100
AcDbEntity
  8
0
  6
Continuous
 62
     7
370
    15
100
AcDbVertex
100
AcDb2dVertex
 10
-56.9608251825303
 20
-288.5964651689998
 30
0.0
  0
VERTEX
  5
95
330
92
100
AcDbEntity
  8
0
  6
Continuous
 62
     7
370
    15
100
AcDbVertex
100
AcDb2dVertex
 10
-55.90200336353047
 20
-288.3535952517998
 30
0.0
  0
VERTEX
  5
96
330
92
100
AcDbEntity
  8
0
  6
Continuous
 62
     7
370
    15
100
AcDbVertex
100
AcDb2dVertex
 10
-54.9701763521303
 20
-287.7842238263997
 30
0.0
  0
VERTEX
  5
97
330
92
100
AcDbEntity
  8
0
  6
Continuous
 62
     7
370
    15
100
AcDbVertex
100
AcDb2dVertex
 10
-54.21558190653042
 20
-286.9189291507998
 30
0.0
  0
VERTEX
  5
98
330
92
100
AcDbEntity
  8
0
  6
Continuous
 62
     7
370
    15
100
AcDbVertex
100
AcDb2dVertex
 10
-53.67889780213028
 20
-285.8044777103997
 30
0.0
  0
VERTEX
  5
99
330
92
100
AcDbEntity
  8
0
  6
Continuous
 62
     7
370
    15
100
AcDbVertex
100
AcDb2dVertex
 10
-53.38905615253026
 20
-284.5009418777997
 30
0.0
  0
VERTEX
  5
9A
330
92
100
AcDbEntity
  8
0
  6
Continuous
 62
     7
370
    15
100
AcDbVertex
100
AcDb2dVertex
 10
-53.36168592053019
 20
-283.0785016773998
 30
0.0
  0
VERTEX
  5
9B
330
92
100
AcDbEntity
  8
0
  6
Continuous
 62
     7
370
    15
100
AcDbVertex
100
AcDb2dVertex
 10
-53.59825873173014
 20
-281.6139696845997
 30
0.0
  0
VERTEX
  5
9C
330
92
100
AcDbEntity
  8
0
  6
Continuous
 62
     7
370
    15
100
AcDbVertex
100
AcDb2dVertex
 10
-54.08602413533032
 20
-280.1861711319998
 30
0.0
  0
VERTEX
  5
9D
330
92
100
AcDbEntity
  8
0
  6
Continuous
 62
     7
370
    15
100
AcDbVertex
100
AcDb2dVertex
 10
-54.7986842235303
 20
-278.8721692303998
 30
0.0
  0
VERTEX
  5
9E
330
92
100
AcDbEntity
  8
0
  6
Continuous
 62
     7
370
    15
100
AcDbVertex
100
AcDb2dVertex
 10
-55.69781966313036
 20
-277.7428067505998
 30
0.0
  0
VERTEX
  5
9F
330
92
100
AcDbEntity
  8
0
  6
Continuous
 62
     7
370
    15
100
AcDbVertex
100
AcDb2dVertex
 10
-56.73495933693022
 20
-276.8588890273998
 30
0.0
  0
VERTEX
  5
A0
330
92
100
AcDbEntity
  8
0
  6
Continuous
 62
     7
370
    15
100
AcDbVertex
100
AcDb2dVertex
 10
-57.85418907373042
 20
-276.2681457789998
 30
0.0
  0
VERTEX
  5
A1
330
92
100
AcDbEntity
  8
0
  6
Continuous
 62
     7
370
    15
100
AcDbVertex
100
AcDb2dVertex
 10
-58.99517191533033
 20
-276.0023796905998
 30
0.0
  0
VERTEX
  5
A2
330
92
100
AcDbEntity
  8
0
  6
Continuous
 62
     7
370
    15
100
AcDbVertex
100
AcDb2dVertex
 10
-60.09639730773034
 20
-276.0759182511998
 30
0.0
  0
VERTEX
  5
A3
330
92
100
AcDbEntity
  8
0
  6
Continuous
 62
     7
370
    15
100
AcDbVertex
100
AcDb2dVertex
 10
-61.0984964997304
 20
-276.4848415073998
 30
0.0
  0
VERTEX
  5
A4
330
92
100
AcDbEntity
  8
0
  6
Continuous
 62
     7
370
    15
100
AcDbVertex
100
AcDb2dVertex
 10
-61.94744856733024
 20
-277.2070266289998
 30
0.0
  0
VERTEX
  5
A5
330
92
100
AcDbEntity
  8
0
  6
Continuous
 62
     7
370
    15
100
AcDbVertex
100
AcDb2dVertex
 10
-62.59748350713045
 20
-278.2036196141997
 30
0.0
  0
VERTEX
  5
A6
330
92
100
AcDbEntity
  8
0
  6
Continuous
 62
     7
370
    15
100
AcDbVertex
100
AcDb2dVertex
 10
-63.0135583791303
 20
-279.4208890635998
 30
0.0
  0
VERTEX
  5
A7
330
92
100
AcDbEntity
  8
0
  6
Continuous
 62
     7
370
    15
100
AcDbVertex
100
AcDb2dVertex
 10
-63.17324502253024
 20
-280.7931213989998
 30
0.0
  0
VERTEX
  5
A8
330
92
100
AcDbEntity
  8
0
  6
Continuous
 62
     7
370
    15
100
AcDbVertex
100
AcDb2dVertex
 10
-63.06793099453017
 20
-282.2464673899998
 30
0.0
  0
VERTEX
  5
A9
330
92
100
AcDbEntity
  8
0
  6
Continuous
 62
     7
370
    15
100
AcDbVertex
100
AcDb2dVertex
 10
-62.70329684873042
 20
-283.7024485229998
 30
0.0
  0
VERTEX
  5
AA
330
92
100
AcDbEntity
  8
0
  6
Continuous
 62
     7
370
    15
100
AcDbVertex
100
AcDb2dVertex
 10
-62.09899855173018
 20
-285.0826659491997
 30
0.0
  0
VERTEX
  5
AB
330
92
100
AcDbEntity
  8
0
  6
Continuous
 62
     7
370
    15
100
AcDbVertex
100
AcDb2dVertex
 10
-61.2876128713304
 20
-286.3127201965998
 30
0.0
  0
VERTEX
  5
AC
330
92
100
AcDbEntity
  8
0
  6
Continuous
 62
     7
370
    15
100
AcDbVertex
100
AcDb2dVertex
 10
-60.31288562913034
 20
-287.3261802165998
 30
0.0
  0
VERTEX
  5
AD
330
92
100
AcDbEntity
  8
0
  6
Continuous
 62
     7
370
    15
100
AcDbVertex
100
AcDb2dVertex
 10
-59.22736101433026
 20
-288.0685270261998
 30
0.0
  0
VERTEX
  5
AE
330
92
100
AcDbEntity
  8
0
  6
Continuous
 62
     7
370
    15
100
AcDbVertex
100
AcDb2dVertex
 10
-58.0895604067303
 20
-288.4997326551998
 30
0.0
  0
SEQEND
  5
AF
330
92
100
AcDbEntity
  8
0
  6
Continuous
 62
     7
370
    15
  0
LINE
  5
B0
330
25
100
AcDbEntity
  8
0
  6
Continuous
 62
     7
370
    15
100
AcDbLine
 10
15.08296113206978
 20
-319.3588224297998
 30
0.0
 11
-30.30767366553033
 21
-336.1045774565998
 31
0.0
  0
POLYLINE
  5
B1
330
25
100
AcDbEntity
  8
0
  6
Continuous
 62
     7
370
    15
100
AcDb2dPolyline
 66
     1
 10
0.0
 20
0.0
 30
0.0
 75
     5
  0
VERTEX
  5
B2
330
B1
100
AcDbEntity
  8
0
  6
Continuous
 62
     7
370
    15
100
AcDbVertex
100
AcDb2dVertex
 10
-83.19808822793021
 20
-323.9030462611997
 30
0.0
  0
VERTEX
  5
B3
330
B1
100
AcDbEntity
  8
0
  6
Continuous
 62
     7
370
    15
100
AcDbVertex
100
AcDb2dVertex
 10
-83.23856699393019
 20
-323.8913491051998
 30
0.0
  0
VERTEX
  5
B4
330
B1
100
AcDbEntity
  8
0
  6
Continuous
 62
     7
370
    15
100
AcDbVertex
100
AcDb2dVertex
 10
-83.26994744813038
 20
-323.8773191563998
 30
0.0
  0
VERTEX
  5
B5
330
B1
100
AcDbEntity
  8
0
  6
Continuous
 62
     7
370
    15
100
AcDbVertex
100
AcDb2dVertex
 10
-83.29102735513044
 20
-323.8614960041998
 30
0.0
  0
VERTEX
  5
B6
330
B1
100
AcDbEntity
  8
0
  6
Continuous
 62
     7
370
    15
100
AcDbVertex
100
AcDb2dVertex
 10
-83.30099397873033
 20
-323.8444883515998
 30
0.0
  0
VERTEX
  5
B7
330
B1
100
AcDbEntity
  8
0
  6
Continuous
 62
     7
370
    15
100
AcDbVertex
100
AcDb2dVertex
 10
-83.30176553833036
 20
-323.8387861125998
 30
0.0
  0
SEQEND
  5
B8
330
B1
100
AcDbEntity
  8
0
  6
Continuous
 62
     7
370
    15
  0
POLYLINE
  5
B9
330
25
100
AcDbEntity
  8
0
  6
Continuous
 62
     7
370
    15
100
AcDb2dPolyline
 66
     1
 10
0.0
 20
0.0
 30
0.0
 75
     5
  0
VERTEX
  5
BA
330
B9
100
AcDbEntity
  8
0
  6
Continuous
 62
     7
370
    15
100
AcDbVertex
100
AcDb2dVertex
 10
15.15604712006979
 20
-319.2978650983998
 30
0.0
  0
VERTEX
  5
BB
330
B9
100
AcDbEntity
  8
0
  6
Continuous
 62
     7
370
    15
100
AcDbVertex
100
AcDb2dVertex
 10
15.15374889166964
 20
-319.3097019275998
 30
0.0
  0
VERTEX
  5
BC
330
B9
100
AcDbEntity
  8
0
  6
Continuous
 62
     7
370
    15
100
AcDbVertex
100
AcDb2dVertex
 10
15.1407849102697
 20
-319.3270991681998
 30
0.0
  0
VERTEX
  5
BD
330
B9
100
AcDbEntity
  8
0
  6
Continuous
 62
     7
370
    15
100
AcDbVertex
100
AcDb2dVertex
 10
15.11688409926973
 20
-319.3436851583998
 30
0.0
  0
VERTEX
  5
BE
330
B9
100
AcDbEntity
  8
0
  6
Continuous
 62
     7
370
    15
100
AcDbVertex
100
AcDb2dVertex
 10
15.08296113206978
 20
-319.3588224297998
 30
0.0
  0
SEQEND
  5
BF
330
B9
100
AcDbEntity
  8
0
  6
Continuous
 62
     7
370
    15
  0
LINE
  5
C0
330
25
100
AcDbEntity
  8
0
  6
Continuous
 62
     7
370
    15
100
AcDbLine
 10
-70.46805003673018
 20
-187.1744800335998
 30
0.0
 11
-70.36615877453033
 21
-187.7557894143998
 31
0.0
  0
SPLINE
  5
C1
330
25
100
AcDbEntity
  8
0
  6
Continuous
 62
     7
370
    15
100
AcDbSpline
210
0.0
220
0.0
230
1.0
 70
     8
 71
     2
 72
    10
 73
     7
 74
     0
 42
0.000000001
 43
0.000001
 40
0.0
 40
0.0
 40
0.0
 40
1.0
 40
1.0
 40
2.0
 40
2.0
 40
3.0
 40
3.0
 40
3.0
 10
-70.36615900686326
 20
-187.7557816229279
 30
0.0
 10
-70.36321821415225
 20
-187.7788219691628
 30
0.0
 10
-70.36027742144125
 20
-187.8018623153977
 30
0.0
 10
-70.14930465721778
 20
-189.4254950918584
 30
0.0
 10
-69.82469444653344
 20
-191.0236373227856
 30
0.0
 10
-69.82003191752568
 20
-191.0463344122693
 30
0.0
 10
-69.81536938851792
 20
-191.0690315017531
 30
0.0
  0
LINE
  5
C2
330
25
100
AcDbEntity
  8
0
  6
Continuous
 62
     7
370
    15
100
AcDbLine
 10
-69.81536826713028
 20
-191.0690425679998
 30
0.0
 11
-69.72127662653025
 21
-191.3625799269997
 31
0.0
  0
POLYLINE
  5
C3
330
25
100
AcDbEntity
  8
0
  6
Continuous
 62
     7
370
    15
100
AcDb2dPolyline
 66
     1
 10
0.0
 20
0.0
 30
0.0
 75
     5
  0
VERTEX
  5
C4
330
C3
100
AcDbEntity
  8
0
  6
Continuous
 62
     7
370
    15
100
AcDbVertex
100
AcDb2dVertex
 10
-69.72127662653025
 20
-191.3625799269997
 30
0.0
  0
VERTEX
  5
C5
330
C3
100
AcDbEntity
  8
0
  6
Continuous
 62
     7
370
    15
100
AcDbVertex
100
AcDb2dVertex
 10
-68.63507219453032
 20
-193.5171129107998
 30
0.0
  0
VERTEX
  5
C6
330
C3
100
AcDbEntity
  8
0
  6
Continuous
 62
     7
370
    15
100
AcDbVertex
100
AcDb2dVertex
 10
-67.32428370533017
 20
-195.4897784323998
 30
0.0
  0
VERTEX
  5
C7
330
C3
100
AcDbEntity
  8
0
  6
Continuous
 62
     7
370
    15
100
AcDbVertex
100
AcDb2dVertex
 10
-65.82323959073034
 20
-197.2289156161997
 30
0.0
  0
VERTEX
  5
C8
330
C3
100
AcDbEntity
  8
0
  6
Continuous
 62
     7
370
    15
100
AcDbVertex
100
AcDb2dVertex
 10
-64.17124948093016
 20
-198.6889666731997
 30
0.0
  0
VERTEX
  5
C9
330
C3
100
AcDbEntity
  8
0
  6
Continuous
 62
     7
370
    15
100
AcDbVertex
100
AcDb2dVertex
 10
-62.41157575933022
 20
-199.8317338863998
 30
0.0
  0
VERTEX
  5
CA
330
C3
100
AcDbEntity
  8
0
  6
Continuous
 62
     7
370
    15
100
AcDbVertex
100
AcDb2dVertex
 10
-60.59030299253033
 20
-200.6272647163997
 30
0.0
  0
VERTEX
  5
CB
330
C3
100
AcDbEntity
  8
0
  6
Continuous
 62
     7
370
    15
100
AcDbVertex
100
AcDb2dVertex
 10
-58.75512742373036
 20
-201.0547272643997
 30
0.0
  0
VERTEX
  5
CC
330
C3
100
AcDbEntity
  8
0
  6
Continuous
 62
     7
370
    15
100
AcDbVertex
100
AcDb2dVertex
 10
-56.95410992993021
 20
-201.1029268381998
 30
0.0
  0
VERTEX
  5
CD
330
C3
100
AcDbEntity
  8
0
  6
Continuous
 62
     7
370
    15
100
AcDbVertex
100
AcDb2dVertex
 10
-55.26395954173023
 20
-200.7797707849998
 30
0.0
  0
SEQEND
  5
CE
330
C3
100
AcDbEntity
  8
0
  6
Continuous
 62
     7
370
    15
  0
ARC
  5
CF
330
25
100
AcDbEntity
  8
0
  6
Continuous
 62
     7
370
    15
100
AcDbCircle
 10
-52.79794850973036
 20
-183.3308378227998
 30
0.0
 40
18.08330924974046
100
AcDbArc
 50
170.8331254572001
 51
192.2719436956
  0
LINE
  5
D0
330
25
100
AcDbEntity
  8
0
  6
Continuous
 62
     7
370
    15
100
AcDbLine
 10
-70.57796960653042
 20
-179.9408933403998
 30
0.0
 11
-70.65030741053016
 21
-180.4499776913998
 31
0.0
  0
SPLINE
  5
D1
330
25
100
AcDbEntity
  8
0
  6
Continuous
 62
     7
370
    15
100
AcDbSpline
210
0.0
220
0.0
230
1.0
 70
     8
 71
     2
 72
    11
 73
     8
 74
     0
 42
0.000000001
 43
0.000001
 40
0.0
 40
0.0
 40
0.0
 40
1.0
 40
1.0
 40
2.0
 40
3.0
 40
3.0
 40
4.0
 40
4.0
 40
4.0
 10
-70.18547086536847
 20
-177.4139008580278
 30
0.0
 10
-70.18872822352415
 20
-177.4281154556865
 30
0.0
 10
-70.19198558167983
 20
-177.4423300533451
 30
0.0
 10
-70.28864238420243
 20
-177.8717212614117
 30
0.0
 10
-70.49152924134779
 20
-179.0492267044619
 30
0.0
 10
-70.57473145807359
 20
-179.9065359209815
 30
0.0
 10
-70.5763504884581
 20
-179.9237166328338
 30
0.0
 10
-70.57796951884262
 20
-179.9408973446861
 30
0.0
  0
LINE
  5
D2
330
25
100
AcDbEntity
  8
0
  6
Continuous
 62
     7
370
    15
100
AcDbLine
 10
-70.10533359613038
 20
-177.1925524585998
 30
0.0
 11
-70.18547025093022
 21
-177.4138932289998
 31
0.0
  0
ARC
  5
D3
330
25
100
AcDbEntity
  8
0
  6
Continuous
 62
     7
370
    15
100
AcDbCircle
 10
-61.94816907353044
 20
-180.7548766541997
 30
0.0
 40
8.901094692596189
100
AcDbArc
 50
114.5025883342994
 51
156.4085727216998
  0
POLYLINE
  5
D4
330
25
100
AcDbEntity
  8
0
  6
Continuous
 62
     7
370
    15
100
AcDb2dPolyline
 66
     1
 10
0.0
 20
0.0
 30
0.0
 75
     5
  0
VERTEX
  5
D5
330
D4
100
AcDbEntity
  8
0
  6
Continuous
 62
     7
370
    15
100
AcDbVertex
100
AcDb2dVertex
 10
-57.30470680133027
 20
-288.2101802779998
 30
0.0
  0
VERTEX
  5
D6
330
D4
100
AcDbEntity
  8
0
  6
Continuous
 62
     7
370
    15
100
AcDbVertex
100
AcDb2dVertex
 10
-56.17597157713027
 20
-288.3069127917997
 30
0.0
  0
VERTEX
  5
D7
330
D4
100
AcDbEntity
  8
0
  6
Continuous
 62
     7
370
    15
100
AcDbVertex
100
AcDb2dVertex
 10
-55.62455021313036
 20
-288.2253669735998
 30
0.0
  0
SEQEND
  5
D8
330
D4
100
AcDbEntity
  8
0
  6
Continuous
 62
     7
370
    15
  0
POLYLINE
  5
D9
330
25
100
AcDbEntity
  8
0
  6
Continuous
 62
     7
370
    15
100
AcDb2dPolyline
 66
     1
 10
0.0
 20
0.0
 30
0.0
 75
     5
  0
VERTEX
  5
DA
330
D9
100
AcDbEntity
  8
0
  6
Continuous
 62
     7
370
    15
100
AcDbVertex
100
AcDb2dVertex
 10
-60.10597361433048
 20
-276.0781019763998
 30
0.0
  0
VERTEX
  5
DB
330
D9
100
AcDbEntity
  8
0
  6
Continuous
 62
     7
370
    15
100
AcDbVertex
100
AcDb2dVertex
 10
-60.31364289433014
 20
-276.1952891301997
 30
0.0
  0
VERTEX
  5
DC
330
D9
100
AcDbEntity
  8
0
  6
Continuous
 62
     7
370
    15
100
AcDbVertex
100
AcDb2dVertex
 10
-61.16259496193044
 20
-276.9174742517998
 30
0.0
  0
VERTEX
  5
DD
330
D9
100
AcDbEntity
  8
0
  6
Continuous
 62
     7
370
    15
100
AcDbVertex
100
AcDb2dVertex
 10
-61.81262990173019
 20
-277.9140672369998
 30
0.0
  0
VERTEX
  5
DE
330
D9
100
AcDbEntity
  8
0
  6
Continuous
 62
     7
370
    15
100
AcDbVertex
100
AcDb2dVertex
 10
-62.22870477393036
 20
-279.1313366863998
 30
0.0
  0
VERTEX
  5
DF
330
D9
100
AcDbEntity
  8
0
  6
Continuous
 62
     7
370
    15
100
AcDbVertex
100
AcDb2dVertex
 10
-62.38839141713044
 20
-280.5035690217998
 30
0.0
  0
VERTEX
  5
E0
330
D9
100
AcDbEntity
  8
0
  6
Continuous
 62
     7
370
    15
100
AcDbVertex
100
AcDb2dVertex
 10
-62.28307738913037
 20
-281.9569150127998
 30
0.0
  0
VERTEX
  5
E1
330
D9
100
AcDbEntity
  8
0
  6
Continuous
 62
     7
370
    15
100
AcDbVertex
100
AcDb2dVertex
 10
-61.91844324353025
 20
-283.4128961457998
 30
0.0
  0
VERTEX
  5
E2
330
D9
100
AcDbEntity
  8
0
  6
Continuous
 62
     7
370
    15
100
AcDbVertex
100
AcDb2dVertex
 10
-61.31414494633037
 20
-284.7931135719998
 30
0.0
  0
VERTEX
  5
E3
330
D9
100
AcDbEntity
  8
0
  6
Continuous
 62
     7
370
    15
100
AcDbVertex
100
AcDb2dVertex
 10
-60.50275926593037
 20
-286.0231678193998
 30
0.0
  0
VERTEX
  5
E4
330
D9
100
AcDbEntity
  8
0
  6
Continuous
 62
     7
370
    15
100
AcDbVertex
100
AcDb2dVertex
 10
-59.5280320237303
 20
-287.0366278395998
 30
0.0
  0
VERTEX
  5
E5
330
D9
100
AcDbEntity
  8
0
  6
Continuous
 62
     7
370
    15
100
AcDbVertex
100
AcDb2dVertex
 10
-58.44250740893023
 20
-287.7789746489998
 30
0.0
  0
VERTEX
  5
E6
330
D9
100
AcDbEntity
  8
0
  6
Continuous
 62
     7
370
    15
100
AcDbVertex
100
AcDb2dVertex
 10
-57.30470680133027
 20
-288.2101802779998
 30
0.0
  0
SEQEND
  5
E7
330
D9
100
AcDbEntity
  8
0
  6
Continuous
 62
     7
370
    15
  0
LINE
  5
E8
330
25
100
AcDbEntity
  8
0
  6
Continuous
 62
     7
370
    15
100
AcDbLine
 10
-97.6922081601304
 20
345.7996040590002
 30
0.0
 11
-48.92928408533027
 21
334.4413862834002
 31
0.0
  0
ARC
  5
E9
330
25
100
AcDbEntity
  8
0
  6
Continuous
 62
     7
370
    15
100
AcDbCircle
 10
-47.06899711393027
 20
331.1754913194003
 30
0.0
 40
3.758555245197565
100
AcDbArc
 50
119.6662788244018
 51
184.8994542863986
  0
LINE
  5
EA
330
25
100
AcDbEntity
  8
0
  6
Continuous
 62
     7
370
    15
100
AcDbLine
 10
-50.81381901053038
 20
330.8544827626002
 30
0.0
 11
-99.57674308533029
 21
342.2127005382002
 31
0.0
  0
ARC
  5
EB
330
25
100
AcDbEntity
  8
0
  6
Continuous
 62
     7
370
    15
100
AcDbCircle
 10
-95.8319211887304
 20
342.5337090952002
 30
0.0
 40
3.75855524519796
100
AcDbArc
 50
119.6662788243984
 51
184.8994542864016
  0
LINE
  5
EC
330
25
100
AcDbEntity
  8
0
  6
Continuous
 62
     7
370
    15
100
AcDbLine
 10
-49.14546406053029
 20
269.2994601220001
 30
0.0
 11
-50.81381901053038
 21
330.8544827626002
 31
0.0
  0
LINE
  5
ED
330
25
100
AcDbEntity
  8
0
  6
Continuous
 62
     7
370
    15
100
AcDbLine
 10
-97.9083881353302
 20
280.6576778976001
 30
0.0
 11
-49.14546406053029
 21
269.2994601220001
 31
0.0
  0
LINE
  5
EE
330
25
100
AcDbEntity
  8
0
  6
Continuous
 62
     7
370
    15
100
AcDbLine
 10
-99.57674308533029
 20
342.2127005382002
 30
0.0
 11
-97.9083881353302
 21
280.6576778976001
 31
0.0
  0
LINE
  5
EF
330
25
100
AcDbEntity
  8
0
  6
Continuous
 62
     7
370
    15
100
AcDbLine
 10
-6.743464318330382
 20
350.0048038600002
 30
0.0
 11
-55.50638839313029
 21
361.3630216358002
 31
0.0
  0
LINE
  5
F0
330
25
100
AcDbEntity
  8
0
  6
Continuous
 62
     7
370
    15
100
AcDbLine
 10
-48.92928408533027
 20
334.4413862834002
 30
0.0
 11
-6.743464318330382
 21
350.0048038600002
 31
0.0
  0
LINE
  5
F1
330
25
100
AcDbEntity
  8
0
  6
Continuous
 62
     7
370
    15
100
AcDbLine
 10
-55.50638839313029
 20
361.3630216358002
 30
0.0
 11
-97.6922081601304
 21
345.7996040590002
 31
0.0
  0
ARC
  5
F2
330
25
100
AcDbEntity
  8
0
  6
Continuous
 62
     7
370
    15
100
AcDbCircle
 10
-50.14253677653033
 20
331.0953727334003
 30
0.0
 40
3.559183722266259
100
AcDbArc
 50
359.2707545889998
 51
70.0695342942983
  0
ARC
  5
F3
330
25
100
AcDbEntity
  8
0
  6
Continuous
 62
     7
370
    15
100
AcDbCircle
 10
-49.07698035533036
 20
339.1329546276003
 30
0.0
 40
8.458705866505161
100
AcDbArc
 50
258.1510953238991
 51
287.1435071367995
  0
LINE
  5
F4
330
25
100
AcDbEntity
  8
0
  6
Continuous
 62
     7
370
    15
100
AcDbLine
 10
-46.58364133573042
 20
331.0500736148002
 30
0.0
 11
-44.91528638573033
 21
269.4950509742001
 31
0.0
  0
ARC
  5
F5
330
25
100
AcDbEntity
  8
0
  6
Continuous
 62
     7
370
    15
100
AcDbCircle
 10
-47.40862540533027
 20
277.5779319870002
 30
0.0
 40
8.458705866502129
100
AcDbArc
 50
258.1510953238994
 51
287.143507136801
  0
ARC
  5
F6
330
25
100
AcDbEntity
  8
0
  6
Continuous
 62
     7
370
    15
100
AcDbCircle
 10
-7.956717009730312
 20
346.6587903102003
 30
0.0
 40
3.559183722267396
100
AcDbArc
 50
359.270754589
 51
70.0695342943003
  0
LINE
  5
F7
330
25
100
AcDbEntity
  8
0
  6
Continuous
 62
     7
370
    15
100
AcDbLine
 10
-4.397821568930169
 20
346.6134911914002
 30
0.0
 11
-46.58364133573042
 21
331.0500736148002
 31
0.0
  0
LINE
  5
F8
330
25
100
AcDbEntity
  8
0
  6
Continuous
 62
     7
370
    15
100
AcDbLine
 10
-2.729466618730214
 20
285.0584685508003
 30
0.0
 11
-4.397821568930169
 21
346.6134911914002
 31
0.0
  0
LINE
  5
F9
330
25
100
AcDbEntity
  8
0
  6
Continuous
 62
     7
370
    15
100
AcDbLine
 10
-44.91528638573033
 20
269.4950509742001
 30
0.0
 11
-2.729466618730214
 21
285.0584685508003
 31
0.0
  0
ARC
  5
FA
330
25
100
AcDbEntity
  8
0
  6
Continuous
 62
     7
370
    15
100
AcDbCircle
 10
-46.88367008933034
 20
266.2515977118002
 30
0.0
 40
2.696108742180636
100
AcDbArc
 50
258.1511373682001
 51
287.1434650924982
  0
ARC
  5
FB
330
25
100
AcDbEntity
  8
0
  6
Continuous
 62
     7
370
    15
100
AcDbCircle
 10
-46.81483962473027
 20
263.6596104984002
 30
0.0
 40
0.6241721153752893
100
AcDbArc
 50
119.5847677882099
 51
184.2884866506975
  0
ARC
  5
FC
330
25
100
AcDbEntity
  8
0
  6
Continuous
 62
     7
370
    15
100
AcDbCircle
 10
-46.85883459373036
 20
265.4615467774003
 30
0.0
 40
1.286552194575561
100
AcDbArc
 50
258.1512863270069
 51
287.1433161336074
  0
ARC
  5
FD
330
25
100
AcDbEntity
  8
0
  6
Continuous
 62
     7
370
    15
100
AcDbCircle
 10
-46.68081284153033
 20
263.6755435000001
 30
0.0
 40
0.5918621510215801
100
AcDbArc
 50
359.9742930503076
 51
70.12591745170683
  0
ARC
  5
FE
330
25
100
AcDbEntity
  8
0
  6
Continuous
 62
     7
370
    15
100
AcDbCircle
 10
-46.8220686523303
 20
263.9677029590001
 30
0.0
 40
2.819592268211384
100
AcDbArc
 50
258.1512011612027
 51
287.1434012995028
  0
LINE
  5
FF
330
25
100
AcDbEntity
  8
0
  6
Continuous
 62
     7
370
    15
100
AcDbLine
 10
-47.40101462873037
 20
261.2081881256003
 30
0.0
 11
-47.43726417053023
 21
263.6129359406003
 31
0.0
  0
LINE
  5
100
330
25
100
AcDbEntity
  8
0
  6
Continuous
 62
     7
370
    15
100
AcDbLine
 10
-46.08895075013044
 20
263.6752779488003
 30
0.0
 11
-45.9909536527303
 21
261.2733851574002
 31
0.0
  0
LINE
  5
101
330
25
100
AcDbEntity
  8
0
  6
Continuous
 62
     7
370
    15
100
AcDbLine
 10
-47.43726417053023
 20
263.6129359406003
 30
0.0
 11
-99.60225415673023
 21
275.7635878502002
 31
0.0
  0
ARC
  5
102
330
25
100
AcDbEntity
  8
0
  6
Continuous
 62
     7
370
    15
100
AcDbCircle
 10
-98.97982961093027
 20
275.8102624082002
 30
0.0
 40
0.6241721153759947
100
AcDbArc
 50
119.5847677881971
 51
184.2884866506924
  0
LINE
  5
103
330
25
100
AcDbEntity
  8
0
  6
Continuous
 62
     7
370
    15
100
AcDbLine
 10
-99.28799005793036
 20
276.3530588418001
 30
0.0
 11
-47.12300007173036
 21
264.2024069322002
 31
0.0
  0
ARC
  5
104
330
25
100
AcDbEntity
  8
0
  6
Continuous
 62
     7
370
    15
100
AcDbCircle
 10
-40.08542677613042
 20
304.6420691952002
 30
0.0
 40
33.15532166893997
100
AcDbArc
 50
285.1140280583002
 51
295.3865625195002
  0
ARC
  5
105
330
25
100
AcDbEntity
  8
0
  6
Continuous
 62
     7
370
    15
100
AcDbCircle
 10
-58.4838746419303
 20
315.6712760326003
 30
0.0
 40
45.26319299481143
100
AcDbArc
 50
249.4845103961
 51
264.2085137705
  0
POLYLINE
  5
106
330
25
100
AcDbEntity
  8
0
  6
Continuous
 62
     7
370
    15
100
AcDb2dPolyline
 66
     1
 10
0.0
 20
0.0
 30
0.0
 75
     5
  0
VERTEX
  5
107
330
106
100
AcDbEntity
  8
0
  6
Continuous
 62
     7
370
    15
100
AcDbVertex
100
AcDb2dVertex
 10
-1.35058908733032
 20
280.8813933924001
 30
0.0
  0
VERTEX
  5
108
330
106
100
AcDbEntity
  8
0
  6
Continuous
 62
     7
370
    15
100
AcDbVertex
100
AcDb2dVertex
 10
-1.298996157530212
 20
280.9044174592003
 30
0.0
  0
VERTEX
  5
109
330
106
100
AcDbEntity
  8
0
  6
Continuous
 62
     7
370
    15
100
AcDbVertex
100
AcDb2dVertex
 10
-1.262642751330361
 20
280.9296435914001
 30
0.0
  0
VERTEX
  5
10A
330
106
100
AcDbEntity
  8
0
  6
Continuous
 62
     7
370
    15
100
AcDbVertex
100
AcDb2dVertex
 10
-1.242928329530343
 20
280.9561029168002
 30
0.0
  0
VERTEX
  5
10B
330
106
100
AcDbEntity
  8
0
  6
Continuous
 62
     7
370
    15
100
AcDbVertex
100
AcDb2dVertex
 10
-1.240603393530193
 20
280.9827795180003
 30
0.0
  0
VERTEX
  5
10C
330
106
100
AcDbEntity
  8
0
  6
Continuous
 62
     7
370
    15
100
AcDbVertex
100
AcDb2dVertex
 10
-1.255765281130437
 20
281.0086475804002
 30
0.0
  0
VERTEX
  5
10D
330
106
100
AcDbEntity
  8
0
  6
Continuous
 62
     7
370
    15
100
AcDbVertex
100
AcDb2dVertex
 10
-1.287823203530309
 20
281.0327131062003
 30
0.0
  0
VERTEX
  5
10E
330
106
100
AcDbEntity
  8
0
  6
Continuous
 62
     7
370
    15
100
AcDbVertex
100
AcDb2dVertex
 10
-1.335552580730393
 20
281.0540515004003
 30
0.0
  0
VERTEX
  5
10F
330
106
100
AcDbEntity
  8
0
  6
Continuous
 62
     7
370
    15
100
AcDbVertex
100
AcDb2dVertex
 10
-1.397117101930291
 20
281.0718435026002
 30
0.0
  0
SEQEND
  5
110
330
106
100
AcDbEntity
  8
0
  6
Continuous
 62
     7
370
    15
  0
LINE
  5
111
330
25
100
AcDbEntity
  8
0
  6
Continuous
 62
     7
370
    15
100
AcDbLine
 10
-46.47960682873037
 20
264.2321555250002
 30
0.0
 11
-1.35058908733032
 21
280.8813933924001
 31
0.0
  0
POLYLINE
  5
112
330
25
100
AcDbEntity
  8
0
  6
Continuous
 62
     7
370
    15
100
AcDb2dPolyline
 66
     1
 10
0.0
 20
0.0
 30
0.0
 75
     5
  0
VERTEX
  5
113
330
112
100
AcDbEntity
  8
0
  6
Continuous
 62
     7
370
    15
100
AcDbVertex
100
AcDb2dVertex
 10
-99.33451807233024
 20
276.5435089520003
 30
0.0
  0
VERTEX
  5
114
330
112
100
AcDbEntity
  8
0
  6
Continuous
 62
     7
370
    15
100
AcDbVertex
100
AcDb2dVertex
 10
-99.38611100233021
 20
276.5204848852003
 30
0.0
  0
VERTEX
  5
115
330
112
100
AcDbEntity
  8
0
  6
Continuous
 62
     7
370
    15
100
AcDbVertex
100
AcDb2dVertex
 10
-99.42246440833043
 20
276.4952587530003
 30
0.0
  0
VERTEX
  5
116
330
112
100
AcDbEntity
  8
0
  6
Continuous
 62
     7
370
    15
100
AcDbVertex
100
AcDb2dVertex
 10
-99.4421788303303
 20
276.4687994276002
 30
0.0
  0
VERTEX
  5
117
330
112
100
AcDbEntity
  8
0
  6
Continuous
 62
     7
370
    15
100
AcDbVertex
100
AcDb2dVertex
 10
-99.44450376633023
 20
276.4421228264001
 30
0.0
  0
VERTEX
  5
118
330
112
100
AcDbEntity
  8
0
  6
Continuous
 62
     7
370
    15
100
AcDbVertex
100
AcDb2dVertex
 10
-99.42934187853035
 20
276.4162547642003
 30
0.0
  0
VERTEX
  5
119
330
112
100
AcDbEntity
  8
0
  6
Continuous
 62
     7
370
    15
100
AcDbVertex
100
AcDb2dVertex
 10
-99.39728395633034
 20
276.3921892382001
 30
0.0
  0
VERTEX
  5
11A
330
112
100
AcDbEntity
  8
0
  6
Continuous
 62
     7
370
    15
100
AcDbVertex
100
AcDb2dVertex
 10
-99.3495545789304
 20
276.3708508442002
 30
0.0
  0
VERTEX
  5
11B
330
112
100
AcDbEntity
  8
0
  6
Continuous
 62
     7
370
    15
100
AcDbVertex
100
AcDb2dVertex
 10
-99.28799005793036
 20
276.3530588418001
 30
0.0
  0
SEQEND
  5
11C
330
112
100
AcDbEntity
  8
0
  6
Continuous
 62
     7
370
    15
  0
LINE
  5
11D
330
25
100
AcDbEntity
  8
0
  6
Continuous
 62
     7
370
    15
100
AcDbLine
 10
-0.959933008730161
 20
280.3245158162002
 30
0.0
 11
-46.08895075013044
 21
263.6752779488003
 31
0.0
  0
ARC
  5
11E
330
25
100
AcDbEntity
  8
0
  6
Continuous
 62
     7
370
    15
100
AcDbCircle
 10
-1.551795100130278
 20
280.3247813676002
 30
0.0
 40
0.5918621510218076
100
AcDbArc
 50
359.9742930503076
 51
70.12591745170397
  0
LINE
  5
11F
330
25
100
AcDbEntity
  8
0
  6
Continuous
 62
     7
370
    15
100
AcDbLine
 10
-99.56600461473028
 20
273.3588400352002
 30
0.0
 11
-47.40101462873037
 21
261.2081881256003
 31
0.0
  0
LINE
  5
120
330
25
100
AcDbEntity
  8
0
  6
Continuous
 62
     7
370
    15
100
AcDbLine
 10
-99.60225415673023
 20
275.7635878502002
 30
0.0
 11
-99.56600461473028
 21
273.3588400352002
 31
0.0
  0
LINE
  5
121
330
25
100
AcDbEntity
  8
0
  6
Continuous
 62
     7
370
    15
100
AcDbLine
 10
-45.9909536527303
 20
261.2733851574002
 30
0.0
 11
-0.8619359113302494
 21
277.9226230248001
 31
0.0
  0
LINE
  5
122
330
25
100
AcDbEntity
  8
0
  6
Continuous
 62
     7
370
    15
100
AcDbLine
 10
-0.8619359113302494
 20
277.9226230248001
 30
0.0
 11
-0.959933008730161
 21
280.3245158162002
 31
0.0
  0
LINE
  5
123
330
25
100
AcDbEntity
  8
0
  6
Continuous
 62
     7
370
    15
100
AcDbLine
 10
-99.93219581573027
 20
275.9611013656003
 30
0.0
 11
-99.93273881533042
 21
275.9699559514003
 31
0.0
  0
POLYLINE
  5
124
330
25
100
AcDbEntity
  8
0
  6
Continuous
 62
     7
370
    15
100
AcDb2dPolyline
 66
     1
 10
0.0
 20
0.0
 30
0.0
 75
     5
  0
VERTEX
  5
125
330
124
100
AcDbEntity
  8
0
  6
Continuous
 62
     7
370
    15
100
AcDbVertex
100
AcDb2dVertex
 10
-99.4946445529302
 20
276.5354326602002
 30
0.0
  0
VERTEX
  5
126
330
124
100
AcDbEntity
  8
0
  6
Continuous
 62
     7
370
    15
100
AcDbVertex
100
AcDb2dVertex
 10
-99.54033216713043
 20
276.5132542786001
 30
0.0
  0
VERTEX
  5
127
330
124
100
AcDbEntity
  8
0
  6
Continuous
 62
     7
370
    15
100
AcDbVertex
100
AcDb2dVertex
 10
-99.54489750073031
 20
276.5103936902002
 30
0.0
  0
SEQEND
  5
128
330
124
100
AcDbEntity
  8
0
  6
Continuous
 62
     7
370
    15
  0
POLYLINE
  5
129
330
25
100
AcDbEntity
  8
0
  6
Continuous
 62
     7
370
    15
100
AcDb2dPolyline
 66
     1
 10
0.0
 20
0.0
 30
0.0
 75
     5
  0
VERTEX
  5
12A
330
129
100
AcDbEntity
  8
0
  6
Continuous
 62
     7
370
    15
100
AcDbVertex
100
AcDb2dVertex
 10
-99.56600461473028
 20
273.3588400352002
 30
0.0
  0
VERTEX
  5
12B
330
129
100
AcDbEntity
  8
0
  6
Continuous
 62
     7
370
    15
100
AcDbVertex
100
AcDb2dVertex
 10
-99.70092776993016
 20
273.3978310980002
 30
0.0
  0
VERTEX
  5
12C
330
129
100
AcDbEntity
  8
0
  6
Continuous
 62
     7
370
    15
100
AcDbVertex
100
AcDb2dVertex
 10
-99.80553184693036
 20
273.4445972132002
 30
0.0
  0
VERTEX
  5
12D
330
129
100
AcDbEntity
  8
0
  6
Continuous
 62
     7
370
    15
100
AcDbVertex
100
AcDb2dVertex
 10
-99.87579701133046
 20
273.4973397990003
 30
0.0
  0
VERTEX
  5
12E
330
129
100
AcDbEntity
  8
0
  6
Continuous
 62
     7
370
    15
100
AcDbVertex
100
AcDb2dVertex
 10
-99.90902365713038
 20
273.5540325490002
 30
0.0
  0
VERTEX
  5
12F
330
129
100
AcDbEntity
  8
0
  6
Continuous
 62
     7
370
    15
100
AcDbVertex
100
AcDb2dVertex
 10
-99.91162459393018
 20
273.5746593522002
 30
0.0
  0
SEQEND
  5
130
330
129
100
AcDbEntity
  8
0
  6
Continuous
 62
     7
370
    15
  0
LINE
  5
131
330
25
100
AcDbEntity
  8
0
  6
Continuous
 62
     7
370
    15
100
AcDbLine
 10
-1.27075867313016
 20
281.0816364154001
 30
0.0
 11
-1.217864305330352
 21
281.0610975882001
 31
0.0
  0
LINE
  5
132
330
25
100
AcDbEntity
  8
0
  6
Continuous
 62
     7
370
    15
100
AcDbLine
 10
-0.7277880697304795
 20
280.5284162362003
 30
0.0
 11
-0.7270378433302653
 21
280.5203551042001
 31
0.0
  0
POLYLINE
  5
133
330
25
100
AcDbEntity
  8
0
  6
Continuous
 62
     7
370
    15
100
AcDb2dPolyline
 66
     1
 10
0.0
 20
0.0
 30
0.0
 75
     5
  0
VERTEX
  5
134
330
133
100
AcDbEntity
  8
0
  6
Continuous
 62
     7
370
    15
100
AcDbVertex
100
AcDb2dVertex
 10
-0.6183762865303493
 20
278.1274309754002
 30
0.0
  0
VERTEX
  5
135
330
133
100
AcDbEntity
  8
0
  6
Continuous
 62
     7
370
    15
100
AcDbVertex
100
AcDb2dVertex
 10
-0.6259807737304186
 20
278.0863565336002
 30
0.0
  0
VERTEX
  5
136
330
133
100
AcDbEntity
  8
0
  6
Continuous
 62
     7
370
    15
100
AcDbVertex
100
AcDb2dVertex
 10
-0.6691934859302933
 20
278.0283670680002
 30
0.0
  0
VERTEX
  5
137
330
133
100
AcDbEntity
  8
0
  6
Continuous
 62
     7
370
    15
100
AcDbVertex
100
AcDb2dVertex
 10
-0.7488655459304141
 20
277.9730805716002
 30
0.0
  0
VERTEX
  5
138
330
133
100
AcDbEntity
  8
0
  6
Continuous
 62
     7
370
    15
100
AcDbVertex
100
AcDb2dVertex
 10
-0.8619359113302494
 20
277.9226230248001
 30
0.0
  0
SEQEND
  5
139
330
133
100
AcDbEntity
  8
0
  6
Continuous
 62
     7
370
    15
  0
LINE
  5
13A
330
25
100
AcDbEntity
  8
0
  6
Continuous
 62
     7
370
    15
100
AcDbLine
 10
-46.91895055533024
 20
261.1519764550002
 30
0.0
 11
-30.73069300893036
 21
-336.1241366147998
 31
0.0
  0
LINE
  5
13B
330
25
100
AcDbEntity
  8
0
  6
Continuous
 62
     7
370
    15
100
AcDbLine
 10
-46.49582285713024
 20
261.1675377918003
 30
0.0
 11
-30.30767366553033
 21
-336.1045774565998
 31
0.0
  0
LINE
  5
13C
330
25
100
AcDbEntity
  8
0
  6
Continuous
 62
     7
370
    15
100
AcDbLine
 10
-99.38481632213035
 20
273.3166366914003
 30
0.0
 11
-83.19808822793021
 21
-323.9030462611997
 31
0.0
  0
LINE
  5
13D
330
25
100
AcDbEntity
  8
0
  6
Continuous
 62
     7
370
    15
100
AcDbLine
 10
-1.103030212930264
 20
277.8336776940001
 30
0.0
 11
15.08296113206978
 21
-319.3588224297998
 31
0.0
  0
LINE
  5
13E
330
25
100
AcDbEntity
  8
0
  6
Continuous
 62
     7
370
    15
100
AcDbLine
 10
-54.78631185773025
 20
-176.5123719339998
 30
0.0
 11
-54.14472939373019
 21
-200.1839671723998
 31
0.0
  0
LINE
  5
13F
330
25
100
AcDbEntity
  8
0
  6
Continuous
 62
     7
370
    15
100
AcDbLine
 10
-54.6531358321302
 20
-176.6560668031998
 30
0.0
 11
-54.01770025313027
 21
-200.1008687915997
 31
0.0
  0
LINE
  5
140
330
25
100
AcDbEntity
  8
0
  6
Continuous
 62
     7
370
    15
100
AcDbLine
 10
-53.24175722173032
 20
-178.4055141935997
 30
0.0
 11
-52.68382373273045
 21
-198.9908270223998
 31
0.0
  0
LINE
  5
141
330
25
100
AcDbEntity
  8
0
  6
Continuous
 62
     7
370
    15
100
AcDbLine
 10
-53.1072815161304
 20
-178.5971615859997
 30
0.0
 11
-52.55809273013034
 21
-198.8598330015998
 31
0.0
  0
LINE
  5
142
330
25
100
AcDbEntity
  8
0
  6
Continuous
 62
     7
370
    15
100
AcDbLine
 10
-49.66995657593026
 20
-187.4745456049998
 30
0.0
 11
-49.56136546313047
 21
-191.4810841465998
 31
0.0
  0
LINE
  5
143
330
25
100
AcDbEntity
  8
0
  6
Continuous
 62
     7
370
    15
100
AcDbLine
 10
-49.57979441733033
 20
-188.2592942513998
 30
0.0
 11
-49.5128662953303
 21
-190.7286501015998
 31
0.0
  0
ARC
  5
144
330
25
100
AcDbEntity
  8
0
  6
Continuous
 62
     7
370
    15
100
AcDbCircle
 10
-95.78778305413044
 20
280.4215879882003
 30
0.0
 40
2.13370671727118
100
AcDbArc
 50
173.6473414701981
 51
246.8443809553019
  0
ARC
  5
145
330
25
100
AcDbEntity
  8
0
  6
Continuous
 62
     7
370
    15
100
AcDbCircle
 10
-47.0248589793303
 20
269.0633702124002
 30
0.0
 40
2.133706717272084
100
AcDbArc
 50
173.6473414702008
 51
246.8443809552957
  0
ARC
  5
146
330
25
100
AcDbEntity
  8
0
  6
Continuous
 62
     7
370
    15
100
AcDbCircle
 10
-47.12642752633047
 20
269.2104836508003
 30
0.0
 40
2.229377425506024
100
AcDbArc
 50
296.1192865249052
 51
7.333486605299868
  0
ARC
  5
147
330
25
100
AcDbEntity
  8
0
  6
Continuous
 62
     7
370
    15
100
AcDbCircle
 10
-4.940607759530224
 20
284.7739012276003
 30
0.0
 40
2.229377425505824
100
AcDbArc
 50
296.1192865248947
 51
7.333486605300607
  0
ARC
  5
148
330
25
100
AcDbEntity
  8
0
  6
Continuous
 62
     7
370
    15
100
AcDbCircle
 10
-6.26899318753027
 20
348.8035409448001
 30
0.0
 40
1.291570921561548
100
AcDbArc
 50
77.3116168382964
 51
111.5528761922053
  0
ARC
  5
149
330
25
100
AcDbEntity
  8
0
  6
Continuous
 62
     7
370
    15
100
AcDbCircle
 10
-55.03191726233018
 20
360.1617587206002
 30
0.0
 40
1.291570921558736
100
AcDbArc
 50
77.31161683829933
 51
111.5528761921978
  0
POLYLINE
  5
14A
330
25
100
AcDbEntity
  8
0
  6
Continuous
 62
     7
370
    15
100
AcDb2dPolyline
 66
     1
 10
0.0
 20
0.0
 30
0.0
 75
     5
  0
VERTEX
  5
14B
330
14A
100
AcDbEntity
  8
0
  6
Continuous
 62
     7
370
    15
100
AcDbVertex
100
AcDb2dVertex
 10
-100.6135105565302
 20
342.8553007122001
 30
0.0
  0
VERTEX
  5
14C
330
14A
100
AcDbEntity
  8
0
  6
Continuous
 62
     7
370
    15
100
AcDbVertex
100
AcDb2dVertex
 10
-100.6057973961304
 20
342.7982774236003
 30
0.0
  0
VERTEX
  5
14D
330
14A
100
AcDbEntity
  8
0
  6
Continuous
 62
     7
370
    15
100
AcDbVertex
100
AcDb2dVertex
 10
-100.5061227113304
 20
342.6281989304001
 30
0.0
  0
VERTEX
  5
14E
330
14A
100
AcDbEntity
  8
0
  6
Continuous
 62
     7
370
    15
100
AcDbVertex
100
AcDb2dVertex
 10
-100.2953296549302
 20
342.4699702742001
 30
0.0
  0
VERTEX
  5
14F
330
14A
100
AcDbEntity
  8
0
  6
Continuous
 62
     7
370
    15
100
AcDbVertex
100
AcDb2dVertex
 10
-99.98151536733036
 20
342.3296743826003
 30
0.0
  0
VERTEX
  5
150
330
14A
100
AcDbEntity
  8
0
  6
Continuous
 62
     7
370
    15
100
AcDbVertex
100
AcDb2dVertex
 10
-99.57674308533029
 20
342.2127005382002
 30
0.0
  0
SEQEND
  5
151
330
14A
100
AcDbEntity
  8
0
  6
Continuous
 62
     7
370
    15
  0
ARC
  5
152
330
25
100
AcDbEntity
  8
0
  6
Continuous
 62
     7
370
    15
100
AcDbCircle
 10
-98.09334875513042
 20
344.2039960932003
 30
0.0
 40
1.645259419637452
100
AcDbArc
 50
75.88812531099853
 51
109.88581542619
  0
POLYLINE
  5
153
330
25
100
AcDbEntity
  8
0
  6
Continuous
 62
     7
370
    15
100
AcDb2dPolyline
 66
     1
 10
0.0
 20
0.0
 30
0.0
 75
     5
  0
VERTEX
  5
154
330
153
100
AcDbEntity
  8
0
  6
Continuous
 62
     7
370
    15
100
AcDbVertex
100
AcDb2dVertex
 10
-98.94515560633027
 20
281.3002780716002
 30
0.0
  0
VERTEX
  5
155
330
153
100
AcDbEntity
  8
0
  6
Continuous
 62
     7
370
    15
100
AcDbVertex
100
AcDb2dVertex
 10
-98.93744244613032
 20
281.2432547830002
 30
0.0
  0
VERTEX
  5
156
330
153
100
AcDbEntity
  8
0
  6
Continuous
 62
     7
370
    15
100
AcDbVertex
100
AcDb2dVertex
 10
-98.83776776133033
 20
281.0731762898002
 30
0.0
  0
VERTEX
  5
157
330
153
100
AcDbEntity
  8
0
  6
Continuous
 62
     7
370
    15
100
AcDbVertex
100
AcDb2dVertex
 10
-98.62697470493032
 20
280.9149476336003
 30
0.0
  0
VERTEX
  5
158
330
153
100
AcDbEntity
  8
0
  6
Continuous
 62
     7
370
    15
100
AcDbVertex
100
AcDb2dVertex
 10
-98.31316041733027
 20
280.7746517420002
 30
0.0
  0
VERTEX
  5
159
330
153
100
AcDbEntity
  8
0
  6
Continuous
 62
     7
370
    15
100
AcDbVertex
100
AcDb2dVertex
 10
-97.9083881353302
 20
280.6576778976001
 30
0.0
  0
SEQEND
  5
15A
330
153
100
AcDbEntity
  8
0
  6
Continuous
 62
     7
370
    15
  0
ARC
  5
15B
330
25
100
AcDbEntity
  8
0
  6
Continuous
 62
     7
370
    15
100
AcDbCircle
 10
-55.90752898833017
 20
359.7674136698002
 30
0.0
 40
1.645259419641643
100
AcDbArc
 50
75.88812531100257
 51
109.8858154262025
  0
POLYLINE
  5
15C
330
25
100
AcDbEntity
  8
0
  6
Continuous
 62
     7
370
    15
100
AcDb2dPolyline
 66
     1
 10
0.0
 20
0.0
 30
0.0
 75
     5
  0
VERTEX
  5
15D
330
15C
100
AcDbEntity
  8
0
  6
Continuous
 62
     7
370
    15
100
AcDbVertex
100
AcDb2dVertex
 10
-3.666966182130466
 20
347.2230611522001
 30
0.0
  0
VERTEX
  5
15E
330
15C
100
AcDbEntity
  8
0
  6
Continuous
 62
     7
370
    15
100
AcDbVertex
100
AcDb2dVertex
 10
-3.689953339530177
 20
347.1046910618003
 30
0.0
  0
VERTEX
  5
15F
330
15C
100
AcDbEntity
  8
0
  6
Continuous
 62
     7
370
    15
100
AcDbVertex
100
AcDb2dVertex
 10
-3.819588659530211
 20
346.9307220086001
 30
0.0
  0
VERTEX
  5
160
330
15C
100
AcDbEntity
  8
0
  6
Continuous
 62
     7
370
    15
100
AcDbVertex
100
AcDb2dVertex
 10
-4.058608035730288
 20
346.7648647304003
 30
0.0
  0
VERTEX
  5
161
330
15C
100
AcDbEntity
  8
0
  6
Continuous
 62
     7
370
    15
100
AcDbVertex
100
AcDb2dVertex
 10
-4.397821568930169
 20
346.6134911914002
 30
0.0
  0
SEQEND
  5
162
330
15C
100
AcDbEntity
  8
0
  6
Continuous
 62
     7
370
    15
  0
POLYLINE
  5
163
330
25
100
AcDbEntity
  8
0
  6
Continuous
 62
     7
370
    15
100
AcDb2dPolyline
 66
     1
 10
0.0
 20
0.0
 30
0.0
 75
     5
  0
VERTEX
  5
164
330
163
100
AcDbEntity
  8
0
  6
Continuous
 62
     7
370
    15
100
AcDbVertex
100
AcDb2dVertex
 10
-2.729466618730214
 20
285.0584685508003
 30
0.0
  0
VERTEX
  5
165
330
163
100
AcDbEntity
  8
0
  6
Continuous
 62
     7
370
    15
100
AcDbVertex
100
AcDb2dVertex
 10
-2.390253085730194
 20
285.2098420898002
 30
0.0
  0
VERTEX
  5
166
330
163
100
AcDbEntity
  8
0
  6
Continuous
 62
     7
370
    15
100
AcDbVertex
100
AcDb2dVertex
 10
-2.151233709530345
 20
285.3756993680003
 30
0.0
  0
VERTEX
  5
167
330
163
100
AcDbEntity
  8
0
  6
Continuous
 62
     7
370
    15
100
AcDbVertex
100
AcDb2dVertex
 10
-2.021598389330222
 20
285.5496684212002
 30
0.0
  0
VERTEX
  5
168
330
163
100
AcDbEntity
  8
0
  6
Continuous
 62
     7
370
    15
100
AcDbVertex
100
AcDb2dVertex
 10
-1.998611232130145
 20
285.6680385118003
 30
0.0
  0
SEQEND
  5
169
330
163
100
AcDbEntity
  8
0
  6
Continuous
 62
     7
370
    15
  0
LINE
  5
16A
330
25
100
AcDbEntity
  8
0
  6
Continuous
 62
     7
370
    15
100
AcDbLine
 10
-1.397117101930291
 20
281.0718435026002
 30
0.0
 11
-5.792782504130457
 21
282.0957141144003
 31
0.0
  0
LINE
  5
16B
330
25
100
AcDbEntity
  8
0
  6
Continuous
 62
     7
370
    15
100
AcDbLine
 10
-95.10265130753015
 20
278.1047518046001
 30
0.0
 11
-99.33451807233024
 21
276.5435089520003
 31
0.0
  0
POLYLINE
  5
16C
330
25
100
AcDbEntity
  8
0
  6
Continuous
 62
     7
370
    15
100
AcDb2dPolyline
 66
     1
 10
0.0
 20
0.0
 30
0.0
 75
     5
  0
VERTEX
  5
16D
330
16C
100
AcDbEntity
  8
0
  6
Continuous
 62
     7
370
    15
100
AcDbVertex
100
AcDb2dVertex
 10
-99.60225415673023
 20
275.7635878502002
 30
0.0
  0
VERTEX
  5
16E
330
16C
100
AcDbEntity
  8
0
  6
Continuous
 62
     7
370
    15
100
AcDbVertex
100
AcDb2dVertex
 10
-99.73127001833046
 20
275.8008715330003
 30
0.0
  0
VERTEX
  5
16F
330
16C
100
AcDbEntity
  8
0
  6
Continuous
 62
     7
370
    15
100
AcDbVertex
100
AcDb2dVertex
 10
-99.83129401333036
 20
275.8455897898003
 30
0.0
  0
VERTEX
  5
170
330
16C
100
AcDbEntity
  8
0
  6
Continuous
 62
     7
370
    15
100
AcDbVertex
100
AcDb2dVertex
 10
-99.8984795333302
 20
275.8960225146003
 30
0.0
  0
VERTEX
  5
171
330
16C
100
AcDbEntity
  8
0
  6
Continuous
 62
     7
370
    15
100
AcDbVertex
100
AcDb2dVertex
 10
-99.93025238613046
 20
275.9502327368001
 30
0.0
  0
VERTEX
  5
172
330
16C
100
AcDbEntity
  8
0
  6
Continuous
 62
     7
370
    15
100
AcDbVertex
100
AcDb2dVertex
 10
-99.93219581573027
 20
275.9611013656003
 30
0.0
  0
SEQEND
  5
173
330
16C
100
AcDbEntity
  8
0
  6
Continuous
 62
     7
370
    15
  0
ARC
  5
174
330
25
100
AcDbEntity
  8
0
  6
Continuous
 62
     7
370
    15
100
AcDbCircle
 10
-99.40136660873014
 20
276.2774664000002
 30
0.0
 40
0.2743125338437736
100
AcDbArc
 50
75.89528678323528
 51
109.8794688417914
  0
ARC
  5
175
330
25
100
AcDbEntity
  8
0
  6
Continuous
 62
     7
370
    15
100
AcDbCircle
 10
-1.318105472330274
 20
280.8724535400003
 30
0.0
 40
0.2144742287950136
100
AcDbArc
 50
77.24647022787771
 51
111.6167806035828
  0
POLYLINE
  5
176
330
25
100
AcDbEntity
  8
0
  6
Continuous
 62
     7
370
    15
100
AcDb2dPolyline
 66
     1
 10
0.0
 20
0.0
 30
0.0
 75
     5
  0
VERTEX
  5
177
330
176
100
AcDbEntity
  8
0
  6
Continuous
 62
     7
370
    15
100
AcDbVertex
100
AcDb2dVertex
 10
-0.7270378433302653
 20
280.5203551042001
 30
0.0
  0
VERTEX
  5
178
330
176
100
AcDbEntity
  8
0
  6
Continuous
 62
     7
370
    15
100
AcDbVertex
100
AcDb2dVertex
 10
-0.7343114363303016
 20
280.4810791338001
 30
0.0
  0
VERTEX
  5
179
330
176
100
AcDbEntity
  8
0
  6
Continuous
 62
     7
370
    15
100
AcDbVertex
100
AcDb2dVertex
 10
-0.7756293191303598
 20
280.4256295336003
 30
0.0
  0
VERTEX
  5
17A
330
176
100
AcDbEntity
  8
0
  6
Continuous
 62
     7
370
    15
100
AcDbVertex
100
AcDb2dVertex
 10
-0.8518130439304628
 20
280.3727639554003
 30
0.0
  0
VERTEX
  5
17B
330
176
100
AcDbEntity
  8
0
  6
Continuous
 62
     7
370
    15
100
AcDbVertex
100
AcDb2dVertex
 10
-0.959933008730161
 20
280.3245158162002
 30
0.0
  0
SEQEND
  5
17C
330
176
100
AcDbEntity
  8
0
  6
Continuous
 62
     7
370
    15
  0
SPLINE
  5
17D
330
25
100
AcDbEntity
  8
0
  6
Continuous
 62
     7
370
    15
100
AcDbSpline
210
0.0
220
0.0
230
1.0
 70
     8
 71
     2
 72
    11
 73
     8
 74
     0
 42
0.000000001
 43
0.000001
 40
0.0
 40
0.0
 40
0.0
 40
1.0
 40
1.0
 40
2.0
 40
3.0
 40
3.0
 40
4.0
 40
4.0
 40
4.0
 10
-55.52975423301319
 20
327.1451273904039
 30
0.0
 10
-55.51832347710109
 20
327.007037586344
 30
0.0
 10
-55.50689272118899
 20
326.8689477822842
 30
0.0
 10
-53.89019718370565
 20
306.4175930945379
 30
0.0
 10
-49.96891571216003
 20
279.0868474684161
 30
0.0
 10
-48.80271340429073
 20
271.5615672923918
 30
0.0
 10
-48.80260730074286
 20
271.5608778687911
 30
0.0
 10
-48.802501197195
 20
271.5601884451905
 30
0.0
  0
SPLINE
  5
17E
330
25
100
AcDbEntity
  8
0
  6
Continuous
 62
     7
370
    15
100
AcDbSpline
210
0.0
220
0.0
230
1.0
 70
     8
 71
     2
 72
    17
 73
    14
 74
     0
 42
0.000000001
 43
0.000001
 40
0.0
 40
0.0
 40
0.0
 40
1.0
 40
1.0
 40
2.0
 40
3.0
 40
4.0
 40
5.0
 40
6.0
 40
7.0
 40
8.0
 40
9.0
 40
9.0
 40
10.0
 40
10.0
 40
10.0
 10
-29.37839193352085
 20
278.7262327152793
 30
0.0
 10
-29.37724662165311
 20
278.7160317352464
 30
0.0
 10
-29.37610130978538
 20
278.7058307552135
 30
0.0
 10
-29.33245044110737
 20
278.4000665950154
 30
0.0
 10
-29.36489421270113
 20
277.5507126743991
 30
0.0
 10
-30.41262761543095
 20
276.0618553269184
 30
0.0
 10
-33.5026558730861
 20
274.3031463889913
 30
0.0
 10
-37.1157422864365
 20
273.1983493724537
 30
0.0
 10
-40.18951422869401
 20
272.4985306034682
 30
0.0
 10
-44.34654013125902
 20
271.861597653363
 30
0.0
 10
-47.70839491829912
 20
271.621894156136
 30
0.0
 10
-48.73417097657313
 20
271.5641261303187
 30
0.0
 10
-48.76833871332195
 20
271.5621571663159
 30
0.0
 10
-48.80250645007078
 20
271.5601882023131
 30
0.0
  0
SPLINE
  5
17F
330
25
100
AcDbEntity
  8
0
  6
Continuous
 62
     7
370
    15
100
AcDbSpline
210
0.0
220
0.0
230
1.0
 70
     8
 71
     2
 72
    11
 73
     8
 74
     0
 42
0.000000001
 43
0.000001
 40
0.0
 40
0.0
 40
0.0
 40
1.0
 40
1.0
 40
2.0
 40
3.0
 40
3.0
 40
4.0
 40
4.0
 40
4.0
 10
-36.30626668724454
 20
331.1129114573793
 30
0.0
 10
-36.28104212614204
 20
330.9839504693281
 30
0.0
 10
-36.25581756503954
 20
330.8549894812769
 30
0.0
 10
-33.68168038735695
 20
318.0120702405406
 30
0.0
 10
-29.95471420285486
 20
292.0928829992874
 30
0.0
 10
-29.37844680418863
 20
278.7275598383839
 30
0.0
 10
-29.37841955878997
 20
278.7268970542805
 30
0.0
 10
-29.37839231339132
 20
278.7262342701771
 30
0.0
  0
SPLINE
  5
180
330
25
100
AcDbEntity
  8
0
  6
Continuous
 62
     7
370
    15
100
AcDbSpline
210
0.0
220
0.0
230
1.0
 70
     8
 71
     2
 72
    11
 73
     8
 74
     0
 42
0.000000001
 43
0.000001
 40
0.0
 40
0.0
 40
0.0
 40
1.0
 40
1.0
 40
2.0
 40
3.0
 40
3.0
 40
4.0
 40
4.0
 40
4.0
 10
-45.84781831493166
 20
327.5927913522813
 30
0.0
 10
-45.80141484237134
 20
327.610435861956
 30
0.0
 10
-45.75501136981103
 20
327.6280803716307
 30
0.0
 10
-42.3118309093914
 20
328.9467725218889
 30
0.0
 10
-37.75677209956376
 20
330.5950316388211
 30
0.0
 10
-36.3969512845045
 20
331.0805056335945
 30
0.0
 10
-36.35160898587452
 20
331.0967085454869
 30
0.0
 10
-36.30626668724454
 20
331.1129114573793
 30
0.0
  0
SPLINE
  5
181
330
25
100
AcDbEntity
  8
0
  6
Continuous
 62
     7
370
    15
100
AcDbSpline
210
0.0
220
0.0
230
1.0
 70
     8
 71
     2
 72
    12
 73
     9
 74
     0
 42
0.000000001
 43
0.000001
 40
0.0
 40
0.0
 40
0.0
 40
1.0
 40
1.0
 40
2.0
 40
3.0
 40
4.0
 40
4.0
 40
5.0
 40
5.0
 40
5.0
 10
-48.802501197195
 20
271.5601884451905
 30
0.0
 10
-48.80243458662147
 20
271.5608858545792
 30
0.0
 10
-48.80236797604795
 20
271.561583263968
 30
0.0
 10
-48.24072069226537
 20
277.3880442518507
 30
0.0
 10
-46.18312167245045
 20
301.6561381992862
 30
0.0
 10
-45.87616041971961
 20
323.7097970143517
 30
0.0
 10
-45.84999285843679
 20
327.3154541513192
 30
0.0
 10
-45.84890558668422
 20
327.4541227518002
 30
0.0
 10
-45.84781831493166
 20
327.5927913522813
 30
0.0
  0
SPLINE
  5
182
330
25
100
AcDbEntity
  8
0
  6
Continuous
 62
     7
370
    15
100
AcDbSpline
210
0.0
220
0.0
230
1.0
 70
     8
 71
     2
 72
    16
 73
    13
 74
     0
 42
0.000000001
 43
0.000001
 40
0.0
 40
0.0
 40
0.0
 40
1.0
 40
1.0
 40
2.0
 40
3.0
 40
4.0
 40
5.0
 40
6.0
 40
7.0
 40
8.0
 40
8.0
 40
9.0
 40
9.0
 40
9.0
 10
-47.38123043586671
 20
329.691460815863
 30
0.0
 10
-47.39232734573005
 20
329.6881392462849
 30
0.0
 10
-47.40342425559339
 20
329.6848176767068
 30
0.0
 10
-47.69060972714652
 20
329.5978833194791
 30
0.0
 10
-48.60056886875469
 20
329.3393715272645
 30
0.0
 10
-49.6224074215275
 20
329.2026379775365
 30
0.0
 10
-50.80436447523203
 20
329.0868470309505
 30
0.0
 10
-52.23938811476734
 20
329.1069995060546
 30
0.0
 10
-53.33658798546418
 20
329.1902307040074
 30
0.0
 10
-54.07842506483786
 20
329.3282398321431
 30
0.0
 10
-54.28321664538822
 20
329.3689983282917
 30
0.0
 10
-54.29005775018442
 20
329.370349587861
 30
0.0
 10
-54.29689885498061
 20
329.3717008474304
 30
0.0
  0
SPLINE
  5
183
330
25
100
AcDbEntity
  8
0
  6
Continuous
 62
     7
370
    15
100
AcDbSpline
210
0.0
220
0.0
230
1.0
 70
     8
 71
     2
 72
    16
 73
    13
 74
     0
 42
0.000000001
 43
0.000001
 40
0.0
 40
0.0
 40
0.0
 40
1.0
 40
1.0
 40
2.0
 40
3.0
 40
4.0
 40
5.0
 40
6.0
 40
7.0
 40
8.0
 40
8.0
 40
9.0
 40
9.0
 40
9.0
 10
-55.52975423301319
 20
327.1451273904039
 30
0.0
 10
-55.5194482820263
 20
327.1433768024388
 30
0.0
 10
-55.50914233103941
 20
327.1416262144736
 30
0.0
 10
-55.2011617853089
 20
327.0885675164267
 30
0.0
 10
-53.96424719362022
 20
326.894643428656
 30
0.0
 10
-52.14646728475856
 20
326.8190702173366
 30
0.0
 10
-50.70322780453654
 20
326.8384896247516
 30
0.0
 10
-49.26125360223915
 20
326.9339191108478
 30
0.0
 10
-47.64150511546478
 20
327.1406598946793
 30
0.0
 10
-46.38132979700532
 20
327.4469906244561
 30
0.0
 10
-45.88132362990638
 20
327.5837398681373
 30
0.0
 10
-45.86457097241902
 20
327.5882656102093
 30
0.0
 10
-45.84781831493166
 20
327.5927913522813
 30
0.0
  0
ARC
  5
184
330
25
100
AcDbEntity
  8
0
  6
Continuous
 62
     7
370
    15
100
AcDbCircle
 10
-53.05713383999711
 20
327.230638839104
 30
0.0
 40
2.474098586427311
100
AcDbArc
 50
120.0726472809947
 51
181.9806895034976
  0
SPLINE
  5
185
330
25
100
AcDbEntity
  8
0
  6
Continuous
 62
     7
370
    15
100
AcDbSpline
210
0.0
220
0.0
230
1.0
 70
     8
 71
     2
 72
    10
 73
     7
 74
     0
 42
0.000000001
 43
0.000001
 40
0.0
 40
0.0
 40
0.0
 40
1.0
 40
1.0
 40
2.0
 40
2.0
 40
3.0
 40
3.0
 40
3.0
 10
-54.29689885498061
 20
329.3717008474304
 30
0.0
 10
-54.35467457571298
 20
329.3848113082096
 30
0.0
 10
-54.41245029644534
 20
329.3979217689888
 30
0.0
 10
-59.85285132076848
 20
330.6271794002004
 30
0.0
 10
-65.16713423920856
 20
331.9029814907755
 30
0.0
 10
-65.22376995731537
 20
331.916520635618
 30
0.0
 10
-65.28040567542217
 20
331.9300597804605
 30
0.0
  0
SPLINE
  5
186
330
25
100
AcDbEntity
  8
0
  6
Continuous
 62
     7
370
    15
100
AcDbSpline
210
0.0
220
0.0
230
1.0
 70
     8
 71
     2
 72
    10
 73
     7
 74
     0
 42
0.000000001
 43
0.000001
 40
0.0
 40
0.0
 40
0.0
 40
1.0
 40
1.0
 40
2.0
 40
2.0
 40
3.0
 40
3.0
 40
3.0
 10
-66.55890953089312
 20
329.7141191014658
 30
0.0
 10
-66.50199785640524
 20
329.7014649152644
 30
0.0
 10
-66.44508618191736
 20
329.688810729063
 30
0.0
 10
-61.1042802620712
 20
328.5106321900656
 30
0.0
 10
-55.6457047836164
 20
327.1733394501902
 30
0.0
 10
-55.58772950831479
 20
327.159233420297
 30
0.0
 10
-55.52975423301319
 20
327.1451273904039
 30
0.0
  0
ARC
  5
187
330
25
100
AcDbEntity
  8
0
  6
Continuous
 62
     7
370
    15
100
AcDbCircle
 10
-48.19905631579701
 20
327.4843732671039
 30
0.0
 40
2.353736310158988
100
AcDbArc
 50
2.640099244600878
 51
69.66805082449851
  0
SPLINE
  5
188
330
25
100
AcDbEntity
  8
0
  6
Continuous
 62
     7
370
    15
100
AcDbSpline
210
0.0
220
0.0
230
1.0
 70
     8
 71
     2
 72
    10
 73
     7
 74
     0
 42
0.000000001
 43
0.000001
 40
0.0
 40
0.0
 40
0.0
 40
1.0
 40
1.0
 40
2.0
 40
2.0
 40
3.0
 40
3.0
 40
3.0
 10
-37.87917025538815
 20
333.1970115256753
 30
0.0
 10
-37.9242325319845
 20
333.1800165748261
 30
0.0
 10
-37.96929480858086
 20
333.163021623977
 30
0.0
 10
-42.55765848824677
 20
331.4273521728877
 30
0.0
 10
-47.28862286929967
 20
329.7248853058876
 30
0.0
 10
-47.33492665258319
 20
329.7081730608753
 30
0.0
 10
-47.38123043586671
 20
329.691460815863
 30
0.0
  0
POLYLINE
  5
189
330
25
100
AcDbEntity
  8
0
  6
Continuous
 62
     7
370
    15
100
AcDb2dPolyline
 66
     1
 10
0.0
 20
0.0
 30
0.0
 75
     5
  0
VERTEX
  5
18A
330
189
100
AcDbEntity
  8
0
  6
Continuous
 62
     7
370
    15
100
AcDbVertex
100
AcDb2dVertex
 10
-71.25498328679697
 20
276.7899866479042
 30
0.0
  0
VERTEX
  5
18B
330
189
100
AcDbEntity
  8
0
  6
Continuous
 62
     7
370
    15
100
AcDbVertex
100
AcDb2dVertex
 10
-71.27349359259694
 20
277.6072585529041
 30
0.0
  0
VERTEX
  5
18C
330
189
100
AcDbEntity
  8
0
  6
Continuous
 62
     7
370
    15
100
AcDbVertex
100
AcDb2dVertex
 10
-70.63050951399697
 20
278.833619963904
 30
0.0
  0
VERTEX
  5
18D
330
189
100
AcDbEntity
  8
0
  6
Continuous
 62
     7
370
    15
100
AcDbVertex
100
AcDb2dVertex
 10
-69.206875916397
 20
280.0186497387041
 30
0.0
  0
VERTEX
  5
18E
330
189
100
AcDbEntity
  8
0
  6
Continuous
 62
     7
370
    15
100
AcDbVertex
100
AcDb2dVertex
 10
-67.05730357559702
 20
281.116808406904
 30
0.0
  0
VERTEX
  5
18F
330
189
100
AcDbEntity
  8
0
  6
Continuous
 62
     7
370
    15
100
AcDbVertex
100
AcDb2dVertex
 10
-64.26439867259688
 20
282.0858941577041
 30
0.0
  0
VERTEX
  5
190
330
189
100
AcDbEntity
  8
0
  6
Continuous
 62
     7
370
    15
100
AcDbVertex
100
AcDb2dVertex
 10
-60.93549093139683
 20
282.8886655977041
 30
0.0
  0
VERTEX
  5
191
330
189
100
AcDbEntity
  8
0
  6
Continuous
 62
     7
370
    15
100
AcDbVertex
100
AcDb2dVertex
 10
-57.19850915779699
 20
283.494272683104
 30
0.0
  0
VERTEX
  5
192
330
189
100
AcDbEntity
  8
0
  6
Continuous
 62
     7
370
    15
100
AcDbVertex
100
AcDb2dVertex
 10
-54.55091308599691
 20
283.776641276104
 30
0.0
  0
VERTEX
  5
193
330
189
100
AcDbEntity
  8
0
  6
Continuous
 62
     7
370
    15
100
AcDbVertex
100
AcDb2dVertex
 10
-51.83086877019701
 20
283.956031160904
 30
0.0
  0
SEQEND
  5
194
330
189
100
AcDbEntity
  8
0
  6
Continuous
 62
     7
370
    15
  0
POLYLINE
  5
195
330
25
100
AcDbEntity
  8
0
  6
Continuous
 62
     7
370
    15
100
AcDb2dPolyline
 66
     1
 10
0.0
 20
0.0
 30
0.0
 75
     5
  0
VERTEX
  5
196
330
195
100
AcDbEntity
  8
0
  6
Continuous
 62
     7
370
    15
100
AcDbVertex
100
AcDb2dVertex
 10
-51.83086877019701
 20
283.956031160904
 30
0.0
  0
VERTEX
  5
197
330
195
100
AcDbEntity
  8
0
  6
Continuous
 62
     7
370
    15
100
AcDbVertex
100
AcDb2dVertex
 10
-49.08492414539688
 20
284.0293723709041
 30
0.0
  0
VERTEX
  5
198
330
195
100
AcDbEntity
  8
0
  6
Continuous
 62
     7
370
    15
100
AcDbVertex
100
AcDb2dVertex
 10
-45.02012144839711
 20
283.9383014889042
 30
0.0
  0
VERTEX
  5
199
330
195
100
AcDbEntity
  8
0
  6
Continuous
 62
     7
370
    15
100
AcDbVertex
100
AcDb2dVertex
 10
-41.15886415239703
 20
283.609729049504
 30
0.0
  0
VERTEX
  5
19A
330
195
100
AcDbEntity
  8
0
  6
Continuous
 62
     7
370
    15
100
AcDbVertex
100
AcDb2dVertex
 10
-37.64953622199693
 20
283.0562823543041
 30
0.0
  0
VERTEX
  5
19B
330
195
100
AcDbEntity
  8
0
  6
Continuous
 62
     7
370
    15
100
AcDbVertex
100
AcDb2dVertex
 10
-34.62699985179694
 20
282.2992298301041
 30
0.0
  0
VERTEX
  5
19C
330
195
100
AcDbEntity
  8
0
  6
Continuous
 62
     7
370
    15
100
AcDbVertex
100
AcDb2dVertex
 10
-32.20740932839709
 20
281.3676645697041
 30
0.0
  0
VERTEX
  5
19D
330
195
100
AcDbEntity
  8
0
  6
Continuous
 62
     7
370
    15
100
AcDbVertex
100
AcDb2dVertex
 10
-30.4837480545969
 20
280.2973863291042
 30
0.0
  0
VERTEX
  5
19E
330
195
100
AcDbEntity
  8
0
  6
Continuous
 62
     7
370
    15
100
AcDbVertex
100
AcDb2dVertex
 10
-29.75516338619701
 20
279.5269420475042
 30
0.0
  0
VERTEX
  5
19F
330
195
100
AcDbEntity
  8
0
  6
Continuous
 62
     7
370
    15
100
AcDbVertex
100
AcDb2dVertex
 10
-29.37839193359702
 20
278.7262327153041
 30
0.0
  0
SEQEND
  5
1A0
330
195
100
AcDbEntity
  8
0
  6
Continuous
 62
     7
370
    15
  0
POLYLINE
  5
1A1
330
25
100
AcDbEntity
  8
0
  6
Continuous
 62
     7
370
    15
100
AcDb2dPolyline
 66
     1
 10
0.0
 20
0.0
 30
0.0
 75
     5
  0
VERTEX
  5
1A2
330
1A1
100
AcDbEntity
  8
0
  6
Continuous
 62
     7
370
    15
100
AcDbVertex
100
AcDb2dVertex
 10
-48.80250644999688
 20
271.560188202304
 30
0.0
  0
VERTEX
  5
1A3
330
1A1
100
AcDbEntity
  8
0
  6
Continuous
 62
     7
370
    15
100
AcDbVertex
100
AcDb2dVertex
 10
-51.54845107479701
 20
271.4868469923042
 30
0.0
  0
VERTEX
  5
1A4
330
1A1
100
AcDbEntity
  8
0
  6
Continuous
 62
     7
370
    15
100
AcDbVertex
100
AcDb2dVertex
 10
-55.61325377199711
 20
271.5779178743041
 30
0.0
  0
VERTEX
  5
1A5
330
1A1
100
AcDbEntity
  8
0
  6
Continuous
 62
     7
370
    15
100
AcDbVertex
100
AcDb2dVertex
 10
-59.4745110677971
 20
271.9064903137041
 30
0.0
  0
VERTEX
  5
1A6
330
1A1
100
AcDbEntity
  8
0
  6
Continuous
 62
     7
370
    15
100
AcDbVertex
100
AcDb2dVertex
 10
-62.98383899819697
 20
272.4599370089042
 30
0.0
  0
VERTEX
  5
1A7
330
1A1
100
AcDbEntity
  8
0
  6
Continuous
 62
     7
370
    15
100
AcDbVertex
100
AcDb2dVertex
 10
-66.00637536839696
 20
273.2169895331041
 30
0.0
  0
VERTEX
  5
1A8
330
1A1
100
AcDbEntity
  8
0
  6
Continuous
 62
     7
370
    15
100
AcDbVertex
100
AcDb2dVertex
 10
-68.42596589179703
 20
274.1485547935042
 30
0.0
  0
VERTEX
  5
1A9
330
1A1
100
AcDbEntity
  8
0
  6
Continuous
 62
     7
370
    15
100
AcDbVertex
100
AcDb2dVertex
 10
-70.149627165597
 20
275.2188330341041
 30
0.0
  0
VERTEX
  5
1AA
330
1A1
100
AcDbEntity
  8
0
  6
Continuous
 62
     7
370
    15
100
AcDbVertex
100
AcDb2dVertex
 10
-70.87821183399711
 20
275.989277315504
 30
0.0
  0
VERTEX
  5
1AB
330
1A1
100
AcDbEntity
  8
0
  6
Continuous
 62
     7
370
    15
100
AcDbVertex
100
AcDb2dVertex
 10
-71.25498328679697
 20
276.7899866479042
 30
0.0
  0
SEQEND
  5
1AC
330
1A1
100
AcDbEntity
  8
0
  6
Continuous
 62
     7
370
    15
  0
SPLINE
  5
1AD
330
25
100
AcDbEntity
  8
0
  6
Continuous
 62
     7
370
    15
100
AcDbSpline
210
0.0
220
0.0
230
1.0
 70
     8
 71
     2
 72
    18
 73
    15
 74
     0
 42
0.000000001
 43
0.000001
 40
0.0
 40
0.0
 40
0.0
 40
1.0
 40
1.0
 40
2.0
 40
3.0
 40
4.0
 40
5.0
 40
6.0
 40
7.0
 40
8.0
 40
9.0
 40
10.0
 40
10.0
 40
11.0
 40
11.0
 40
11.0
 10
-67.25907425826114
 20
332.5800580609488
 30
0.0
 10
-67.26493906400395
 20
332.5777760032355
 30
0.0
 10
-67.27080386974677
 20
332.5754939455222
 30
0.0
 10
-67.44760892552068
 20
332.5071982011235
 30
0.0
 10
-67.79067465454392
 20
332.368632099311
 30
0.0
 10
-68.46187915309525
 20
332.0425187152556
 30
0.0
 10
-68.88250952243021
 20
331.5185711332709
 30
0.0
 10
-68.88497496720566
 20
331.027974263105
 30
0.0
 10
-68.57100081993968
 20
330.6236160443735
 30
0.0
 10
-68.16912856922346
 20
330.3365914932614
 30
0.0
 10
-67.61279140513608
 20
330.0760500331327
 30
0.0
 10
-66.93711589802598
 20
329.8378718465295
 30
0.0
 10
-66.58243694004824
 20
329.7218740007744
 30
0.0
 10
-66.57067323547068
 20
329.7179965511201
 30
0.0
 10
-66.55890953089312
 20
329.7141191014658
 30
0.0
  0
SPLINE
  5
1AE
330
25
100
AcDbEntity
  8
0
  6
Continuous
 62
     7
370
    15
100
AcDbSpline
210
0.0
220
0.0
230
1.0
 70
     8
 71
     2
 72
    11
 73
     8
 74
     0
 42
0.000000001
 43
0.000001
 40
0.0
 40
0.0
 40
0.0
 40
1.0
 40
1.0
 40
2.0
 40
3.0
 40
3.0
 40
4.0
 40
4.0
 40
4.0
 10
-67.25907425826114
 20
332.5800580609488
 30
0.0
 10
-67.27715297645915
 20
332.4453472327448
 30
0.0
 10
-67.29523169465716
 20
332.3106364045408
 30
0.0
 10
-69.15829459311459
 20
318.9212104793841
 30
0.0
 10
-71.43114401892245
 20
291.254617030632
 30
0.0
 10
-71.25500311786419
 20
276.7914156503079
 30
0.0
 10
-71.25499301235828
 20
276.7907003716475
 30
0.0
 10
-71.25498290685238
 20
276.789985092987
 30
0.0
  0
SPLINE
  5
1AF
330
25
100
AcDbEntity
  8
0
  6
Continuous
 62
     7
370
    15
100
AcDbSpline
210
0.0
220
0.0
230
1.0
 70
     8
 71
     2
 72
    11
 73
     8
 74
     0
 42
0.000000001
 43
0.000001
 40
0.0
 40
0.0
 40
0.0
 40
1.0
 40
1.0
 40
2.0
 40
3.0
 40
3.0
 40
4.0
 40
4.0
 40
4.0
 10
-71.25498290685238
 20
276.789985092987
 30
0.0
 10
-71.25498052225959
 20
276.7906492467346
 30
0.0
 10
-71.2549781376668
 20
276.7913134004822
 30
0.0
 10
-71.1475874625101
 20
290.1814250983738
 30
0.0
 10
-68.52503099933011
 20
316.4067735239791
 30
0.0
 10
-66.59687748979223
 20
329.4521083396318
 30
0.0
 10
-66.57789351034268
 20
329.5831137205488
 30
0.0
 10
-66.55890953089312
 20
329.7141191014658
 30
0.0
  0
ARC
  5
1B0
330
25
100
AcDbEntity
  8
0
  6
Continuous
 62
     7
370
    15
100
AcDbCircle
 10
-65.9848121829969
 20
332.712432589704
 30
0.0
 40
1.28111937466843
100
AcDbArc
 50
80.8243753947089
 51
185.9308002246979
  0
ARC
  5
1B1
330
25
100
AcDbEntity
  8
0
  6
Continuous
 62
     7
370
    15
100
AcDbCircle
 10
-64.11996967959686
 20
329.7837457837041
 30
0.0
 40
2.439933497701699
100
AcDbArc
 50
118.3985199090049
 51
181.6352317246011
  0
SPLINE
  5
1B2
330
25
100
AcDbEntity
  8
0
  6
Continuous
 62
     7
370
    15
100
AcDbSpline
210
0.0
220
0.0
230
1.0
 70
     8
 71
     2
 72
    18
 73
    15
 74
     0
 42
0.000000001
 43
0.000001
 40
0.0
 40
0.0
 40
0.0
 40
1.0
 40
1.0
 40
2.0
 40
3.0
 40
4.0
 40
5.0
 40
6.0
 40
7.0
 40
8.0
 40
9.0
 40
10.0
 40
10.0
 40
11.0
 40
11.0
 40
11.0
 10
-65.28040567542217
 20
331.9300597804605
 30
0.0
 10
-65.28756905992185
 20
331.9321960587425
 30
0.0
 10
-65.29473244442153
 20
331.9343323370246
 30
0.0
 10
-65.51085455305912
 20
331.9981527900242
 30
0.0
 10
-65.9278544124416
 20
332.1291476303585
 30
0.0
 10
-66.46264892063556
 20
332.3391811247005
 30
0.0
 10
-66.88490966752744
 20
332.6868813126317
 30
0.0
 10
-66.97749493023508
 20
333.0727585838393
 30
0.0
 10
-66.8104988220851
 20
333.3607962488494
 30
0.0
 10
-66.52783295863384
 20
333.6321099397707
 30
0.0
 10
-66.1054259167816
 20
333.8372137785094
 30
0.0
 10
-65.89511624737685
 20
333.9287390156049
 30
0.0
 10
-65.78767033365085
 20
333.9741303203697
 30
0.0
 10
-65.78409683234764
 20
333.9756446649188
 30
0.0
 10
-65.78052333104444
 20
333.977159009468
 30
0.0
  0
SPLINE
  5
1B3
330
25
100
AcDbEntity
  8
0
  6
Continuous
 62
     7
370
    15
100
AcDbSpline
210
0.0
220
0.0
230
1.0
 70
     8
 71
     2
 72
    11
 73
     8
 74
     0
 42
0.000000001
 43
0.000001
 40
0.0
 40
0.0
 40
0.0
 40
1.0
 40
1.0
 40
2.0
 40
3.0
 40
3.0
 40
4.0
 40
4.0
 40
4.0
 10
-29.37839231339132
 20
278.7262342701771
 30
0.0
 10
-29.37843204875281
 20
278.7269481786319
 30
0.0
 10
-29.37847178411431
 20
278.7276620870866
 30
0.0
 10
-30.22805780925302
 20
293.1711656725594
 30
0.0
 10
-34.3126323691111
 20
320.5266453553083
 30
0.0
 10
-36.95417151039175
 20
333.7135164885686
 30
0.0
 10
-36.98030146250227
 20
333.8461834527154
 30
0.0
 10
-37.00643141461279
 20
333.9788504168622
 30
0.0
  0
SPLINE
  5
1B4
330
25
100
AcDbEntity
  8
0
  6
Continuous
 62
     7
370
    15
100
AcDbSpline
210
0.0
220
0.0
230
1.0
 70
     8
 71
     2
 72
    18
 73
    15
 74
     0
 42
0.000000001
 43
0.000001
 40
0.0
 40
0.0
 40
0.0
 40
1.0
 40
1.0
 40
2.0
 40
3.0
 40
4.0
 40
5.0
 40
6.0
 40
7.0
 40
8.0
 40
9.0
 40
10.0
 40
10.0
 40
11.0
 40
11.0
 40
11.0
 10
-36.30626668724454
 20
331.1129114573793
 30
0.0
 10
-36.30041333576236
 20
331.115616127362
 30
0.0
 10
-36.29455998428017
 20
331.1183207973448
 30
0.0
 10
-36.11810002967542
 20
331.1993492700457
 30
0.0
 10
-35.77570643914197
 20
331.3627143427972
 30
0.0
 10
-35.10583940739599
 20
331.7381744499097
 30
0.0
 10
-34.68618266245159
 20
332.298048408955
 30
0.0
 10
-34.68393415333577
 20
332.7966467594518
 30
0.0
 10
-34.99752699413494
 20
333.1869351161791
 30
0.0
 10
-35.39880998050177
 20
333.4522182946797
 30
0.0
 10
-35.95427013370801
 20
333.6804018764593
 30
0.0
 10
-36.62884527480838
 20
333.8779813556702
 30
0.0
 10
-36.98294256305331
 20
333.9725181247055
 30
0.0
 10
-36.99468698883305
 20
333.9756842707839
 30
0.0
 10
-37.00643141461279
 20
333.9788504168622
 30
0.0
  0
SPLINE
  5
1B5
330
25
100
AcDbEntity
  8
0
  6
Continuous
 62
     7
370
    15
100
AcDbSpline
210
0.0
220
0.0
230
1.0
 70
     8
 71
     2
 72
    11
 73
     8
 74
     0
 42
0.000000001
 43
0.000001
 40
0.0
 40
0.0
 40
0.0
 40
1.0
 40
1.0
 40
2.0
 40
3.0
 40
3.0
 40
4.0
 40
4.0
 40
4.0
 10
-48.03558671249249
 20
336.5478421279239
 30
0.0
 10
-48.03987103824153
 20
336.4222598216334
 30
0.0
 10
-48.04415536399057
 20
336.2966775153428
 30
0.0
 10
-48.61721309471051
 20
317.7943080327006
 30
0.0
 10
-51.07170055796888
 20
291.4728532255544
 30
0.0
 10
-51.83073651651108
 20
283.9574081956407
 30
0.0
 10
-51.83080526977977
 20
283.9567195568073
 30
0.0
 10
-51.83087402304847
 20
283.9560309179739
 30
0.0
  0
SPLINE
  5
1B6
330
25
100
AcDbEntity
  8
0
  6
Continuous
 62
     7
370
    15
100
AcDbSpline
210
0.0
220
0.0
230
1.0
 70
     8
 71
     2
 72
    11
 73
     8
 74
     0
 42
0.000000001
 43
0.000001
 40
0.0
 40
0.0
 40
0.0
 40
1.0
 40
1.0
 40
2.0
 40
3.0
 40
3.0
 40
4.0
 40
4.0
 40
4.0
 10
-37.00643141461279
 20
333.9788504168622
 30
0.0
 10
-37.0633928018114
 20
333.9933387853141
 30
0.0
 10
-37.12035418901002
 20
334.007827153766
 30
0.0
 10
-40.6433156216097
 20
334.9252003914522
 30
0.0
 10
-45.94940916340335
 20
336.1079851243347
 30
0.0
 10
-47.91973557170087
 20
336.5232978566906
 30
0.0
 10
-47.97766114209668
 20
336.5355699923073
 30
0.0
 10
-48.03558671249249
 20
336.5478421279239
 30
0.0
  0
POLYLINE
  5
1B7
330
25
100
AcDbEntity
  8
0
  6
Continuous
 62
     7
370
    15
100
AcDb2dPolyline
 66
     1
 10
0.0
 20
0.0
 30
0.0
 75
     5
  0
VERTEX
  5
1B8
330
1B7
100
AcDbEntity
  8
0
  6
Continuous
 62
     7
370
    15
100
AcDbVertex
100
AcDb2dVertex
 10
-37.00643141459688
 20
333.978850416904
 30
0.0
  0
VERTEX
  5
1B9
330
1B7
100
AcDbEntity
  8
0
  6
Continuous
 62
     7
370
    15
100
AcDbVertex
100
AcDb2dVertex
 10
-37.06014563859691
 20
334.310430969104
 30
0.0
  0
VERTEX
  5
1BA
330
1B7
100
AcDbEntity
  8
0
  6
Continuous
 62
     7
370
    15
100
AcDbVertex
100
AcDb2dVertex
 10
-37.15726633739706
 20
334.608621025504
 30
0.0
  0
VERTEX
  5
1BB
330
1B7
100
AcDbEntity
  8
0
  6
Continuous
 62
     7
370
    15
100
AcDbVertex
100
AcDb2dVertex
 10
-37.2944672657971
 20
334.8632083465039
 30
0.0
  0
VERTEX
  5
1BC
330
1B7
100
AcDbEntity
  8
0
  6
Continuous
 62
     7
370
    15
100
AcDbVertex
100
AcDb2dVertex
 10
-37.46704926739704
 20
335.0654676343041
 30
0.0
  0
VERTEX
  5
1BD
330
1B7
100
AcDbEntity
  8
0
  6
Continuous
 62
     7
370
    15
100
AcDbVertex
100
AcDb2dVertex
 10
-37.66910209239705
 20
335.208479347904
 30
0.0
  0
VERTEX
  5
1BE
330
1B7
100
AcDbEntity
  8
0
  6
Continuous
 62
     7
370
    15
100
AcDbVertex
100
AcDb2dVertex
 10
-37.89370609379699
 20
335.2873438219041
 30
0.0
  0
VERTEX
  5
1BF
330
1B7
100
AcDbEntity
  8
0
  6
Continuous
 62
     7
370
    15
100
AcDbVertex
100
AcDb2dVertex
 10
-38.1331683463971
 20
335.2993560813039
 30
0.0
  0
VERTEX
  5
1C0
330
1B7
100
AcDbEntity
  8
0
  6
Continuous
 62
     7
370
    15
100
AcDbVertex
100
AcDb2dVertex
 10
-38.37928791099699
 20
335.2441107547041
 30
0.0
  0
SEQEND
  5
1C1
330
1B7
100
AcDbEntity
  8
0
  6
Continuous
 62
     7
370
    15
  0
ARC
  5
1C2
330
25
100
AcDbEntity
  8
0
  6
Continuous
 62
     7
370
    15
100
AcDbCircle
 10
-38.63570507319702
 20
330.990444888704
 30
0.0
 40
2.332655408364367
100
AcDbArc
 50
3.009465077600423
 51
71.0754093710968
  0
SPLINE
  5
1C3
330
25
100
AcDbEntity
  8
0
  6
Continuous
 62
     7
370
    15
100
AcDbSpline
210
0.0
220
0.0
230
1.0
 70
     8
 71
     2
 72
    18
 73
    15
 74
     0
 42
0.000000001
 43
0.000001
 40
0.0
 40
0.0
 40
0.0
 40
1.0
 40
1.0
 40
2.0
 40
3.0
 40
4.0
 40
5.0
 40
6.0
 40
7.0
 40
8.0
 40
9.0
 40
10.0
 40
10.0
 40
11.0
 40
11.0
 40
11.0
 10
-38.37928791101041
 20
335.2441107546828
 30
0.0
 10
-38.37212452651085
 20
335.2419744764007
 30
0.0
 10
-38.36496114201128
 20
335.2398381981187
 30
0.0
 10
-38.14883903337369
 20
335.1760177451184
 30
0.0
 10
-37.73183917399075
 20
335.0450229047864
 30
0.0
 10
-37.19704466579748
 20
334.8349894104421
 30
0.0
 10
-36.77478391890537
 20
334.4872892225122
 30
0.0
 10
-36.68219865619773
 20
334.1014119513037
 30
0.0
 10
-36.84919476434771
 20
333.8133742862937
 30
0.0
 10
-37.13186062779943
 20
333.5420605953731
 30
0.0
 10
-37.55426766965121
 20
333.3369567566341
 30
0.0
 10
-37.76457733905596
 20
333.2454315195381
 30
0.0
 10
-37.87202325278196
 20
333.2000402147736
 30
0.0
 10
-37.87559675408505
 20
333.1985258702244
 30
0.0
 10
-37.87917025538815
 20
333.1970115256753
 30
0.0
  0
SPLINE
  5
1C4
330
25
100
AcDbEntity
  8
0
  6
Continuous
 62
     7
370
    15
100
AcDbSpline
210
0.0
220
0.0
230
1.0
 70
     8
 71
     2
 72
    11
 73
     8
 74
     0
 42
0.000000001
 43
0.000001
 40
0.0
 40
0.0
 40
0.0
 40
1.0
 40
1.0
 40
2.0
 40
3.0
 40
3.0
 40
4.0
 40
4.0
 40
4.0
 10
-57.7175226305738
 20
336.1001781660467
 30
0.0
 10
-57.76397199179047
 20
336.0842267476802
 30
0.0
 10
-57.81042135300714
 20
336.0682753293137
 30
0.0
 10
-61.25783292817351
 20
334.9056928630556
 30
0.0
 10
-65.81007620641577
 20
333.1535529080132
 30
0.0
 10
-67.1684814239041
 20
332.6158495357057
 30
0.0
 10
-67.21377784108262
 20
332.5979537983272
 30
0.0
 10
-67.25907425826114
 20
332.5800580609488
 30
0.0
  0
SPLINE
  5
1C5
330
25
100
AcDbEntity
  8
0
  6
Continuous
 62
     7
370
    15
100
AcDbSpline
210
0.0
220
0.0
230
1.0
 70
     8
 71
     2
 72
    11
 73
     8
 74
     0
 42
0.000000001
 43
0.000001
 40
0.0
 40
0.0
 40
0.0
 40
1.0
 40
1.0
 40
2.0
 40
3.0
 40
3.0
 40
4.0
 40
4.0
 40
4.0
 10
-51.83087402304847
 20
283.9560309179739
 30
0.0
 10
-51.83097798390128
 20
283.9567115710193
 30
0.0
 10
-51.83108194475409
 20
283.9573922240647
 30
0.0
 10
-53.26238617000973
 20
293.1266813649469
 30
0.0
 10
-56.6501934579772
 20
319.0739524276104
 30
0.0
 10
-57.70105522674277
 20
335.8501711463078
 30
0.0
 10
-57.70928892865828
 20
335.9751746561773
 30
0.0
 10
-57.7175226305738
 20
336.1001781660467
 30
0.0
  0
POLYLINE
  5
1C6
330
25
100
AcDbEntity
  8
0
  6
Continuous
 62
     7
370
    15
100
AcDb2dPolyline
 66
     1
 10
0.0
 20
0.0
 30
0.0
 75
     5
  0
VERTEX
  5
1C7
330
1C6
100
AcDbEntity
  8
0
  6
Continuous
 62
     7
370
    15
100
AcDbVertex
100
AcDb2dVertex
 10
-48.03558671239699
 20
336.5478421279041
 30
0.0
  0
VERTEX
  5
1C8
330
1C6
100
AcDbEntity
  8
0
  6
Continuous
 62
     7
370
    15
100
AcDbVertex
100
AcDb2dVertex
 10
-48.08777587039691
 20
336.8790674505041
 30
0.0
  0
VERTEX
  5
1C9
330
1C6
100
AcDbEntity
  8
0
  6
Continuous
 62
     7
370
    15
100
AcDbVertex
100
AcDb2dVertex
 10
-48.18185981519701
 20
337.176550164104
 30
0.0
  0
VERTEX
  5
1CA
330
1C6
100
AcDbEntity
  8
0
  6
Continuous
 62
     7
370
    15
100
AcDbVertex
100
AcDb2dVertex
 10
-48.314617211197
 20
337.430102464704
 30
0.0
  0
VERTEX
  5
1CB
330
1C6
100
AcDbEntity
  8
0
  6
Continuous
 62
     7
370
    15
100
AcDbVertex
100
AcDb2dVertex
 10
-48.481500985997
 20
337.6310344799041
 30
0.0
  0
VERTEX
  5
1CC
330
1C6
100
AcDbEntity
  8
0
  6
Continuous
 62
     7
370
    15
100
AcDbVertex
100
AcDb2dVertex
 10
-48.67679521979682
 20
337.7724719329041
 30
0.0
  0
VERTEX
  5
1CD
330
1C6
100
AcDbEntity
  8
0
  6
Continuous
 62
     7
370
    15
100
AcDbVertex
100
AcDb2dVertex
 10
-48.89381261659702
 20
337.8495692793041
 30
0.0
  0
VERTEX
  5
1CE
330
1C6
100
AcDbEntity
  8
0
  6
Continuous
 62
     7
370
    15
100
AcDbVertex
100
AcDb2dVertex
 10
-49.12511935719687
 20
337.8596818969041
 30
0.0
  0
VERTEX
  5
1CF
330
1C6
100
AcDbEntity
  8
0
  6
Continuous
 62
     7
370
    15
100
AcDbVertex
100
AcDb2dVertex
 10
-49.36279473139695
 20
337.802469687704
 30
0.0
  0
SEQEND
  5
1D0
330
1C6
100
AcDbEntity
  8
0
  6
Continuous
 62
     7
370
    15
  0
SPLINE
  5
1D1
330
25
100
AcDbEntity
  8
0
  6
Continuous
 62
     7
370
    15
100
AcDbSpline
210
0.0
220
0.0
230
1.0
 70
     8
 71
     2
 72
    10
 73
     7
 74
     0
 42
0.000000001
 43
0.000001
 40
0.0
 40
0.0
 40
0.0
 40
1.0
 40
1.0
 40
2.0
 40
2.0
 40
3.0
 40
3.0
 40
3.0
 10
-49.3627947314522
 20
337.8024696877129
 30
0.0
 10
-49.30501901071983
 20
337.7893592269337
 30
0.0
 10
-49.24724328998747
 20
337.7762487661545
 30
0.0
 10
-43.80684226566433
 20
336.5469911349436
 30
0.0
 10
-38.49255934722424
 20
335.2711890443678
 30
0.0
 10
-38.43592362911733
 20
335.2576498995253
 30
0.0
 10
-38.37928791101041
 20
335.2441107546828
 30
0.0
  0
ARC
  5
1D2
330
25
100
AcDbEntity
  8
0
  6
Continuous
 62
     7
370
    15
100
AcDbCircle
 10
-56.47947353099681
 20
336.251723747304
 30
0.0
 40
1.247289716231599
100
AcDbArc
 50
80.72589856040086
 51
186.9786742276049
  0
SPLINE
  5
1D3
330
25
100
AcDbEntity
  8
0
  6
Continuous
 62
     7
370
    15
100
AcDbSpline
210
0.0
220
0.0
230
1.0
 70
     8
 71
     2
 72
    10
 73
     7
 74
     0
 42
0.000000001
 43
0.000001
 40
0.0
 40
0.0
 40
0.0
 40
1.0
 40
1.0
 40
2.0
 40
2.0
 40
3.0
 40
3.0
 40
3.0
 10
-65.78052333104444
 20
333.977159009468
 30
0.0
 10
-65.7354610544482
 20
333.9941539603171
 30
0.0
 10
-65.69039877785195
 20
334.0111489111663
 30
0.0
 10
-61.10203509818604
 20
335.7468183622556
 30
0.0
 10
-56.37107071713314
 20
337.4492852292557
 30
0.0
 10
-56.32476693384962
 20
337.465997474268
 30
0.0
 10
-56.2784631505661
 20
337.4827097192803
 30
0.0
  0
SPLINE
  5
1D4
330
25
100
AcDbEntity
  8
0
  6
Continuous
 62
     7
370
    15
100
AcDbSpline
210
0.0
220
0.0
230
1.0
 70
     8
 71
     2
 72
    16
 73
    13
 74
     0
 42
0.000000001
 43
0.000001
 40
0.0
 40
0.0
 40
0.0
 40
1.0
 40
1.0
 40
2.0
 40
3.0
 40
4.0
 40
5.0
 40
6.0
 40
7.0
 40
8.0
 40
8.0
 40
9.0
 40
9.0
 40
9.0
 10
-48.03558671249249
 20
336.5478421279239
 30
0.0
 10
-48.04590764212793
 20
336.5501453627031
 30
0.0
 10
-48.05622857176337
 20
336.5524485974823
 30
0.0
 10
-48.36466176882396
 20
336.6222081557797
 30
0.0
 10
-49.60326414442926
 20
336.8784041103344
 30
0.0
 10
-51.42211204747656
 20
336.9933816500114
 30
0.0
 10
-52.86566771297163
 20
336.9856281004182
 30
0.0
 10
-54.30745005746149
 20
336.8831198978429
 30
0.0
 10
-55.92631643827286
 20
336.6438332504869
 30
0.0
 10
-57.18482529057502
 20
336.2760171862782
 30
0.0
 10
-57.68406773707085
 20
336.1110899826202
 30
0.0
 10
-57.70079518382232
 20
336.1056340743335
 30
0.0
 10
-57.7175226305738
 20
336.1001781660467
 30
0.0
  0
SPLINE
  5
1D5
330
25
100
AcDbEntity
  8
0
  6
Continuous
 62
     7
370
    15
100
AcDbSpline
210
0.0
220
0.0
230
1.0
 70
     8
 71
     2
 72
    16
 73
    13
 74
     0
 42
0.000000001
 43
0.000001
 40
0.0
 40
0.0
 40
0.0
 40
1.0
 40
1.0
 40
2.0
 40
3.0
 40
4.0
 40
5.0
 40
6.0
 40
7.0
 40
8.0
 40
8.0
 40
9.0
 40
9.0
 40
9.0
 10
-56.2784631505661
 20
337.4827097192803
 30
0.0
 10
-56.26736624070276
 20
337.4860312888584
 30
0.0
 10
-56.25626933083942
 20
337.4893528584365
 30
0.0
 10
-55.96908385928606
 20
337.576287215665
 30
0.0
 10
-55.05912471767834
 20
337.8347990078779
 30
0.0
 10
-54.03728616490531
 20
337.9715325576072
 30
0.0
 10
-52.85532911120055
 20
338.0873235041917
 30
0.0
 10
-51.42030547166547
 20
338.0671710290889
 30
0.0
 10
-50.32310560096863
 20
337.9839398311354
 30
0.0
 10
-49.58126852159518
 20
337.8459307030004
 30
0.0
 10
-49.37647694104436
 20
337.8051722068516
 30
0.0
 10
-49.36963583624828
 20
337.8038209472822
 30
0.0
 10
-49.3627947314522
 20
337.8024696877129
 30
0.0
  0
LINE
  5
1D6
330
25
100
AcDbEntity
  8
0
  6
Continuous
 62
     7
370
    15
100
AcDbLine
 10
-29.51046148939696
 20
277.440118808304
 30
0.0
 11
-29.58739281199706
 21
282.5656263711041
 31
0.0
  0
SPLINE
  5
1D7
330
25
100
AcDbEntity
  8
0
  6
Continuous
 62
     7
370
    15
100
AcDbSpline
210
0.0
220
0.0
230
1.0
 70
     8
 71
     2
 72
    11
 73
     8
 74
     0
 42
0.000000001
 43
0.000001
 40
0.0
 40
0.0
 40
0.0
 40
1.0
 40
1.0
 40
2.0
 40
3.0
 40
3.0
 40
4.0
 40
4.0
 40
4.0
 10
-68.83982562026569
 20
331.3354268144116
 30
0.0
 10
-68.85079065049939
 20
331.2292013451432
 30
0.0
 10
-68.8617556807331
 20
331.1229758758749
 30
0.0
 10
-69.49221988378923
 20
325.2320132583351
 30
0.0
 10
-71.27554537063048
 20
300.5960585846182
 30
0.0
 10
-71.25470278433755
 20
281.3556569166721
 30
0.0
 10
-71.25483233071276
 20
281.2123598243903
 30
0.0
 10
-71.25496187708796
 20
281.0690627321084
 30
0.0
  0
SPLINE
  5
1D8
330
25
100
AcDbEntity
  8
0
  6
Continuous
 62
     7
370
    15
100
AcDbSpline
210
0.0
220
0.0
230
1.0
 70
     8
 71
     2
 72
    17
 73
    14
 74
     0
 42
0.000000001
 43
0.000001
 40
0.0
 40
0.0
 40
0.0
 40
1.0
 40
1.0
 40
2.0
 40
3.0
 40
4.0
 40
5.0
 40
6.0
 40
7.0
 40
8.0
 40
9.0
 40
9.0
 40
10.0
 40
10.0
 40
10.0
 10
-66.42219173557788
 20
333.9299496117729
 30
0.0
 10
-66.42370015733292
 20
333.9294723039254
 30
0.0
 10
-66.42520857908795
 20
333.9289949960779
 30
0.0
 10
-66.74818789705097
 20
333.8316728180415
 30
0.0
 10
-67.2460706866189
 20
333.58617243366
 30
0.0
 10
-67.65366508375774
 20
333.3158665360924
 30
0.0
 10
-68.08093751895404
 20
332.9684736213666
 30
0.0
 10
-68.40265747774339
 20
332.5914620912548
 30
0.0
 10
-68.62035245131148
 20
332.2536802349383
 30
0.0
 10
-68.75885724546453
 20
331.876371367776
 30
0.0
 10
-68.83813566492819
 20
331.5490076090149
 30
0.0
 10
-68.87300114676265
 20
331.382743146566
 30
0.0
 10
-68.87418004022601
 20
331.3772100226809
 30
0.0
 10
-68.87535893368937
 20
331.3716768987957
 30
0.0
  0
SPLINE
  5
1D9
330
25
100
AcDbEntity
  8
0
  6
Continuous
 62
     7
370
    15
100
AcDbSpline
210
0.0
220
0.0
230
1.0
 70
     8
 71
     2
 72
    11
 73
     8
 74
     0
 42
0.000000001
 43
0.000001
 40
0.0
 40
0.0
 40
0.0
 40
1.0
 40
1.0
 40
2.0
 40
3.0
 40
3.0
 40
4.0
 40
4.0
 40
4.0
 10
-29.53358021717742
 20
281.7636492555466
 30
0.0
 10
-29.53759460297607
 20
281.8393725382866
 30
0.0
 10
-29.54160898877473
 20
281.9150958210266
 30
0.0
 10
-30.51151325302345
 20
300.6627101297808
 30
0.0
 10
-33.6172133693122
 20
325.6465711641303
 30
0.0
 10
-34.69562627474585
 20
332.3883550332338
 30
0.0
 10
-34.71597962935419
 20
332.5178371999751
 30
0.0
 10
-34.73633298396254
 20
332.6473193667165
 30
0.0
  0
SPLINE
  5
1DA
330
25
100
AcDbEntity
  8
0
  6
Continuous
 62
     7
370
    15
100
AcDbSpline
210
0.0
220
0.0
230
1.0
 70
     8
 71
     2
 72
    17
 73
    14
 74
     0
 42
0.000000001
 43
0.000001
 40
0.0
 40
0.0
 40
0.0
 40
1.0
 40
1.0
 40
2.0
 40
3.0
 40
4.0
 40
5.0
 40
6.0
 40
7.0
 40
8.0
 40
9.0
 40
9.0
 40
10.0
 40
10.0
 40
10.0
 10
-34.7273627951825
 20
332.6505002232412
 30
0.0
 10
-34.72744905650319
 20
332.6525506349298
 30
0.0
 10
-34.72753531782388
 20
332.6546010466183
 30
0.0
 10
-34.72990756274822
 20
332.7161630861184
 30
0.0
 10
-34.744792508888
 20
332.9852275948382
 30
0.0
 10
-34.8919911558317
 20
333.3598311623299
 30
0.0
 10
-35.32189328310398
 20
334.0346465781214
 30
0.0
 10
-36.07770783606298
 20
334.6077032639074
 30
0.0
 10
-36.74323914523239
 20
334.9433161595192
 30
0.0
 10
-37.28886987688298
 20
335.1171308650841
 30
0.0
 10
-37.67211078808924
 20
335.2158096725494
 30
0.0
 10
-37.86647603357943
 20
335.2627590273659
 30
0.0
 10
-37.87294525233943
 20
335.264332374743
 30
0.0
 10
-37.87941447109944
 20
335.2659057221202
 30
0.0
  0
LINE
  5
1DB
330
25
100
AcDbEntity
  8
0
  6
Continuous
 62
     7
370
    15
100
AcDbLine
 10
-71.26129831279701
 20
281.9087138437041
 30
0.0
 11
-71.0960805061971
 21
278.1341985187041
 31
0.0
  0
SPLINE
  5
1DC
330
25
100
AcDbEntity
  8
0
  6
Continuous
 62
     7
370
    15
100
AcDbSpline
210
0.0
220
0.0
230
1.0
 70
     8
 71
     2
 72
    10
 73
     7
 74
     0
 42
0.000000001
 43
0.000001
 40
0.0
 40
0.0
 40
0.0
 40
1.0
 40
1.0
 40
2.0
 40
2.0
 40
3.0
 40
3.0
 40
3.0
 10
-37.88166050066076
 20
335.2720085109023
 30
0.0
 10
-37.93681464375749
 20
335.2853859733005
 30
0.0
 10
-37.99196878685422
 20
335.2987634356988
 30
0.0
 10
-43.2841299497689
 20
336.5893349651459
 30
0.0
 10
-48.76523594799238
 20
337.8133204077441
 30
0.0
 10
-48.82471756767637
 20
337.8266837544874
 30
0.0
 10
-48.88419918736037
 20
337.8400471012307
 30
0.0
  0
SPLINE
  5
1DD
330
25
100
AcDbEntity
  8
0
  6
Continuous
 62
     7
370
    15
100
AcDbSpline
210
0.0
220
0.0
230
1.0
 70
     8
 71
     2
 72
    11
 73
     8
 74
     0
 42
0.000000001
 43
0.000001
 40
0.0
 40
0.0
 40
0.0
 40
1.0
 40
1.0
 40
2.0
 40
3.0
 40
3.0
 40
4.0
 40
4.0
 40
4.0
 10
-56.87846250667423
 20
337.4504959785855
 30
0.0
 10
-56.92330681733728
 20
337.4345083122462
 30
0.0
 10
-56.96815112800033
 20
337.4185206459068
 30
0.0
 10
-60.38795286332316
 20
336.2085303481546
 30
0.0
 10
-64.9235558550966
 20
334.5055992204528
 30
0.0
 10
-66.32908738655175
 20
333.9705561786701
 30
0.0
 10
-66.375966103199
 20
333.9527280558606
 30
0.0
 10
-66.42284481984626
 20
333.934899933051
 30
0.0
  0
SPLINE
  5
1DE
330
25
100
AcDbEntity
  8
0
  6
Continuous
 62
     7
370
    15
100
AcDbSpline
210
0.0
220
0.0
230
1.0
 70
     8
 71
     2
 72
    15
 73
    12
 74
     0
 42
0.000000001
 43
0.000001
 40
0.0
 40
0.0
 40
0.0
 40
1.0
 40
1.0
 40
2.0
 40
3.0
 40
4.0
 40
5.0
 40
6.0
 40
7.0
 40
7.0
 40
8.0
 40
8.0
 40
8.0
 10
-48.88309257381371
 20
337.8366261897776
 30
0.0
 10
-48.88472999756692
 20
337.8370877382098
 30
0.0
 10
-48.88636742132013
 20
337.837549286642
 30
0.0
 10
-49.29160534288786
 20
337.9546623728942
 30
0.0
 10
-50.39498628136886
 20
338.0955583336857
 30
0.0
 10
-51.89509142253866
 20
338.1870239353594
 30
0.0
 10
-53.81990982349981
 20
338.1155230479518
 30
0.0
 10
-55.6444662203665
 20
337.841745498151
 30
0.0
 10
-56.60225554013078
 20
337.5465550754772
 30
0.0
 10
-56.87185520570966
 20
337.4572786085204
 30
0.0
 10
-56.88086420448684
 20
337.4543173364826
 30
0.0
 10
-56.88987320326402
 20
337.4513560644449
 30
0.0
  0
INSERT
  5
1DF
330
25
100
AcDbEntity
  8
一般
 62
     7
100
AcDbBlockReference
  2
*U0
 10
0.0
 20
0.0
 30
0.0
  0
ENDBLK
  5
1E0
330
25
100
AcDbEntity
  8
一般
100
AcDbBlockEnd
  0
ENDSEC
  0
SECTION
  2
ENTITIES
  0
MTEXT
  5
1E1
330
A
100
AcDbEntity
  8
0
 62
     7
100
AcDbMText
 10
233.6960490288014
 20
104.3363794907809
 30
0.0
 40
3.116116565141146
 41
0.0
 46
3.169090546748546
 71
     1
 72
     1
  1
{HFD-D98P/B/E}
  7
Arial
 73
     1
 44
0.9673603504928808
  0
INSERT
  5
1E2
330
A
100
AcDbEntity
  8
一般
 62
     7
100
AcDbBlockReference
  2
*U1
 10
211.7333011756472
 20
148.558316784827
 30
0.0
 41
0.2
 42
0.2
 43
0.2
 50
358.4459574425073
  0
ENDSEC
  0
SECTION
  2
OBJECTS
  0
DICTIONARY
  5
19
330
0
100
AcDbDictionary
281
     1
  3
ACAD_DETAILVIEWSTYLE
350
22C
  3
ACAD_GROUP
350
1A
  3
ACAD_LAYOUT
350
1E
  3
ACAD_MATERIAL
350
21E
  3
ACAD_MLEADERSTYLE
350
224
  3
ACAD_MLINESTYLE
350
1B
  3
ACAD_PLOTSETTINGS
350
22
  3
ACAD_PLOTSTYLENAME
350
1F
  3
ACAD_SCALELIST
350
1E3
  3
ACAD_SECTIONVIEWSTYLE
350
22D
  3
ACAD_TABLESTYLE
350
222
  3
ACAD_VISUALSTYLE
350
205
  3
ACAD_WIPEOUT_VARS
350
23
  3
ACDB_RECOMPOSE_DATA
350
735
  3
AcDbVariableDictionary
350
227
  3
APPDATA
350
226
  0
SUN
  5
22E
330
15
100
AcDbSun
 90
        1
290
     0
 63
     7
421
 16777215
 40
1.0
291
     1
 91
  2455826
 92
 54000000
292
     0
 70
     2
 71
   256
280
     1
  0
DICTIONARY
  5
22C
102
{ACAD_REACTORS
330
19
102
}
330
19
100
AcDbDictionary
281
     1
  0
DICTIONARY
  5
1A
102
{ACAD_REACTORS
330
19
102
}
330
19
100
AcDbDictionary
281
     1
  0
DICTIONARY
  5
1E
102
{ACAD_REACTORS
330
19
102
}
330
19
100
AcDbDictionary
281
     1
  3
Layout1
350
21
  3
Model
350
20
  0
DICTIONARY
  5
21E
102
{ACAD_REACTORS
330
19
102
}
330
19
100
AcDbDictionary
281
     1
  3
ByBlock
350
220
  3
ByLayer
350
21F
  3
Global
350
221
  0
DICTIONARY
  5
224
102
{ACAD_REACTORS
330
19
102
}
330
19
100
AcDbDictionary
281
     1
  3
Standard
350
225
  0
DICTIONARY
  5
1B
102
{ACAD_REACTORS
330
19
102
}
330
19
100
AcDbDictionary
281
     1
  3
Standard
350
1C
  0
DICTIONARY
  5
22
102
{ACAD_REACTORS
330
19
102
}
330
19
100
AcDbDictionary
281
     1
  0
ACDBDICTIONARYWDFLT
  5
1F
102
{ACAD_REACTORS
330
19
102
}
330
19
100
AcDbDictionary
281
     1
  3
Normal
350
1D
100
AcDbDictionaryWithDefault
340
1D
  0
DICTIONARY
  5
1E3
102
{ACAD_REACTORS
330
19
102
}
330
19
100
AcDbDictionary
281
     1
  3
A0
350
1E4
  3
A1
350
1E5
  3
A2
350
1E6
  3
A3
350
1E7
  3
A4
350
1E8
  3
A5
350
1E9
  3
A6
350
1EA
  3
A7
350
1EB
  3
A8
350
1EC
  3
A9
350
1ED
  3
B0
350
1EE
  3
B1
350
1EF
  3
B2
350
1F0
  3
B3
350
1F1
  3
B4
350
1F2
  3
B5
350
1F3
  3
B6
350
1F4
  3
B7
350
1F5
  3
B8
350
1F6
  3
B9
350
1F7
  3
C0
350
1F8
  3
C1
350
1F9
  3
C2
350
1FA
  3
C3
350
1FB
  3
C4
350
1FC
  3
C5
350
1FD
  3
C6
350
1FE
  3
C7
350
1FF
  3
C8
350
200
  3
C9
350
201
  3
D0
350
202
  3
D1
350
203
  3
D2
350
204
  0
DICTIONARY
  5
22D
102
{ACAD_REACTORS
330
19
102
}
330
19
100
AcDbDictionary
281
     1
  0
DICTIONARY
  5
222
102
{ACAD_REACTORS
330
19
102
}
330
19
100
AcDbDictionary
281
     1
  3
Standard
350
223
  0
DICTIONARY
  5
205
102
{ACAD_REACTORS
330
19
102
}
330
19
100
AcDbDictionary
281
     1
  3
2dWireframe
350
20A
  3
Basic
350
20D
  3
Brighten
350
211
  3
ColorChange
350
215
  3
Conceptual
350
20F
  3
Dim
350
210
  3
EdgeColorOff
350
218
  3
Facepattern
350
214
  3
Flat
350
206
  3
FlatWithEdges
350
207
  3
Gouraud
350
208
  3
GouraudWithEdges
350
209
  3
Hidden
350
20C
  3
JitterOff
350
216
  3
Linepattern
350
213
  3
OverhangOff
350
217
  3
Realistic
350
20E
  3
Shaded
350
21D
  3
Shaded with edges
350
21C
  3
Shades of Gray
350
219
  3
Sketchy
350
21A
  3
Thicken
350
212
  3
Wireframe
350
20B
  3
X-Ray
350
21B
  0
WIPEOUTVARIABLES
  5
23
330
19
100
AcDbWipeoutVariables
 70
     1
  0
XRECORD
  5
735
102
{ACAD_REACTORS
330
19
102
}
330
19
100
AcDbXrecord
280
     1
 90
        1
330
223
  0
DICTIONARY
  5
227
102
{ACAD_REACTORS
330
19
102
}
330
19
100
AcDbDictionary
281
     1
  3
CANNOSCALE
350
228
  3
CMLEADERSTYLE
350
22A
  3
CTABLESTYLE
350
229
  3
MSLTSCALE
350
22B
  0
DICTIONARY
  5
226
102
{ACAD_REACTORS
330
19
102
}
330
19
100
AcDbDictionary
281
     1
  0
LAYOUT
  5
21
102
{ACAD_REACTORS
330
1E
102
}
330
1E
100
AcDbPlotSettings
  1

  2

  4

  6

 40
0.0
 41
0.0
 42
0.0
 43
0.0
 44
0.0
 45
0.0
 46
0.0
 47
0.0
 48
0.0
 49
0.0
140
0.0
141
0.0
142
1.0
143
1.0
 70
     0
 72
     0
 73
     0
 74
     0
  7

 75
     0
 76
     0
 77
     2
 78
   300
147
1.0
148
0.0
149
0.0
100
AcDbLayout
  1
Layout1
 70
     0
 71
     0
 10
0.0
 20
0.0
 11
0.0
 21
0.0
 12
0.0
 22
0.0
 32
0.0
 14
0.0
 24
0.0
 34
0.0
 15
0.0
 25
0.0
 35
0.0
146
0.0
 13
0.0
 23
0.0
 33
0.0
 16
0.0
 26
0.0
 36
0.0
 17
0.0
 27
0.0
 37
0.0
 76
     0
330
B
  0
LAYOUT
  5
20
102
{ACAD_REACTORS
330
1E
102
}
330
1E
100
AcDbPlotSettings
  1

  2

  4

  6

 40
0.0
 41
0.0
 42
0.0
 43
0.0
 44
0.0
 45
0.0
 46
0.0
 47
0.0
 48
0.0
 49
0.0
140
0.0
141
0.0
142
1.0
143
1.0
 70
  1024
 72
     0
 73
     0
 74
     0
  7

 75
     0
 76
     0
 77
     2
 78
   300
147
1.0
148
0.0
149
0.0
100
AcDbLayout
  1
Model
 70
     0
 71
     1
 10
0.0
 20
0.0
 11
0.0
 21
0.0
 12
0.0
 22
0.0
 32
0.0
 14
189.794556145891
 24
81.27240617505694
 34
0.0
 15
262.6011462870507
 25
221.3774544137624
 35
0.0
146
0.0
 13
0.0
 23
0.0
 33
0.0
 16
0.0
 26
0.0
 36
0.0
 17
0.0
 27
0.0
 37
0.0
 76
     0
330
A
331
15
  0
MATERIAL
  5
220
102
{ACAD_REACTORS
330
21E
102
}
330
21E
100
AcDbMaterial
  1
ByBlock
 72
     1
 94
      127
  0
MATERIAL
  5
21F
102
{ACAD_REACTORS
330
21E
102
}
330
21E
100
AcDbMaterial
  1
ByLayer
 72
     1
 94
      127
  0
MATERIAL
  5
221
102
{ACAD_REACTORS
330
21E
102
}
330
21E
100
AcDbMaterial
  1
Global
 72
     1
 94
      127
  0
MLEADERSTYLE
  5
225
102
{ACAD_REACTORS
330
224
102
}
330
224
100
AcDbMLeaderStyle
179
     2
170
     2
171
     1
172
     0
 90
        2
 40
0.0
 41
0.0
173
     1
 91
-1056964608
340
11
 92
       -2
290
     1
 42
2.0
291
     1
 43
8.0
  3
Standard
341
0
 44
4.0
300

342
17
174
     1
178
     1
175
     1
176
     0
 93
-1056964608
 45
4.0
292
     0
297
     0
 46
4.0
343
0
 94
-1056964608
 47
1.0
 49
1.0
140
1.0
293
     1
141
0.0
294
     1
177
     0
142
1.0
295
     0
296
     0
143
3.75
271
     0
272
     9
273
     9
298
     0
  0
MLINESTYLE
  5
1C
102
{ACAD_REACTORS
330
1B
102
}
330
1B
100
AcDbMlineStyle
  2
Standard
 70
     0
  3

 62
     0
 51
90.0
 52
90.0
 71
     2
 49
0.5
 62
   256
  6
BYLAYER
 49
-0.5
 62
   256
  6
BYLAYER
  0
ACDBPLACEHOLDER
  5
1D
102
{ACAD_REACTORS
330
1F
102
}
330
1F
  0
SCALE
  5
1E4
102
{ACAD_REACTORS
330
1E3
102
}
330
1E3
100
AcDbScale
 70
     0
300
1:1
140
1.0
141
1.0
290
     1
  0
SCALE
  5
1E5
102
{ACAD_REACTORS
330
1E3
102
}
330
1E3
100
AcDbScale
 70
     0
300
1:2
140
1.0
141
2.0
290
     0
  0
SCALE
  5
1E6
102
{ACAD_REACTORS
330
1E3
102
}
330
1E3
100
AcDbScale
 70
     0
300
1:4
140
1.0
141
4.0
290
     0
  0
SCALE
  5
1E7
102
{ACAD_REACTORS
330
1E3
102
}
330
1E3
100
AcDbScale
 70
     0
300
1:5
140
1.0
141
5.0
290
     0
  0
SCALE
  5
1E8
102
{ACAD_REACTORS
330
1E3
102
}
330
1E3
100
AcDbScale
 70
     0
300
1:8
140
1.0
141
8.0
290
     0
  0
SCALE
  5
1E9
102
{ACAD_REACTORS
330
1E3
102
}
330
1E3
100
AcDbScale
 70
     0
300
1:10
140
1.0
141
10.0
290
     0
  0
SCALE
  5
1EA
102
{ACAD_REACTORS
330
1E3
102
}
330
1E3
100
AcDbScale
 70
     0
300
1:16
140
1.0
141
16.0
290
     0
  0
SCALE
  5
1EB
102
{ACAD_REACTORS
330
1E3
102
}
330
1E3
100
AcDbScale
 70
     0
300
1:20
140
1.0
141
20.0
290
     0
  0
SCALE
  5
1EC
102
{ACAD_REACTORS
330
1E3
102
}
330
1E3
100
AcDbScale
 70
     0
300
1:30
140
1.0
141
30.0
290
     0
  0
SCALE
  5
1ED
102
{ACAD_REACTORS
330
1E3
102
}
330
1E3
100
AcDbScale
 70
     0
300
1:40
140
1.0
141
40.0
290
     0
  0
SCALE
  5
1EE
102
{ACAD_REACTORS
330
1E3
102
}
330
1E3
100
AcDbScale
 70
     0
300
1:50
140
1.0
141
50.0
290
     0
  0
SCALE
  5
1EF
102
{ACAD_REACTORS
330
1E3
102
}
330
1E3
100
AcDbScale
 70
     0
300
1:100
140
1.0
141
100.0
290
     0
  0
SCALE
  5
1F0
102
{ACAD_REACTORS
330
1E3
102
}
330
1E3
100
AcDbScale
 70
     0
300
2:1
140
2.0
141
1.0
290
     0
  0
SCALE
  5
1F1
102
{ACAD_REACTORS
330
1E3
102
}
330
1E3
100
AcDbScale
 70
     0
300
4:1
140
4.0
141
1.0
290
     0
  0
SCALE
  5
1F2
102
{ACAD_REACTORS
330
1E3
102
}
330
1E3
100
AcDbScale
 70
     0
300
8:1
140
8.0
141
1.0
290
     0
  0
SCALE
  5
1F3
102
{ACAD_REACTORS
330
1E3
102
}
330
1E3
100
AcDbScale
 70
     0
300
10:1
140
10.0
141
1.0
290
     0
  0
SCALE
  5
1F4
102
{ACAD_REACTORS
330
1E3
102
}
330
1E3
100
AcDbScale
 70
     0
300
100:1
140
100.0
141
1.0
290
     0
  0
SCALE
  5
1F5
102
{ACAD_REACTORS
330
1E3
102
}
330
1E3
100
AcDbScale
 70
     0
300
1/128" = 1'-0"
140
0.0078125
141
12.0
290
     0
  0
SCALE
  5
1F6
102
{ACAD_REACTORS
330
1E3
102
}
330
1E3
100
AcDbScale
 70
     0
300
1/64" = 1'-0"
140
0.015625
141
12.0
290
     0
  0
SCALE
  5
1F7
102
{ACAD_REACTORS
330
1E3
102
}
330
1E3
100
AcDbScale
 70
     0
300
1/32" = 1'-0"
140
0.03125
141
12.0
290
     0
  0
SCALE
  5
1F8
102
{ACAD_REACTORS
330
1E3
102
}
330
1E3
100
AcDbScale
 70
     0
300
1/16" = 1'-0"
140
0.0625
141
12.0
290
     0
  0
SCALE
  5
1F9
102
{ACAD_REACTORS
330
1E3
102
}
330
1E3
100
AcDbScale
 70
     0
300
3/32" = 1'-0"
140
0.09375
141
12.0
290
     0
  0
SCALE
  5
1FA
102
{ACAD_REACTORS
330
1E3
102
}
330
1E3
100
AcDbScale
 70
     0
300
1/8" = 1'-0"
140
0.125
141
12.0
290
     0
  0
SCALE
  5
1FB
102
{ACAD_REACTORS
330
1E3
102
}
330
1E3
100
AcDbScale
 70
     0
300
3/16" = 1'-0"
140
0.1875
141
12.0
290
     0
  0
SCALE
  5
1FC
102
{ACAD_REACTORS
330
1E3
102
}
330
1E3
100
AcDbScale
 70
     0
300
1/4" = 1'-0"
140
0.25
141
12.0
290
     0
  0
SCALE
  5
1FD
102
{ACAD_REACTORS
330
1E3
102
}
330
1E3
100
AcDbScale
 70
     0
300
3/8" = 1'-0"
140
0.375
141
12.0
290
     0
  0
SCALE
  5
1FE
102
{ACAD_REACTORS
330
1E3
102
}
330
1E3
100
AcDbScale
 70
     0
300
1/2" = 1'-0"
140
0.5
141
12.0
290
     0
  0
SCALE
  5
1FF
102
{ACAD_REACTORS
330
1E3
102
}
330
1E3
100
AcDbScale
 70
     0
300
3/4" = 1'-0"
140
0.75
141
12.0
290
     0
  0
SCALE
  5
200
102
{ACAD_REACTORS
330
1E3
102
}
330
1E3
100
AcDbScale
 70
     0
300
1" = 1'-0"
140
1.0
141
12.0
290
     0
  0
SCALE
  5
201
102
{ACAD_REACTORS
330
1E3
102
}
330
1E3
100
AcDbScale
 70
     0
300
1-1/2" = 1'-0"
140
1.5
141
12.0
290
     0
  0
SCALE
  5
202
102
{ACAD_REACTORS
330
1E3
102
}
330
1E3
100
AcDbScale
 70
     0
300
3" = 1'-0"
140
3.0
141
12.0
290
     0
  0
SCALE
  5
203
102
{ACAD_REACTORS
330
1E3
102
}
330
1E3
100
AcDbScale
 70
     0
300
6" = 1'-0"
140
6.0
141
12.0
290
     0
  0
SCALE
  5
204
102
{ACAD_REACTORS
330
1E3
102
}
330
1E3
100
AcDbScale
 70
     0
300
1'-0" = 1'-0"
140
12.0
141
12.0
290
     0
  0
TABLESTYLE
  5
223
102
{ACAD_REACTORS
330
222
102
}
102
{ACAD_XDICTIONARY
360
733
102
}
330
222
100
AcDbTableStyle
  3
Standard
 70
     0
 71
     0
 40
1.5
 41
1.5
280
     0
281
     0
  7
Standard
140
4.5
170
     2
 62
     0
 63
   257
283
     0
 90
        4
 91
        0
  1

274
    -2
284
     1
 64
     0
275
    -2
285
     1
 65
     0
276
    -2
286
     1
 66
     0
277
    -2
287
     1
 67
     0
278
    -2
288
     1
 68
     0
279
    -2
289
     1
 69
     0
  7
Standard
140
6.0
170
     5
 62
     0
 63
   257
283
     0
 90
        4
 91
        0
  1

274
    -2
284
     1
 64
     0
275
    -2
285
     1
 65
     0
276
    -2
286
     1
 66
     0
277
    -2
287
     1
 67
     0
278
    -2
288
     1
 68
     0
279
    -2
289
     1
 69
     0
  7
Standard
140
4.5
170
     5
 62
     0
 63
   257
283
     0
 90
        4
 91
        0
  1

274
    -2
284
     1
 64
     0
275
    -2
285
     1
 65
     0
276
    -2
286
     1
 66
     0
277
    -2
287
     1
 67
     0
278
    -2
288
     1
 68
     0
279
    -2
289
     1
 69
     0
  0
VISUALSTYLE
  5
20A
102
{ACAD_REACTORS
330
205
102
}
330
205
100
AcDbVisualStyle
  2
2dWireframe
 70
     4
177
     3
291
     0
 70
    58
 90
        0
176
     1
 90
        2
176
     1
 90
        0
176
     1
 90
        0
176
     1
 40
0.6
176
     1
 40
30.0
176
     1
 62
     7
420
 16777215
176
     1
 90
        1
176
     1
 90
        4
176
     1
 62
     7
176
     1
 62
   257
176
     1
 90
        1
176
     1
 90
        1
176
     1
 40
1.0
176
     1
 90
        0
176
     1
 62
   257
176
     1
 40
1.0
176
     1
 90
        1
176
     1
 90
        6
176
     1
 90
        2
176
     1
 62
     7
176
     1
 90
        5
176
     1
 90
        0
176
     1
 90
        0
176
     1
290
     0
176
     1
 90
        1
176
     1
 40
0.0
176
     1
 90
        0
176
     1
290
     1
176
     1
290
     1
176
     1
290
     0
176
     1
290
     0
176
     1
290
     0
176
     1
290
     0
176
     1
290
     0
176
     1
290
     0
176
     1
290
     0
176
     1
 90
       50
176
     1
 40
0.0
176
     1
 40
1.0
176
     1
 90
        0
176
     1
 62
    18
420
        0
176
     1
 90
       50
176
     1
 90
        3
176
     1
 62
     5
420
      255
176
     1
290
     0
176
     1
 90
       50
176
     1
 90
       50
176
     1
 90
       50
176
     1
290
     0
176
     1
 90
       50
176
     1
 62
   256
176
     0
 40
1.0
176
     0
 90
        2
176
     1
  1
strokes_ogs.tif
176
     1
290
     0
176
     1
 40
1.0
176
     1
 40
1.0
176
     1
  0
VISUALSTYLE
  5
20D
102
{ACAD_REACTORS
330
205
102
}
330
205
100
AcDbVisualStyle
  2
Basic
 70
     7
177
     3
291
     1
 70
    58
 90
        1
176
     1
 90
        0
176
     1
 90
        1
176
     1
 90
        0
176
     1
 40
0.6
176
     1
 40
30.0
176
     1
 62
     7
420
 16777215
176
     1
 90
        0
176
     1
 90
        4
176
     1
 62
     7
176
     1
 62
   257
176
     1
 90
        1
176
     1
 90
        1
176
     1
 40
1.0
176
     1
 90
        8
176
     1
 62
     7
176
     1
 40
1.0
176
     1
 90
        1
176
     1
 90
        6
176
     1
 90
        2
176
     1
 62
     7
176
     1
 90
        5
176
     1
 90
        0
176
     1
 90
        0
176
     1
290
     0
176
     1
 90
        1
176
     1
 40
0.0
176
     1
 90
        0
176
     1
290
     0
176
     1
290
     1
176
     1
290
     1
176
     1
290
     0
176
     1
290
     0
176
     1
290
     0
176
     1
290
     0
176
     1
290
     0
176
     1
290
     0
176
     1
 90
       50
176
     1
 40
0.0
176
     1
 40
1.0
176
     1
 90
        0
176
     1
 62
    18
420
        0
176
     1
 90
       50
176
     1
 90
        3
176
     1
 62
     5
420
      255
176
     1
290
     0
176
     1
 90
       50
176
     1
 90
       50
176
     1
 90
       50
176
     1
290
     0
176
     1
 90
       50
176
     1
 62
   256
176
     0
 40
1.0
176
     0
 90
        2
176
     1
  1
strokes_ogs.tif
176
     1
290
     0
176
     1
 40
1.0
176
     1
 40
1.0
176
     1
  0
VISUALSTYLE
  5
211
102
{ACAD_REACTORS
330
205
102
}
330
205
100
AcDbVisualStyle
  2
Brighten
 70
    12
177
     3
291
     1
 70
    58
 90
        2
176
     1
 90
        2
176
     1
 90
        0
176
     1
 90
        0
176
     1
 40
0.6
176
     1
 40
30.0
176
     1
 62
     7
420
 16777215
176
     1
 90
        1
176
     1
 90
        4
176
     1
 62
     7
176
     1
 62
   257
176
     1
 90
        1
176
     1
 90
        1
176
     1
 40
1.0
176
     1
 90
        8
176
     1
 62
     7
176
     1
 40
1.0
176
     1
 90
        1
176
     1
 90
        6
176
     1
 90
        2
176
     1
 62
     7
176
     1
 90
        5
176
     1
 90
        0
176
     1
 90
        0
176
     1
290
     0
176
     1
 90
        1
176
     1
 40
50.0
176
     1
 90
        0
176
     1
290
     0
176
     1
290
     1
176
     1
290
     1
176
     1
290
     0
176
     1
290
     0
176
     1
290
     0
176
     1
290
     0
176
     1
290
     0
176
     1
290
     0
176
     1
 90
       50
176
     1
 40
0.0
176
     1
 40
1.0
176
     1
 90
        0
176
     1
 62
    18
420
        0
176
     1
 90
       50
176
     1
 90
        3
176
     1
 62
     5
420
      255
176
     1
290
     0
176
     1
 90
       50
176
     1
 90
       50
176
     1
 90
       50
176
     1
290
     0
176
     1
 90
       50
176
     1
 62
   256
176
     0
 40
1.0
176
     0
 90
        2
176
     1
  1
strokes_ogs.tif
176
     1
290
     0
176
     1
 40
1.0
176
     1
 40
1.0
176
     1
  0
VISUALSTYLE
  5
215
102
{ACAD_REACTORS
330
205
102
}
330
205
100
AcDbVisualStyle
  2
ColorChange
 70
    16
177
     3
291
     1
 70
    58
 90
        2
176
     1
 90
        2
176
     1
 90
        3
176
     1
 90
        0
176
     1
 40
0.6
176
     1
 40
30.0
176
     1
 62
     8
420
  8421504
176
     1
 90
        1
176
     1
 90
        4
176
     1
 62
     7
176
     1
 62
   257
176
     1
 90
        1
176
     1
 90
        1
176
     1
 40
1.0
176
     1
 90
        8
176
     1
 62
     8
420
  8421504
176
     1
 40
1.0
176
     1
 90
        1
176
     1
 90
        6
176
     1
 90
        2
176
     1
 62
     7
176
     1
 90
        5
176
     1
 90
        0
176
     1
 90
        0
176
     1
290
     0
176
     1
 90
        1
176
     1
 40
0.0
176
     1
 90
        0
176
     1
290
     0
176
     1
290
     1
176
     1
290
     1
176
     1
290
     0
176
     1
290
     0
176
     1
290
     0
176
     1
290
     0
176
     1
290
     0
176
     1
290
     0
176
     1
 90
       50
176
     1
 40
0.0
176
     1
 40
1.0
176
     1
 90
        0
176
     1
 62
    18
420
        0
176
     1
 90
       50
176
     1
 90
        3
176
     1
 62
     5
420
      255
176
     1
290
     0
176
     1
 90
       50
176
     1
 90
       50
176
     1
 90
       50
176
     1
290
     0
176
     1
 90
       50
176
     1
 62
   256
176
     0
 40
1.0
176
     0
 90
        2
176
     1
  1
strokes_ogs.tif
176
     1
290
     0
176
     1
 40
1.0
176
     1
 40
1.0
176
     1
  0
VISUALSTYLE
  5
20F
102
{ACAD_REACTORS
330
205
102
}
330
205
100
AcDbVisualStyle
  2
Conceptual
 70
     9
177
     3
291
     0
 70
    58
 90
        3
176
     1
 90
        2
176
     1
 90
        0
176
     1
 90
        0
176
     1
 40
0.6
176
     1
 40
30.0
176
     1
 62
     7
420
 16777215
176
     1
 90
        2
176
     1
 90
        2
176
     1
 62
     7
176
     1
 62
   257
176
     1
 90
        1
176
     1
 90
        1
176
     1
 40
179.0
176
     1
 90
        8
176
     1
 62
     7
176
     1
 40
1.0
176
     1
 90
        1
176
     1
 90
        6
176
     1
 90
        2
176
     1
 62
     7
176
     1
 90
        3
176
     1
 90
        0
176
     1
 90
        0
176
     1
290
     0
176
     1
 90
        1
176
     1
 40
0.0
176
     1
 90
        0
176
     1
290
     0
176
     1
290
     1
176
     1
290
     1
176
     1
290
     0
176
     1
290
     0
176
     1
290
     0
176
     1
290
     0
176
     1
290
     0
176
     1
290
     0
176
     1
 90
       50
176
     1
 40
0.0
176
     1
 40
1.0
176
     1
 90
        0
176
     1
 62
    18
420
        0
176
     1
 90
       50
176
     1
 90
        3
176
     1
 62
     5
420
      255
176
     1
290
     0
176
     1
 90
       50
176
     1
 90
       50
176
     1
 90
       50
176
     1
290
     0
176
     1
 90
       50
176
     1
 62
   256
176
     0
 40
1.0
176
     0
 90
        2
176
     1
  1
strokes_ogs.tif
176
     1
290
     0
176
     1
 40
1.0
176
     1
 40
1.0
176
     1
  0
VISUALSTYLE
  5
210
102
{ACAD_REACTORS
330
205
102
}
330
205
100
AcDbVisualStyle
  2
Dim
 70
    11
177
     3
291
     1
 70
    58
 90
        2
176
     1
 90
        2
176
     1
 90
        0
176
     1
 90
        0
176
     1
 40
0.6
176
     1
 40
30.0
176
     1
 62
     7
420
 16777215
176
     1
 90
        1
176
     1
 90
        4
176
     1
 62
     7
176
     1
 62
   257
176
     1
 90
        1
176
     1
 90
        1
176
     1
 40
1.0
176
     1
 90
        8
176
     1
 62
     7
176
     1
 40
1.0
176
     1
 90
        1
176
     1
 90
        6
176
     1
 90
        2
176
     1
 62
     7
176
     1
 90
        5
176
     1
 90
        0
176
     1
 90
        0
176
     1
290
     0
176
     1
 90
        1
176
     1
 40
-50.0
176
     1
 90
        0
176
     1
290
     0
176
     1
290
     1
176
     1
290
     1
176
     1
290
     0
176
     1
290
     0
176
     1
290
     0
176
     1
290
     0
176
     1
290
     0
176
     1
290
     0
176
     1
 90
       50
176
     1
 40
0.0
176
     1
 40
1.0
176
     1
 90
        0
176
     1
 62
    18
420
        0
176
     1
 90
       50
176
     1
 90
        3
176
     1
 62
     5
420
      255
176
     1
290
     0
176
     1
 90
       50
176
     1
 90
       50
176
     1
 90
       50
176
     1
290
     0
176
     1
 90
       50
176
     1
 62
   256
176
     0
 40
1.0
176
     0
 90
        2
176
     1
  1
strokes_ogs.tif
176
     1
290
     0
176
     1
 40
1.0
176
     1
 40
1.0
176
     1
  0
VISUALSTYLE
  5
218
102
{ACAD_REACTORS
330
205
102
}
330
205
100
AcDbVisualStyle
  2
EdgeColorOff
 70
    22
177
     3
291
     1
 70
    58
 90
        2
176
     0
 90
        2
176
     0
 90
        0
176
     0
 90
        0
176
     0
 40
0.6
176
     0
 40
30.0
176
     0
 62
     7
420
 16777215
176
     0
 90
        1
176
     0
 90
        4
176
     0
 62
     7
176
     0
 62
   257
176
     0
 90
        1
176
     0
 90
        1
176
     0
 40
1.0
176
     0
 90
        8
176
     2
 62
     7
176
     0
 40
1.0
176
     0
 90
        1
176
     0
 90
        6
176
     0
 90
        2
176
     0
 62
     7
176
     0
 90
        5
176
     0
 90
        0
176
     0
 90
        0
176
     0
290
     0
176
     0
 90
        1
176
     0
 40
0.0
176
     0
 90
        0
176
     0
290
     0
176
     0
290
     1
176
     0
290
     1
176
     0
290
     0
176
     0
290
     0
176
     0
290
     0
176
     0
290
     0
176
     0
290
     0
176
     0
290
     0
176
     0
 90
       50
176
     0
 40
0.0
176
     0
 40
1.0
176
     0
 90
        0
176
     0
 62
    18
420
        0
176
     0
 90
       50
176
     0
 90
        3
176
     0
 62
     5
420
      255
176
     0
290
     0
176
     0
 90
       50
176
     0
 90
       50
176
     0
 90
       50
176
     0
290
     0
176
     0
 90
       50
176
     0
 62
   256
176
     0
 40
1.0
176
     0
 90
        2
176
     0
  1
strokes_ogs.tif
176
     0
290
     0
176
     0
 40
1.0
176
     0
 40
1.0
176
     0
  0
VISUALSTYLE
  5
214
102
{ACAD_REACTORS
330
205
102
}
330
205
100
AcDbVisualStyle
  2
Facepattern
 70
    15
177
     3
291
     1
 70
    58
 90
        2
176
     1
 90
        2
176
     1
 90
        0
176
     1
 90
        0
176
     1
 40
0.6
176
     1
 40
30.0
176
     1
 62
     7
420
 16777215
176
     1
 90
        1
176
     1
 90
        4
176
     1
 62
     7
176
     1
 62
   257
176
     1
 90
        1
176
     1
 90
        1
176
     1
 40
1.0
176
     1
 90
        8
176
     1
 62
     7
176
     1
 40
1.0
176
     1
 90
        1
176
     1
 90
        6
176
     1
 90
        2
176
     1
 62
     7
176
     1
 90
        5
176
     1
 90
        0
176
     1
 90
        0
176
     1
290
     0
176
     1
 90
        1
176
     1
 40
0.0
176
     1
 90
        0
176
     1
290
     0
176
     1
290
     1
176
     1
290
     1
176
     1
290
     0
176
     1
290
     0
176
     1
290
     0
176
     1
290
     0
176
     1
290
     0
176
     1
290
     0
176
     1
 90
       50
176
     1
 40
0.0
176
     1
 40
1.0
176
     1
 90
        0
176
     1
 62
    18
420
        0
176
     1
 90
       50
176
     1
 90
        3
176
     1
 62
     5
420
      255
176
     1
290
     0
176
     1
 90
       50
176
     1
 90
       50
176
     1
 90
       50
176
     1
290
     0
176
     1
 90
       50
176
     1
 62
   256
176
     0
 40
1.0
176
     0
 90
        2
176
     1
  1
strokes_ogs.tif
176
     1
290
     0
176
     1
 40
1.0
176
     1
 40
1.0
176
     1
  0
VISUALSTYLE
  5
206
102
{ACAD_REACTORS
330
205
102
}
330
205
100
AcDbVisualStyle
  2
Flat
 70
     0
177
     3
291
     1
 70
    58
 90
        2
176
     1
 90
        1
176
     1
 90
        1
176
     1
 90
        2
176
     1
 40
0.6
176
     1
 40
30.0
176
     1
 62
     7
420
 16777215
176
     1
 90
        0
176
     1
 90
        0
176
     1
 62
     7
176
     1
 62
   257
176
     1
 90
        1
176
     1
 90
        1
176
     1
 40
1.0
176
     1
 90
        8
176
     1
 62
     7
176
     1
 40
1.0
176
     1
 90
        1
176
     1
 90
        6
176
     1
 90
        2
176
     1
 62
     7
176
     1
 90
        5
176
     1
 90
        0
176
     1
 90
        0
176
     1
290
     0
176
     1
 90
       13
176
     1
 40
0.0
176
     1
 90
        0
176
     1
290
     0
176
     1
290
     1
176
     1
290
     1
176
     1
290
     0
176
     1
290
     0
176
     1
290
     0
176
     1
290
     0
176
     1
290
     0
176
     1
290
     0
176
     1
 90
       50
176
     1
 40
0.0
176
     1
 40
1.0
176
     1
 90
        0
176
     1
 62
    18
420
        0
176
     1
 90
       50
176
     1
 90
        3
176
     1
 62
     5
420
      255
176
     1
290
     0
176
     1
 90
       50
176
     1
 90
       50
176
     1
 90
       50
176
     1
290
     0
176
     1
 90
       50
176
     1
 62
   256
176
     0
 40
1.0
176
     0
 90
        2
176
     1
  1
strokes_ogs.tif
176
     1
290
     0
176
     1
 40
1.0
176
     1
 40
1.0
176
     1
  0
VISUALSTYLE
  5
207
102
{ACAD_REACTORS
330
205
102
}
330
205
100
AcDbVisualStyle
  2
FlatWithEdges
 70
     1
177
     3
291
     1
 70
    58
 90
        2
176
     1
 90
        1
176
     1
 90
        1
176
     1
 90
        2
176
     1
 40
0.6
176
     1
 40
30.0
176
     1
 62
     7
420
 16777215
176
     1
 90
        1
176
     1
 90
        0
176
     1
 62
     7
176
     1
 62
   257
176
     1
 90
        1
176
     1
 90
        1
176
     1
 40
1.0
176
     1
 90
        0
176
     1
 62
   257
176
     1
 40
1.0
176
     1
 90
        1
176
     1
 90
        6
176
     1
 90
        2
176
     1
 62
     7
176
     1
 90
        5
176
     1
 90
        0
176
     1
 90
        0
176
     1
290
     0
176
     1
 90
       13
176
     1
 40
0.0
176
     1
 90
        0
176
     1
290
     0
176
     1
290
     1
176
     1
290
     1
176
     1
290
     0
176
     1
290
     0
176
     1
290
     0
176
     1
290
     0
176
     1
290
     0
176
     1
290
     0
176
     1
 90
       50
176
     1
 40
0.0
176
     1
 40
1.0
176
     1
 90
        0
176
     1
 62
    18
420
        0
176
     1
 90
       50
176
     1
 90
        3
176
     1
 62
     5
420
      255
176
     1
290
     0
176
     1
 90
       50
176
     1
 90
       50
176
     1
 90
       50
176
     1
290
     0
176
     1
 90
       50
176
     1
 62
   256
176
     0
 40
1.0
176
     0
 90
        2
176
     1
  1
strokes_ogs.tif
176
     1
290
     0
176
     1
 40
1.0
176
     1
 40
1.0
176
     1
  0
VISUALSTYLE
  5
208
102
{ACAD_REACTORS
330
205
102
}
330
205
100
AcDbVisualStyle
  2
Gouraud
 70
     2
177
     3
291
     1
 70
    58
 90
        2
176
     1
 90
        2
176
     1
 90
        1
176
     1
 90
        2
176
     1
 40
0.6
176
     1
 40
30.0
176
     1
 62
     7
420
 16777215
176
     1
 90
        0
176
     1
 90
        0
176
     1
 62
     7
176
     1
 62
   257
176
     1
 90
        1
176
     1
 90
        1
176
     1
 40
1.0
176
     1
 90
        0
176
     1
 62
     7
176
     1
 40
1.0
176
     1
 90
        1
176
     1
 90
        6
176
     1
 90
        2
176
     1
 62
     7
176
     1
 90
        5
176
     1
 90
        0
176
     1
 90
        0
176
     1
290
     0
176
     1
 90
       13
176
     1
 40
0.0
176
     1
 90
        0
176
     1
290
     0
176
     1
290
     1
176
     1
290
     1
176
     1
290
     0
176
     1
290
     0
176
     1
290
     0
176
     1
290
     0
176
     1
290
     0
176
     1
290
     0
176
     1
 90
       50
176
     1
 40
0.0
176
     1
 40
1.0
176
     1
 90
        0
176
     1
 62
    18
420
        0
176
     1
 90
       50
176
     1
 90
        3
176
     1
 62
     5
420
      255
176
     1
290
     0
176
     1
 90
       50
176
     1
 90
       50
176
     1
 90
       50
176
     1
290
     0
176
     1
 90
       50
176
     1
 62
   256
176
     0
 40
1.0
176
     0
 90
        2
176
     1
  1
strokes_ogs.tif
176
     1
290
     0
176
     1
 40
1.0
176
     1
 40
1.0
176
     1
  0
VISUALSTYLE
  5
209
102
{ACAD_REACTORS
330
205
102
}
330
205
100
AcDbVisualStyle
  2
GouraudWithEdges
 70
     3
177
     3
291
     1
 70
    58
 90
        2
176
     1
 90
        2
176
     1
 90
        1
176
     1
 90
        2
176
     1
 40
0.6
176
     1
 40
30.0
176
     1
 62
     7
420
 16777215
176
     1
 90
        1
176
     1
 90
        0
176
     1
 62
     7
176
     1
 62
   257
176
     1
 90
        1
176
     1
 90
        1
176
     1
 40
1.0
176
     1
 90
        0
176
     1
 62
   257
176
     1
 40
1.0
176
     1
 90
        1
176
     1
 90
        6
176
     1
 90
        2
176
     1
 62
     7
176
     1
 90
        5
176
     1
 90
        0
176
     1
 90
        0
176
     1
290
     0
176
     1
 90
       13
176
     1
 40
0.0
176
     1
 90
        0
176
     1
290
     0
176
     1
290
     1
176
     1
290
     1
176
     1
290
     0
176
     1
290
     0
176
     1
290
     0
176
     1
290
     0
176
     1
290
     0
176
     1
290
     0
176
     1
 90
       50
176
     1
 40
0.0
176
     1
 40
1.0
176
     1
 90
        0
176
     1
 62
    18
420
        0
176
     1
 90
       50
176
     1
 90
        3
176
     1
 62
     5
420
      255
176
     1
290
     0
176
     1
 90
       50
176
     1
 90
       50
176
     1
 90
       50
176
     1
290
     0
176
     1
 90
       50
176
     1
 62
   256
176
     0
 40
1.0
176
     0
 90
        2
176
     1
  1
strokes_ogs.tif
176
     1
290
     0
176
     1
 40
1.0
176
     1
 40
1.0
176
     1
  0
VISUALSTYLE
  5
20C
102
{ACAD_REACTORS
330
205
102
}
330
205
100
AcDbVisualStyle
  2
Hidden
 70
     6
177
     3
291
     0
 70
    58
 90
        1
176
     1
 90
        2
176
     1
 90
        2
176
     1
 90
        0
176
     1
 40
0.6
176
     1
 40
30.0
176
     1
 62
     7
420
 16777215
176
     1
 90
        2
176
     1
 90
        2
176
     1
 62
     7
176
     1
 62
   257
176
     1
 90
        2
176
     1
 90
        1
176
     1
 40
40.0
176
     1
 90
        0
176
     1
 62
   257
176
     1
 40
1.0
176
     1
 90
        1
176
     1
 90
        6
176
     1
 90
        2
176
     1
 62
     7
176
     1
 90
        3
176
     1
 90
        0
176
     1
 90
        0
176
     1
290
     0
176
     1
 90
        1
176
     1
 40
0.0
176
     1
 90
        0
176
     1
290
     0
176
     1
290
     1
176
     1
290
     1
176
     1
290
     0
176
     1
290
     0
176
     1
290
     0
176
     1
290
     0
176
     1
290
     0
176
     1
290
     0
176
     1
 90
       50
176
     1
 40
0.0
176
     1
 40
1.0
176
     1
 90
        0
176
     1
 62
    18
420
        0
176
     1
 90
       50
176
     1
 90
        3
176
     1
 62
     5
420
      255
176
     1
290
     0
176
     1
 90
       50
176
     1
 90
       50
176
     1
 90
       50
176
     1
290
     0
176
     1
 90
       50
176
     1
 62
   256
176
     0
 40
1.0
176
     0
 90
        2
176
     1
  1
strokes_ogs.tif
176
     1
290
     0
176
     1
 40
1.0
176
     1
 40
1.0
176
     1
  0
VISUALSTYLE
  5
216
102
{ACAD_REACTORS
330
205
102
}
330
205
100
AcDbVisualStyle
  2
JitterOff
 70
    20
177
     3
291
     1
 70
    58
 90
        2
176
     0
 90
        2
176
     0
 90
        0
176
     0
 90
        0
176
     0
 40
0.6
176
     0
 40
30.0
176
     0
 62
     7
420
 16777215
176
     0
 90
        1
176
     0
 90
        4
176
     0
 62
     7
176
     0
 62
   257
176
     0
 90
        1
176
     0
 90
        1
176
     0
 40
1.0
176
     0
 90
       10
176
     2
 62
     7
176
     0
 40
1.0
176
     0
 90
        1
176
     0
 90
        6
176
     0
 90
        2
176
     0
 62
     7
176
     0
 90
        5
176
     0
 90
        0
176
     0
 90
        0
176
     0
290
     0
176
     0
 90
        1
176
     0
 40
0.0
176
     0
 90
        0
176
     0
290
     0
176
     0
290
     1
176
     0
290
     1
176
     0
290
     0
176
     0
290
     0
176
     0
290
     0
176
     0
290
     0
176
     0
290
     0
176
     0
290
     0
176
     0
 90
       50
176
     0
 40
0.0
176
     0
 40
1.0
176
     0
 90
        0
176
     0
 62
    18
420
        0
176
     0
 90
       50
176
     0
 90
        3
176
     0
 62
     5
420
      255
176
     0
290
     0
176
     0
 90
       50
176
     0
 90
       50
176
     0
 90
       50
176
     0
290
     0
176
     0
 90
       50
176
     0
 62
   256
176
     0
 40
1.0
176
     0
 90
        2
176
     0
  1
strokes_ogs.tif
176
     0
290
     0
176
     0
 40
1.0
176
     0
 40
1.0
176
     0
  0
VISUALSTYLE
  5
213
102
{ACAD_REACTORS
330
205
102
}
330
205
100
AcDbVisualStyle
  2
Linepattern
 70
    14
177
     3
291
     1
 70
    58
 90
        2
176
     1
 90
        2
176
     1
 90
        0
176
     1
 90
        0
176
     1
 40
0.6
176
     1
 40
30.0
176
     1
 62
     7
420
 16777215
176
     1
 90
        1
176
     1
 90
        4
176
     1
 62
     7
176
     1
 62
   257
176
     1
 90
        7
176
     1
 90
        7
176
     1
 40
1.0
176
     1
 90
        8
176
     1
 62
     7
176
     1
 40
1.0
176
     1
 90
        1
176
     1
 90
        6
176
     1
 90
        2
176
     1
 62
     7
176
     1
 90
        5
176
     1
 90
        0
176
     1
 90
        0
176
     1
290
     0
176
     1
 90
        1
176
     1
 40
0.0
176
     1
 90
        0
176
     1
290
     0
176
     1
290
     1
176
     1
290
     1
176
     1
290
     0
176
     1
290
     0
176
     1
290
     0
176
     1
290
     0
176
     1
290
     0
176
     1
290
     0
176
     1
 90
       50
176
     1
 40
0.0
176
     1
 40
1.0
176
     1
 90
        0
176
     1
 62
    18
420
        0
176
     1
 90
       50
176
     1
 90
        3
176
     1
 62
     5
420
      255
176
     1
290
     0
176
     1
 90
       50
176
     1
 90
       50
176
     1
 90
       50
176
     1
290
     0
176
     1
 90
       50
176
     1
 62
   256
176
     0
 40
1.0
176
     0
 90
        2
176
     1
  1
strokes_ogs.tif
176
     1
290
     0
176
     1
 40
1.0
176
     1
 40
1.0
176
     1
  0
VISUALSTYLE
  5
217
102
{ACAD_REACTORS
330
205
102
}
330
205
100
AcDbVisualStyle
  2
OverhangOff
 70
    21
177
     3
291
     1
 70
    58
 90
        2
176
     0
 90
        2
176
     0
 90
        0
176
     0
 90
        0
176
     0
 40
0.6
176
     0
 40
30.0
176
     0
 62
     7
420
 16777215
176
     0
 90
        1
176
     0
 90
        4
176
     0
 62
     7
176
     0
 62
   257
176
     0
 90
        1
176
     0
 90
        1
176
     0
 40
1.0
176
     0
 90
        9
176
     2
 62
     7
176
     0
 40
1.0
176
     0
 90
        1
176
     0
 90
        6
176
     0
 90
        2
176
     0
 62
     7
176
     0
 90
        5
176
     0
 90
        0
176
     0
 90
        0
176
     0
290
     0
176
     0
 90
        1
176
     0
 40
0.0
176
     0
 90
        0
176
     0
290
     0
176
     0
290
     1
176
     0
290
     1
176
     0
290
     0
176
     0
290
     0
176
     0
290
     0
176
     0
290
     0
176
     0
290
     0
176
     0
290
     0
176
     0
 90
       50
176
     0
 40
0.0
176
     0
 40
1.0
176
     0
 90
        0
176
     0
 62
    18
420
        0
176
     0
 90
       50
176
     0
 90
        3
176
     0
 62
     5
420
      255
176
     0
290
     0
176
     0
 90
       50
176
     0
 90
       50
176
     0
 90
       50
176
     0
290
     0
176
     0
 90
       50
176
     0
 62
   256
176
     0
 40
1.0
176
     0
 90
        2
176
     0
  1
strokes_ogs.tif
176
     0
290
     0
176
     0
 40
1.0
176
     0
 40
1.0
176
     0
  0
VISUALSTYLE
  5
20E
102
{ACAD_REACTORS
330
205
102
}
330
205
100
AcDbVisualStyle
  2
Realistic
 70
     8
177
     3
291
     0
 70
    58
 90
        2
176
     1
 90
        3
176
     1
 90
        0
176
     1
 90
        2
176
     1
 40
0.6
176
     1
 40
30.0
176
     1
 62
     7
420
 16777215
176
     1
 90
        0
176
     1
 90
        0
176
     1
 62
     7
176
     1
 62
   257
176
     1
 90
        1
176
     1
 90
        1
176
     1
 40
1.0
176
     1
 90
        8
176
     1
 62
   257
176
     1
 40
1.0
176
     1
 90
        1
176
     1
 90
        6
176
     1
 90
        2
176
     1
 62
     7
176
     1
 90
        3
176
     1
 90
        0
176
     1
 90
        0
176
     1
290
     0
176
     1
 90
       13
176
     1
 40
0.0
176
     1
 90
        0
176
     1
290
     0
176
     1
290
     1
176
     1
290
     1
176
     1
290
     0
176
     1
290
     0
176
     1
290
     0
176
     1
290
     0
176
     1
290
     0
176
     1
290
     0
176
     1
 90
       50
176
     1
 40
0.0
176
     1
 40
1.0
176
     1
 90
        0
176
     1
 62
    18
420
        0
176
     1
 90
       50
176
     1
 90
        3
176
     1
 62
     5
420
      255
176
     1
290
     0
176
     1
 90
       50
176
     1
 90
       50
176
     1
 90
       50
176
     1
290
     0
176
     1
 90
       50
176
     1
 62
   256
176
     0
 40
1.0
176
     0
 90
        2
176
     1
  1
strokes_ogs.tif
176
     1
290
     0
176
     1
 40
1.0
176
     1
 40
1.0
176
     1
  0
VISUALSTYLE
  5
21D
102
{ACAD_REACTORS
330
205
102
}
330
205
100
AcDbVisualStyle
  2
Shaded
 70
    27
177
     3
291
     0
 70
    58
 90
        2
176
     1
 90
        2
176
     1
 90
        1
176
     1
 90
        2
176
     1
 40
0.6
176
     1
 40
30.0
176
     1
 62
     7
420
 16777215
176
     1
 90
        0
176
     1
 90
        4
176
     1
 62
     7
176
     1
 62
   257
176
     1
 90
        1
176
     1
 90
        1
176
     1
 40
1.0
176
     1
 90
        8
176
     1
 62
   257
176
     1
 40
1.0
176
     1
 90
        1
176
     1
 90
        6
176
     1
 90
        2
176
     1
 62
     8
420
  7895160
176
     1
 90
        3
176
     1
 90
        0
176
     1
 90
        0
176
     1
290
     0
176
     1
 90
        5
176
     1
 40
0.0
176
     1
 90
        0
176
     1
290
     0
176
     1
290
     1
176
     1
290
     1
176
     1
290
     0
176
     1
290
     0
176
     1
290
     0
176
     1
290
     0
176
     1
290
     0
176
     1
290
     0
176
     1
 90
       50
176
     1
 40
0.0
176
     1
 40
1.0
176
     1
 90
        0
176
     1
 62
    18
420
        0
176
     1
 90
       50
176
     1
 90
        3
176
     1
 62
     5
420
      255
176
     1
290
     0
176
     1
 90
       50
176
     1
 90
       50
176
     1
 90
       50
176
     1
290
     0
176
     1
 90
       50
176
     1
 62
   256
176
     0
 40
1.0
176
     0
 90
        2
176
     1
  1
strokes_ogs.tif
176
     1
290
     0
176
     1
 40
1.0
176
     1
 40
1.0
176
     1
  0
VISUALSTYLE
  5
21C
102
{ACAD_REACTORS
330
205
102
}
330
205
100
AcDbVisualStyle
  2
Shaded with edges
 70
    26
177
     3
291
     0
 70
    58
 90
        2
176
     1
 90
        2
176
     1
 90
        1
176
     1
 90
        2
176
     1
 40
0.6
176
     1
 40
30.0
176
     1
 62
     7
420
 16777215
176
     1
 90
        1
176
     1
 90
       10
176
     1
 62
     7
176
     1
 62
   257
176
     1
 90
        2
176
     1
 90
        1
176
     1
 40
1.0
176
     1
 90
        8
176
     1
 62
   257
176
     1
 40
1.0
176
     1
 90
        1
176
     1
 90
        6
176
     1
 90
        2
176
     1
 62
     7
176
     1
 90
        3
176
     1
 90
        0
176
     1
 90
        0
176
     1
290
     0
176
     1
 90
        5
176
     1
 40
0.0
176
     1
 90
        0
176
     1
290
     0
176
     1
290
     1
176
     1
290
     1
176
     1
290
     0
176
     1
290
     0
176
     1
290
     0
176
     1
290
     0
176
     1
290
     0
176
     1
290
     0
176
     1
 90
       50
176
     1
 40
0.0
176
     1
 40
1.0
176
     1
 90
        0
176
     1
 62
    18
420
        0
176
     1
 90
       50
176
     1
 90
        3
176
     1
 62
     5
420
      255
176
     1
290
     0
176
     1
 90
       50
176
     1
 90
       50
176
     1
 90
       50
176
     1
290
     0
176
     1
 90
       50
176
     1
 62
   256
176
     0
 40
1.0
176
     0
 90
        2
176
     1
  1
strokes_ogs.tif
176
     1
290
     0
176
     1
 40
1.0
176
     1
 40
1.0
176
     1
  0
VISUALSTYLE
  5
219
102
{ACAD_REACTORS
330
205
102
}
330
205
100
AcDbVisualStyle
  2
Shades of Gray
 70
    23
177
     3
291
     0
 70
    58
 90
        2
176
     1
 90
        2
176
     1
 90
        3
176
     1
 90
        0
176
     1
 40
0.6
176
     1
 40
30.0
176
     1
 62
     7
420
 16777215
176
     1
 90
        2
176
     1
 90
        2
176
     1
 62
     7
176
     1
 62
     7
176
     1
 90
        1
176
     1
 90
        1
176
     1
 40
40.0
176
     1
 90
        8
176
     1
 62
     7
176
     1
 40
1.0
176
     1
 90
        1
176
     1
 90
        6
176
     1
 90
        2
176
     1
 62
     7
176
     1
 90
        3
176
     1
 90
        0
176
     1
 90
        0
176
     1
290
     0
176
     1
 90
        1
176
     1
 40
0.0
176
     1
 90
        0
176
     1
290
     0
176
     1
290
     1
176
     1
290
     1
176
     1
290
     0
176
     1
290
     0
176
     1
290
     0
176
     1
290
     0
176
     1
290
     0
176
     1
290
     0
176
     1
 90
       50
176
     1
 40
0.0
176
     1
 40
1.0
176
     1
 90
        0
176
     1
 62
    18
420
        0
176
     1
 90
       50
176
     1
 90
        3
176
     1
 62
     5
420
      255
176
     1
290
     0
176
     1
 90
       50
176
     1
 90
       50
176
     1
 90
       50
176
     1
290
     0
176
     1
 90
       50
176
     1
 62
   256
176
     0
 40
1.0
176
     0
 90
        2
176
     1
  1
strokes_ogs.tif
176
     1
290
     0
176
     1
 40
1.0
176
     1
 40
1.0
176
     1
  0
VISUALSTYLE
  5
21A
102
{ACAD_REACTORS
330
205
102
}
330
205
100
AcDbVisualStyle
  2
Sketchy
 70
    24
177
     3
291
     0
 70
    58
 90
        1
176
     1
 90
        2
176
     1
 90
        2
176
     1
 90
        0
176
     1
 40
0.6
176
     1
 40
30.0
176
     1
 62
     7
420
 16777215
176
     1
 90
        2
176
     1
 90
        2
176
     1
 62
     7
176
     1
 62
     7
176
     1
 90
        1
176
     1
 90
        1
176
     1
 40
40.0
176
     1
 90
       11
176
     1
 62
     7
176
     1
 40
1.0
176
     1
 90
        1
176
     1
 90
        6
176
     1
 90
        2
176
     1
 62
     7
176
     1
 90
        6
176
     1
 90
        0
176
     1
 90
        0
176
     1
290
     0
176
     1
 90
        1
176
     1
 40
0.0
176
     1
 90
        0
176
     1
290
     0
176
     1
290
     1
176
     1
290
     1
176
     1
290
     0
176
     1
290
     0
176
     1
290
     0
176
     1
290
     0
176
     1
290
     0
176
     1
290
     0
176
     1
 90
       50
176
     1
 40
0.0
176
     1
 40
1.0
176
     1
 90
        0
176
     1
 62
    18
420
        0
176
     1
 90
       50
176
     1
 90
        3
176
     1
 62
     5
420
      255
176
     1
290
     0
176
     1
 90
       50
176
     1
 90
       50
176
     1
 90
       50
176
     1
290
     0
176
     1
 90
       50
176
     1
 62
   256
176
     0
 40
1.0
176
     0
 90
        2
176
     1
  1
strokes_ogs.tif
176
     1
290
     0
176
     1
 40
1.0
176
     1
 40
1.0
176
     1
  0
VISUALSTYLE
  5
212
102
{ACAD_REACTORS
330
205
102
}
330
205
100
AcDbVisualStyle
  2
Thicken
 70
    13
177
     3
291
     1
 70
    58
 90
        2
176
     1
 90
        2
176
     1
 90
        0
176
     1
 90
        0
176
     1
 40
0.6
176
     1
 40
30.0
176
     1
 62
     7
420
 16777215
176
     1
 90
        1
176
     1
 90
        4
176
     1
 62
     7
176
     1
 62
   257
176
     1
 90
        1
176
     1
 90
        1
176
     1
 40
1.0
176
     1
 90
       12
176
     1
 62
     7
176
     1
 40
1.0
176
     1
 90
        1
176
     1
 90
        6
176
     1
 90
        2
176
     1
 62
     7
176
     1
 90
        5
176
     1
 90
        0
176
     1
 90
        0
176
     1
290
     0
176
     1
 90
        1
176
     1
 40
0.0
176
     1
 90
        0
176
     1
290
     0
176
     1
290
     1
176
     1
290
     1
176
     1
290
     0
176
     1
290
     0
176
     1
290
     0
176
     1
290
     0
176
     1
290
     0
176
     1
290
     0
176
     1
 90
       50
176
     1
 40
0.0
176
     1
 40
1.0
176
     1
 90
        0
176
     1
 62
    18
420
        0
176
     1
 90
       50
176
     1
 90
        3
176
     1
 62
     5
420
      255
176
     1
290
     0
176
     1
 90
       50
176
     1
 90
       50
176
     1
 90
       50
176
     1
290
     0
176
     1
 90
       50
176
     1
 62
   256
176
     0
 40
1.0
176
     0
 90
        2
176
     1
  1
strokes_ogs.tif
176
     1
290
     0
176
     1
 40
1.0
176
     1
 40
1.0
176
     1
  0
VISUALSTYLE
  5
20B
102
{ACAD_REACTORS
330
205
102
}
330
205
100
AcDbVisualStyle
  2
Wireframe
 70
     5
177
     3
291
     0
 70
    58
 90
        0
176
     1
 90
        2
176
     1
 90
        0
176
     1
 90
        0
176
     1
 40
0.6
176
     1
 40
30.0
176
     1
 62
     7
420
 16777215
176
     1
 90
        1
176
     1
 90
        4
176
     1
 62
     7
176
     1
 62
   257
176
     1
 90
        1
176
     1
 90
        1
176
     1
 40
1.0
176
     1
 90
        0
176
     1
 62
   257
176
     1
 40
1.0
176
     1
 90
        1
176
     1
 90
        6
176
     1
 90
        2
176
     1
 62
     7
176
     1
 90
        3
176
     1
 90
        0
176
     1
 90
        0
176
     1
290
     0
176
     1
 90
        1
176
     1
 40
0.0
176
     1
 90
        0
176
     1
290
     0
176
     1
290
     1
176
     1
290
     1
176
     1
290
     0
176
     1
290
     0
176
     1
290
     0
176
     1
290
     0
176
     1
290
     0
176
     1
290
     0
176
     1
 90
       50
176
     1
 40
0.0
176
     1
 40
1.0
176
     1
 90
        0
176
     1
 62
    18
420
        0
176
     1
 90
       50
176
     1
 90
        3
176
     1
 62
     5
420
      255
176
     1
290
     0
176
     1
 90
       50
176
     1
 90
       50
176
     1
 90
       50
176
     1
290
     0
176
     1
 90
       50
176
     1
 62
   256
176
     0
 40
1.0
176
     0
 90
        2
176
     1
  1
strokes_ogs.tif
176
     1
290
     0
176
     1
 40
1.0
176
     1
 40
1.0
176
     1
  0
VISUALSTYLE
  5
21B
102
{ACAD_REACTORS
330
205
102
}
330
205
100
AcDbVisualStyle
  2
X-Ray
 70
    25
177
     3
291
     0
 70
    58
 90
        2
176
     1
 90
        2
176
     1
 90
        1
176
     1
 90
        1
176
     1
 40
0.5
176
     1
 40
30.0
176
     1
 62
     7
420
 16777215
176
     1
 90
        1
176
     1
 90
        0
176
     1
 62
     7
176
     1
 62
   257
176
     1
 90
        1
176
     1
 90
        1
176
     1
 40
1.0
176
     1
 90
        8
176
     1
 62
     7
176
     1
 40
1.0
176
     1
 90
        1
176
     1
 90
        6
176
     1
 90
        2
176
     1
 62
     7
176
     1
 90
        3
176
     1
 90
        0
176
     1
 90
        0
176
     1
290
     0
176
     1
 90
       13
176
     1
 40
0.0
176
     1
 90
        0
176
     1
290
     0
176
     1
290
     1
176
     1
290
     1
176
     1
290
     0
176
     1
290
     0
176
     1
290
     0
176
     1
290
     0
176
     1
290
     0
176
     1
290
     0
176
     1
 90
       50
176
     1
 40
0.0
176
     1
 40
1.0
176
     1
 90
        0
176
     1
 62
    18
420
        0
176
     1
 90
       50
176
     1
 90
        3
176
     1
 62
     5
420
      255
176
     1
290
     0
176
     1
 90
       50
176
     1
 90
       50
176
     1
 90
       50
176
     1
290
     0
176
     1
 90
       50
176
     1
 62
   256
176
     0
 40
1.0
176
     0
 90
        2
176
     1
  1
strokes_ogs.tif
176
     1
290
     0
176
     1
 40
1.0
176
     1
 40
1.0
176
     1
  0
DICTIONARYVAR
  5
228
102
{ACAD_REACTORS
330
227
102
}
330
227
100
DictionaryVariables
280
     0
  1
1:1
  0
DICTIONARYVAR
  5
22A
102
{ACAD_REACTORS
330
227
102
}
330
227
100
DictionaryVariables
280
     0
  1
Standard
  0
DICTIONARYVAR
  5
229
102
{ACAD_REACTORS
330
227
102
}
330
227
100
DictionaryVariables
280
     0
  1
Standard
  0
DICTIONARYVAR
  5
22B
102
{ACAD_REACTORS
330
227
102
}
330
227
100
DictionaryVariables
280
     0
  1
0
  0
DICTIONARY
  5
733
330
223
100
AcDbDictionary
280
     1
281
     1
  3
ACAD_ROUNDTRIP_2008_TABLESTYLE_CELLSTYLEMAP
360
734
  0
CELLSTYLEMAP
  5
734
102
{ACAD_REACTORS
330
733
102
}
330
733
100
AcDbCellStyleMap
 90
        3
300
CELLSTYLE
  1
TABLEFORMAT_BEGIN
 90
        5
170
     1
 91
        0
 92
    32768
 62
   257
 93
        1
300
CONTENTFORMAT
  1
CONTENTFORMAT_BEGIN
 90
        0
 91
        0
 92
        4
 93
        0
300

 40
0.0
140
1.0
 94
        5
 62
     0
340
17
144
6.0
309
CONTENTFORMAT_END
171
     1
301
MARGIN
  1
CELLMARGIN_BEGIN
 40
1.5
 40
1.5
 40
1.5
 40
1.5
 40
1.5
 40
1.5
309
CELLMARGIN_END
 94
        6
 95
        1
302
GRIDFORMAT
  1
GRIDFORMAT_BEGIN
 90
        0
 91
        1
 62
     0
 92
       -2
340
11
 93
        0
 40
0.045
309
GRIDFORMAT_END
 95
        2
302
GRIDFORMAT
  1
GRIDFORMAT_BEGIN
 90
        0
 91
        1
 62
     0
 92
       -2
340
11
 93
        0
 40
0.045
309
GRIDFORMAT_END
 95
        4
302
GRIDFORMAT
  1
GRIDFORMAT_BEGIN
 90
        0
 91
        1
 62
     0
 92
       -2
340
11
 93
        0
 40
0.045
309
GRIDFORMAT_END
 95
        8
302
GRIDFORMAT
  1
GRIDFORMAT_BEGIN
 90
        0
 91
        1
 62
     0
 92
       -2
340
11
 93
        0
 40
0.045
309
GRIDFORMAT_END
 95
       16
302
GRIDFORMAT
  1
GRIDFORMAT_BEGIN
 90
        0
 91
        1
 62
     0
 92
       -2
340
11
 93
        0
 40
0.045
309
GRIDFORMAT_END
 95
       32
302
GRIDFORMAT
  1
GRIDFORMAT_BEGIN
 90
        0
 91
        1
 62
     0
 92
       -2
340
11
 93
        0
 40
0.045
309
GRIDFORMAT_END
309
TABLEFORMAT_END
  1
CELLSTYLE_BEGIN
 90
        1
 91
        1
300
_TITLE
309
CELLSTYLE_END
300
CELLSTYLE
  1
TABLEFORMAT_BEGIN
 90
        5
170
     1
 91
        0
 92
        0
 62
   257
 93
        1
300
CONTENTFORMAT
  1
CONTENTFORMAT_BEGIN
 90
        0
 91
        0
 92
        4
 93
        0
300

 40
0.0
140
1.0
 94
        5
 62
     0
340
17
144
4.5
309
CONTENTFORMAT_END
171
     1
301
MARGIN
  1
CELLMARGIN_BEGIN
 40
1.5
 40
1.5
 40
1.5
 40
1.5
 40
1.5
 40
1.5
309
CELLMARGIN_END
 94
        6
 95
        1
302
GRIDFORMAT
  1
GRIDFORMAT_BEGIN
 90
        0
 91
        1
 62
     0
 92
       -2
340
11
 93
        0
 40
0.045
309
GRIDFORMAT_END
 95
        2
302
GRIDFORMAT
  1
GRIDFORMAT_BEGIN
 90
        0
 91
        1
 62
     0
 92
       -2
340
11
 93
        0
 40
0.045
309
GRIDFORMAT_END
 95
        4
302
GRIDFORMAT
  1
GRIDFORMAT_BEGIN
 90
        0
 91
        1
 62
     0
 92
       -2
340
11
 93
        0
 40
0.045
309
GRIDFORMAT_END
 95
        8
302
GRIDFORMAT
  1
GRIDFORMAT_BEGIN
 90
        0
 91
        1
 62
     0
 92
       -2
340
11
 93
        0
 40
0.045
309
GRIDFORMAT_END
 95
       16
302
GRIDFORMAT
  1
GRIDFORMAT_BEGIN
 90
        0
 91
        1
 62
     0
 92
       -2
340
11
 93
        0
 40
0.045
309
GRIDFORMAT_END
 95
       32
302
GRIDFORMAT
  1
GRIDFORMAT_BEGIN
 90
        0
 91
        1
 62
     0
 92
       -2
340
11
 93
        0
 40
0.045
309
GRIDFORMAT_END
309
TABLEFORMAT_END
  1
CELLSTYLE_BEGIN
 90
        2
 91
        1
300
_HEADER
309
CELLSTYLE_END
300
CELLSTYLE
  1
TABLEFORMAT_BEGIN
 90
        5
170
     1
 91
        0
 92
        0
 62
   257
 93
        1
300
CONTENTFORMAT
  1
CONTENTFORMAT_BEGIN
 90
        0
 91
        0
 92
        4
 93
        0
300

 40
0.0
140
1.0
 94
        2
 62
     0
340
17
144
4.5
309
CONTENTFORMAT_END
171
     1
301
MARGIN
  1
CELLMARGIN_BEGIN
 40
1.5
 40
1.5
 40
1.5
 40
1.5
 40
1.5
 40
1.5
309
CELLMARGIN_END
 94
        6
 95
        1
302
GRIDFORMAT
  1
GRIDFORMAT_BEGIN
 90
        0
 91
        1
 62
     0
 92
       -2
340
11
 93
        0
 40
0.045
309
GRIDFORMAT_END
 95
        2
302
GRIDFORMAT
  1
GRIDFORMAT_BEGIN
 90
        0
 91
        1
 62
     0
 92
       -2
340
11
 93
        0
 40
0.045
309
GRIDFORMAT_END
 95
        4
302
GRIDFORMAT
  1
GRIDFORMAT_BEGIN
 90
        0
 91
        1
 62
     0
 92
       -2
340
11
 93
        0
 40
0.045
309
GRIDFORMAT_END
 95
        8
302
GRIDFORMAT
  1
GRIDFORMAT_BEGIN
 90
        0
 91
        1
 62
     0
 92
       -2
340
11
 93
        0
 40
0.045
309
GRIDFORMAT_END
 95
       16
302
GRIDFORMAT
  1
GRIDFORMAT_BEGIN
 90
        0
 91
        1
 62
     0
 92
       -2
340
11
 93
        0
 40
0.045
309
GRIDFORMAT_END
 95
       32
302
GRIDFORMAT
  1
GRIDFORMAT_BEGIN
 90
        0
 91
        1
 62
     0
 92
       -2
340
11
 93
        0
 40
0.045
309
GRIDFORMAT_END
309
TABLEFORMAT_END
  1
CELLSTYLE_BEGIN
 90
        3
 91
        2
300
_DATA
309
CELLSTYLE_END
  0
ENDSEC
  0
EOF
