  0
SECTION
  2
HEADER
  9
$ACADVER
  1
AC1032
  9
$ACADMAINTVER
 90
        4
  9
$DWGCODEPAGE
  3
ANSI_932
  9
$LASTSAVEDBY
  1
9128
  9
$REQUIREDVERSIONS
160
                 0
  9
$INSBASE
 10
0.0
 20
0.0
 30
0.0
  9
$EXTMIN
 10
203.1213931510331
 20
50.01346009418324
 30
0.0
  9
$EXTMAX
 10
291.4319215735662
 20
246.9074801712344
 30
0.0
  9
$LIMMIN
 10
0.0
 20
0.0
  9
$LIMMAX
 10
0.0
 20
0.0
  9
$ORTHOMODE
 70
     0
  9
$REGENMODE
 70
     1
  9
$FILLMODE
 70
     1
  9
$QTEXTMODE
 70
     0
  9
$MIRRTEXT
 70
     1
  9
$LTSCALE
 40
5.08
  9
$ATTMODE
 70
     1
  9
$TEXTSIZE
 40
2.5
  9
$TRACEWID
 40
1.0
  9
$TEXTSTYLE
  7
Standard
  9
$CLAYER
  8
0
  9
$CELTYPE
  6
Continuous
  9
$CECOLOR
 62
   256
  9
$CELTSCALE
 40
1.0
  9
$DISPSILH
 70
     0
  9
$DIMSCALE
 40
1.0
  9
$DIMASZ
 40
0.18
  9
$DIMEXO
 40
0.0625
  9
$DIMDLI
 40
0.38
  9
$DIMRND
 40
0.0
  9
$DIMDLE
 40
0.0
  9
$DIMEXE
 40
0.18
  9
$DIMTP
 40
0.0
  9
$DIMTM
 40
0.0
  9
$DIMTXT
 40
0.18
  9
$DIMCEN
 40
0.09
  9
$DIMTSZ
 40
0.0
  9
$DIMTOL
 70
     0
  9
$DIMLIM
 70
     0
  9
$DIMTIH
 70
     1
  9
$DIMTOH
 70
     1
  9
$DIMSE1
 70
     0
  9
$DIMSE2
 70
     0
  9
$DIMTAD
 70
     0
  9
$DIMZIN
 70
     0
  9
$DIMBLK
  1

  9
$DIMASO
 70
     1
  9
$DIMSHO
 70
     1
  9
$DIMPOST
  1

  9
$DIMAPOST
  1

  9
$DIMALT
 70
     0
  9
$DIMALTD
 70
     2
  9
$DIMALTF
 40
25.4
  9
$DIMLFAC
 40
1.0
  9
$DIMTOFL
 70
     0
  9
$DIMTVP
 40
0.0
  9
$DIMTIX
 70
     0
  9
$DIMSOXD
 70
     0
  9
$DIMSAH
 70
     0
  9
$DIMBLK1
  1

  9
$DIMBLK2
  1

  9
$DIMSTYLE
  2
Standard
  9
$DIMCLRD
 70
     0
  9
$DIMCLRE
 70
     0
  9
$DIMCLRT
 70
     0
  9
$DIMTFAC
 40
1.0
  9
$DIMGAP
 40
0.09
  9
$DIMJUST
 70
     0
  9
$DIMSD1
 70
     0
  9
$DIMSD2
 70
     0
  9
$DIMTOLJ
 70
     1
  9
$DIMTZIN
 70
     0
  9
$DIMALTZ
 70
     0
  9
$DIMALTTZ
 70
     0
  9
$DIMUPT
 70
     0
  9
$DIMDEC
 70
     4
  9
$DIMTDEC
 70
     4
  9
$DIMALTU
 70
     2
  9
$DIMALTTD
 70
     2
  9
$DIMTXSTY
  7
Standard
  9
$DIMAUNIT
 70
     0
  9
$DIMADEC
 70
     0
  9
$DIMALTRND
 40
0.0
  9
$DIMAZIN
 70
     0
  9
$DIMDSEP
 70
     0
  9
$DIMATFIT
 70
     3
  9
$DIMFRAC
 70
     0
  9
$DIMLDRBLK
  1

  9
$DIMLUNIT
 70
     2
  9
$DIMLWD
 70
     0
  9
$DIMLWE
 70
     0
  9
$DIMTMOVE
 70
     0
  9
$DIMFXL
 40
1.0
  9
$DIMFXLON
 70
     0
  9
$DIMJOGANG
 40
0.7853981633974483
  9
$DIMTFILL
 70
     0
  9
$DIMTFILLCLR
 70
     0
  9
$DIMARCSYM
 70
     0
  9
$DIMLTYPE
  6

  9
$DIMLTEX1
  6

  9
$DIMLTEX2
  6

  9
$DIMTXTDIRECTION
 70
     0
  9
$LUNITS
 70
     2
  9
$LUPREC
 70
     4
  9
$SKETCHINC
 40
0.1
  9
$FILLETRAD
 40
0.0
  9
$AUNITS
 70
     0
  9
$AUPREC
 70
     0
  9
$MENU
  1
acad
  9
$ELEVATION
 40
0.0
  9
$PELEVATION
 40
0.0
  9
$THICKNESS
 40
0.0
  9
$LIMCHECK
 70
     0
  9
$CHAMFERA
 40
0.0
  9
$CHAMFERB
 40
0.0
  9
$CHAMFERC
 40
0.0
  9
$CHAMFERD
 40
0.0
  9
$SKPOLY
 70
     0
  9
$TDCREATE
 40
2447893.375
  9
$TDUCREATE
 40
0.0
  9
$TDUPDATE
 40
2459608.567423357
  9
$TDUUPDATE
 40
2459608.192423357
  9
$TDINDWG
 40
0.0010514931
  9
$TDUSRTIMER
 40
0.000138831
  9
$USRTIMER
 70
     1
  9
$ANGBASE
 50
0.0
  9
$ANGDIR
 70
     0
  9
$PDMODE
 70
     1
  9
$PDSIZE
 40
-2.0
  9
$PLINEWID
 40
0.0
  9
$SPLFRAME
 70
     0
  9
$SPLINETYPE
 70
     6
  9
$SPLINESEGS
 70
     8
  9
$HANDSEED
  5
39D
  9
$SURFTAB1
 70
     6
  9
$SURFTAB2
 70
     6
  9
$SURFTYPE
 70
     6
  9
$SURFU
 70
     6
  9
$SURFV
 70
     6
  9
$UCSBASE
  2

  9
$UCSNAME
  2

  9
$UCSORG
 10
0.0
 20
0.0
 30
0.0
  9
$UCSXDIR
 10
1.0
 20
0.0
 30
0.0
  9
$UCSYDIR
 10
0.0
 20
1.0
 30
0.0
  9
$UCSORTHOREF
  2

  9
$UCSORTHOVIEW
 70
     0
  9
$UCSORGTOP
 10
0.0
 20
0.0
 30
0.0
  9
$UCSORGBOTTOM
 10
0.0
 20
0.0
 30
0.0
  9
$UCSORGLEFT
 10
0.0
 20
0.0
 30
0.0
  9
$UCSORGRIGHT
 10
0.0
 20
0.0
 30
0.0
  9
$UCSORGFRONT
 10
0.0
 20
0.0
 30
0.0
  9
$UCSORGBACK
 10
0.0
 20
0.0
 30
0.0
  9
$PUCSBASE
  2

  9
$PUCSNAME
  2

  9
$PUCSORG
 10
0.0
 20
0.0
 30
0.0
  9
$PUCSXDIR
 10
1.0
 20
0.0
 30
0.0
  9
$PUCSYDIR
 10
0.0
 20
1.0
 30
0.0
  9
$PUCSORTHOREF
  2

  9
$PUCSORTHOVIEW
 70
     0
  9
$PUCSORGTOP
 10
0.0
 20
0.0
 30
0.0
  9
$PUCSORGBOTTOM
 10
0.0
 20
0.0
 30
0.0
  9
$PUCSORGLEFT
 10
0.0
 20
0.0
 30
0.0
  9
$PUCSORGRIGHT
 10
0.0
 20
0.0
 30
0.0
  9
$PUCSORGFRONT
 10
0.0
 20
0.0
 30
0.0
  9
$PUCSORGBACK
 10
0.0
 20
0.0
 30
0.0
  9
$USERI1
 70
     0
  9
$USERI2
 70
     0
  9
$USERI3
 70
     0
  9
$USERI4
 70
     0
  9
$USERI5
 70
     0
  9
$USERR1
 40
0.0
  9
$USERR2
 40
0.0
  9
$USERR3
 40
0.0
  9
$USERR4
 40
0.0
  9
$USERR5
 40
0.0
  9
$WORLDVIEW
 70
     1
  9
$SHADEDGE
 70
     3
  9
$SHADEDIF
 70
    70
  9
$TILEMODE
 70
     1
  9
$MAXACTVP
 70
    16
  9
$PINSBASE
 10
0.0
 20
0.0
 30
0.0
  9
$PLIMCHECK
 70
     0
  9
$PEXTMIN
 10
1.000000000000000E+20
 20
1.000000000000000E+20
 30
1.000000000000000E+20
  9
$PEXTMAX
 10
-1.000000000000000E+20
 20
-1.000000000000000E+20
 30
-1.000000000000000E+20
  9
$PLIMMIN
 10
0.0
 20
0.0
  9
$PLIMMAX
 10
0.0
 20
0.0
  9
$UNITMODE
 70
     0
  9
$VISRETAIN
 70
     0
  9
$PLINEGEN
 70
     1
  9
$PSLTSCALE
 70
     0
  9
$TREEDEPTH
 70
  3020
  9
$CMLSTYLE
  2
Standard
  9
$CMLJUST
 70
     0
  9
$CMLSCALE
 40
1.0
  9
$PROXYGRAPHICS
 70
     0
  9
$MEASUREMENT
 70
     1
  9
$CELWEIGHT
370
     0
  9
$ENDCAPS
280
     0
  9
$JOINSTYLE
280
     0
  9
$LWDISPLAY
290
     1
  9
$INSUNITS
 70
     4
  9
$HYPERLINKBASE
  1

  9
$STYLESHEET
  1

  9
$XEDIT
290
     1
  9
$CEPSNTYPE
380
     0
  9
$PSTYLEMODE
290
     1
  9
$FINGERPRINTGUID
  2

  9
$VERSIONGUID
  2

  9
$EXTNAMES
290
     1
  9
$PSVPSCALE
 40
0.0
  9
$OLESTARTUP
290
     0
  9
$SORTENTS
280
   127
  9
$INDEXCTL
280
     0
  9
$HIDETEXT
280
     1
  9
$XCLIPFRAME
280
     2
  9
$HALOGAP
280
     0
  9
$OBSCOLOR
 70
   257
  9
$OBSLTYPE
280
     0
  9
$INTERSECTIONDISPLAY
280
     0
  9
$INTERSECTIONCOLOR
 70
   257
  9
$DIMASSOC
280
     2
  9
$PROJECTNAME
  1

  9
$CAMERADISPLAY
290
     0
  9
$LENSLENGTH
 40
50.0
  9
$CAMERAHEIGHT
 40
0.0
  9
$STEPSPERSEC
 40
2.0
  9
$STEPSIZE
 40
6.0
  9
$3DDWFPREC
 40
2.0
  9
$PSOLWIDTH
 40
0.25
  9
$PSOLHEIGHT
 40
4.0
  9
$LOFTANG1
 40
1.570796326794897
  9
$LOFTANG2
 40
1.570796326794897
  9
$LOFTMAG1
 40
0.0
  9
$LOFTMAG2
 40
0.0
  9
$LOFTPARAM
 70
     7
  9
$LOFTNORMALS
280
     1
  9
$LATITUDE
 40
37.795
  9
$LONGITUDE
 40
-122.394
  9
$NORTHDIRECTION
 40
0.0
  9
$TIMEZONE
 70
 -8000
  9
$LIGHTGLYPHDISPLAY
280
     1
  9
$TILEMODELIGHTSYNCH
280
     1
  9
$SOLIDHIST
280
     0
  9
$SHOWHIST
280
     1
  9
$DWFFRAME
280
     2
  9
$DGNFRAME
280
     2
  9
$REALWORLDSCALE
290
     1
  9
$INTERFERECOLOR
 62
   256
  9
$CSHADOW
280
     0
  9
$SHADOWPLANELOCATION
 40
0.0
  0
ENDSEC
  0
SECTION
  2
CLASSES
  0
CLASS
  1
LWPOLYLINE
  2
AcDbPolyline
  3
ObjectDBX Classes
 90
        0
 91
        1
280
     0
281
     1
  0
CLASS
  1
IMAGE
  2
AcDbRasterImage
  3
ISM
 90
      127
 91
        4
280
     0
281
     1
  0
CLASS
  1
OLE2FRAME
  2
AcDbOle2Frame
  3
ObjectDBX Classes
 90
        0
 91
        1
280
     0
281
     1
  0
CLASS
  1
HATCH
  2
AcDbHatch
  3
ObjectDBX Classes
 90
        0
 91
        1
280
     0
281
     1
  0
CLASS
  1
DICTIONARYVAR
  2
AcDbDictionaryVar
  3
ObjectDBX Classes
 90
        0
 91
        3
280
     0
281
     0
  0
CLASS
  1
RASTERVARIABLES
  2
AcDbRasterVariables
  3
ISM
 90
        0
 91
        3
280
     0
281
     0
  0
CLASS
  1
IMAGEDEF
  2
AcDbRasterImageDef
  3
ISM
 90
        0
 91
        3
280
     0
281
     0
  0
CLASS
  1
IMAGEDEF_REACTOR
  2
AcDbRasterImageDefReactor
  3
ISM
 90
        1
 91
        3
280
     0
281
     0
  0
CLASS
  1
IDBUFFER
  2
AcDbIdBuffer
  3
ObjectDBX Classes
 90
        0
 91
        3
280
     0
281
     0
  0
CLASS
  1
SPATIAL_FILTER
  2
AcDbSpatialFilter
  3
ObjectDBX Classes
 90
        0
 91
        3
280
     0
281
     0
  0
CLASS
  1
XRECORD
  2
AcDbXrecord
  3
ObjectDBX Classes
 90
        0
 91
        1
280
     0
281
     0
  0
CLASS
  1
SORTENTSTABLE
  2
AcDbSortentsTable
  3
ObjectDBX Classes
 90
        0
 91
        3
280
     0
281
     0
  0
CLASS
  1
LAYER_INDEX
  2
AcDbLayerIndex
  3
ObjectDBX Classes
 90
        0
 91
        3
280
     0
281
     0
  0
CLASS
  1
SPATIAL_INDEX
  2
AcDbSpatialIndex
  3
AutoCAD 2000
 90
        0
 91
        3
280
     0
281
     0
  0
CLASS
  1
OBJECT_PTR
  2
CAseDLPNTableRecord
  3
ASE-LPNTableRecord
 90
        1
 91
        3
280
     0
281
     0
  0
CLASS
  1
LAYOUT
  2
AcDbLayout
  3
ObjectDBX Classes
 90
        0
 91
        1
280
     0
281
     0
  0
CLASS
  1
PLOTSETTINGS
  2
AcDbPlotSettings
  3
ObjectDBX Classes
 90
        0
 91
        3
280
     0
281
     0
  0
CLASS
  1
ACDBDICTIONARYWDFLT
  2
AcDbDictionaryWithDefault
  3
ObjectDBX Classes
 90
        0
 91
        3
280
     0
281
     0
  0
CLASS
  1
ACDBPLACEHOLDER
  2
AcDbPlaceHolder
  3
ObjectDBX Classes
 90
        0
 91
        1
280
     0
281
     0
  0
CLASS
  1
VBA_PROJECT
  2
AcDbVbaProject
  3
ObjectDBX Classes
 90
        0
 91
        1
280
     0
281
     0
  0
CLASS
  1
WIPEOUT
  2
AcDbWipeout
  3
WipeOut|AutoCAD Express Tool|expresstools@autodesk.com
 90
      127
 91
        3
280
     0
281
     1
  0
CLASS
  1
WIPEOUTVARIABLES
  2
AcDbWipeoutVariables
  3
WipeOut|AutoCAD Express Tool|expresstools@autodesk.com
 90
        0
 91
        3
280
     0
281
     0
  0
CLASS
  1
RTEXT
  2
RText
  3
RText|AutoCAD Express Tool|expresstools@autodesk.com
 90
        0
 91
        3
280
     0
281
     1
  0
CLASS
  1
ARCALIGNEDTEXT
  2
AcDbArcAlignedText
  3
ATEXT|AutoCAD Express Tool|expresstools@autodesk.com
 90
        0
 91
        3
280
     0
281
     1
  0
CLASS
  1
SCALE
  2
AcDbScale
  3
ObjectDBX Classes
 90
     1153
 91
        3
280
     0
281
     0
  0
CLASS
  1
VISUALSTYLE
  2
AcDbVisualStyle
  3
ObjectDBX Classes
 90
     4095
 91
        3
280
     0
281
     0
  0
CLASS
  1
MATERIAL
  2
AcDbMaterial
  3
ObjectDBX Classes
 90
     1153
 91
        3
280
     0
281
     0
  0
CLASS
  1
TABLESTYLE
  2
AcDbTableStyle
  3
ObjectDBX Classes
 90
     4095
 91
        3
280
     0
281
     0
  0
CLASS
  1
MLEADERSTYLE
  2
AcDbMLeaderStyle
  3
ACDB_MLEADERSTYLE_CLASS
 90
     4095
 91
        3
280
     0
281
     0
  0
CLASS
  1
SUN
  2
AcDbSun
  3
SCENEOE
 90
     1153
 91
        3
280
     0
281
     0
  0
CLASS
  1
CELLSTYLEMAP
  2
AcDbCellStyleMap
  3
ObjectDBX Classes
 90
     1152
 91
        3
280
     0
281
     0
  0
ENDSEC
  0
SECTION
  2
TABLES
  0
TABLE
  2
VPORT
  5
7
330
0
100
AcDbSymbolTable
 70
     1
  0
VPORT
  5
15
330
7
100
AcDbSymbolTableRecord
100
AcDbViewportTableRecord
  2
*ACTIVE
 70
     0
 10
0.0
 20
0.0
 11
1.0
 21
1.0
 12
237.1306117340662
 22
130.2133386957884
 13
0.0
 23
0.0
 14
1.0
 24
1.0
 15
0.0
 25
0.0
 16
0.0
 26
0.0
 36
1.0
 17
0.0
 27
0.0
 37
0.0
 40
316.0403549537535
 41
0.9410852713178295
 42
50.0
 43
0.0
 44
0.0
 50
0.0
 51
0.0
 71
    16
 72
   100
 73
     1
 74
     1
 75
     0
 76
     1
 77
     0
 78
     0
281
     0
 65
     0
110
0.0
120
0.0
130
0.0
111
1.0
121
0.0
131
0.0
112
0.0
122
1.0
132
0.0
 79
     0
146
0.0
348
363
 60
     3
 61
     5
292
     1
282
     1
141
0.0
142
0.0
 63
   256
361
387
  0
ENDTAB
  0
TABLE
  2
LTYPE
  5
4
330
0
100
AcDbSymbolTable
 70
    12
  0
LTYPE
  5
11
330
4
100
AcDbSymbolTableRecord
100
AcDbLinetypeTableRecord
  2
ByBlock
 70
     0
  3

 72
    65
 73
     0
 40
0.0
  0
LTYPE
  5
12
330
4
100
AcDbSymbolTableRecord
100
AcDbLinetypeTableRecord
  2
ByLayer
 70
     0
  3

 72
    65
 73
     0
 40
0.0
  0
LTYPE
  5
13
330
4
100
AcDbSymbolTableRecord
100
AcDbLinetypeTableRecord
  2
Continuous
 70
     0
  3
Solid line
 72
    65
 73
     0
 40
0.0
  0
LTYPE
  5
25
330
4
100
AcDbSymbolTableRecord
100
AcDbLinetypeTableRecord
  2
STYLE_01
 70
     0
  3

 72
    65
 73
     2
 40
0.075
 49
0.05
 74
     0
 49
-0.025
 74
     0
  0
LTYPE
  5
26
330
4
100
AcDbSymbolTableRecord
100
AcDbLinetypeTableRecord
  2
STYLE_02
 70
     0
  3

 72
    65
 73
     6
 40
0.4999999999999999
 49
0.25
 74
     0
 49
-0.05
 74
     0
 49
0.05
 74
     0
 49
-0.05
 74
     0
 49
0.05
 74
     0
 49
-0.05
 74
     0
  0
LTYPE
  5
27
330
4
100
AcDbSymbolTableRecord
100
AcDbLinetypeTableRecord
  2
STYLE_03
 70
     0
  3

 72
    65
 73
     4
 40
0.3999999999999999
 49
0.25
 74
     0
 49
-0.05
 74
     0
 49
0.05
 74
     0
 49
-0.05
 74
     0
  0
LTYPE
  5
28
330
4
100
AcDbSymbolTableRecord
100
AcDbLinetypeTableRecord
  2
STYLE_04
 70
     0
  3

 72
    65
 73
     4
 40
0.7999999999999998
 49
0.4999999999999999
 74
     0
 49
-0.1
 74
     0
 49
0.1
 74
     0
 49
-0.1
 74
     0
  0
LTYPE
  5
29
330
4
100
AcDbSymbolTableRecord
100
AcDbLinetypeTableRecord
  2
STYLE_05
 70
     0
  3

 72
    65
 73
     2
 40
0.025
 49
0.0005
 74
     0
 49
-0.0245
 74
     0
  0
LTYPE
  5
2A
330
4
100
AcDbSymbolTableRecord
100
AcDbLinetypeTableRecord
  2
STYLE_06
 70
     0
  3

 72
    65
 73
     4
 40
1.04164
 49
0.625
 74
     0
 49
-0.20828
 74
     0
 49
0.06943
 74
     0
 49
-0.13893
 74
     0
  0
LTYPE
  5
2B
330
4
100
AcDbSymbolTableRecord
100
AcDbLinetypeTableRecord
  2
STYLE_07
 70
     0
  3

 72
    65
 73
     6
 40
1.875
 49
0.625
 74
     0
 49
-0.20828
 74
     0
 49
0.6250000000000001
 74
     0
 49
-0.2083599999999999
 74
     0
 49
0.06943
 74
     0
 49
-0.1389299999999999
 74
     0
  0
LTYPE
  5
2C
330
4
100
AcDbSymbolTableRecord
100
AcDbLinetypeTableRecord
  2
STYLE_08
 70
     0
  3

 72
    65
 73
     6
 40
1.25
 49
0.625
 74
     0
 49
-0.20828
 74
     0
 49
0.06943
 74
     0
 49
-0.13893
 74
     0
 49
0.0694299999999999
 74
     0
 49
-0.13893
 74
     0
  0
LTYPE
  5
2D
330
4
100
AcDbSymbolTableRecord
100
AcDbLinetypeTableRecord
  2
STYLE_09
 70
     0
  3

 72
    65
 73
     4
 40
5.0
 49
3.75
 74
     0
 49
-0.2777849999999998
 74
     0
 49
0.6944300000000003
 74
     0
 49
-0.2777849999999998
 74
     0
  0
LTYPE
  5
2E
330
4
100
AcDbSymbolTableRecord
100
AcDbLinetypeTableRecord
  2
STYLE_10
 70
     0
  3

 72
    65
 73
     6
 40
5.9375
 49
3.75
 74
     0
 49
-0.2777849999999998
 74
     0
 49
0.6944300000000003
 74
     0
 49
-0.2777849999999998
 74
     0
 49
0.625
 74
     0
 49
-0.3125
 74
     0
  0
LTYPE
  5
2F
330
4
100
AcDbSymbolTableRecord
100
AcDbLinetypeTableRecord
  2
STYLE_11
 70
     0
  3

 72
    65
 73
     2
 40
0.1875
 49
0.125
 74
     0
 49
-0.0625
 74
     0
  0
ENDTAB
  0
TABLE
  2
LAYER
  5
2
330
0
100
AcDbSymbolTable
 70
     6
  0
LAYER
  5
14
330
2
100
AcDbSymbolTableRecord
100
AcDbLayerTableRecord
  2
0
 70
     0
 62
     7
  6
Continuous
370
    15
390
1D
347
37A
348
0
  0
LAYER
  5
30
330
2
100
AcDbSymbolTableRecord
100
AcDbLayerTableRecord
  2
Defpoints
 70
     0
 62
     7
  6
Continuous
290
     0
370
    -3
390
1D
347
37A
348
0
  0
LAYER
  5
31
330
2
100
AcDbSymbolTableRecord
100
AcDbLayerTableRecord
  2
一般
 70
     0
 62
     7
  6
Continuous
370
     5
390
1D
347
37A
348
0
  0
LAYER
  5
32
330
2
100
AcDbSymbolTableRecord
100
AcDbLayerTableRecord
  2
寸法
 70
     0
 62
     7
  6
Continuous
370
     5
390
1D
347
37A
348
0
  0
LAYER
  5
33
330
2
100
AcDbSymbolTableRecord
100
AcDbLayerTableRecord
  2
レイヤー_1
 70
     0
 62
    19
  6
Continuous
370
    15
390
1D
347
37A
348
0
  0
LAYER
  5
34
330
2
100
AcDbSymbolTableRecord
100
AcDbLayerTableRecord
  2
FORMAT
 70
     0
 62
     7
  6
Continuous
370
    15
390
1D
347
37A
348
0
  0
ENDTAB
  0
TABLE
  2
STYLE
  5
3
330
0
100
AcDbSymbolTable
 70
     2
  0
STYLE
  5
17
330
3
100
AcDbSymbolTableRecord
100
AcDbTextStyleTableRecord
  2
Standard
 70
     0
 40
0.0
 41
1.0
 50
0.0
 71
     0
 42
2.5
  3
txt
  4
BIGFONT.SHX
  0
STYLE
  5
24
330
3
100
AcDbSymbolTableRecord
100
AcDbTextStyleTableRecord
  2
Arial
 70
     0
 40
0.0
 41
1.0
 50
0.0
 71
     0
 42
0.0
  3
Arial
  4

1001
ACAD
1000
Arial
1071
        0
  0
ENDTAB
  0
TABLE
  2
VIEW
  5
5
330
0
100
AcDbSymbolTable
 70
     0
  0
ENDTAB
  0
TABLE
  2
UCS
  5
6
330
0
100
AcDbSymbolTable
 70
     0
  0
ENDTAB
  0
TABLE
  2
APPID
  5
8
330
0
100
AcDbSymbolTable
 70
     2
  0
APPID
  5
16
330
8
100
AcDbSymbolTableRecord
100
AcDbRegAppTableRecord
  2
ACAD
 70
     0
  0
APPID
  5
399
330
8
100
AcDbSymbolTableRecord
100
AcDbRegAppTableRecord
  2
PLOTTRANSPARENCY
 70
     0
  0
ENDTAB
  0
TABLE
  2
DIMSTYLE
  5
9
330
0
100
AcDbSymbolTable
 70
     1
100
AcDbDimStyleTable
  0
DIMSTYLE
105
18
330
9
100
AcDbSymbolTableRecord
100
AcDbDimStyleTableRecord
  2
Standard
 70
     0
178
     0
340
17
  0
ENDTAB
  0
TABLE
  2
BLOCK_RECORD
  5
1
330
0
100
AcDbSymbolTable
 70
     0
  0
BLOCK_RECORD
  5
A
330
1
100
AcDbSymbolTableRecord
100
AcDbBlockTableRecord
  2
*MODEL_SPACE
340
20
 70
     0
280
     1
281
     0
  0
BLOCK_RECORD
  5
B
330
1
100
AcDbSymbolTableRecord
100
AcDbBlockTableRecord
  2
*PAPER_SPACE
340
21
 70
     0
280
     1
281
     0
  0
ENDTAB
  0
ENDSEC
  0
SECTION
  2
BLOCKS
  0
BLOCK
  5
D
330
A
100
AcDbEntity
  8
0
100
AcDbBlockBegin
  2
*MODEL_SPACE
 70
     0
 10
0.0
 20
0.0
 30
0.0
  3
*MODEL_SPACE
  1

  0
ENDBLK
  5
E
330
A
100
AcDbEntity
  8
0
100
AcDbBlockEnd
  0
BLOCK
  5
F
330
B
100
AcDbEntity
 67
     1
  8
0
100
AcDbBlockBegin
  2
*PAPER_SPACE
 70
     0
 10
0.0
 20
0.0
 30
0.0
  3
*PAPER_SPACE
  1

  0
ENDBLK
  5
10
330
B
100
AcDbEntity
 67
     1
  8
0
100
AcDbBlockEnd
  0
ENDSEC
  0
SECTION
  2
ENTITIES
  0
MTEXT
  5
35
330
A
100
AcDbEntity
  8
0
 62
     7
100
AcDbMText
 10
261.0467021231493
 20
65.4590432815087
 30
0.0
 40
3.275681268910827
 41
0.0
 46
3.331367850482311
 71
     1
 72
     1
  1
{HFD-D99P/B/E}
  7
Arial
 73
     1
 44
0.9673603504928809
  0
SPLINE
  5
36
102
{ACAD_REACTORS
330
398
102
}
330
A
100
AcDbEntity
  8
0
  6
Continuous
 62
     7
370
    15
100
AcDbSpline
210
0.0
220
0.0
230
1.0
 70
     8
 71
     2
 72
    16
 73
    13
 74
     0
 42
0.000000001
 43
0.000001
 40
0.0
 40
0.0
 40
0.0
 40
1.0
 40
1.0
 40
2.0
 40
3.0
 40
4.0
 40
5.0
 40
6.0
 40
7.0
 40
8.0
 40
8.0
 40
9.0
 40
9.0
 40
9.0
 10
205.784797509827
 20
210.125890712627
 30
0.0
 10
205.7834972528554
 20
210.1254045343313
 30
0.0
 10
205.7821969958839
 20
210.1249183560356
 30
0.0
 10
205.7113467829001
 20
210.0988359937722
 30
0.0
 10
205.4425281404228
 20
209.9901235763966
 30
0.0
 10
205.1726502279395
 20
209.8170058468222
 30
0.0
 10
205.0474953935796
 20
209.6849593606875
 30
0.0
 10
204.994123374373
 20
209.6084470778505
 30
0.0
 10
204.9498488916489
 20
209.5234047111832
 30
0.0
 10
204.9429933232275
 20
209.4447199582262
 30
0.0
 10
204.9419477100469
 20
209.424301130669
 30
0.0
 10
204.9419101832378
 20
209.4236209213615
 30
0.0
 10
204.9418726564287
 20
209.422940712054
 30
0.0
  0
LINE
  5
37
102
{ACAD_REACTORS
330
398
102
}
330
A
100
AcDbEntity
  8
0
  6
Continuous
 62
     7
370
    15
100
AcDbLine
 10
204.9330215493458
 20
209.3851255636431
 30
0.0
 11
204.9329648157047
 21
209.0987174159537
 31
0.0
  0
SPLINE
  5
38
102
{ACAD_REACTORS
330
398
102
}
330
A
100
AcDbEntity
  8
0
  6
Continuous
 62
     7
370
    15
100
AcDbSpline
210
0.0
220
0.0
230
1.0
 70
     8
 71
     2
 72
    16
 73
    13
 74
     0
 42
0.000000001
 43
0.000001
 40
0.0
 40
0.0
 40
0.0
 40
1.0
 40
1.0
 40
2.0
 40
3.0
 40
4.0
 40
5.0
 40
6.0
 40
7.0
 40
8.0
 40
8.0
 40
9.0
 40
9.0
 40
9.0
 10
204.9465326494707
 20
209.1707658275169
 30
0.0
 10
204.9464132913546
 20
209.1702359882028
 30
0.0
 10
204.9462939332385
 20
209.1697061488888
 30
0.0
 10
204.9380667733806
 20
209.1368975739462
 30
0.0
 10
204.9301860615705
 20
209.0661935922149
 30
0.0
 10
204.9439633910704
 20
208.9939826405925
 30
0.0
 10
204.9787054846288
 20
208.8999970839176
 30
0.0
 10
205.0432354796313
 20
208.8027158764213
 30
0.0
 10
205.1071521857174
 20
208.7372676535139
 30
0.0
 10
205.1633541204973
 20
208.6877791841252
 30
0.0
 10
205.1923338686225
 20
208.6632735883439
 30
0.0
 10
205.1932967935026
 20
208.6624559045094
 30
0.0
 10
205.1942597183828
 20
208.6616382206748
 30
0.0
  0
LINE
  5
39
102
{ACAD_REACTORS
330
398
102
}
330
A
100
AcDbEntity
  8
0
  6
Continuous
 62
     7
370
    15
100
AcDbLine
 10
205.1328896852796
 20
208.7188957410337
 30
0.0
 11
205.1319247999853
 21
203.8478716958897
 31
0.0
  0
SPLINE
  5
3A
102
{ACAD_REACTORS
330
398
102
}
330
A
100
AcDbEntity
  8
0
  6
Continuous
 62
     7
370
    15
100
AcDbSpline
210
0.0
220
0.0
230
1.0
 70
     8
 71
     2
 72
    14
 73
    11
 74
     0
 42
0.000000001
 43
0.000001
 40
0.0
 40
0.0
 40
0.0
 40
1.0
 40
1.0
 40
2.0
 40
3.0
 40
4.0
 40
5.0
 40
6.0
 40
6.0
 40
7.0
 40
7.0
 40
7.0
 10
205.1319809247875
 20
204.1311729113685
 30
0.0
 10
205.1314228908092
 20
204.1306644896453
 30
0.0
 10
205.130864856831
 20
204.1301560679221
 30
0.0
 10
205.095774071699
 20
204.0987968579146
 30
0.0
 10
205.0437284174906
 20
204.0464297678334
 30
0.0
 10
205.0056847096672
 20
203.9990456366949
 30
0.0
 10
204.96170819343
 20
203.9234196502726
 30
0.0
 10
204.9471252181229
 20
203.8439543478626
 30
0.0
 10
204.9440183185695
 20
203.8160396919816
 30
0.0
 10
204.9439647795629
 20
203.8155899882684
 30
0.0
 10
204.9439112405564
 20
203.8151402845552
 30
0.0
  0
LINE
  5
3B
102
{ACAD_REACTORS
330
398
102
}
330
A
100
AcDbEntity
  8
0
  6
Continuous
 62
     7
370
    15
100
AcDbLine
 10
204.9319057896641
 20
203.7524433729653
 30
0.0
 11
204.9318490562881
 21
203.4660366478786
 31
0.0
  0
SPLINE
  5
3C
102
{ACAD_REACTORS
330
398
102
}
330
A
100
AcDbEntity
  8
0
  6
Continuous
 62
     7
370
    15
100
AcDbSpline
210
0.0
220
0.0
230
1.0
 70
     8
 71
     2
 72
    16
 73
    13
 74
     0
 42
0.000000001
 43
0.000001
 40
0.0
 40
0.0
 40
0.0
 40
1.0
 40
1.0
 40
2.0
 40
3.0
 40
4.0
 40
5.0
 40
6.0
 40
7.0
 40
8.0
 40
8.0
 40
9.0
 40
9.0
 40
9.0
 10
204.9429786015212
 20
203.5246323020107
 30
0.0
 10
204.9428769109266
 20
203.5240383180444
 30
0.0
 10
204.9427752203319
 20
203.523444334078
 30
0.0
 10
204.9355024756486
 20
203.4866215686249
 30
0.0
 10
204.9316286195224
 20
203.4113928382564
 30
0.0
 10
204.9495560887442
 20
203.3392156906966
 30
0.0
 10
204.9887431047008
 20
203.2463224462993
 30
0.0
 10
205.056973712931
 20
203.1517788145214
 30
0.0
 10
205.11921779643
 20
203.0924709597263
 30
0.0
 10
205.1698287775717
 20
203.0503016618834
 30
0.0
 10
205.1958331886511
 20
203.0294033611781
 30
0.0
 10
205.1966975629707
 20
203.0287061024745
 30
0.0
 10
205.1975619372903
 20
203.028008843771
 30
0.0
  0
ARC
  5
3D
102
{ACAD_REACTORS
330
398
102
}
330
A
100
AcDbEntity
  8
0
  6
Continuous
 62
     7
370
    15
100
AcDbCircle
 10
211.4265021755465
 20
202.7206892358089
 30
0.0
 40
0.1000000000000222
100
AcDbArc
 50
255.3241566575062
 51
288.686411178124
  0
LINE
  5
3E
102
{ACAD_REACTORS
330
398
102
}
330
A
100
AcDbEntity
  8
0
  6
Continuous
 62
     7
370
    15
100
AcDbLine
 10
211.1748458403212
 20
202.6832243839592
 30
0.0
 11
211.4011672217688
 21
202.6239520571454
 31
0.0
  0
LINE
  5
3F
102
{ACAD_REACTORS
330
398
102
}
330
A
100
AcDbEntity
  8
0
  6
Continuous
 62
     7
370
    15
100
AcDbLine
 10
211.4585411687776
 20
202.6259604982529
 30
0.0
 11
211.7359510287623
 21
202.7197852302473
 31
0.0
  0
SPLINE
  5
40
102
{ACAD_REACTORS
330
398
102
}
330
A
100
AcDbEntity
  8
0
  6
Continuous
 62
     7
370
    15
100
AcDbSpline
210
0.0
220
0.0
230
1.0
 70
     8
 71
     2
 72
    18
 73
    15
 74
     0
 42
0.000000001
 43
0.000001
 40
0.0
 40
0.0
 40
0.0
 40
1.0
 40
1.0
 40
2.0
 40
3.0
 40
4.0
 40
5.0
 40
6.0
 40
7.0
 40
8.0
 40
9.0
 40
10.0
 40
10.0
 40
11.0
 40
11.0
 40
11.0
 10
210.9521087430309
 20
202.6806024746173
 30
0.0
 10
210.9522266002696
 20
202.6806351621541
 30
0.0
 10
210.9523444575082
 20
202.6806678496908
 30
0.0
 10
210.9586388000285
 20
202.6824422968513
 30
0.0
 10
210.9741206495048
 20
202.686443114943
 30
0.0
 10
210.9966310146813
 20
202.6902876309549
 30
0.0
 10
211.033211569194
 20
202.6943298317346
 30
0.0
 10
211.0756587462833
 20
202.694996481595
 30
0.0
 10
211.1083823955761
 20
202.693597261669
 30
0.0
 10
211.1375265171174
 20
202.6905703363684
 30
0.0
 10
211.1586265269069
 20
202.6870255078379
 30
0.0
 10
211.1705016746702
 20
202.6842844419942
 30
0.0
 10
211.1747094896446
 20
202.683257423087
 30
0.0
 10
211.1747776649823
 20
202.6832409035309
 30
0.0
 10
211.1748458403199
 20
202.6832243839749
 30
0.0
  0
SPLINE
  5
41
102
{ACAD_REACTORS
330
398
102
}
330
A
100
AcDbEntity
  8
0
  6
Continuous
 62
     7
370
    15
100
AcDbSpline
210
0.0
220
0.0
230
1.0
 70
     8
 71
     2
 72
    17
 73
    14
 74
     0
 42
0.000000001
 43
0.000001
 40
0.0
 40
0.0
 40
0.0
 40
1.0
 40
1.0
 40
2.0
 40
3.0
 40
4.0
 40
5.0
 40
6.0
 40
7.0
 40
8.0
 40
9.0
 40
9.0
 40
10.0
 40
10.0
 40
10.0
 10
205.7924428585305
 20
210.1290967655394
 30
0.0
 10
205.7924429118038
 20
210.1290968034249
 30
0.0
 10
205.7924429650773
 20
210.1290968413105
 30
0.0
 10
205.7927843583839
 20
210.1293383232658
 30
0.0
 10
205.7927661678748
 20
210.1293693443992
 30
0.0
 10
205.7922819255838
 20
210.1291144092237
 30
0.0
 10
205.791599675775
 20
210.1287521572485
 30
0.0
 10
205.7902773068631
 20
210.1280822912136
 30
0.0
 10
205.7888942402587
 20
210.1274529125166
 30
0.0
 10
205.7873811020712
 20
210.126838007284
 30
0.0
 10
205.7856470243082
 20
210.1261969284515
 30
0.0
 10
205.7848121317765
 20
210.1258960001956
 30
0.0
 10
205.7848048208017
 20
210.1258933564113
 30
0.0
 10
205.784797509827
 20
210.125890712627
 30
0.0
  0
ARC
  5
42
102
{ACAD_REACTORS
330
398
102
}
330
A
100
AcDbEntity
  8
0
  6
Continuous
 62
     7
370
    15
100
AcDbCircle
 10
205.570445457408
 20
210.173755122093
 30
0.0
 40
0.1000000000000134
100
AcDbArc
 50
108.6864111781241
 51
179.9886504656421
  0
LINE
  5
43
102
{ACAD_REACTORS
330
398
102
}
330
A
100
AcDbEntity
  8
0
  6
Continuous
 62
     7
370
    15
100
AcDbLine
 10
205.4704452155707
 20
210.1737754694921
 30
0.0
 11
205.4704086547075
 21
209.9892056925182
 31
0.0
  0
LINE
  5
44
102
{ACAD_REACTORS
330
398
102
}
330
A
100
AcDbEntity
  8
0
  6
Continuous
 62
     7
370
    15
100
AcDbLine
 10
208.6882321724475
 20
211.3338089771808
 30
0.0
 11
208.3071168756796
 21
211.2049093030009
 31
0.0
  0
LINE
  5
45
102
{ACAD_REACTORS
330
398
102
}
330
A
100
AcDbEntity
  8
0
  6
Continuous
 62
     7
370
    15
100
AcDbLine
 10
205.9648741903586
 20
210.4127229973026
 30
0.0
 11
205.5384066925938
 21
210.2684844375505
 31
0.0
  0
LINE
  5
46
102
{ACAD_REACTORS
330
398
102
}
330
A
100
AcDbEntity
  8
0
  6
Continuous
 62
     7
370
    15
100
AcDbLine
 10
203.2049286063055
 20
229.5224159733498
 30
0.0
 11
203.169914548016
 21
52.7611784583333
 31
0.0
  0
LINE
  5
47
102
{ACAD_REACTORS
330
398
102
}
330
A
100
AcDbEntity
  8
0
  6
Continuous
 62
     7
370
    15
100
AcDbLine
 10
222.8789280432371
 20
53.13161135447764
 30
0.0
 11
222.913941290092
 21
229.8887524432286
 31
0.0
  0
LINE
  5
48
102
{ACAD_REACTORS
330
398
102
}
330
A
100
AcDbEntity
  8
0
  6
Continuous
 62
     7
370
    15
100
AcDbLine
 10
203.8047737725009
 20
230.5302688659444
 30
0.0
 11
213.4917292656583
 21
227.9933084231552
 31
0.0
  0
ARC
  5
49
102
{ACAD_REACTORS
330
398
102
}
330
A
100
AcDbEntity
  8
0
  6
Continuous
 62
     7
370
    15
100
AcDbCircle
 10
213.6437395748975
 20
228.5737331364994
 30
0.0
 40
0.6000000000000243
100
AcDbArc
 50
255.3241566575213
 51
288.6864111781266
  0
LINE
  5
4A
102
{ACAD_REACTORS
330
398
102
}
330
A
100
AcDbEntity
  8
0
  6
Continuous
 62
     7
370
    15
100
AcDbLine
 10
213.8359730156235
 20
228.005361379967
 30
0.0
 11
222.3549441853713
 21
230.8866222934262
 31
0.0
  0
LINE
  5
4B
102
{ACAD_REACTORS
330
398
102
}
330
A
100
AcDbEntity
  8
0
  6
Continuous
 62
     7
370
    15
100
AcDbLine
 10
222.3171605348706
 20
244.3509449952317
 30
0.0
 11
212.6302050416722
 21
246.8879054379819
 31
0.0
  0
ARC
  5
4C
102
{ACAD_REACTORS
330
398
102
}
330
A
100
AcDbEntity
  8
0
  6
Continuous
 62
     7
370
    15
100
AcDbCircle
 10
203.9592231138326
 20
243.4262191060058
 30
0.0
 40
0.6000000000000487
100
AcDbArc
 50
108.6864111781266
 51
179.9886504656231
  0
LINE
  5
4D
102
{ACAD_REACTORS
330
398
102
}
330
A
100
AcDbEntity
  8
0
  6
Continuous
 62
     7
370
    15
100
AcDbLine
 10
203.3592232951761
 20
243.4263378897012
 30
0.0
 11
203.3567837528453
 21
231.110812611842
 31
0.0
  0
LINE
  5
4E
102
{ACAD_REACTORS
330
398
102
}
330
A
100
AcDbEntity
  8
0
  6
Continuous
 62
     7
370
    15
100
AcDbLine
 10
212.2859612916816
 20
246.8758522589281
 30
0.0
 11
203.7669901219327
 21
243.9945913454289
 31
0.0
  0
ARC
  5
4F
102
{ACAD_REACTORS
330
398
102
}
330
A
100
AcDbEntity
  8
0
  6
Continuous
 62
     7
370
    15
100
AcDbCircle
 10
222.1651507357505
 20
243.7705195948297
 30
0.0
 40
0.6000000000000099
100
AcDbArc
 50
359.9886504656204
 51
75.32415665752059
  0
LINE
  5
50
102
{ACAD_REACTORS
330
398
102
}
330
A
100
AcDbEntity
  8
0
  6
Continuous
 62
     7
370
    15
100
AcDbLine
 10
222.7627110120228
 20
231.4548752601746
 30
0.0
 11
222.7651505543526
 21
243.7704005379939
 31
0.0
  0
ARC
  5
51
102
{ACAD_REACTORS
330
398
102
}
330
A
100
AcDbEntity
  8
0
  6
Continuous
 62
     7
370
    15
100
AcDbCircle
 10
203.9567835714766
 20
231.1106937129042
 30
0.0
 40
0.6000000000000099
100
AcDbArc
 50
179.9886504656204
 51
255.3241566575232
  0
ARC
  5
52
102
{ACAD_REACTORS
330
398
102
}
330
A
100
AcDbEntity
  8
0
  6
Continuous
 62
     7
370
    15
100
AcDbCircle
 10
222.1627111933956
 20
231.4549942017681
 30
0.0
 40
0.600000000000006
100
AcDbArc
 50
288.686411178125
 51
359.9886504656204
  0
ARC
  5
53
102
{ACAD_REACTORS
330
398
102
}
330
A
100
AcDbEntity
  8
0
  6
Continuous
 62
     7
370
    15
100
AcDbCircle
 10
212.4781947323297
 20
246.3074801712344
 30
0.0
 40
0.59999999999998
100
AcDbArc
 50
75.32415665752322
 51
108.6864111781249
  0
SPLINE
  5
54
102
{ACAD_REACTORS
330
398
102
}
330
A
100
AcDbEntity
  8
0
  6
Continuous
 62
     7
370
    15
100
AcDbSpline
210
0.0
220
0.0
230
1.0
 70
     8
 71
     2
 72
    16
 73
    13
 74
     0
 42
0.000000001
 43
0.000001
 40
0.0
 40
0.0
 40
0.0
 40
1.0
 40
1.0
 40
2.0
 40
3.0
 40
4.0
 40
5.0
 40
6.0
 40
7.0
 40
8.0
 40
8.0
 40
9.0
 40
9.0
 40
9.0
 10
203.2108540215139
 20
230.1565373250019
 30
0.0
 10
203.210720774434
 20
230.1564659884005
 30
0.0
 10
203.2105875273542
 20
230.1563946517992
 30
0.0
 10
203.2022820961777
 20
230.1520072001881
 30
0.0
 10
203.1810846529847
 20
230.1400620673492
 30
0.0
 10
203.1580124521234
 20
230.1195221212242
 30
0.0
 10
203.1437213194209
 20
230.0993767203801
 30
0.0
 10
203.1357573359822
 20
230.0828005764741
 30
0.0
 10
203.1327940581284
 20
230.0696880315692
 30
0.0
 10
203.1310359829356
 20
230.0573926018014
 30
0.0
 10
203.130329872468
 20
230.0490420544929
 30
0.0
 10
203.1303175357234
 20
230.0489074959606
 30
0.0
 10
203.1303051989789
 20
230.0487729374283
 30
0.0
  0
LINE
  5
55
102
{ACAD_REACTORS
330
398
102
}
330
A
100
AcDbEntity
  8
0
  6
Continuous
 62
     7
370
    15
100
AcDbLine
 10
203.130246145188
 20
230.050535811988
 30
0.0
 11
203.1213931510331
 21
229.5715396858719
 31
0.0
  0
LINE
  5
56
102
{ACAD_REACTORS
330
398
102
}
330
A
100
AcDbEntity
  8
0
  6
Continuous
 62
     7
370
    15
100
AcDbLine
 10
204.0907229953661
 20
230.455380307976
 30
0.0
 11
203.2209189069355
 21
230.1611977743862
 31
0.0
  0
SPLINE
  5
57
102
{ACAD_REACTORS
330
398
102
}
330
A
100
AcDbEntity
  8
0
  6
Continuous
 62
     7
370
    15
100
AcDbSpline
210
0.0
220
0.0
230
1.0
 70
     8
 71
     2
 72
    16
 73
    13
 74
     0
 42
0.000000001
 43
0.000001
 40
0.0
 40
0.0
 40
0.0
 40
1.0
 40
1.0
 40
2.0
 40
3.0
 40
4.0
 40
5.0
 40
6.0
 40
7.0
 40
8.0
 40
8.0
 40
9.0
 40
9.0
 40
9.0
 10
222.9887414566197
 20
230.4202679575184
 30
0.0
 10
222.9887178757077
 20
230.4204132548654
 30
0.0
 10
222.9886942947958
 20
230.4205585522124
 30
0.0
 10
222.9873374079717
 20
230.4295831561973
 30
0.0
 10
222.984378726146
 20
230.4428290948968
 30
0.0
 10
222.9788010361027
 20
230.4602468669469
 30
0.0
 10
222.9643741164357
 20
230.4805397584655
 30
0.0
 10
222.9498731529301
 20
230.4957848878987
 30
0.0
 10
222.9282109153447
 20
230.5129063989253
 30
0.0
 10
222.903345672231
 20
230.5251707125859
 30
0.0
 10
222.8938835712149
 20
230.5294745624369
 30
0.0
 10
222.8937314816682
 20
230.5295444986637
 30
0.0
 10
222.8935793921216
 20
230.5296144348905
 30
0.0
  0
LINE
  5
58
102
{ACAD_REACTORS
330
398
102
}
330
A
100
AcDbEntity
  8
0
  6
Continuous
 62
     7
370
    15
100
AcDbLine
 10
222.9974962231024
 20
229.9397817562676
 30
0.0
 11
222.9888333225699
 21
230.4187814253253
 31
0.0
  0
LINE
  5
59
102
{ACAD_REACTORS
330
398
102
}
330
A
100
AcDbEntity
  8
0
  6
Continuous
 62
     7
370
    15
100
AcDbLine
 10
222.8831933080296
 20
230.533963669488
 30
0.0
 11
221.9978217788276
 21
230.7658376105154
 31
0.0
  0
ARC
  5
5A
102
{ACAD_REACTORS
330
398
102
}
330
A
100
AcDbEntity
  8
0
  6
Continuous
 62
     7
370
    15
100
AcDbCircle
 10
211.07024443132
 20
208.2411466190605
 30
0.0
 40
0.5686971462776157
100
AcDbArc
 50
76.66901142142711
 51
105.0227311638233
  0
POLYLINE
  5
5B
102
{ACAD_REACTORS
330
398
102
}
330
A
100
AcDbEntity
  8
0
  6
Continuous
 62
     7
370
    15
100
AcDb2dPolyline
 66
     1
 10
0.0
 20
0.0
 30
0.0
 75
     5
  0
VERTEX
  5
5C
330
5B
100
AcDbEntity
  8
0
  6
Continuous
 62
     7
370
    15
100
AcDbVertex
100
AcDb2dVertex
 10
205.1358429030879
 20
209.2335646676046
 30
0.0
  0
VERTEX
  5
5D
330
5B
100
AcDbEntity
  8
0
  6
Continuous
 62
     7
370
    15
100
AcDbVertex
100
AcDb2dVertex
 10
205.2221867108513
 20
209.1477021761594
 30
0.0
  0
VERTEX
  5
5E
330
5B
100
AcDbEntity
  8
0
  6
Continuous
 62
     7
370
    15
100
AcDbVertex
100
AcDb2dVertex
 10
205.4205297034161
 20
209.0113380250193
 30
0.0
  0
VERTEX
  5
5F
330
5B
100
AcDbEntity
  8
0
  6
Continuous
 62
     7
370
    15
100
AcDbVertex
100
AcDb2dVertex
 10
205.6838125758975
 20
208.8850746374184
 30
0.0
  0
VERTEX
  5
60
330
5B
100
AcDbEntity
  8
0
  6
Continuous
 62
     7
370
    15
100
AcDbVertex
100
AcDb2dVertex
 10
206.0063593726784
 20
208.7716336299509
 30
0.0
  0
VERTEX
  5
61
330
5B
100
AcDbEntity
  8
0
  6
Continuous
 62
     7
370
    15
100
AcDbVertex
100
AcDb2dVertex
 10
206.3812171337527
 20
208.6734604410729
 30
0.0
  0
VERTEX
  5
62
330
5B
100
AcDbEntity
  8
0
  6
Continuous
 62
     7
370
    15
100
AcDbVertex
100
AcDb2dVertex
 10
206.8003052305426
 20
208.592671342961
 30
0.0
  0
VERTEX
  5
63
330
5B
100
AcDbEntity
  8
0
  6
Continuous
 62
     7
370
    15
100
AcDbVertex
100
AcDb2dVertex
 10
207.2545894353808
 20
208.5310078539075
 30
0.0
  0
VERTEX
  5
64
330
5B
100
AcDbEntity
  8
0
  6
Continuous
 62
     7
370
    15
100
AcDbVertex
100
AcDb2dVertex
 10
207.7342775075894
 20
208.4897993929256
 30
0.0
  0
VERTEX
  5
65
330
5B
100
AcDbEntity
  8
0
  6
Continuous
 62
     7
370
    15
100
AcDbVertex
100
AcDb2dVertex
 10
208.2290280941978
 20
208.4699339631672
 30
0.0
  0
VERTEX
  5
66
330
5B
100
AcDbEntity
  8
0
  6
Continuous
 62
     7
370
    15
100
AcDbVertex
100
AcDb2dVertex
 10
208.7281761940293
 20
208.4718398512047
 30
0.0
  0
VERTEX
  5
67
330
5B
100
AcDbEntity
  8
0
  6
Continuous
 62
     7
370
    15
100
AcDbVertex
100
AcDb2dVertex
 10
209.220962657564
 20
208.495476309036
 30
0.0
  0
VERTEX
  5
68
330
5B
100
AcDbEntity
  8
0
  6
Continuous
 62
     7
370
    15
100
AcDbVertex
100
AcDb2dVertex
 10
209.6967637983969
 20
208.5403333596022
 30
0.0
  0
VERTEX
  5
69
330
5B
100
AcDbEntity
  8
0
  6
Continuous
 62
     7
370
    15
100
AcDbVertex
100
AcDb2dVertex
 10
210.1453238464257
 20
208.6054444410923
 30
0.0
  0
VERTEX
  5
6A
330
5B
100
AcDbEntity
  8
0
  6
Continuous
 62
     7
370
    15
100
AcDbVertex
100
AcDb2dVertex
 10
210.55697273875
 20
208.6894058435751
 30
0.0
  0
VERTEX
  5
6B
330
5B
100
AcDbEntity
  8
0
  6
Continuous
 62
     7
370
    15
100
AcDbVertex
100
AcDb2dVertex
 10
210.9228368571488
 20
208.790407441656
 30
0.0
  0
SEQEND
  5
6C
330
5B
100
AcDbEntity
  8
0
  6
Continuous
 62
     7
370
    15
  0
POLYLINE
  5
6D
102
{ACAD_REACTORS
330
398
102
}
330
A
100
AcDbEntity
  8
0
  6
Continuous
 62
     7
370
    15
100
AcDb2dPolyline
 66
     1
 10
0.0
 20
0.0
 30
0.0
 75
     5
  0
VERTEX
  5
6E
330
6D
100
AcDbEntity
  8
0
  6
Continuous
 62
     7
370
    15
100
AcDbVertex
100
AcDb2dVertex
 10
205.8185046931881
 20
210.1272040023243
 30
0.0
  0
VERTEX
  5
6F
330
6D
100
AcDbEntity
  8
0
  6
Continuous
 62
     7
370
    15
100
AcDbVertex
100
AcDb2dVertex
 10
205.8401601357536
 20
210.1366787382167
 30
0.0
  0
VERTEX
  5
70
330
6D
100
AcDbEntity
  8
0
  6
Continuous
 62
     7
370
    15
100
AcDbVertex
100
AcDb2dVertex
 10
205.8553091184924
 20
210.1472143817739
 30
0.0
  0
VERTEX
  5
71
330
6D
100
AcDbEntity
  8
0
  6
Continuous
 62
     7
370
    15
100
AcDbVertex
100
AcDb2dVertex
 10
205.8633892505161
 20
210.1584199426707
 30
0.0
  0
VERTEX
  5
72
330
6D
100
AcDbEntity
  8
0
  6
Continuous
 62
     7
370
    15
100
AcDbVertex
100
AcDb2dVertex
 10
205.8641010502755
 20
210.1698798665519
 30
0.0
  0
VERTEX
  5
73
330
6D
100
AcDbEntity
  8
0
  6
Continuous
 62
     7
370
    15
100
AcDbVertex
100
AcDb2dVertex
 10
205.8574180975405
 20
210.1811693877282
 30
0.0
  0
VERTEX
  5
74
330
6D
100
AcDbEntity
  8
0
  6
Continuous
 62
     7
370
    15
100
AcDbVertex
100
AcDb2dVertex
 10
205.8435882813057
 20
210.1918695565559
 30
0.0
  0
VERTEX
  5
75
330
6D
100
AcDbEntity
  8
0
  6
Continuous
 62
     7
370
    15
100
AcDbVertex
100
AcDb2dVertex
 10
205.8231244745495
 20
210.2015835592562
 30
0.0
  0
VERTEX
  5
76
330
6D
100
AcDbEntity
  8
0
  6
Continuous
 62
     7
370
    15
100
AcDbVertex
100
AcDb2dVertex
 10
205.796785803661
 20
210.2099513672778
 30
0.0
  0
SEQEND
  5
77
330
6D
100
AcDbEntity
  8
0
  6
Continuous
 62
     7
370
    15
  0
LINE
  5
78
102
{ACAD_REACTORS
330
398
102
}
330
A
100
AcDbEntity
  8
0
  6
Continuous
 62
     7
370
    15
100
AcDbLine
 10
205.5704644221745
 20
210.2692236941327
 30
0.0
 11
205.796785803661
 21
210.2099513672778
 31
0.0
  0
LINE
  5
79
102
{ACAD_REACTORS
330
398
102
}
330
A
100
AcDbEntity
  8
0
  6
Continuous
 62
     7
370
    15
100
AcDbLine
 10
211.201372372958
 20
208.7945198268529
 30
0.0
 11
211.4276937544045
 21
208.7352474999991
 31
0.0
  0
LINE
  5
7A
102
{ACAD_REACTORS
330
398
102
}
330
A
100
AcDbEntity
  8
0
  6
Continuous
 62
     7
370
    15
100
AcDbLine
 10
204.9330215493458
 20
209.3851255636431
 30
0.0
 11
204.9344467894645
 21
209.4147851132981
 31
0.0
  0
LINE
  5
7B
102
{ACAD_REACTORS
330
398
102
}
330
A
100
AcDbEntity
  8
0
  6
Continuous
 62
     7
370
    15
100
AcDbLine
 10
205.7834151780712
 20
210.1253736585798
 30
0.0
 11
205.7848332535852
 21
210.1259029869244
 31
0.0
  0
ARC
  5
7C
102
{ACAD_REACTORS
330
398
102
}
330
A
100
AcDbEntity
  8
0
  6
Continuous
 62
     7
370
    15
100
AcDbCircle
 10
210.8763239700939
 20
208.6799612777497
 30
0.0
 40
0.1198407434332983
100
AcDbArc
 50
357.4647877372337
 51
67.16227477131515
  0
LINE
  5
7D
102
{ACAD_REACTORS
330
398
102
}
330
A
100
AcDbEntity
  8
0
  6
Continuous
 62
     7
370
    15
100
AcDbLine
 10
210.9959906828384
 20
208.3882521708185
 30
0.0
 11
210.9960474164795
 21
208.6746603185079
 31
0.0
  0
POLYLINE
  5
7E
102
{ACAD_REACTORS
330
398
102
}
330
A
100
AcDbEntity
  8
0
  6
Continuous
 62
     7
370
    15
100
AcDb2dPolyline
 66
     1
 10
0.0
 20
0.0
 30
0.0
 75
     5
  0
VERTEX
  5
7F
330
7E
100
AcDbEntity
  8
0
  6
Continuous
 62
     7
370
    15
100
AcDbVertex
100
AcDb2dVertex
 10
210.9189538175803
 20
208.3118523050177
 30
0.0
  0
VERTEX
  5
80
330
7E
100
AcDbEntity
  8
0
  6
Continuous
 62
     7
370
    15
100
AcDbVertex
100
AcDb2dVertex
 10
210.5529491094634
 20
208.2111269907176
 30
0.0
  0
VERTEX
  5
81
330
7E
100
AcDbEntity
  8
0
  6
Continuous
 62
     7
370
    15
100
AcDbVertex
100
AcDb2dVertex
 10
210.1413406757011
 20
208.1274260503562
 30
0.0
  0
VERTEX
  5
82
330
7E
100
AcDbEntity
  8
0
  6
Continuous
 62
     7
370
    15
100
AcDbVertex
100
AcDb2dVertex
 10
209.6929830607198
 20
208.0625501364328
 30
0.0
  0
VERTEX
  5
83
330
7E
100
AcDbEntity
  8
0
  6
Continuous
 62
     7
370
    15
100
AcDbVertex
100
AcDb2dVertex
 10
209.2175206744812
 20
208.0178946184404
 30
0.0
  0
VERTEX
  5
84
330
7E
100
AcDbEntity
  8
0
  6
Continuous
 62
     7
370
    15
100
AcDbVertex
100
AcDb2dVertex
 10
208.7251812715481
 20
207.9944201082006
 30
0.0
  0
VERTEX
  5
85
330
7E
100
AcDbEntity
  8
0
  6
Continuous
 62
     7
370
    15
100
AcDbVertex
100
AcDb2dVertex
 10
208.2265556944749
 20
207.9926316018762
 30
0.0
  0
VERTEX
  5
86
330
7E
100
AcDbEntity
  8
0
  6
Continuous
 62
     7
370
    15
100
AcDbVertex
100
AcDb2dVertex
 10
207.7323699216005
 20
208.0125676099285
 30
0.0
  0
VERTEX
  5
87
330
7E
100
AcDbEntity
  8
0
  6
Continuous
 62
     7
370
    15
100
AcDbVertex
100
AcDb2dVertex
 10
207.2532540445668
 20
208.0537992444559
 30
0.0
  0
VERTEX
  5
88
330
7E
100
AcDbEntity
  8
0
  6
Continuous
 62
     7
370
    15
100
AcDbVertex
100
AcDb2dVertex
 10
206.799514239314
 20
208.1154394473738
 30
0.0
  0
VERTEX
  5
89
330
7E
100
AcDbEntity
  8
0
  6
Continuous
 62
     7
370
    15
100
AcDbVertex
100
AcDb2dVertex
 10
206.3809115880649
 20
208.1961625309012
 30
0.0
  0
VERTEX
  5
8A
330
7E
100
AcDbEntity
  8
0
  6
Continuous
 62
     7
370
    15
100
AcDbVertex
100
AcDb2dVertex
 10
206.0064502214503
 20
208.294231906256
 30
0.0
  0
VERTEX
  5
8B
330
7E
100
AcDbEntity
  8
0
  6
Continuous
 62
     7
370
    15
100
AcDbVertex
100
AcDb2dVertex
 10
205.6841851716636
 20
208.4075380048034
 30
0.0
  0
VERTEX
  5
8C
330
7E
100
AcDbEntity
  8
0
  6
Continuous
 62
     7
370
    15
100
AcDbVertex
100
AcDb2dVertex
 10
205.4210491422134
 20
208.5336436458742
 30
0.0
  0
VERTEX
  5
8D
330
7E
100
AcDbEntity
  8
0
  6
Continuous
 62
     7
370
    15
100
AcDbVertex
100
AcDb2dVertex
 10
205.2735740003892
 20
208.6292460364643
 30
0.0
  0
SEQEND
  5
8E
330
7E
100
AcDbEntity
  8
0
  6
Continuous
 62
     7
370
    15
  0
SPLINE
  5
8F
102
{ACAD_REACTORS
330
398
102
}
330
A
100
AcDbEntity
  8
0
  6
Continuous
 62
     7
370
    15
100
AcDbSpline
210
0.0
220
0.0
230
1.0
 70
     8
 71
     2
 72
    15
 73
    12
 74
     0
 42
0.000000001
 43
0.000001
 40
0.0
 40
0.0
 40
0.0
 40
1.0
 40
1.0
 40
2.0
 40
3.0
 40
4.0
 40
5.0
 40
6.0
 40
7.0
 40
7.0
 40
8.0
 40
8.0
 40
8.0
 10
210.9189538175974
 20
208.3118523050347
 30
0.0
 10
210.9189969916626
 20
208.3118437221837
 30
0.0
 10
210.9190401657278
 20
208.3118351393327
 30
0.0
 10
210.9229340452787
 20
208.3110211905767
 30
0.0
 10
210.9294324098346
 20
208.310040370681
 30
0.0
 10
210.934852687742
 20
208.3098170556082
 30
0.0
 10
210.9398065481899
 20
208.3105004343386
 30
0.0
 10
210.9443013238527
 20
208.3117136563671
 30
0.0
 10
210.9481804154412
 20
208.3130471887628
 30
0.0
 10
210.9499069183677
 20
208.3136689577245
 30
0.0
 10
210.9499414599655
 20
208.3136813348123
 30
0.0
 10
210.9499760015632
 20
208.3136937119001
 30
0.0
  0
SPLINE
  5
90
102
{ACAD_REACTORS
330
398
102
}
330
A
100
AcDbEntity
  8
0
  6
Continuous
 62
     7
370
    15
100
AcDbSpline
210
0.0
220
0.0
230
1.0
 70
     8
 71
     2
 72
    14
 73
    11
 74
     0
 42
0.000000001
 43
0.000001
 40
0.0
 40
0.0
 40
0.0
 40
1.0
 40
1.0
 40
2.0
 40
3.0
 40
4.0
 40
5.0
 40
6.0
 40
6.0
 40
7.0
 40
7.0
 40
7.0
 10
210.9109854468283
 20
208.2580954105303
 30
0.0
 10
210.9109811855455
 20
208.2581868982488
 30
0.0
 10
210.9109769242626
 20
208.2582783859673
 30
0.0
 10
210.9107500115967
 20
208.2636016334713
 30
0.0
 10
210.9100431970029
 20
208.2744163902041
 30
0.0
 10
210.9081277058815
 20
208.2868481064615
 30
0.0
 10
210.9046198291518
 20
208.295471223348
 30
0.0
 10
210.9021740013628
 20
208.300415012442
 30
0.0
 10
210.9009021728549
 20
208.3028459231835
 30
0.0
 10
210.9008817595869
 20
208.3028852152873
 30
0.0
 10
210.9008613463189
 20
208.3029245073911
 30
0.0
  0
LINE
  5
91
102
{ACAD_REACTORS
330
398
102
}
330
A
100
AcDbEntity
  8
0
  6
Continuous
 62
     7
370
    15
100
AcDbLine
 10
210.9109854468164
 20
208.2580954105193
 30
0.0
 11
210.9100020656851
 21
203.2936988978219
 31
0.0
  0
SPLINE
  5
92
102
{ACAD_REACTORS
330
398
102
}
330
A
100
AcDbEntity
  8
0
  6
Continuous
 62
     7
370
    15
100
AcDbSpline
210
0.0
220
0.0
230
1.0
 70
     8
 71
     2
 72
    16
 73
    13
 74
     0
 42
0.000000001
 43
0.000001
 40
0.0
 40
0.0
 40
0.0
 40
1.0
 40
1.0
 40
2.0
 40
3.0
 40
4.0
 40
5.0
 40
6.0
 40
7.0
 40
8.0
 40
8.0
 40
9.0
 40
9.0
 40
9.0
 10
210.8428064900478
 20
203.1761907237995
 30
0.0
 10
210.8428990506601
 20
203.1762331077457
 30
0.0
 10
210.8429916112723
 20
203.1762754916919
 30
0.0
 10
210.8517493604365
 20
203.1799547868529
 30
0.0
 10
210.867539897684
 20
203.1898323408693
 30
0.0
 10
210.8795669998847
 20
203.2028451102763
 30
0.0
 10
210.8934345029942
 20
203.2229942065736
 30
0.0
 10
210.9028674174643
 20
203.2472671267536
 30
0.0
 10
210.9086101413653
 20
203.2693911396518
 30
0.0
 10
210.9097663797924
 20
203.2881597575528
 30
0.0
 10
210.9099942647493
 20
203.2935257588438
 30
0.0
 10
210.909998165214
 20
203.2936123283388
 30
0.0
 10
210.9100020656787
 20
203.2936988978338
 30
0.0
  0
POLYLINE
  5
93
102
{ACAD_REACTORS
330
398
102
}
330
A
100
AcDbEntity
  8
0
  6
Continuous
 62
     7
370
    15
100
AcDb2dPolyline
 66
     1
 10
0.0
 20
0.0
 30
0.0
 75
     5
  0
VERTEX
  5
94
330
93
100
AcDbEntity
  8
0
  6
Continuous
 62
     7
370
    15
100
AcDbVertex
100
AcDb2dVertex
 10
205.1319247999853
 20
203.8478716958897
 30
0.0
  0
VERTEX
  5
95
330
93
100
AcDbEntity
  8
0
  6
Continuous
 62
     7
370
    15
100
AcDbVertex
100
AcDb2dVertex
 10
205.1349103490231
 20
203.8060469516027
 30
0.0
  0
VERTEX
  5
96
330
93
100
AcDbEntity
  8
0
  6
Continuous
 62
     7
370
    15
100
AcDbVertex
100
AcDb2dVertex
 10
205.1908472921317
 20
203.663049642243
 30
0.0
  0
VERTEX
  5
97
330
93
100
AcDbEntity
  8
0
  6
Continuous
 62
     7
370
    15
100
AcDbVertex
100
AcDb2dVertex
 10
205.3164223942376
 20
203.524009347717
 30
0.0
  0
VERTEX
  5
98
330
93
100
AcDbEntity
  8
0
  6
Continuous
 62
     7
370
    15
100
AcDbVertex
100
AcDb2dVertex
 10
205.5089383566901
 20
203.3919137328683
 30
0.0
  0
VERTEX
  5
99
330
93
100
AcDbEntity
  8
0
  6
Continuous
 62
     7
370
    15
100
AcDbVertex
100
AcDb2dVertex
 10
205.7642574038572
 20
203.269600658333
 30
0.0
  0
VERTEX
  5
9A
330
93
100
AcDbEntity
  8
0
  6
Continuous
 62
     7
370
    15
100
AcDbVertex
100
AcDb2dVertex
 10
206.0768948942824
 20
203.1596985271672
 30
0.0
  0
VERTEX
  5
9B
330
93
100
AcDbEntity
  8
0
  6
Continuous
 62
     7
370
    15
100
AcDbVertex
100
AcDb2dVertex
 10
206.4401328353941
 20
203.0645685052941
 30
0.0
  0
VERTEX
  5
9C
330
93
100
AcDbEntity
  8
0
  6
Continuous
 62
     7
370
    15
100
AcDbVertex
100
AcDb2dVertex
 10
206.8461665990681
 20
202.9862545819693
 30
0.0
  0
VERTEX
  5
9D
330
93
100
AcDbEntity
  8
0
  6
Continuous
 62
     7
370
    15
100
AcDbVertex
100
AcDb2dVertex
 10
207.2862726970244
 20
202.9264396302851
 30
0.0
  0
VERTEX
  5
9E
330
93
100
AcDbEntity
  8
0
  6
Continuous
 62
     7
370
    15
100
AcDbVertex
100
AcDb2dVertex
 10
207.7509938741339
 20
202.8864084478033
 30
0.0
  0
VERTEX
  5
9F
330
93
100
AcDbEntity
  8
0
  6
Continuous
 62
     7
370
    15
100
AcDbVertex
100
AcDb2dVertex
 10
208.2303461082201
 20
202.8670215952669
 30
0.0
  0
VERTEX
  5
A0
330
93
100
AcDbEntity
  8
0
  6
Continuous
 62
     7
370
    15
100
AcDbVertex
100
AcDb2dVertex
 10
208.7140293232515
 20
202.8686953488062
 30
0.0
  0
VERTEX
  5
A1
330
93
100
AcDbEntity
  8
0
  6
Continuous
 62
     7
370
    15
100
AcDbVertex
100
AcDb2dVertex
 10
209.1916512592678
 20
202.8913938564226
 30
0.0
  0
VERTEX
  5
A2
330
93
100
AcDbEntity
  8
0
  6
Continuous
 62
     7
370
    15
100
AcDbVertex
100
AcDb2dVertex
 10
209.6529496582956
 20
202.9346294118949
 30
0.0
  0
VERTEX
  5
A3
330
93
100
AcDbEntity
  8
0
  6
Continuous
 62
     7
370
    15
100
AcDbVertex
100
AcDb2dVertex
 10
210.0880127840173
 20
202.9974729096332
 30
0.0
  0
VERTEX
  5
A4
330
93
100
AcDbEntity
  8
0
  6
Continuous
 62
     7
370
    15
100
AcDbVertex
100
AcDb2dVertex
 10
210.4874925244081
 20
203.0785742136067
 30
0.0
  0
VERTEX
  5
A5
330
93
100
AcDbEntity
  8
0
  6
Continuous
 62
     7
370
    15
100
AcDbVertex
100
AcDb2dVertex
 10
210.8428064900365
 20
203.1761907238117
 30
0.0
  0
SEQEND
  5
A6
330
93
100
AcDbEntity
  8
0
  6
Continuous
 62
     7
370
    15
  0
LINE
  5
A7
102
{ACAD_REACTORS
330
398
102
}
330
A
100
AcDbEntity
  8
0
  6
Continuous
 62
     7
370
    15
100
AcDbLine
 10
204.9319057896641
 20
203.7524433729653
 30
0.0
 11
204.9358249347547
 21
203.8016592524066
 31
0.0
  0
POLYLINE
  5
A8
102
{ACAD_REACTORS
330
398
102
}
330
A
100
AcDbEntity
  8
0
  6
Continuous
 62
     7
370
    15
100
AcDb2dPolyline
 66
     1
 10
0.0
 20
0.0
 30
0.0
 75
     5
  0
VERTEX
  5
A9
330
A8
100
AcDbEntity
  8
0
  6
Continuous
 62
     7
370
    15
100
AcDbVertex
100
AcDb2dVertex
 10
205.1376109671671
 20
203.5974966576202
 30
0.0
  0
VERTEX
  5
AA
330
A8
100
AcDbEntity
  8
0
  6
Continuous
 62
     7
370
    15
100
AcDbVertex
100
AcDb2dVertex
 10
205.221680487077
 20
203.5144992359788
 30
0.0
  0
VERTEX
  5
AB
330
A8
100
AcDbEntity
  8
0
  6
Continuous
 62
     7
370
    15
100
AcDbVertex
100
AcDb2dVertex
 10
205.4200279383229
 20
203.3783069454497
 30
0.0
  0
VERTEX
  5
AC
330
A8
100
AcDbEntity
  8
0
  6
Continuous
 62
     7
370
    15
100
AcDbVertex
100
AcDb2dVertex
 10
205.6831639678131
 20
203.2522013043778
 30
0.0
  0
VERTEX
  5
AD
330
A8
100
AcDbEntity
  8
0
  6
Continuous
 62
     7
370
    15
100
AcDbVertex
100
AcDb2dVertex
 10
206.0054290175598
 20
203.1388952058315
 30
0.0
  0
VERTEX
  5
AE
330
A8
100
AcDbEntity
  8
0
  6
Continuous
 62
     7
370
    15
100
AcDbVertex
100
AcDb2dVertex
 10
206.3798903841744
 20
203.0408258304767
 30
0.0
  0
VERTEX
  5
AF
330
A8
100
AcDbEntity
  8
0
  6
Continuous
 62
     7
370
    15
100
AcDbVertex
100
AcDb2dVertex
 10
206.7984930354235
 20
202.9601027469493
 30
0.0
  0
VERTEX
  5
B0
330
A8
100
AcDbEntity
  8
0
  6
Continuous
 62
     7
370
    15
100
AcDbVertex
100
AcDb2dVertex
 10
207.2522328406763
 20
202.8984625440314
 30
0.0
  0
VERTEX
  5
B1
330
A8
100
AcDbEntity
  8
0
  6
Continuous
 62
     7
370
    15
100
AcDbVertex
100
AcDb2dVertex
 10
207.73134871775
 20
202.857230909503
 30
0.0
  0
VERTEX
  5
B2
330
A8
100
AcDbEntity
  8
0
  6
Continuous
 62
     7
370
    15
100
AcDbVertex
100
AcDb2dVertex
 10
208.2255344905844
 20
202.8372949014518
 30
0.0
  0
VERTEX
  5
B3
330
A8
100
AcDbEntity
  8
0
  6
Continuous
 62
     7
370
    15
100
AcDbVertex
100
AcDb2dVertex
 10
208.7241600676576
 20
202.8390834077761
 30
0.0
  0
VERTEX
  5
B4
330
A8
100
AcDbEntity
  8
0
  6
Continuous
 62
     7
370
    15
100
AcDbVertex
100
AcDb2dVertex
 10
209.2164994706307
 20
202.8625579180148
 30
0.0
  0
VERTEX
  5
B5
330
A8
100
AcDbEntity
  8
0
  6
Continuous
 62
     7
370
    15
100
AcDbVertex
100
AcDb2dVertex
 10
209.6919618568282
 20
202.9072134359684
 30
0.0
  0
VERTEX
  5
B6
330
A8
100
AcDbEntity
  8
0
  6
Continuous
 62
     7
370
    15
100
AcDbVertex
100
AcDb2dVertex
 10
210.1403194718506
 20
202.9720893499306
 30
0.0
  0
VERTEX
  5
B7
330
A8
100
AcDbEntity
  8
0
  6
Continuous
 62
     7
370
    15
100
AcDbVertex
100
AcDb2dVertex
 10
210.551927905573
 20
203.055790290293
 30
0.0
  0
VERTEX
  5
B8
330
A8
100
AcDbEntity
  8
0
  6
Continuous
 62
     7
370
    15
100
AcDbVertex
100
AcDb2dVertex
 10
210.9179326137298
 20
203.1565156045921
 30
0.0
  0
SEQEND
  5
B9
330
A8
100
AcDbEntity
  8
0
  6
Continuous
 62
     7
370
    15
  0
SPLINE
  5
BA
102
{ACAD_REACTORS
330
398
102
}
330
A
100
AcDbEntity
  8
0
  6
Continuous
 62
     7
370
    15
100
AcDbSpline
210
0.0
220
0.0
230
1.0
 70
     8
 71
     2
 72
    17
 73
    14
 74
     0
 42
0.000000001
 43
0.000001
 40
0.0
 40
0.0
 40
0.0
 40
1.0
 40
1.0
 40
2.0
 40
3.0
 40
4.0
 40
5.0
 40
6.0
 40
7.0
 40
8.0
 40
9.0
 40
9.0
 40
10.0
 40
10.0
 40
10.0
 10
210.9949316567947
 20
203.0419781278347
 30
0.0
 10
210.9949271763475
 20
203.0420642315636
 30
0.0
 10
210.9949226959002
 20
203.0421503352926
 30
0.0
 10
210.9946688880756
 20
203.0474879933492
 30
0.0
 10
210.9934499993135
 20
203.0651399927028
 30
0.0
 10
210.9874310420813
 20
203.0859682708251
 30
0.0
 10
210.9768508977472
 20
203.1100397847447
 30
0.0
 10
210.9611849175241
 20
203.1298866442173
 30
0.0
 10
210.9468089083463
 20
203.1434469874383
 30
0.0
 10
210.9341887730349
 20
203.1500261065976
 30
0.0
 10
210.9246564626476
 20
203.1540889871093
 30
0.0
 10
210.9181423882302
 20
203.1564382813971
 30
0.0
 10
210.9180375009788
 20
203.1564769429993
 30
0.0
 10
210.9179326137273
 20
203.1565156046015
 30
0.0
  0
LINE
  5
BB
102
{ACAD_REACTORS
330
398
102
}
330
A
100
AcDbEntity
  8
0
  6
Continuous
 62
     7
370
    15
100
AcDbLine
 10
210.9948749234219
 20
202.7555714027434
 30
0.0
 11
210.9949316567979
 21
203.0419781278301
 31
0.0
  0
ARC
  5
BC
102
{ACAD_REACTORS
330
398
102
}
330
A
100
AcDbEntity
  8
0
  6
Continuous
 62
     7
370
    15
100
AcDbCircle
 10
210.9365066565969
 20
202.7304896011892
 30
0.0
 40
0.0522724968751139
100
AcDbArc
 50
253.4612153400894
 51
286.9927577079816
  0
POLYLINE
  5
BD
102
{ACAD_REACTORS
330
398
102
}
330
A
100
AcDbEntity
  8
0
  6
Continuous
 62
     7
370
    15
100
AcDb2dPolyline
 66
     1
 10
0.0
 20
0.0
 30
0.0
 75
     5
  0
VERTEX
  5
BE
330
BD
100
AcDbEntity
  8
0
  6
Continuous
 62
     7
370
    15
100
AcDbVertex
100
AcDb2dVertex
 10
210.9216265416372
 20
202.680379760766
 30
0.0
  0
VERTEX
  5
BF
330
BD
100
AcDbEntity
  8
0
  6
Continuous
 62
     7
370
    15
100
AcDbVertex
100
AcDb2dVertex
 10
210.5557624232383
 20
202.5793781626851
 30
0.0
  0
VERTEX
  5
C0
330
BD
100
AcDbEntity
  8
0
  6
Continuous
 62
     7
370
    15
100
AcDbVertex
100
AcDb2dVertex
 10
210.144113530914
 20
202.4954167602023
 30
0.0
  0
VERTEX
  5
C1
330
BD
100
AcDbEntity
  8
0
  6
Continuous
 62
     7
370
    15
100
AcDbVertex
100
AcDb2dVertex
 10
209.6955534829241
 20
202.4303056786711
 30
0.0
  0
VERTEX
  5
C2
330
BD
100
AcDbEntity
  8
0
  6
Continuous
 62
     7
370
    15
100
AcDbVertex
100
AcDb2dVertex
 10
209.2197523420513
 20
202.385448628106
 30
0.0
  0
VERTEX
  5
C3
330
BD
100
AcDbEntity
  8
0
  6
Continuous
 62
     7
370
    15
100
AcDbVertex
100
AcDb2dVertex
 10
208.7269658785177
 20
202.3618121703147
 30
0.0
  0
VERTEX
  5
C4
330
BD
100
AcDbEntity
  8
0
  6
Continuous
 62
     7
370
    15
100
AcDbVertex
100
AcDb2dVertex
 10
208.227817778725
 20
202.3599062822361
 30
0.0
  0
VERTEX
  5
C5
330
BD
100
AcDbEntity
  8
0
  6
Continuous
 62
     7
370
    15
100
AcDbVertex
100
AcDb2dVertex
 10
207.7330671921177
 20
202.3797717120345
 30
0.0
  0
VERTEX
  5
C6
330
BD
100
AcDbEntity
  8
0
  6
Continuous
 62
     7
370
    15
100
AcDbVertex
100
AcDb2dVertex
 10
207.253379119868
 20
202.4209801729774
 30
0.0
  0
VERTEX
  5
C7
330
BD
100
AcDbEntity
  8
0
  6
Continuous
 62
     7
370
    15
100
AcDbVertex
100
AcDb2dVertex
 10
206.7990949150699
 20
202.4826436620299
 30
0.0
  0
VERTEX
  5
C8
330
BD
100
AcDbEntity
  8
0
  6
Continuous
 62
     7
370
    15
100
AcDbVertex
100
AcDb2dVertex
 10
206.38000681828
 20
202.5634327601419
 30
0.0
  0
VERTEX
  5
C9
330
BD
100
AcDbEntity
  8
0
  6
Continuous
 62
     7
370
    15
100
AcDbVertex
100
AcDb2dVertex
 10
206.0051490572067
 20
202.6616059490598
 30
0.0
  0
VERTEX
  5
CA
330
BD
100
AcDbEntity
  8
0
  6
Continuous
 62
     7
370
    15
100
AcDbVertex
100
AcDb2dVertex
 10
205.6826022604247
 20
202.7750469564873
 30
0.0
  0
VERTEX
  5
CB
330
BD
100
AcDbEntity
  8
0
  6
Continuous
 62
     7
370
    15
100
AcDbVertex
100
AcDb2dVertex
 10
205.4193193879445
 20
202.9013103441282
 30
0.0
  0
VERTEX
  5
CC
330
BD
100
AcDbEntity
  8
0
  6
Continuous
 62
     7
370
    15
100
AcDbVertex
100
AcDb2dVertex
 10
205.2673499343536
 20
203.0004102983421
 30
0.0
  0
SEQEND
  5
CD
330
BD
100
AcDbEntity
  8
0
  6
Continuous
 62
     7
370
    15
  0
LINE
  5
CE
102
{ACAD_REACTORS
330
398
102
}
330
A
100
AcDbEntity
  8
0
  6
Continuous
 62
     7
370
    15
100
AcDbLine
 10
210.9179326137298
 20
203.1565156045921
 30
0.0
 11
210.8428064900365
 21
203.1761907238117
 31
0.0
  0
ARC
  5
CF
102
{ACAD_REACTORS
330
398
102
}
330
A
100
AcDbEntity
  8
0
  6
Continuous
 62
     7
370
    15
100
AcDbCircle
 10
211.4867075408073
 20
208.6247334514894
 30
0.0
 40
0.1252836058714331
100
AcDbArc
 50
118.1019283534196
 51
183.3354955838221
  0
ARC
  5
D0
102
{ACAD_REACTORS
330
398
102
}
330
A
100
AcDbEntity
  8
0
  6
Continuous
 62
     7
370
    15
100
AcDbCircle
 10
211.3842251572093
 20
208.6248605395133
 30
0.0
 40
0.1186372622455805
100
AcDbArc
 50
357.706669519899
 51
68.50628314282154
  0
ARC
  5
D1
102
{ACAD_REACTORS
330
398
102
}
330
A
100
AcDbEntity
  8
0
  6
Continuous
 62
     7
370
    15
100
AcDbCircle
 10
211.4270400748843
 20
208.8917115935944
 30
0.0
 40
0.2819579900684924
100
AcDbArc
 50
256.5873131597252
 51
285.5795848379331
  0
LINE
  5
D2
102
{ACAD_REACTORS
330
398
102
}
330
A
100
AcDbEntity
  8
0
  6
Continuous
 62
     7
370
    15
100
AcDbLine
 10
211.3604636768779
 20
202.6983552219023
 30
0.0
 11
211.3616361699755
 21
208.6174441376658
 31
0.0
  0
LINE
  5
D3
102
{ACAD_REACTORS
330
398
102
}
330
A
100
AcDbEntity
  8
0
  6
Continuous
 62
     7
370
    15
100
AcDbLine
 10
211.5027673980879
 20
208.6201132124051
 30
0.0
 11
211.5015949050303
 21
202.7010242966406
 31
0.0
  0
ARC
  5
D4
102
{ACAD_REACTORS
330
398
102
}
330
A
100
AcDbEntity
  8
0
  6
Continuous
 62
     7
370
    15
100
AcDbCircle
 10
211.4258675818267
 20
202.9726226778299
 30
0.0
 40
0.2819579900678859
100
AcDbArc
 50
256.5873131597209
 51
285.5795848379292
  0
LINE
  5
D5
102
{ACAD_REACTORS
330
398
102
}
330
A
100
AcDbEntity
  8
0
  6
Continuous
 62
     7
370
    15
100
AcDbLine
 10
211.3616361699755
 20
208.6174441376658
 30
0.0
 11
211.135314788489
 21
208.6767164645207
 31
0.0
  0
ARC
  5
D6
102
{ACAD_REACTORS
330
398
102
}
330
A
100
AcDbEntity
  8
0
  6
Continuous
 62
     7
370
    15
100
AcDbCircle
 10
211.2603861593608
 20
208.6840057783432
 30
0.0
 40
0.1252836058714726
100
AcDbArc
 50
118.1019283534013
 51
183.3354955838221
  0
LINE
  5
D7
102
{ACAD_REACTORS
330
398
102
}
330
A
100
AcDbEntity
  8
0
  6
Continuous
 62
     7
370
    15
100
AcDbLine
 10
211.135314788489
 20
208.6767164645207
 30
0.0
 11
211.1352580548479
 21
208.3903083168313
 31
0.0
  0
LINE
  5
D8
102
{ACAD_REACTORS
330
398
102
}
330
A
100
AcDbEntity
  8
0
  6
Continuous
 62
     7
370
    15
100
AcDbLine
 10
211.1341422954314
 20
202.7576275487562
 30
0.0
 11
211.3604636768779
 21
202.6983552219023
 31
0.0
  0
LINE
  5
D9
102
{ACAD_REACTORS
330
398
102
}
330
A
100
AcDbEntity
  8
0
  6
Continuous
 62
     7
370
    15
100
AcDbLine
 10
211.1341990288073
 20
203.0440342738429
 30
0.0
 11
211.1341422954314
 21
202.7576275487562
 31
0.0
  0
SPLINE
  5
DA
102
{ACAD_REACTORS
330
398
102
}
330
A
100
AcDbEntity
  8
0
  6
Continuous
 62
     7
370
    15
100
AcDbSpline
210
0.0
220
0.0
230
1.0
 70
     8
 71
     2
 72
    17
 73
    14
 74
     0
 42
0.000000001
 43
0.000001
 40
0.0
 40
0.0
 40
0.0
 40
1.0
 40
1.0
 40
2.0
 40
3.0
 40
4.0
 40
5.0
 40
6.0
 40
7.0
 40
8.0
 40
9.0
 40
9.0
 40
10.0
 40
10.0
 40
10.0
 10
211.1341990288171
 20
203.0440342738567
 30
0.0
 10
211.1341877271548
 20
203.0442567914693
 30
0.0
 10
211.1341764254926
 20
203.0444793090819
 30
0.0
 10
211.1336309838244
 20
203.0564924064511
 30
0.0
 10
211.1301198088917
 20
203.1016008469048
 30
0.0
 10
211.1104309940298
 20
203.1554941300132
 30
0.0
 10
211.0894798200694
 20
203.1930177790308
 30
0.0
 10
211.0637146274314
 20
203.2260682537717
 30
0.0
 10
211.0368958394266
 20
203.2491842703129
 30
0.0
 10
211.0124242927359
 20
203.2629500331567
 30
0.0
 10
210.9924425260728
 20
203.271071617955
 30
0.0
 10
210.9845182054041
 20
203.2741175028223
 30
0.0
 10
210.9842542020708
 20
203.274219657476
 30
0.0
 10
210.9839901987375
 20
203.2743218121296
 30
0.0
  0
LINE
  5
DB
102
{ACAD_REACTORS
330
398
102
}
330
A
100
AcDbEntity
  8
0
  6
Continuous
 62
     7
370
    15
100
AcDbLine
 10
210.9100020656851
 20
203.2936988978219
 30
0.0
 11
210.9839901987291
 21
203.2743218121296
 31
0.0
  0
LINE
  5
DC
102
{ACAD_REACTORS
330
398
102
}
330
A
100
AcDbEntity
  8
0
  6
Continuous
 62
     7
370
    15
100
AcDbLine
 10
210.9849735799004
 20
208.238718324826
 30
0.0
 11
210.9109854468164
 21
208.2580954105193
 31
0.0
  0
SPLINE
  5
DD
102
{ACAD_REACTORS
330
398
102
}
330
A
100
AcDbEntity
  8
0
  6
Continuous
 62
     7
370
    15
100
AcDbSpline
210
0.0
220
0.0
230
1.0
 70
     8
 71
     2
 72
    16
 73
    13
 74
     0
 42
0.000000001
 43
0.000001
 40
0.0
 40
0.0
 40
0.0
 40
1.0
 40
1.0
 40
2.0
 40
3.0
 40
4.0
 40
5.0
 40
6.0
 40
7.0
 40
8.0
 40
8.0
 40
9.0
 40
9.0
 40
9.0
 10
210.9849735798871
 20
208.2387183248259
 30
0.0
 10
210.9851336193391
 20
208.2386898179421
 30
0.0
 10
210.9852936587911
 20
208.2386613110584
 30
0.0
 10
210.9952305538608
 20
208.2367848076543
 30
0.0
 10
211.0187054155391
 20
208.2337640260214
 30
0.0
 10
211.04698213016
 20
208.2381538015328
 30
0.0
 10
211.086825391427
 20
208.2577391007464
 30
0.0
 10
211.1149366576334
 20
208.2972056628167
 30
0.0
 10
211.1287028565578
 20
208.3319802943209
 30
0.0
 10
211.1338561759377
 20
208.370819032368
 30
0.0
 10
211.1352100523952
 20
208.3897018193713
 30
0.0
 10
211.1352340536196
 20
208.3900050680972
 30
0.0
 10
211.1352580548439
 20
208.3903083168231
 30
0.0
  0
ARC
  5
DE
102
{ACAD_REACTORS
330
398
102
}
330
A
100
AcDbEntity
  8
0
  6
Continuous
 62
     7
370
    15
100
AcDbCircle
 10
211.0697508886227
 20
208.4000326668533
 30
0.0
 40
0.2843458261745145
100
AcDbArc
 50
76.66889495131689
 51
105.0228140070214
  0
ARC
  5
DF
102
{ACAD_REACTORS
330
398
102
}
330
A
100
AcDbEntity
  8
0
  6
Continuous
 62
     7
370
    15
100
AcDbCircle
 10
211.0696941549806
 20
208.113624519124
 30
0.0
 40
0.284345826177182
100
AcDbArc
 50
76.66889495152695
 51
105.0228140069246
  0
ARC
  5
E0
102
{ACAD_REACTORS
330
398
102
}
330
A
100
AcDbEntity
  8
0
  6
Continuous
 62
     7
370
    15
100
AcDbCircle
 10
211.0686351289411
 20
202.7673504761756
 30
0.0
 40
0.28434582617695
100
AcDbArc
 50
76.66889495152621
 51
105.0228140069184
  0
ARC
  5
E1
102
{ACAD_REACTORS
330
398
102
}
330
A
100
AcDbEntity
  8
0
  6
Continuous
 62
     7
370
    15
100
AcDbCircle
 10
210.8589166737042
 20
203.2670310373931
 30
0.0
 40
0.1252858414217881
100
AcDbArc
 50
298.1024989444225
 51
3.336105239916257
  0
ARC
  5
E2
102
{ACAD_REACTORS
330
398
102
}
330
A
100
AcDbEntity
  8
0
  6
Continuous
 62
     7
370
    15
100
AcDbCircle
 10
211.0685783955651
 20
202.4809437510888
 30
0.0
 40
0.2843458261769946
100
AcDbArc
 50
76.66889495152328
 51
105.022814006928
  0
ARC
  5
E3
102
{ACAD_REACTORS
330
398
102
}
330
A
100
AcDbEntity
  8
0
  6
Continuous
 62
     7
370
    15
100
AcDbCircle
 10
205.855799590025
 20
210.0994373188091
 30
0.0
 40
0.1252836058713711
100
AcDbArc
 50
118.1019283534143
 51
183.3354955838236
  0
LINE
  5
E4
102
{ACAD_REACTORS
330
398
102
}
330
A
100
AcDbEntity
  8
0
  6
Continuous
 62
     7
370
    15
100
AcDbLine
 10
205.730728219192
 20
210.0921480049455
 30
0.0
 11
205.5044068377455
 21
210.1514203317994
 31
0.0
  0
ARC
  5
E5
102
{ACAD_REACTORS
330
398
102
}
330
A
100
AcDbEntity
  8
0
  6
Continuous
 62
     7
370
    15
100
AcDbCircle
 10
205.6294782085774
 20
210.158709645623
 30
0.0
 40
0.1252836058717712
100
AcDbArc
 50
118.1019283535258
 51
183.3354955837359
  0
ARC
  5
E6
102
{ACAD_REACTORS
330
398
102
}
330
A
100
AcDbEntity
  8
0
  6
Continuous
 62
     7
370
    15
100
AcDbCircle
 10
213.6523980929688
 20
50.18263454017415
 30
0.0
 40
0.1691744459909068
100
AcDbArc
 50
256.5871848071134
 51
285.5796494320222
  0
LINE
  5
E7
102
{ACAD_REACTORS
330
398
102
}
330
A
100
AcDbEntity
  8
0
  6
Continuous
 62
     7
370
    15
100
AcDbLine
 10
213.6131554621149
 20
50.0180744930733
 30
0.0
 11
203.1902915348259
 21
52.74776531313375
 31
0.0
  0
ARC
  5
E8
102
{ACAD_REACTORS
330
398
102
}
330
A
100
AcDbEntity
  8
0
  6
Continuous
 62
     7
370
    15
100
AcDbCircle
 10
211.1443561885409
 20
208.4473763853593
 30
0.0
 40
0.5931993701320398
100
AcDbArc
 50
357.7070313440252
 51
68.50546771792158
  0
LINE
  5
E9
102
{ACAD_REACTORS
330
398
102
}
330
A
100
AcDbEntity
  8
0
  6
Continuous
 62
     7
370
    15
100
AcDbLine
 10
211.3617118145396
 20
208.9993202453563
 30
0.0
 11
205.5044824823496
 21
210.5332964394888
 31
0.0
  0
POLYLINE
  5
EA
102
{ACAD_REACTORS
330
398
102
}
330
A
100
AcDbEntity
  8
0
  6
Continuous
 62
     7
370
    15
100
AcDb2dPolyline
 66
     1
 10
0.0
 20
0.0
 30
0.0
 75
     5
  0
VERTEX
  5
EB
330
EA
100
AcDbEntity
  8
0
  6
Continuous
 62
     7
370
    15
100
AcDbVertex
100
AcDb2dVertex
 10
205.1289245938846
 20
210.154282734008
 30
0.0
  0
VERTEX
  5
EC
330
EA
100
AcDbEntity
  8
0
  6
Continuous
 62
     7
370
    15
100
AcDbVertex
100
AcDb2dVertex
 10
205.1361573081448
 20
210.2455182918032
 30
0.0
  0
VERTEX
  5
ED
330
EA
100
AcDbEntity
  8
0
  6
Continuous
 62
     7
370
    15
100
AcDbVertex
100
AcDb2dVertex
 10
205.1575411838418
 20
210.3294697090998
 30
0.0
  0
VERTEX
  5
EE
330
EA
100
AcDbEntity
  8
0
  6
Continuous
 62
     7
370
    15
100
AcDbVertex
100
AcDb2dVertex
 10
205.192254216243
 20
210.402909389485
 30
0.0
  0
VERTEX
  5
EF
330
EA
100
AcDbEntity
  8
0
  6
Continuous
 62
     7
370
    15
100
AcDbVertex
100
AcDb2dVertex
 10
205.2389622470254
 20
210.4630155978216
 30
0.0
  0
VERTEX
  5
F0
330
EA
100
AcDbEntity
  8
0
  6
Continuous
 62
     7
370
    15
100
AcDbVertex
100
AcDb2dVertex
 10
205.2958701806185
 20
210.5074799743625
 30
0.0
  0
VERTEX
  5
F1
330
EA
100
AcDbEntity
  8
0
  6
Continuous
 62
     7
370
    15
100
AcDbVertex
100
AcDb2dVertex
 10
205.3607916601478
 20
210.5345902970548
 30
0.0
  0
VERTEX
  5
F2
330
EA
100
AcDbEntity
  8
0
  6
Continuous
 62
     7
370
    15
100
AcDbVertex
100
AcDb2dVertex
 10
205.4312313312604
 20
210.5433085241828
 30
0.0
  0
VERTEX
  5
F3
330
EA
100
AcDbEntity
  8
0
  6
Continuous
 62
     7
370
    15
100
AcDbVertex
100
AcDb2dVertex
 10
205.5044824823496
 20
210.5332964394888
 30
0.0
  0
SEQEND
  5
F4
330
EA
100
AcDbEntity
  8
0
  6
Continuous
 62
     7
370
    15
  0
LINE
  5
F5
102
{ACAD_REACTORS
330
398
102
}
330
A
100
AcDbEntity
  8
0
  6
Continuous
 62
     7
370
    15
100
AcDbLine
 10
205.1289245938846
 20
210.154282734008
 30
0.0
 11
205.1288467053289
 21
209.7610784484014
 31
0.0
  0
LINE
  5
F6
102
{ACAD_REACTORS
330
398
102
}
330
A
100
AcDbEntity
  8
0
  6
Continuous
 62
     7
370
    15
100
AcDbLine
 10
205.128641047889
 20
208.7228594046805
 30
0.0
 11
205.127789922976
 21
204.4261311607675
 31
0.0
  0
LINE
  5
F7
102
{ACAD_REACTORS
330
398
102
}
330
A
100
AcDbEntity
  8
0
  6
Continuous
 62
     7
370
    15
100
AcDbLine
 10
205.1320247396242
 20
204.3534074423317
 30
0.0
 11
205.127789922976
 21
204.4261311607675
 31
0.0
  0
LINE
  5
F8
102
{ACAD_REACTORS
330
398
102
}
330
A
100
AcDbEntity
  8
0
  6
Continuous
 62
     7
370
    15
100
AcDbLine
 10
210.4493500307609
 20
202.5550735407288
 30
0.0
 11
211.3603880320098
 21
202.3164776916502
 31
0.0
  0
POLYLINE
  5
F9
102
{ACAD_REACTORS
330
398
102
}
330
A
100
AcDbEntity
  8
0
  6
Continuous
 62
     7
370
    15
100
AcDb2dPolyline
 66
     1
 10
0.0
 20
0.0
 30
0.0
 75
     5
  0
VERTEX
  5
FA
330
F9
100
AcDbEntity
  8
0
  6
Continuous
 62
     7
370
    15
100
AcDbVertex
100
AcDb2dVertex
 10
211.7359459204736
 20
202.695491397091
 30
0.0
  0
VERTEX
  5
FB
330
F9
100
AcDbEntity
  8
0
  6
Continuous
 62
     7
370
    15
100
AcDbVertex
100
AcDb2dVertex
 10
211.7287132059084
 20
202.6042544166943
 30
0.0
  0
VERTEX
  5
FC
330
F9
100
AcDbEntity
  8
0
  6
Continuous
 62
     7
370
    15
100
AcDbVertex
100
AcDb2dVertex
 10
211.7073293302514
 20
202.5203029993966
 30
0.0
  0
VERTEX
  5
FD
330
F9
100
AcDbEntity
  8
0
  6
Continuous
 62
     7
370
    15
100
AcDbVertex
100
AcDb2dVertex
 10
211.6726162981164
 20
202.4468647416541
 30
0.0
  0
VERTEX
  5
FE
330
F9
100
AcDbEntity
  8
0
  6
Continuous
 62
     7
370
    15
100
AcDbVertex
100
AcDb2dVertex
 10
211.6259082670288
 20
202.3867571107159
 30
0.0
  0
VERTEX
  5
FF
330
F9
100
AcDbEntity
  8
0
  6
Continuous
 62
     7
370
    15
100
AcDbVertex
100
AcDb2dVertex
 10
211.5690003334346
 20
202.342292734135
 30
0.0
  0
VERTEX
  5
100
330
F9
100
AcDbEntity
  8
0
  6
Continuous
 62
     7
370
    15
100
AcDbVertex
100
AcDb2dVertex
 10
211.5040788542105
 20
202.3151838340442
 30
0.0
  0
VERTEX
  5
101
330
F9
100
AcDbEntity
  8
0
  6
Continuous
 62
     7
370
    15
100
AcDbVertex
100
AcDb2dVertex
 10
211.4336391828327
 20
202.3064641843135
 30
0.0
  0
VERTEX
  5
102
330
F9
100
AcDbEntity
  8
0
  6
Continuous
 62
     7
370
    15
100
AcDbVertex
100
AcDb2dVertex
 10
211.3603880320098
 20
202.3164776916502
 30
0.0
  0
SEQEND
  5
103
330
F9
100
AcDbEntity
  8
0
  6
Continuous
 62
     7
370
    15
  0
LINE
  5
104
102
{ACAD_REACTORS
330
398
102
}
330
A
100
AcDbEntity
  8
0
  6
Continuous
 62
     7
370
    15
100
AcDbLine
 10
211.7359459204736
 20
202.695491397091
 30
0.0
 11
211.7370805913823
 21
208.4236429703316
 31
0.0
  0
POLYLINE
  5
105
102
{ACAD_REACTORS
330
398
102
}
330
A
100
AcDbEntity
  8
0
  6
Continuous
 62
     7
370
    15
100
AcDb2dPolyline
 66
     1
 10
0.0
 20
0.0
 30
0.0
 75
     5
  0
VERTEX
  5
106
330
105
100
AcDbEntity
  8
0
  6
Continuous
 62
     7
370
    15
100
AcDbVertex
100
AcDb2dVertex
 10
208.4333051715779
 20
210.816470128053
 30
0.0
  0
VERTEX
  5
107
330
105
100
AcDbEntity
  8
0
  6
Continuous
 62
     7
370
    15
100
AcDbVertex
100
AcDb2dVertex
 10
208.5482578344321
 20
210.8154341870387
 30
0.0
  0
VERTEX
  5
108
330
105
100
AcDbEntity
  8
0
  6
Continuous
 62
     7
370
    15
100
AcDbVertex
100
AcDb2dVertex
 10
208.6457215063324
 20
210.8726930558105
 30
0.0
  0
VERTEX
  5
109
330
105
100
AcDbEntity
  8
0
  6
Continuous
 62
     7
370
    15
100
AcDbVertex
100
AcDb2dVertex
 10
208.7108582451958
 20
210.9795306496287
 30
0.0
  0
VERTEX
  5
10A
330
105
100
AcDbEntity
  8
0
  6
Continuous
 62
     7
370
    15
100
AcDbVertex
100
AcDb2dVertex
 10
208.7337515592475
 20
211.1196807877615
 30
0.0
  0
VERTEX
  5
10B
330
105
100
AcDbEntity
  8
0
  6
Continuous
 62
     7
370
    15
100
AcDbVertex
100
AcDb2dVertex
 10
208.7109161412745
 20
211.2718070296525
 30
0.0
  0
VERTEX
  5
10C
330
105
100
AcDbEntity
  8
0
  6
Continuous
 62
     7
370
    15
100
AcDbVertex
100
AcDb2dVertex
 10
208.6458284844057
 20
211.4127496775355
 30
0.0
  0
VERTEX
  5
10D
330
105
100
AcDbEntity
  8
0
  6
Continuous
 62
     7
370
    15
100
AcDbVertex
100
AcDb2dVertex
 10
208.5483976076224
 20
211.5210503581966
 30
0.0
  0
VERTEX
  5
10E
330
105
100
AcDbEntity
  8
0
  6
Continuous
 62
     7
370
    15
100
AcDbVertex
100
AcDb2dVertex
 10
208.4334564607851
 20
211.5802223433919
 30
0.0
  0
VERTEX
  5
10F
330
105
100
AcDbEntity
  8
0
  6
Continuous
 62
     7
370
    15
100
AcDbVertex
100
AcDb2dVertex
 10
208.3185037979309
 20
211.5812582844061
 30
0.0
  0
VERTEX
  5
110
330
105
100
AcDbEntity
  8
0
  6
Continuous
 62
     7
370
    15
100
AcDbVertex
100
AcDb2dVertex
 10
208.2210401259906
 20
211.5239994156355
 30
0.0
  0
VERTEX
  5
111
330
105
100
AcDbEntity
  8
0
  6
Continuous
 62
     7
370
    15
100
AcDbVertex
100
AcDb2dVertex
 10
208.1559033871672
 20
211.4171618218161
 30
0.0
  0
VERTEX
  5
112
330
105
100
AcDbEntity
  8
0
  6
Continuous
 62
     7
370
    15
100
AcDbVertex
100
AcDb2dVertex
 10
208.1330100731155
 20
211.2770116836834
 30
0.0
  0
VERTEX
  5
113
330
105
100
AcDbEntity
  8
0
  6
Continuous
 62
     7
370
    15
100
AcDbVertex
100
AcDb2dVertex
 10
208.1558454910885
 20
211.1248854417924
 30
0.0
  0
VERTEX
  5
114
330
105
100
AcDbEntity
  8
0
  6
Continuous
 62
     7
370
    15
100
AcDbVertex
100
AcDb2dVertex
 10
208.2209331479573
 20
210.9839427939094
 30
0.0
  0
VERTEX
  5
115
330
105
100
AcDbEntity
  8
0
  6
Continuous
 62
     7
370
    15
100
AcDbVertex
100
AcDb2dVertex
 10
208.3183640246995
 20
210.8756421132093
 30
0.0
  0
VERTEX
  5
116
330
105
100
AcDbEntity
  8
0
  6
Continuous
 62
     7
370
    15
100
AcDbVertex
100
AcDb2dVertex
 10
208.4333051715779
 20
210.816470128053
 30
0.0
  0
SEQEND
  5
117
330
105
100
AcDbEntity
  8
0
  6
Continuous
 62
     7
370
    15
  0
POLYLINE
  5
118
102
{ACAD_REACTORS
330
398
102
}
330
A
100
AcDbEntity
  8
0
  6
Continuous
 62
     7
370
    15
100
AcDb2dPolyline
 66
     1
 10
0.0
 20
0.0
 30
0.0
 75
     5
  0
VERTEX
  5
119
330
118
100
AcDbEntity
  8
0
  6
Continuous
 62
     7
370
    15
100
AcDbVertex
100
AcDb2dVertex
 10
208.4314140535743
 20
201.2695517877472
 30
0.0
  0
VERTEX
  5
11A
330
118
100
AcDbEntity
  8
0
  6
Continuous
 62
     7
370
    15
100
AcDbVertex
100
AcDb2dVertex
 10
208.5463667161633
 20
201.2685144241302
 30
0.0
  0
VERTEX
  5
11B
330
118
100
AcDbEntity
  8
0
  6
Continuous
 62
     7
370
    15
100
AcDbVertex
100
AcDb2dVertex
 10
208.6438303883677
 20
201.3257747154636
 30
0.0
  0
VERTEX
  5
11C
330
118
100
AcDbEntity
  8
0
  6
Continuous
 62
     7
370
    15
100
AcDbVertex
100
AcDb2dVertex
 10
208.708967126926
 20
201.4326108866803
 30
0.0
  0
VERTEX
  5
11D
330
118
100
AcDbEntity
  8
0
  6
Continuous
 62
     7
370
    15
100
AcDbVertex
100
AcDb2dVertex
 10
208.7318604409777
 20
201.572761024813
 30
0.0
  0
VERTEX
  5
11E
330
118
100
AcDbEntity
  8
0
  6
Continuous
 62
     7
370
    15
100
AcDbVertex
100
AcDb2dVertex
 10
208.7090250230057
 20
201.724887266744
 30
0.0
  0
VERTEX
  5
11F
330
118
100
AcDbEntity
  8
0
  6
Continuous
 62
     7
370
    15
100
AcDbVertex
100
AcDb2dVertex
 10
208.6439373664009
 20
201.8658313371896
 30
0.0
  0
VERTEX
  5
120
330
118
100
AcDbEntity
  8
0
  6
Continuous
 62
     7
370
    15
100
AcDbVertex
100
AcDb2dVertex
 10
208.5465064893537
 20
201.9741305952882
 30
0.0
  0
VERTEX
  5
121
330
118
100
AcDbEntity
  8
0
  6
Continuous
 62
     7
370
    15
100
AcDbVertex
100
AcDb2dVertex
 10
208.4315653427803
 20
202.0333040030461
 30
0.0
  0
VERTEX
  5
122
330
118
100
AcDbEntity
  8
0
  6
Continuous
 62
     7
370
    15
100
AcDbVertex
100
AcDb2dVertex
 10
208.3166126796611
 20
202.0343385214577
 30
0.0
  0
VERTEX
  5
123
330
118
100
AcDbEntity
  8
0
  6
Continuous
 62
     7
370
    15
100
AcDbVertex
100
AcDb2dVertex
 10
208.219149008027
 20
201.9770810753286
 30
0.0
  0
VERTEX
  5
124
330
118
100
AcDbEntity
  8
0
  6
Continuous
 62
     7
370
    15
100
AcDbVertex
100
AcDb2dVertex
 10
208.1540122688985
 20
201.8702420589076
 30
0.0
  0
VERTEX
  5
125
330
118
100
AcDbEntity
  8
0
  6
Continuous
 62
     7
370
    15
100
AcDbVertex
100
AcDb2dVertex
 10
208.1311189548468
 20
201.730091920775
 30
0.0
  0
VERTEX
  5
126
330
118
100
AcDbEntity
  8
0
  6
Continuous
 62
     7
370
    15
100
AcDbVertex
100
AcDb2dVertex
 10
208.1539543728187
 20
201.5779656788439
 30
0.0
  0
VERTEX
  5
127
330
118
100
AcDbEntity
  8
0
  6
Continuous
 62
     7
370
    15
100
AcDbVertex
100
AcDb2dVertex
 10
208.2190420299537
 20
201.4370244536036
 30
0.0
  0
VERTEX
  5
128
330
118
100
AcDbEntity
  8
0
  6
Continuous
 62
     7
370
    15
100
AcDbVertex
100
AcDb2dVertex
 10
208.3164729064308
 20
201.3287223503008
 30
0.0
  0
VERTEX
  5
129
330
118
100
AcDbEntity
  8
0
  6
Continuous
 62
     7
370
    15
100
AcDbVertex
100
AcDb2dVertex
 10
208.4314140535743
 20
201.2695517877472
 30
0.0
  0
SEQEND
  5
12A
330
118
100
AcDbEntity
  8
0
  6
Continuous
 62
     7
370
    15
  0
POLYLINE
  5
12B
102
{ACAD_REACTORS
330
398
102
}
330
A
100
AcDbEntity
  8
0
  6
Continuous
 62
     7
370
    15
100
AcDb2dPolyline
 66
     1
 10
0.0
 20
0.0
 30
0.0
 75
     5
  0
VERTEX
  5
12C
330
12B
100
AcDbEntity
  8
0
  6
Continuous
 62
     7
370
    15
100
AcDbVertex
100
AcDb2dVertex
 10
208.4068295169486
 20
77.15959913746283
 30
0.0
  0
VERTEX
  5
12D
330
12B
100
AcDbEntity
  8
0
  6
Continuous
 62
     7
370
    15
100
AcDbVertex
100
AcDb2dVertex
 10
208.7507214842111
 20
77.10311086353559
 30
0.0
  0
VERTEX
  5
12E
330
12B
100
AcDbEntity
  8
0
  6
Continuous
 62
     7
370
    15
100
AcDbVertex
100
AcDb2dVertex
 10
209.0865662450056
 20
77.11507231627405
 30
0.0
  0
VERTEX
  5
12F
330
12B
100
AcDbEntity
  8
0
  6
Continuous
 62
     7
370
    15
100
AcDbVertex
100
AcDb2dVertex
 10
209.4064917785716
 20
77.19520056536354
 30
0.0
  0
VERTEX
  5
130
330
12B
100
AcDbEntity
  8
0
  6
Continuous
 62
     7
370
    15
100
AcDbVertex
100
AcDb2dVertex
 10
209.7029995064252
 20
77.34163529540558
 30
0.0
  0
VERTEX
  5
131
330
12B
100
AcDbEntity
  8
0
  6
Continuous
 62
     7
370
    15
100
AcDbVertex
100
AcDb2dVertex
 10
209.9691392450721
 20
77.55093851228
 30
0.0
  0
VERTEX
  5
132
330
12B
100
AcDbEntity
  8
0
  6
Continuous
 62
     7
370
    15
100
AcDbVertex
100
AcDb2dVertex
 10
210.1986731269588
 20
77.81818819025216
 30
0.0
  0
VERTEX
  5
133
330
12B
100
AcDbEntity
  8
0
  6
Continuous
 62
     7
370
    15
100
AcDbVertex
100
AcDb2dVertex
 10
210.3862210368994
 20
78.13714504799034
 30
0.0
  0
VERTEX
  5
134
330
12B
100
AcDbEntity
  8
0
  6
Continuous
 62
     7
370
    15
100
AcDbVertex
100
AcDb2dVertex
 10
210.5273869336973
 20
78.50031051704681
 30
0.0
  0
VERTEX
  5
135
330
12B
100
AcDbEntity
  8
0
  6
Continuous
 62
     7
370
    15
100
AcDbVertex
100
AcDb2dVertex
 10
210.6188621313716
 20
78.89918422810368
 30
0.0
  0
VERTEX
  5
136
330
12B
100
AcDbEntity
  8
0
  6
Continuous
 62
     7
370
    15
100
AcDbVertex
100
AcDb2dVertex
 10
210.6585024040277
 20
79.324425920171
 30
0.0
  0
VERTEX
  5
137
330
12B
100
AcDbEntity
  8
0
  6
Continuous
 62
     7
370
    15
100
AcDbVertex
100
AcDb2dVertex
 10
210.6453787997171
 20
79.76604699783007
 30
0.0
  0
VERTEX
  5
138
330
12B
100
AcDbEntity
  8
0
  6
Continuous
 62
     7
370
    15
100
AcDbVertex
100
AcDb2dVertex
 10
210.5797986819611
 20
80.21371231878888
 30
0.0
  0
VERTEX
  5
139
330
12B
100
AcDbEntity
  8
0
  6
Continuous
 62
     7
370
    15
100
AcDbVertex
100
AcDb2dVertex
 10
210.4632991895716
 20
80.65691262744232
 30
0.0
  0
VERTEX
  5
13A
330
12B
100
AcDbEntity
  8
0
  6
Continuous
 62
     7
370
    15
100
AcDbVertex
100
AcDb2dVertex
 10
210.2986112108104
 20
81.08528128813057
 30
0.0
  0
VERTEX
  5
13B
330
12B
100
AcDbEntity
  8
0
  6
Continuous
 62
     7
370
    15
100
AcDbVertex
100
AcDb2dVertex
 10
210.0895947922743
 20
81.48875915914286
 30
0.0
  0
VERTEX
  5
13C
330
12B
100
AcDbEntity
  8
0
  6
Continuous
 62
     7
370
    15
100
AcDbVertex
100
AcDb2dVertex
 10
209.8411491183901
 20
81.85790270380159
 30
0.0
  0
VERTEX
  5
13D
330
12B
100
AcDbEntity
  8
0
  6
Continuous
 62
     7
370
    15
100
AcDbVertex
100
AcDb2dVertex
 10
209.5590974268485
 20
82.18406208895604
 30
0.0
  0
VERTEX
  5
13E
330
12B
100
AcDbEntity
  8
0
  6
Continuous
 62
     7
370
    15
100
AcDbVertex
100
AcDb2dVertex
 10
209.2500508733638
 20
82.45956479599448
 30
0.0
  0
VERTEX
  5
13F
330
12B
100
AcDbEntity
  8
0
  6
Continuous
 62
     7
370
    15
100
AcDbVertex
100
AcDb2dVertex
 10
208.9212532151485
 20
82.6779839255698
 30
0.0
  0
VERTEX
  5
140
330
12B
100
AcDbEntity
  8
0
  6
Continuous
 62
     7
370
    15
100
AcDbVertex
100
AcDb2dVertex
 10
208.5804111845581
 20
82.83419400343064
 30
0.0
  0
VERTEX
  5
141
330
12B
100
AcDbEntity
  8
0
  6
Continuous
 62
     7
370
    15
100
AcDbVertex
100
AcDb2dVertex
 10
208.2355138659535
 20
82.92452071699876
 30
0.0
  0
VERTEX
  5
142
330
12B
100
AcDbEntity
  8
0
  6
Continuous
 62
     7
370
    15
100
AcDbVertex
100
AcDb2dVertex
 10
207.8946453147335
 20
82.94684689656009
 30
0.0
  0
VERTEX
  5
143
330
12B
100
AcDbEntity
  8
0
  6
Continuous
 62
     7
370
    15
100
AcDbVertex
100
AcDb2dVertex
 10
207.5657952419901
 20
82.90066209587962
 30
0.0
  0
VERTEX
  5
144
330
12B
100
AcDbEntity
  8
0
  6
Continuous
 62
     7
370
    15
100
AcDbVertex
100
AcDb2dVertex
 10
207.2566716109721
 20
82.78705476517666
 30
0.0
  0
VERTEX
  5
145
330
12B
100
AcDbEntity
  8
0
  6
Continuous
 62
     7
370
    15
100
AcDbVertex
100
AcDb2dVertex
 10
206.9745199733412
 20
82.60865713334564
 30
0.0
  0
VERTEX
  5
146
330
12B
100
AcDbEntity
  8
0
  6
Continuous
 62
     7
370
    15
100
AcDbVertex
100
AcDb2dVertex
 10
206.7259538384843
 20
82.3696782517469
 30
0.0
  0
VERTEX
  5
147
330
12B
100
AcDbEntity
  8
0
  6
Continuous
 62
     7
370
    15
100
AcDbVertex
100
AcDb2dVertex
 10
206.5167992665242
 20
82.07571706659482
 30
0.0
  0
VERTEX
  5
148
330
12B
100
AcDbEntity
  8
0
  6
Continuous
 62
     7
370
    15
100
AcDbVertex
100
AcDb2dVertex
 10
206.3519586746586
 20
81.73365012878614
 30
0.0
  0
VERTEX
  5
149
330
12B
100
AcDbEntity
  8
0
  6
Continuous
 62
     7
370
    15
100
AcDbVertex
100
AcDb2dVertex
 10
206.2352956940158
 20
81.35151379125384
 30
0.0
  0
VERTEX
  5
14A
330
12B
100
AcDbEntity
  8
0
  6
Continuous
 62
     7
370
    15
100
AcDbVertex
100
AcDb2dVertex
 10
206.169545036305
 20
80.93824327913288
 30
0.0
  0
VERTEX
  5
14B
330
12B
100
AcDbEntity
  8
0
  6
Continuous
 62
     7
370
    15
100
AcDbVertex
100
AcDb2dVertex
 10
206.1562478440931
 20
80.5035416629853
 30
0.0
  0
VERTEX
  5
14C
330
12B
100
AcDbEntity
  8
0
  6
Continuous
 62
     7
370
    15
100
AcDbVertex
100
AcDb2dVertex
 10
206.1957155433078
 20
80.05758202754365
 30
0.0
  0
VERTEX
  5
14D
330
12B
100
AcDbEntity
  8
0
  6
Continuous
 62
     7
370
    15
100
AcDbVertex
100
AcDb2dVertex
 10
206.287023235413
 20
79.61083848150284
 30
0.0
  0
VERTEX
  5
14E
330
12B
100
AcDbEntity
  8
0
  6
Continuous
 62
     7
370
    15
100
AcDbVertex
100
AcDb2dVertex
 10
206.4280306171552
 20
79.17377338048368
 30
0.0
  0
VERTEX
  5
14F
330
12B
100
AcDbEntity
  8
0
  6
Continuous
 62
     7
370
    15
100
AcDbVertex
100
AcDb2dVertex
 10
206.615432713247
 20
78.75661917540214
 30
0.0
  0
VERTEX
  5
150
330
12B
100
AcDbEntity
  8
0
  6
Continuous
 62
     7
370
    15
100
AcDbVertex
100
AcDb2dVertex
 10
206.8448369091664
 20
78.36917613534098
 30
0.0
  0
VERTEX
  5
151
330
12B
100
AcDbEntity
  8
0
  6
Continuous
 62
     7
370
    15
100
AcDbVertex
100
AcDb2dVertex
 10
207.1108661196329
 20
78.02050079335447
 30
0.0
  0
VERTEX
  5
152
330
12B
100
AcDbEntity
  8
0
  6
Continuous
 62
     7
370
    15
100
AcDbVertex
100
AcDb2dVertex
 10
207.407285074207
 20
77.71878182158588
 30
0.0
  0
VERTEX
  5
153
330
12B
100
AcDbEntity
  8
0
  6
Continuous
 62
     7
370
    15
100
AcDbVertex
100
AcDb2dVertex
 10
207.7271456723388
 20
77.47109709829607
 30
0.0
  0
VERTEX
  5
154
330
12B
100
AcDbEntity
  8
0
  6
Continuous
 62
     7
370
    15
100
AcDbVertex
100
AcDb2dVertex
 10
208.0629508506152
 20
77.2832342152164
 30
0.0
  0
VERTEX
  5
155
330
12B
100
AcDbEntity
  8
0
  6
Continuous
 62
     7
370
    15
100
AcDbVertex
100
AcDb2dVertex
 10
208.4068295169486
 20
77.15959913746283
 30
0.0
  0
SEQEND
  5
156
330
12B
100
AcDbEntity
  8
0
  6
Continuous
 62
     7
370
    15
  0
POLYLINE
  5
157
102
{ACAD_REACTORS
330
398
102
}
330
A
100
AcDbEntity
  8
0
  6
Continuous
 62
     7
370
    15
100
AcDb2dPolyline
 66
     1
 10
0.0
 20
0.0
 30
0.0
 75
     5
  0
VERTEX
  5
158
330
157
100
AcDbEntity
  8
0
  6
Continuous
 62
     7
370
    15
100
AcDbVertex
100
AcDb2dVertex
 10
208.4033687714169
 20
59.68874053785871
 30
0.0
  0
VERTEX
  5
159
330
157
100
AcDbEntity
  8
0
  6
Continuous
 62
     7
370
    15
100
AcDbVertex
100
AcDb2dVertex
 10
208.628503733461
 20
59.66324025734117
 30
0.0
  0
VERTEX
  5
15A
330
157
100
AcDbEntity
  8
0
  6
Continuous
 62
     7
370
    15
100
AcDbVertex
100
AcDb2dVertex
 10
208.8415148772181
 20
59.70601677264101
 30
0.0
  0
VERTEX
  5
15B
330
157
100
AcDbEntity
  8
0
  6
Continuous
 62
     7
370
    15
100
AcDbVertex
100
AcDb2dVertex
 10
209.0309186681179
 20
59.81477382383738
 30
0.0
  0
VERTEX
  5
15C
330
157
100
AcDbEntity
  8
0
  6
Continuous
 62
     7
370
    15
100
AcDbVertex
100
AcDb2dVertex
 10
209.186504384647
 20
59.98363810799461
 30
0.0
  0
VERTEX
  5
15D
330
157
100
AcDbEntity
  8
0
  6
Continuous
 62
     7
370
    15
100
AcDbVertex
100
AcDb2dVertex
 10
209.2998842431064
 20
60.20351598623918
 30
0.0
  0
VERTEX
  5
15E
330
157
100
AcDbEntity
  8
0
  6
Continuous
 62
     7
370
    15
100
AcDbVertex
100
AcDb2dVertex
 10
209.3649460802761
 20
60.46254399880288
 30
0.0
  0
VERTEX
  5
15F
330
157
100
AcDbEntity
  8
0
  6
Continuous
 62
     7
370
    15
100
AcDbVertex
100
AcDb2dVertex
 10
209.3781822037841
 20
60.74677667666915
 30
0.0
  0
VERTEX
  5
160
330
157
100
AcDbEntity
  8
0
  6
Continuous
 62
     7
370
    15
100
AcDbVertex
100
AcDb2dVertex
 10
209.3388791337215
 20
61.04087664044281
 30
0.0
  0
VERTEX
  5
161
330
157
100
AcDbEntity
  8
0
  6
Continuous
 62
     7
370
    15
100
AcDbVertex
100
AcDb2dVertex
 10
209.2491557512965
 20
61.32898097748581
 30
0.0
  0
VERTEX
  5
162
330
157
100
AcDbEntity
  8
0
  6
Continuous
 62
     7
370
    15
100
AcDbVertex
100
AcDb2dVertex
 10
209.1138490509788
 20
61.5955733869764
 30
0.0
  0
VERTEX
  5
163
330
157
100
AcDbEntity
  8
0
  6
Continuous
 62
     7
370
    15
100
AcDbVertex
100
AcDb2dVertex
 10
208.9402533556632
 20
61.82628088772884
 30
0.0
  0
VERTEX
  5
164
330
157
100
AcDbEntity
  8
0
  6
Continuous
 62
     7
370
    15
100
AcDbVertex
100
AcDb2dVertex
 10
208.7377273769145
 20
62.00864822997905
 30
0.0
  0
VERTEX
  5
165
330
157
100
AcDbEntity
  8
0
  6
Continuous
 62
     7
370
    15
100
AcDbVertex
100
AcDb2dVertex
 10
208.5171892689914
 20
62.13287335220228
 30
0.0
  0
VERTEX
  5
166
330
157
100
AcDbEntity
  8
0
  6
Continuous
 62
     7
370
    15
100
AcDbVertex
100
AcDb2dVertex
 10
208.2905283331522
 20
62.19223460646162
 30
0.0
  0
VERTEX
  5
167
330
157
100
AcDbEntity
  8
0
  6
Continuous
 62
     7
370
    15
100
AcDbVertex
100
AcDb2dVertex
 10
208.0699638940233
 20
62.1835318187855
 30
0.0
  0
VERTEX
  5
168
330
157
100
AcDbEntity
  8
0
  6
Continuous
 62
     7
370
    15
100
AcDbVertex
100
AcDb2dVertex
 10
207.8673866820243
 20
62.10725877738309
 30
0.0
  0
VERTEX
  5
169
330
157
100
AcDbEntity
  8
0
  6
Continuous
 62
     7
370
    15
100
AcDbVertex
100
AcDb2dVertex
 10
207.6937176018633
 20
61.96749801412607
 30
0.0
  0
VERTEX
  5
16A
330
157
100
AcDbEntity
  8
0
  6
Continuous
 62
     7
370
    15
100
AcDbVertex
100
AcDb2dVertex
 10
207.5583193283216
 20
61.77180175057882
 30
0.0
  0
VERTEX
  5
16B
330
157
100
AcDbEntity
  8
0
  6
Continuous
 62
     7
370
    15
100
AcDbVertex
100
AcDb2dVertex
 10
207.46849112128
 20
61.5307209886674
 30
0.0
  0
VERTEX
  5
16C
330
157
100
AcDbEntity
  8
0
  6
Continuous
 62
     7
370
    15
100
AcDbVertex
100
AcDb2dVertex
 10
207.4290756203945
 20
61.2572369863715
 30
0.0
  0
VERTEX
  5
16D
330
157
100
AcDbEntity
  8
0
  6
Continuous
 62
     7
370
    15
100
AcDbVertex
100
AcDb2dVertex
 10
207.4421977710383
 20
60.96610122122454
 30
0.0
  0
VERTEX
  5
16E
330
157
100
AcDbEntity
  8
0
  6
Continuous
 62
     7
370
    15
100
AcDbVertex
100
AcDb2dVertex
 10
207.5071502433005
 20
60.67302317506854
 30
0.0
  0
VERTEX
  5
16F
330
157
100
AcDbEntity
  8
0
  6
Continuous
 62
     7
370
    15
100
AcDbVertex
100
AcDb2dVertex
 10
207.6204312332731
 20
60.39378406547868
 30
0.0
  0
VERTEX
  5
170
330
157
100
AcDbEntity
  8
0
  6
Continuous
 62
     7
370
    15
100
AcDbVertex
100
AcDb2dVertex
 10
207.7759339116986
 20
60.14344743917738
 30
0.0
  0
VERTEX
  5
171
330
157
100
AcDbEntity
  8
0
  6
Continuous
 62
     7
370
    15
100
AcDbVertex
100
AcDb2dVertex
 10
207.9652749674675
 20
59.93549919268913
 30
0.0
  0
VERTEX
  5
172
330
157
100
AcDbEntity
  8
0
  6
Continuous
 62
     7
370
    15
100
AcDbVertex
100
AcDb2dVertex
 10
208.1782470652469
 20
59.7811600059289
 30
0.0
  0
VERTEX
  5
173
330
157
100
AcDbEntity
  8
0
  6
Continuous
 62
     7
370
    15
100
AcDbVertex
100
AcDb2dVertex
 10
208.4033687714169
 20
59.68874053785871
 30
0.0
  0
SEQEND
  5
174
330
157
100
AcDbEntity
  8
0
  6
Continuous
 62
     7
370
    15
  0
POLYLINE
  5
175
102
{ACAD_REACTORS
330
398
102
}
330
A
100
AcDbEntity
  8
0
  6
Continuous
 62
     7
370
    15
100
AcDb2dPolyline
 66
     1
 10
0.0
 20
0.0
 30
0.0
 75
     5
  0
VERTEX
  5
176
330
175
100
AcDbEntity
  8
0
  6
Continuous
 62
     7
370
    15
100
AcDbVertex
100
AcDb2dVertex
 10
208.436052966041
 20
224.6881426785685
 30
0.0
  0
VERTEX
  5
177
330
175
100
AcDbEntity
  8
0
  6
Continuous
 62
     7
370
    15
100
AcDbVertex
100
AcDb2dVertex
 10
208.5308794123406
 20
224.6393253995194
 30
0.0
  0
VERTEX
  5
178
330
175
100
AcDbEntity
  8
0
  6
Continuous
 62
     7
370
    15
100
AcDbVertex
100
AcDb2dVertex
 10
208.611259891407
 20
224.5499765183825
 30
0.0
  0
VERTEX
  5
179
330
175
100
AcDbEntity
  8
0
  6
Continuous
 62
     7
370
    15
100
AcDbVertex
100
AcDb2dVertex
 10
208.6649571979326
 20
224.4336992278724
 30
0.0
  0
VERTEX
  5
17A
330
175
100
AcDbEntity
  8
0
  6
Continuous
 62
     7
370
    15
100
AcDbVertex
100
AcDb2dVertex
 10
208.6837964090517
 20
224.3081953651258
 30
0.0
  0
VERTEX
  5
17B
330
175
100
AcDbEntity
  8
0
  6
Continuous
 62
     7
370
    15
100
AcDbVertex
100
AcDb2dVertex
 10
208.6649094337754
 20
224.1925717833818
 30
0.0
  0
VERTEX
  5
17C
330
175
100
AcDbEntity
  8
0
  6
Continuous
 62
     7
370
    15
100
AcDbVertex
100
AcDb2dVertex
 10
208.6111716347801
 20
224.1044311569551
 30
0.0
  0
VERTEX
  5
17D
330
175
100
AcDbEntity
  8
0
  6
Continuous
 62
     7
370
    15
100
AcDbVertex
100
AcDb2dVertex
 10
208.5307640993778
 20
224.0571917738013
 30
0.0
  0
VERTEX
  5
17E
330
175
100
AcDbEntity
  8
0
  6
Continuous
 62
     7
370
    15
100
AcDbVertex
100
AcDb2dVertex
 10
208.435928152276
 20
224.0580460339541
 30
0.0
  0
VERTEX
  5
17F
330
175
100
AcDbEntity
  8
0
  6
Continuous
 62
     7
370
    15
100
AcDbVertex
100
AcDb2dVertex
 10
208.3411017059363
 20
224.1068633130044
 30
0.0
  0
VERTEX
  5
180
330
175
100
AcDbEntity
  8
0
  6
Continuous
 62
     7
370
    15
100
AcDbVertex
100
AcDb2dVertex
 10
208.2607212268688
 20
224.1962121941012
 30
0.0
  0
VERTEX
  5
181
330
175
100
AcDbEntity
  8
0
  6
Continuous
 62
     7
370
    15
100
AcDbVertex
100
AcDb2dVertex
 10
208.2070239203843
 20
224.3124894846503
 30
0.0
  0
VERTEX
  5
182
330
175
100
AcDbEntity
  8
0
  6
Continuous
 62
     7
370
    15
100
AcDbVertex
100
AcDb2dVertex
 10
208.1881847092653
 20
224.4379933473969
 30
0.0
  0
VERTEX
  5
183
330
175
100
AcDbEntity
  8
0
  6
Continuous
 62
     7
370
    15
100
AcDbVertex
100
AcDb2dVertex
 10
208.2070716845404
 20
224.5536169291009
 30
0.0
  0
VERTEX
  5
184
330
175
100
AcDbEntity
  8
0
  6
Continuous
 62
     7
370
    15
100
AcDbVertex
100
AcDb2dVertex
 10
208.2608094834969
 20
224.6417575555686
 30
0.0
  0
VERTEX
  5
185
330
175
100
AcDbEntity
  8
0
  6
Continuous
 62
     7
370
    15
100
AcDbVertex
100
AcDb2dVertex
 10
208.3412170188992
 20
224.6889969387225
 30
0.0
  0
VERTEX
  5
186
330
175
100
AcDbEntity
  8
0
  6
Continuous
 62
     7
370
    15
100
AcDbVertex
100
AcDb2dVertex
 10
208.436052966041
 20
224.6881426785685
 30
0.0
  0
SEQEND
  5
187
330
175
100
AcDbEntity
  8
0
  6
Continuous
 62
     7
370
    15
  0
LINE
  5
188
102
{ACAD_REACTORS
330
398
102
}
330
A
100
AcDbEntity
  8
0
  6
Continuous
 62
     7
370
    15
100
AcDbLine
 10
222.8639835664376
 20
53.11982335511715
 30
0.0
 11
213.6978345771202
 21
50.01967589794198
 31
0.0
  0
LINE
  5
189
102
{ACAD_REACTORS
330
398
102
}
330
A
100
AcDbEntity
  8
0
  6
Continuous
 62
     7
370
    15
100
AcDbLine
 10
208.5944208702593
 20
224.1116509663372
 30
0.0
 11
208.6141351890632
 21
224.1074866127879
 31
0.0
  0
ARC
  5
18A
102
{ACAD_REACTORS
330
398
102
}
330
A
100
AcDbEntity
  8
0
  6
Continuous
 62
     7
370
    15
100
AcDbCircle
 10
208.7211166794214
 20
224.4681436458341
 30
0.0
 40
0.3783369643496591
100
AcDbArc
 50
143.6655696918291
 51
250.4350279865307
  0
POLYLINE
  5
18B
102
{ACAD_REACTORS
330
398
102
}
330
A
100
AcDbEntity
  8
0
  6
Continuous
 62
     7
370
    15
100
AcDb2dPolyline
 66
     1
 10
0.0
 20
0.0
 30
0.0
 75
     5
  0
VERTEX
  5
18C
330
18B
100
AcDbEntity
  8
0
  6
Continuous
 62
     7
370
    15
100
AcDbVertex
100
AcDb2dVertex
 10
203.1902915348259
 20
52.74776531313375
 30
0.0
  0
VERTEX
  5
18D
330
18B
100
AcDbEntity
  8
0
  6
Continuous
 62
     7
370
    15
100
AcDbVertex
100
AcDb2dVertex
 10
203.1822626437946
 20
52.75032481849003
 30
0.0
  0
VERTEX
  5
18E
330
18B
100
AcDbEntity
  8
0
  6
Continuous
 62
     7
370
    15
100
AcDbVertex
100
AcDb2dVertex
 10
203.1760654704698
 20
52.75330104723585
 30
0.0
  0
VERTEX
  5
18F
330
18B
100
AcDbEntity
  8
0
  6
Continuous
 62
     7
370
    15
100
AcDbVertex
100
AcDb2dVertex
 10
203.171937427124
 20
52.75657955951824
 30
0.0
  0
VERTEX
  5
190
330
18B
100
AcDbEntity
  8
0
  6
Continuous
 62
     7
370
    15
100
AcDbVertex
100
AcDb2dVertex
 10
203.1700376778831
 20
52.76003422392154
 30
0.0
  0
VERTEX
  5
191
330
18B
100
AcDbEntity
  8
0
  6
Continuous
 62
     7
370
    15
100
AcDbVertex
100
AcDb2dVertex
 10
203.169914548016
 20
52.7611784583333
 30
0.0
  0
SEQEND
  5
192
330
18B
100
AcDbEntity
  8
0
  6
Continuous
 62
     7
370
    15
  0
LINE
  5
193
102
{ACAD_REACTORS
330
398
102
}
330
A
100
AcDbEntity
  8
0
  6
Continuous
 62
     7
370
    15
100
AcDbLine
 10
211.3603880320098
 20
202.3164776916502
 30
0.0
 11
211.6230932190596
 21
202.4053290531641
 31
0.0
  0
LINE
  5
194
102
{ACAD_REACTORS
330
398
102
}
330
A
100
AcDbEntity
  8
0
  6
Continuous
 62
     7
370
    15
100
AcDbLine
 10
211.6230932190596
 20
202.4053290531641
 30
0.0
 11
211.6296888869612
 21
202.4014705327694
 31
0.0
  0
LINE
  5
195
102
{ACAD_REACTORS
330
398
102
}
330
A
100
AcDbEntity
  8
0
  6
Continuous
 62
     7
370
    15
100
AcDbLine
 10
208.5917978896011
 20
210.870075060435
 30
0.0
 11
208.6352086645298
 21
210.8627151166533
 31
0.0
  0
ARC
  5
196
102
{ACAD_REACTORS
330
398
102
}
330
A
100
AcDbEntity
  8
0
  6
Continuous
 62
     7
370
    15
100
AcDbCircle
 10
208.7413328932474
 20
211.2992405001883
 30
0.0
 40
0.4544707823319544
100
AcDbArc
 50
140.6202951705241
 51
250.7900246096304
  0
LINE
  5
197
102
{ACAD_REACTORS
330
398
102
}
330
A
100
AcDbEntity
  8
0
  6
Continuous
 62
     7
370
    15
100
AcDbLine
 10
210.6913046571634
 20
202.613385712612
 30
0.0
 11
210.8578517472356
 21
202.6034254929115
 31
0.0
  0
ARC
  5
198
102
{ACAD_REACTORS
330
398
102
}
330
A
100
AcDbEntity
  8
0
  6
Continuous
 62
     7
370
    15
100
AcDbCircle
 10
210.850437746229
 20
202.4567008926437
 30
0.0
 40
0.1469117957550085
100
AcDbArc
 50
76.11691495422052
 51
87.10730183550189
  0
LINE
  5
199
102
{ACAD_REACTORS
330
398
102
}
330
A
100
AcDbEntity
  8
0
  6
Continuous
 62
     7
370
    15
100
AcDbLine
 10
211.6124696865476
 20
202.4089808685438
 30
0.0
 11
210.8856879763551
 21
202.5993210069594
 31
0.0
  0
ARC
  5
19A
102
{ACAD_REACTORS
330
398
102
}
330
A
100
AcDbEntity
  8
0
  6
Continuous
 62
     7
370
    15
100
AcDbCircle
 10
211.5962547863274
 20
202.3445315211946
 30
0.0
 40
0.0664578164321937
100
AcDbArc
 50
66.18144211121484
 51
75.87797287482579
  0
POLYLINE
  5
19B
330
A
100
AcDbEntity
  8
0
  6
Continuous
 62
     7
370
    15
100
AcDb2dPolyline
 66
     1
 10
0.0
 20
0.0
 30
0.0
 75
     5
  0
VERTEX
  5
19C
330
19B
100
AcDbEntity
  8
0
  6
Continuous
 62
     7
370
    15
100
AcDbVertex
100
AcDb2dVertex
 10
222.8789280432371
 20
53.13161135447764
 30
0.0
  0
VERTEX
  5
19D
330
19B
100
AcDbEntity
  8
0
  6
Continuous
 62
     7
370
    15
100
AcDbVertex
100
AcDb2dVertex
 10
222.8784683975171
 20
53.12924398863765
 30
0.0
  0
VERTEX
  5
19E
330
19B
100
AcDbEntity
  8
0
  6
Continuous
 62
     7
370
    15
100
AcDbVertex
100
AcDb2dVertex
 10
222.8758756012771
 20
53.12576454051765
 30
0.0
  0
VERTEX
  5
19F
330
19B
100
AcDbEntity
  8
0
  6
Continuous
 62
     7
370
    15
100
AcDbVertex
100
AcDb2dVertex
 10
222.871095439037
 20
53.12244734247764
 30
0.0
  0
VERTEX
  5
1A0
330
19B
100
AcDbEntity
  8
0
  6
Continuous
 62
     7
370
    15
100
AcDbVertex
100
AcDb2dVertex
 10
222.8643108456371
 20
53.11941988819764
 30
0.0
  0
SEQEND
  5
1A1
330
19B
100
AcDbEntity
  8
0
  6
Continuous
 62
     7
370
    15
  0
LINE
  5
1A2
102
{ACAD_REACTORS
330
398
102
}
330
A
100
AcDbEntity
  8
0
  6
Continuous
 62
     7
370
    15
100
AcDbLine
 10
208.5899067715964
 20
201.3231567200892
 30
0.0
 11
208.6333175465261
 21
201.3157967763475
 31
0.0
  0
ARC
  5
1A3
102
{ACAD_REACTORS
330
398
102
}
330
A
100
AcDbEntity
  8
0
  6
Continuous
 62
     7
370
    15
100
AcDbCircle
 10
208.7394389581369
 20
201.7523207961778
 30
0.0
 40
0.4544685676551185
100
AcDbArc
 50
140.6200755995257
 51
250.7903034267238
  0
LINE
  5
1A4
102
{ACAD_REACTORS
330
398
102
}
330
A
100
AcDbEntity
  8
0
  6
Continuous
 62
     7
370
    15
100
AcDbLine
 10
205.2874173118678
 20
210.2078876663912
 30
0.0
 11
205.1289245938846
 21
210.154282734008
 31
0.0
  0
ARC
  5
1A5
102
{ACAD_REACTORS
330
398
102
}
330
A
100
AcDbEntity
  8
0
  6
Continuous
 62
     7
370
    15
100
AcDbCircle
 10
205.6974863745318
 20
210.233308367656
 30
0.0
 40
0.4108562378683067
100
AcDbArc
 50
131.0141914162264
 51
183.547298694527
  0
LINE
  5
1A6
102
{ACAD_REACTORS
330
398
102
}
330
A
100
AcDbEntity
  8
0
  6
Continuous
 62
     7
370
    15
100
AcDbLine
 10
205.2874173118678
 20
210.2078876663912
 30
0.0
 11
205.2873531573318
 21
209.8840167235204
 31
0.0
  0
LINE
  5
1A7
102
{ACAD_REACTORS
330
398
102
}
330
A
100
AcDbEntity
  8
0
  6
Continuous
 62
     7
370
    15
100
AcDbLine
 10
206.4816573953066
 20
80.01381396140371
 30
0.0
 11
206.4988550906578
 21
79.89703354660622
 31
0.0
  0
SPLINE
  5
1A8
102
{ACAD_REACTORS
330
398
102
}
330
A
100
AcDbEntity
  8
0
  6
Continuous
 62
     7
370
    15
100
AcDbSpline
210
0.0
220
0.0
230
1.0
 70
     8
 71
     2
 72
    10
 73
     7
 74
     0
 42
0.000000001
 43
0.000001
 40
0.0
 40
0.0
 40
0.0
 40
1.0
 40
1.0
 40
2.0
 40
2.0
 40
3.0
 40
3.0
 40
3.0
 10
206.4988550872178
 20
79.89703738178306
 30
0.0
 10
206.4993172653847
 20
79.89241497721426
 30
0.0
 10
206.4997794435516
 20
79.88779257264545
 30
0.0
 10
206.533095992568
 20
79.56203541836749
 30
0.0
 10
206.5892707005015
 20
79.24075420610208
 30
0.0
 10
206.5900789712651
 20
79.23619102954575
 30
0.0
 10
206.5908872420286
 20
79.23162785298945
 30
0.0
  0
LINE
  5
1A9
102
{ACAD_REACTORS
330
398
102
}
330
A
100
AcDbEntity
  8
0
  6
Continuous
 62
     7
370
    15
100
AcDbLine
 10
206.590887406479
 20
79.23162904865731
 30
0.0
 11
206.6080965067981
 21
79.17242417289265
 31
0.0
  0
POLYLINE
  5
1AA
102
{ACAD_REACTORS
330
398
102
}
330
A
100
AcDbEntity
  8
0
  6
Continuous
 62
     7
370
    15
100
AcDb2dPolyline
 66
     1
 10
0.0
 20
0.0
 30
0.0
 75
     5
  0
VERTEX
  5
1AB
330
1AA
100
AcDbEntity
  8
0
  6
Continuous
 62
     7
370
    15
100
AcDbVertex
100
AcDb2dVertex
 10
206.6080965067981
 20
79.17242417289265
 30
0.0
  0
VERTEX
  5
1AC
330
1AA
100
AcDbEntity
  8
0
  6
Continuous
 62
     7
370
    15
100
AcDbVertex
100
AcDb2dVertex
 10
206.8134963708629
 20
78.73574924382075
 30
0.0
  0
VERTEX
  5
1AD
330
1AA
100
AcDbEntity
  8
0
  6
Continuous
 62
     7
370
    15
100
AcDbVertex
100
AcDb2dVertex
 10
207.0647890042252
 20
78.33420840980764
 30
0.0
  0
VERTEX
  5
1AE
330
1AA
100
AcDbEntity
  8
0
  6
Continuous
 62
     7
370
    15
100
AcDbVertex
100
AcDb2dVertex
 10
207.3553932598076
 20
77.97832306296138
 30
0.0
  0
VERTEX
  5
1AF
330
1AA
100
AcDbEntity
  8
0
  6
Continuous
 62
     7
370
    15
100
AcDbVertex
100
AcDb2dVertex
 10
207.6776988062702
 20
77.67740455040953
 30
0.0
  0
VERTEX
  5
1B0
330
1AA
100
AcDbEntity
  8
0
  6
Continuous
 62
     7
370
    15
100
AcDbVertex
100
AcDb2dVertex
 10
208.0232648858247
 20
77.43933139975297
 30
0.0
  0
VERTEX
  5
1B1
330
1AA
100
AcDbEntity
  8
0
  6
Continuous
 62
     7
370
    15
100
AcDbVertex
100
AcDb2dVertex
 10
208.3830415085104
 20
77.27034343124424
 30
0.0
  0
VERTEX
  5
1B2
330
1AA
100
AcDbEntity
  8
0
  6
Continuous
 62
     7
370
    15
100
AcDbVertex
100
AcDb2dVertex
 10
208.7476066856898
 20
77.17486581350414
 30
0.0
  0
VERTEX
  5
1B3
330
1AA
100
AcDbEntity
  8
0
  6
Continuous
 62
     7
370
    15
100
AcDbVertex
100
AcDb2dVertex
 10
209.1074129265315
 20
77.15539898205034
 30
0.0
  0
VERTEX
  5
1B4
330
1AA
100
AcDbEntity
  8
0
  6
Continuous
 62
     7
370
    15
100
AcDbVertex
100
AcDb2dVertex
 10
209.447081046396
 20
77.21076935886342
 30
0.0
  0
SEQEND
  5
1B5
330
1AA
100
AcDbEntity
  8
0
  6
Continuous
 62
     7
370
    15
  0
ARC
  5
1B6
102
{ACAD_REACTORS
330
398
102
}
330
A
100
AcDbEntity
  8
0
  6
Continuous
 62
     7
370
    15
100
AcDbCircle
 10
210.0353411181809
 20
80.68580721623869
 30
0.0
 40
3.6166618499486
100
AcDbArc
 50
169.269241346424
 51
190.7080595848241
  0
LINE
  5
1B7
102
{ACAD_REACTORS
330
398
102
}
330
A
100
AcDbEntity
  8
0
  6
Continuous
 62
     7
370
    15
100
AcDbLine
 10
206.4991648098217
 20
81.4605867062748
 30
0.0
 11
206.4819239000866
 21
81.35920829355973
 31
0.0
  0
SPLINE
  5
1B8
102
{ACAD_REACTORS
330
398
102
}
330
A
100
AcDbEntity
  8
0
  6
Continuous
 62
     7
370
    15
100
AcDbSpline
210
0.0
220
0.0
230
1.0
 70
     8
 71
     2
 72
    11
 73
     8
 74
     0
 42
0.000000001
 43
0.000001
 40
0.0
 40
0.0
 40
0.0
 40
1.0
 40
1.0
 40
2.0
 40
3.0
 40
3.0
 40
4.0
 40
4.0
 40
4.0
 10
206.5914284208132
 20
81.96365684755378
 30
0.0
 10
206.5906996041986
 20
81.96083276662497
 30
0.0
 10
206.589970787584
 20
81.9580086856962
 30
0.0
 10
206.568302878413
 20
81.87269001485731
 30
0.0
 10
206.5213134345191
 20
81.63838406535714
 30
0.0
 10
206.4999997320849
 20
81.46744023203047
 30
0.0
 10
206.4995822690111
 20
81.46401420673178
 30
0.0
 10
206.4991648059371
 20
81.46058818143305
 30
0.0
  0
LINE
  5
1B9
102
{ACAD_REACTORS
330
398
102
}
330
A
100
AcDbEntity
  8
0
  6
Continuous
 62
     7
370
    15
100
AcDbLine
 10
206.6086580907609
 20
82.00746465725217
 30
0.0
 11
206.591428585956
 21
81.96366178365096
 31
0.0
  0
ARC
  5
1BA
102
{ACAD_REACTORS
330
398
102
}
330
A
100
AcDbEntity
  8
0
  6
Continuous
 62
     7
370
    15
100
AcDbCircle
 10
208.2199942837273
 20
81.25079790023557
 30
0.0
 40
1.780154180971252
100
AcDbArc
 50
112.9380191826253
 51
154.8457371066247
  0
POLYLINE
  5
1BB
102
{ACAD_REACTORS
330
398
102
}
330
A
100
AcDbEntity
  8
0
  6
Continuous
 62
     7
370
    15
100
AcDb2dPolyline
 66
     1
 10
0.0
 20
0.0
 30
0.0
 75
     5
  0
VERTEX
  5
1BC
330
1BB
100
AcDbEntity
  8
0
  6
Continuous
 62
     7
370
    15
100
AcDbVertex
100
AcDb2dVertex
 10
208.56186148944
 20
59.74234547024076
 30
0.0
  0
VERTEX
  5
1BD
330
1BB
100
AcDbEntity
  8
0
  6
Continuous
 62
     7
370
    15
100
AcDbVertex
100
AcDb2dVertex
 10
208.7869964514442
 20
59.7168451897243
 30
0.0
  0
VERTEX
  5
1BE
330
1BB
100
AcDbEntity
  8
0
  6
Continuous
 62
     7
370
    15
100
AcDbVertex
100
AcDb2dVertex
 10
208.8976847473405
 20
59.73013845107191
 30
0.0
  0
SEQEND
  5
1BF
330
1BB
100
AcDbEntity
  8
0
  6
Continuous
 62
     7
370
    15
  0
POLYLINE
  5
1C0
102
{ACAD_REACTORS
330
398
102
}
330
A
100
AcDbEntity
  8
0
  6
Continuous
 62
     7
370
    15
100
AcDb2dPolyline
 66
     1
 10
0.0
 20
0.0
 30
0.0
 75
     5
  0
VERTEX
  5
1C1
330
1C0
100
AcDbEntity
  8
0
  6
Continuous
 62
     7
370
    15
100
AcDbVertex
100
AcDb2dVertex
 10
208.0680374266626
 20
62.18314750685246
 30
0.0
  0
VERTEX
  5
1C2
330
1C0
100
AcDbEntity
  8
0
  6
Continuous
 62
     7
370
    15
100
AcDbVertex
100
AcDb2dVertex
 10
208.0258794000474
 20
62.16086370976512
 30
0.0
  0
VERTEX
  5
1C3
330
1C0
100
AcDbEntity
  8
0
  6
Continuous
 62
     7
370
    15
100
AcDbVertex
100
AcDb2dVertex
 10
207.8522103198865
 20
62.02110294650812
 30
0.0
  0
VERTEX
  5
1C4
330
1C0
100
AcDbEntity
  8
0
  6
Continuous
 62
     7
370
    15
100
AcDbVertex
100
AcDb2dVertex
 10
207.7168120463048
 20
61.82540668296195
 30
0.0
  0
VERTEX
  5
1C5
330
1C0
100
AcDbEntity
  8
0
  6
Continuous
 62
     7
370
    15
100
AcDbVertex
100
AcDb2dVertex
 10
207.6269838393032
 20
61.58432592104943
 30
0.0
  0
VERTEX
  5
1C6
330
1C0
100
AcDbEntity
  8
0
  6
Continuous
 62
     7
370
    15
100
AcDbVertex
100
AcDb2dVertex
 10
207.5875683384166
 20
61.31084191871354
 30
0.0
  0
VERTEX
  5
1C7
330
1C0
100
AcDbEntity
  8
0
  6
Continuous
 62
     7
370
    15
100
AcDbVertex
100
AcDb2dVertex
 10
207.6006904890615
 20
61.01970615360657
 30
0.0
  0
VERTEX
  5
1C8
330
1C0
100
AcDbEntity
  8
0
  6
Continuous
 62
     7
370
    15
100
AcDbVertex
100
AcDb2dVertex
 10
207.6656429613237
 20
60.72662810745059
 30
0.0
  0
VERTEX
  5
1C9
330
1C0
100
AcDbEntity
  8
0
  6
Continuous
 62
     7
370
    15
100
AcDbVertex
100
AcDb2dVertex
 10
207.7789239512963
 20
60.44738899786071
 30
0.0
  0
VERTEX
  5
1CA
330
1C0
100
AcDbEntity
  8
0
  6
Continuous
 62
     7
370
    15
100
AcDbVertex
100
AcDb2dVertex
 10
207.9344266297217
 20
60.19705237155942
 30
0.0
  0
VERTEX
  5
1CB
330
1C0
100
AcDbEntity
  8
0
  6
Continuous
 62
     7
370
    15
100
AcDbVertex
100
AcDb2dVertex
 10
208.1237676854895
 20
59.98910412503117
 30
0.0
  0
VERTEX
  5
1CC
330
1C0
100
AcDbEntity
  8
0
  6
Continuous
 62
     7
370
    15
100
AcDbVertex
100
AcDb2dVertex
 10
208.3367397832301
 20
59.83476493831202
 30
0.0
  0
VERTEX
  5
1CD
330
1C0
100
AcDbEntity
  8
0
  6
Continuous
 62
     7
370
    15
100
AcDbVertex
100
AcDb2dVertex
 10
208.56186148944
 20
59.74234547024076
 30
0.0
  0
SEQEND
  5
1CE
330
1C0
100
AcDbEntity
  8
0
  6
Continuous
 62
     7
370
    15
  0
LINE
  5
1CF
102
{ACAD_REACTORS
330
398
102
}
330
A
100
AcDbEntity
  8
0
  6
Continuous
 62
     7
370
    15
100
AcDbLine
 10
203.9593370603488
 20
243.9990338512881
 30
0.0
 11
213.6462925535073
 21
241.4620734085389
 31
0.0
  0
ARC
  5
1D0
102
{ACAD_REACTORS
330
398
102
}
330
A
100
AcDbEntity
  8
0
  6
Continuous
 62
     7
370
    15
100
AcDbCircle
 10
214.0003851034161
 20
240.7989836956246
 30
0.0
 40
0.751711049039513
100
AcDbArc
 50
118.1023947136235
 51
183.3355701756238
  0
LINE
  5
1D1
102
{ACAD_REACTORS
330
398
102
}
330
A
100
AcDbEntity
  8
0
  6
Continuous
 62
     7
370
    15
100
AcDbLine
 10
213.2499475374545
 20
240.7552462880044
 30
0.0
 11
203.562992044256
 21
243.2922067307547
 31
0.0
  0
ARC
  5
1D2
102
{ACAD_REACTORS
330
398
102
}
330
A
100
AcDbEntity
  8
0
  6
Continuous
 62
     7
370
    15
100
AcDbCircle
 10
204.3134296102587
 20
243.3359441384138
 30
0.0
 40
0.751711049039654
100
AcDbArc
 50
118.1023947136251
 51
183.3355701756255
  0
LINE
  5
1D3
102
{ACAD_REACTORS
330
398
102
}
330
A
100
AcDbEntity
  8
0
  6
Continuous
 62
     7
370
    15
100
AcDbLine
 10
213.2475079951236
 20
228.4397210101451
 30
0.0
 11
213.2499475374545
 21
240.7552462880044
 31
0.0
  0
LINE
  5
1D4
102
{ACAD_REACTORS
330
398
102
}
330
A
100
AcDbEntity
  8
0
  6
Continuous
 62
     7
370
    15
100
AcDbLine
 10
203.5605525019651
 20
230.9766814528942
 30
0.0
 11
213.2475079951236
 21
228.4397210101451
 31
0.0
  0
LINE
  5
1D5
102
{ACAD_REACTORS
330
398
102
}
330
A
100
AcDbEntity
  8
0
  6
Continuous
 62
     7
370
    15
100
AcDbLine
 10
203.562992044256
 20
243.2922067307547
 30
0.0
 11
203.5605525019651
 21
230.9766814528942
 31
0.0
  0
LINE
  5
1D6
102
{ACAD_REACTORS
330
398
102
}
330
A
100
AcDbEntity
  8
0
  6
Continuous
 62
     7
370
    15
100
AcDbLine
 10
222.1652637232551
 20
244.3433343219981
 30
0.0
 11
212.4783082300978
 21
246.8802947647873
 31
0.0
  0
LINE
  5
1D7
102
{ACAD_REACTORS
330
398
102
}
330
A
100
AcDbEntity
  8
0
  6
Continuous
 62
     7
370
    15
100
AcDbLine
 10
213.6462925535073
 20
241.4620734085389
 30
0.0
 11
222.1652637232551
 21
244.3433343219981
 31
0.0
  0
LINE
  5
1D8
102
{ACAD_REACTORS
330
398
102
}
330
A
100
AcDbEntity
  8
0
  6
Continuous
 62
     7
370
    15
100
AcDbLine
 10
212.4783082300978
 20
246.8802947647873
 30
0.0
 11
203.9593370603488
 21
243.9990338512881
 31
0.0
  0
ARC
  5
1D9
102
{ACAD_REACTORS
330
398
102
}
330
A
100
AcDbEntity
  8
0
  6
Continuous
 62
     7
370
    15
100
AcDbCircle
 10
213.3854688275068
 20
240.7997422717692
 30
0.0
 40
0.7118367444533428
100
AcDbArc
 50
357.7068704782241
 51
68.50565018352466
  0
ARC
  5
1DA
102
{ACAD_REACTORS
330
398
102
}
330
A
100
AcDbEntity
  8
0
  6
Continuous
 62
     7
370
    15
100
AcDbCircle
 10
213.6423723253098
 20
242.4008437427912
 30
0.0
 40
1.691741173301077
100
AcDbArc
 50
256.587211213123
 51
285.5796230260241
  0
LINE
  5
1DB
102
{ACAD_REACTORS
330
398
102
}
330
A
100
AcDbEntity
  8
0
  6
Continuous
 62
     7
370
    15
100
AcDbLine
 10
214.0967355332578
 20
240.7712602767936
 30
0.0
 11
214.094295990927
 21
228.4557349989342
 31
0.0
  0
ARC
  5
1DC
102
{ACAD_REACTORS
330
398
102
}
330
A
100
AcDbEntity
  8
0
  6
Continuous
 62
     7
370
    15
100
AcDbCircle
 10
213.6399327830188
 20
230.0853184649307
 30
0.0
 40
1.691741173300747
100
AcDbArc
 50
256.5872112131246
 51
285.5796230260231
  0
ARC
  5
1DD
102
{ACAD_REACTORS
330
398
102
}
330
A
100
AcDbEntity
  8
0
  6
Continuous
 62
     7
370
    15
100
AcDbCircle
 10
221.9044399972557
 20
243.6810031852684
 30
0.0
 40
0.7118367444533882
100
AcDbArc
 50
357.7068704782219
 51
68.50565018352422
  0
LINE
  5
1DE
102
{ACAD_REACTORS
330
398
102
}
330
A
100
AcDbEntity
  8
0
  6
Continuous
 62
     7
370
    15
100
AcDbLine
 10
222.6157067030056
 20
243.6525211902528
 30
0.0
 11
214.0967355332578
 21
240.7712602767936
 31
0.0
  0
LINE
  5
1DF
102
{ACAD_REACTORS
330
398
102
}
330
A
100
AcDbEntity
  8
0
  6
Continuous
 62
     7
370
    15
100
AcDbLine
 10
222.6132671606748
 20
231.3369959123935
 30
0.0
 11
222.6157067030056
 21
243.6525211902528
 31
0.0
  0
LINE
  5
1E0
102
{ACAD_REACTORS
330
398
102
}
330
A
100
AcDbEntity
  8
0
  6
Continuous
 62
     7
370
    15
100
AcDbLine
 10
214.094295990927
 20
228.4557349989342
 30
0.0
 11
222.6132671606748
 21
231.3369959123935
 31
0.0
  0
ARC
  5
1E1
102
{ACAD_REACTORS
330
398
102
}
330
A
100
AcDbEntity
  8
0
  6
Continuous
 62
     7
370
    15
100
AcDbCircle
 10
213.6830621227914
 20
227.8180300165975
 30
0.0
 40
0.5392217484362163
100
AcDbArc
 50
256.5872532574233
 51
285.5795809817255
  0
ARC
  5
1E2
102
{ACAD_REACTORS
330
398
102
}
330
A
100
AcDbEntity
  8
0
  6
Continuous
 62
     7
370
    15
100
AcDbCircle
 10
213.6826752246284
 20
227.2994499705099
 30
0.0
 40
0.1248344230751594
100
AcDbArc
 50
118.0208836774314
 51
182.7246025399074
  0
ARC
  5
1E3
102
{ACAD_REACTORS
330
398
102
}
330
A
100
AcDbEntity
  8
0
  6
Continuous
 62
     7
370
    15
100
AcDbCircle
 10
213.6837150307215
 20
227.6599431261153
 30
0.0
 40
0.2573104389148896
100
AcDbArc
 50
256.5874022162139
 51
285.5794320228239
  0
ARC
  5
1E4
102
{ACAD_REACTORS
330
398
102
}
330
A
100
AcDbEntity
  8
0
  6
Continuous
 62
     7
370
    15
100
AcDbCircle
 10
213.7095575639413
 20
227.3019038244703
 30
0.0
 40
0.118372430204316
100
AcDbArc
 50
358.4104089395201
 51
68.56203334091117
  0
ARC
  5
1E5
102
{ACAD_REACTORS
330
398
102
}
330
A
100
AcDbEntity
  8
0
  6
Continuous
 62
     7
370
    15
100
AcDbCircle
 10
213.6829116210538
 20
227.3610849690212
 30
0.0
 40
0.5639184536423753
100
AcDbArc
 50
256.5873170504233
 51
285.5795171887257
  0
LINE
  5
1E6
102
{ACAD_REACTORS
330
398
102
}
330
A
100
AcDbEntity
  8
0
  6
Continuous
 62
     7
370
    15
100
AcDbLine
 10
213.5521032746888
 20
226.8125476422276
 30
0.0
 11
213.5579819199376
 21
227.2935159206533
 31
0.0
  0
LINE
  5
1E7
102
{ACAD_REACTORS
330
398
102
}
330
A
100
AcDbEntity
  8
0
  6
Continuous
 62
     7
370
    15
100
AcDbLine
 10
213.8278844410416
 20
227.298620168684
 30
0.0
 11
213.8343662904421
 21
226.8178856451412
 31
0.0
  0
LINE
  5
1E8
102
{ACAD_REACTORS
330
398
102
}
330
A
100
AcDbEntity
  8
0
  6
Continuous
 62
     7
370
    15
100
AcDbLine
 10
213.5579819199376
 20
227.2935159206533
 30
0.0
 11
203.195192036372
 21
230.0074736785743
 31
0.0
  0
ARC
  5
1E9
102
{ACAD_REACTORS
330
398
102
}
330
A
100
AcDbEntity
  8
0
  6
Continuous
 62
     7
370
    15
100
AcDbCircle
 10
203.3198853410638
 20
230.013407728471
 30
0.0
 40
0.1248344230753732
100
AcDbArc
 50
118.0208836775167
 51
182.7246025399284
  0
LINE
  5
1EA
102
{ACAD_REACTORS
330
398
102
}
330
A
100
AcDbEntity
  8
0
  6
Continuous
 62
     7
370
    15
100
AcDbLine
 10
203.2612389584704
 20
230.1236086131575
 30
0.0
 11
213.624028842036
 21
227.4096508552364
 31
0.0
  0
ARC
  5
1EB
102
{ACAD_REACTORS
330
398
102
}
330
A
100
AcDbEntity
  8
0
  6
Continuous
 62
     7
370
    15
100
AcDbCircle
 10
215.251751339575
 20
235.4561574478182
 30
0.0
 40
6.631064333789306
100
AcDbArc
 50
283.5501439475241
 51
293.8226784087241
  0
ARC
  5
1EC
102
{ACAD_REACTORS
330
398
102
}
330
A
100
AcDbEntity
  8
0
  6
Continuous
 62
     7
370
    15
100
AcDbCircle
 10
211.6336331927206
 20
237.7616015631051
 30
0.0
 40
9.052638598969711
100
AcDbArc
 50
247.9206262853243
 51
262.6446296597239
  0
POLYLINE
  5
1ED
102
{ACAD_REACTORS
330
398
102
}
330
A
100
AcDbEntity
  8
0
  6
Continuous
 62
     7
370
    15
100
AcDb2dPolyline
 66
     1
 10
0.0
 20
0.0
 30
0.0
 75
     5
  0
VERTEX
  5
1EE
330
1ED
100
AcDbEntity
  8
0
  6
Continuous
 62
     7
370
    15
100
AcDbVertex
100
AcDb2dVertex
 10
222.866140184244
 20
230.4943657212824
 30
0.0
  0
VERTEX
  5
1EF
330
1ED
100
AcDbEntity
  8
0
  6
Continuous
 62
     7
370
    15
100
AcDbVertex
100
AcDb2dVertex
 10
222.87658059918
 20
230.4986872093461
 30
0.0
  0
VERTEX
  5
1F0
330
1ED
100
AcDbEntity
  8
0
  6
Continuous
 62
     7
370
    15
100
AcDbVertex
100
AcDb2dVertex
 10
222.8839862641601
 20
230.5035321284522
 30
0.0
  0
VERTEX
  5
1F1
330
1ED
100
AcDbEntity
  8
0
  6
Continuous
 62
     7
370
    15
100
AcDbVertex
100
AcDb2dVertex
 10
222.888072103037
 20
230.5087144150217
 30
0.0
  0
VERTEX
  5
1F2
330
1ED
100
AcDbEntity
  8
0
  6
Continuous
 62
     7
370
    15
100
AcDbVertex
100
AcDb2dVertex
 10
222.888682526091
 20
230.5140350577289
 30
0.0
  0
VERTEX
  5
1F3
330
1ED
100
AcDbEntity
  8
0
  6
Continuous
 62
     7
370
    15
100
AcDbVertex
100
AcDb2dVertex
 10
222.8857924739218
 20
230.5192895013699
 30
0.0
  0
VERTEX
  5
1F4
330
1ED
100
AcDbEntity
  8
0
  6
Continuous
 62
     7
370
    15
100
AcDbVertex
100
AcDb2dVertex
 10
222.879514634732
 20
230.5242757957273
 30
0.0
  0
VERTEX
  5
1F5
330
1ED
100
AcDbEntity
  8
0
  6
Continuous
 62
     7
370
    15
100
AcDbVertex
100
AcDb2dVertex
 10
222.8700887864503
 20
230.5288024065493
 30
0.0
  0
VERTEX
  5
1F6
330
1ED
100
AcDbEntity
  8
0
  6
Continuous
 62
     7
370
    15
100
AcDbVertex
100
AcDb2dVertex
 10
222.8578775828228
 20
230.5326955196347
 30
0.0
  0
SEQEND
  5
1F7
330
1ED
100
AcDbEntity
  8
0
  6
Continuous
 62
     7
370
    15
  0
LINE
  5
1F8
102
{ACAD_REACTORS
330
398
102
}
330
A
100
AcDbEntity
  8
0
  6
Continuous
 62
     7
370
    15
100
AcDbLine
 10
213.7528219369458
 20
227.4120865194228
 30
0.0
 11
222.866140184244
 21
230.4943657212824
 31
0.0
  0
POLYLINE
  5
1F9
102
{ACAD_REACTORS
330
398
102
}
330
A
100
AcDbEntity
  8
0
  6
Continuous
 62
     7
370
    15
100
AcDb2dPolyline
 66
     1
 10
0.0
 20
0.0
 30
0.0
 75
     5
  0
VERTEX
  5
1FA
330
1F9
100
AcDbEntity
  8
0
  6
Continuous
 62
     7
370
    15
100
AcDbVertex
100
AcDb2dVertex
 10
203.2529763570093
 20
230.1619384115108
 30
0.0
  0
VERTEX
  5
1FB
330
1F9
100
AcDbEntity
  8
0
  6
Continuous
 62
     7
370
    15
100
AcDbVertex
100
AcDb2dVertex
 10
203.2425359421132
 20
230.1576169234461
 30
0.0
  0
VERTEX
  5
1FC
330
1F9
100
AcDbEntity
  8
0
  6
Continuous
 62
     7
370
    15
100
AcDbVertex
100
AcDb2dVertex
 10
203.2351302770931
 20
230.152772004341
 30
0.0
  0
VERTEX
  5
1FD
330
1F9
100
AcDbEntity
  8
0
  6
Continuous
 62
     7
370
    15
100
AcDbVertex
100
AcDb2dVertex
 10
203.2310444382562
 20
230.1475897177704
 30
0.0
  0
VERTEX
  5
1FE
330
1F9
100
AcDbEntity
  8
0
  6
Continuous
 62
     7
370
    15
100
AcDbVertex
100
AcDb2dVertex
 10
203.2304340151622
 20
230.1422690750643
 30
0.0
  0
VERTEX
  5
1FF
330
1F9
100
AcDbEntity
  8
0
  6
Continuous
 62
     7
370
    15
100
AcDbVertex
100
AcDb2dVertex
 10
203.2333240673325
 20
230.1370146314633
 30
0.0
  0
VERTEX
  5
200
330
1F9
100
AcDbEntity
  8
0
  6
Continuous
 62
     7
370
    15
100
AcDbVertex
100
AcDb2dVertex
 10
203.2396019065613
 20
230.1320283370648
 30
0.0
  0
VERTEX
  5
201
330
1F9
100
AcDbEntity
  8
0
  6
Continuous
 62
     7
370
    15
100
AcDbVertex
100
AcDb2dVertex
 10
203.2490277548039
 20
230.1275017262839
 30
0.0
  0
VERTEX
  5
202
330
1F9
100
AcDbEntity
  8
0
  6
Continuous
 62
     7
370
    15
100
AcDbVertex
100
AcDb2dVertex
 10
203.2612389584704
 20
230.1236086131575
 30
0.0
  0
SEQEND
  5
203
330
1F9
100
AcDbEntity
  8
0
  6
Continuous
 62
     7
370
    15
  0
LINE
  5
204
102
{ACAD_REACTORS
330
398
102
}
330
A
100
AcDbEntity
  8
0
  6
Continuous
 62
     7
370
    15
100
AcDbLine
 10
222.9412026882998
 20
230.3808993705447
 30
0.0
 11
213.8278844410416
 21
227.298620168684
 31
0.0
  0
ARC
  5
205
102
{ACAD_REACTORS
330
398
102
}
330
A
100
AcDbEntity
  8
0
  6
Continuous
 62
     7
370
    15
100
AcDbCircle
 10
222.8228758112406
 20
230.3841830263699
 30
0.0
 40
0.118372430204407
100
AcDbArc
 50
358.410408939535
 51
68.56203334091848
  0
LINE
  5
206
102
{ACAD_REACTORS
330
398
102
}
330
A
100
AcDbEntity
  8
0
  6
Continuous
 62
     7
370
    15
100
AcDbLine
 10
203.1893133910833
 20
229.5265054001498
 30
0.0
 11
213.5521032746888
 21
226.8125476422276
 31
0.0
  0
LINE
  5
207
102
{ACAD_REACTORS
330
398
102
}
330
A
100
AcDbEntity
  8
0
  6
Continuous
 62
     7
370
    15
100
AcDbLine
 10
203.195192036372
 20
230.0074736785743
 30
0.0
 11
203.1893133910833
 21
229.5265054001498
 31
0.0
  0
LINE
  5
208
102
{ACAD_REACTORS
330
398
102
}
330
A
100
AcDbEntity
  8
0
  6
Continuous
 62
     7
370
    15
100
AcDbLine
 10
213.8343662904421
 20
226.8178856451412
 30
0.0
 11
222.9476845377402
 21
229.9001648470008
 31
0.0
  0
LINE
  5
209
102
{ACAD_REACTORS
330
398
102
}
330
A
100
AcDbEntity
  8
0
  6
Continuous
 62
     7
370
    15
100
AcDbLine
 10
222.9476845377402
 20
229.9001648470008
 30
0.0
 11
222.9412026882998
 21
230.3808993705447
 31
0.0
  0
SPLINE
  5
20A
102
{ACAD_REACTORS
330
398
102
}
330
A
100
AcDbEntity
  8
0
  6
Continuous
 62
     7
370
    15
100
AcDbSpline
210
0.0
220
0.0
230
1.0
 70
     8
 71
     2
 72
    14
 73
    11
 74
     0
 42
0.000000001
 43
0.000001
 40
0.0
 40
0.0
 40
0.0
 40
1.0
 40
1.0
 40
2.0
 40
3.0
 40
4.0
 40
5.0
 40
6.0
 40
6.0
 40
7.0
 40
7.0
 40
7.0
 10
208.5662508893851
 20
224.6070465063205
 30
0.0
 10
208.566068725462
 20
224.6051972633351
 30
0.0
 10
208.5658865615389
 20
224.6033480203498
 30
0.0
 10
208.5625381366264
 20
224.5617259867872
 30
0.0
 10
208.5716084751016
 20
224.4863652647348
 30
0.0
 10
208.590666249917
 20
224.4187382866363
 30
0.0
 10
208.6196628550621
 20
224.3549838740327
 30
0.0
 10
208.6562894182609
 20
224.2991507289227
 30
0.0
 10
208.6794239895025
 20
224.2736636766707
 30
0.0
 10
208.6807144174958
 20
224.272294797499
 30
0.0
 10
208.682004845489
 20
224.2709259183273
 30
0.0
  0
LINE
  5
20B
102
{ACAD_REACTORS
330
398
102
}
330
A
100
AcDbEntity
  8
0
  6
Continuous
 62
     7
370
    15
100
AcDbLine
 10
203.1303063736038
 20
230.0487625906064
 30
0.0
 11
203.130246145188
 21
230.050535811988
 31
0.0
  0
POLYLINE
  5
20C
102
{ACAD_REACTORS
330
398
102
}
330
A
100
AcDbEntity
  8
0
  6
Continuous
 62
     7
370
    15
100
AcDb2dPolyline
 66
     1
 10
0.0
 20
0.0
 30
0.0
 75
     5
  0
VERTEX
  5
20D
330
20C
100
AcDbEntity
  8
0
  6
Continuous
 62
     7
370
    15
100
AcDbVertex
100
AcDb2dVertex
 10
203.2209189069355
 20
230.1611977743862
 30
0.0
  0
VERTEX
  5
20E
330
20C
100
AcDbEntity
  8
0
  6
Continuous
 62
     7
370
    15
100
AcDbVertex
100
AcDb2dVertex
 10
203.211663731243
 20
230.1570131273319
 30
0.0
  0
VERTEX
  5
20F
330
20C
100
AcDbEntity
  8
0
  6
Continuous
 62
     7
370
    15
100
AcDbVertex
100
AcDb2dVertex
 10
203.2107353906539
 20
230.1564661417512
 30
0.0
  0
SEQEND
  5
210
330
20C
100
AcDbEntity
  8
0
  6
Continuous
 62
     7
370
    15
  0
POLYLINE
  5
211
102
{ACAD_REACTORS
330
398
102
}
330
A
100
AcDbEntity
  8
0
  6
Continuous
 62
     7
370
    15
100
AcDb2dPolyline
 66
     1
 10
0.0
 20
0.0
 30
0.0
 75
     5
  0
VERTEX
  5
212
330
211
100
AcDbEntity
  8
0
  6
Continuous
 62
     7
370
    15
100
AcDbVertex
100
AcDb2dVertex
 10
203.1893133910833
 20
229.5265054001498
 30
0.0
  0
VERTEX
  5
213
330
211
100
AcDbEntity
  8
0
  6
Continuous
 62
     7
370
    15
100
AcDbVertex
100
AcDb2dVertex
 10
203.1625516365829
 20
229.5350371600832
 30
0.0
  0
VERTEX
  5
214
330
211
100
AcDbEntity
  8
0
  6
Continuous
 62
     7
370
    15
100
AcDbVertex
100
AcDb2dVertex
 10
203.1418938776793
 20
229.5449578604272
 30
0.0
  0
VERTEX
  5
215
330
211
100
AcDbEntity
  8
0
  6
Continuous
 62
     7
370
    15
100
AcDbVertex
100
AcDb2dVertex
 10
203.1281339646154
 20
229.5558859773168
 30
0.0
  0
VERTEX
  5
216
330
211
100
AcDbEntity
  8
0
  6
Continuous
 62
     7
370
    15
100
AcDbVertex
100
AcDb2dVertex
 10
203.1218005571561
 20
229.5674016651483
 30
0.0
  0
VERTEX
  5
217
330
211
100
AcDbEntity
  8
0
  6
Continuous
 62
     7
370
    15
100
AcDbVertex
100
AcDb2dVertex
 10
203.1213931510331
 20
229.5715396858719
 30
0.0
  0
SEQEND
  5
218
330
211
100
AcDbEntity
  8
0
  6
Continuous
 62
     7
370
    15
  0
LINE
  5
219
102
{ACAD_REACTORS
330
398
102
}
330
A
100
AcDbEntity
  8
0
  6
Continuous
 62
     7
370
    15
100
AcDbLine
 10
222.8831933080296
 20
230.533963669488
 30
0.0
 11
222.8936561338991
 21
230.5295687203947
 31
0.0
  0
LINE
  5
21A
102
{ACAD_REACTORS
330
398
102
}
330
A
100
AcDbEntity
  8
0
  6
Continuous
 62
     7
370
    15
100
AcDbLine
 10
222.988727333277
 20
230.4203971461653
 30
0.0
 11
222.9888333225699
 21
230.4187814253253
 31
0.0
  0
POLYLINE
  5
21B
102
{ACAD_REACTORS
330
398
102
}
330
A
100
AcDbEntity
  8
0
  6
Continuous
 62
     7
370
    15
100
AcDb2dPolyline
 66
     1
 10
0.0
 20
0.0
 30
0.0
 75
     5
  0
VERTEX
  5
21C
330
21B
100
AcDbEntity
  8
0
  6
Continuous
 62
     7
370
    15
100
AcDbVertex
100
AcDb2dVertex
 10
222.9974962231024
 20
229.9397817562676
 30
0.0
  0
VERTEX
  5
21D
330
21B
100
AcDbEntity
  8
0
  6
Continuous
 62
     7
370
    15
100
AcDbVertex
100
AcDb2dVertex
 10
222.9957516952352
 20
229.931611435447
 30
0.0
  0
VERTEX
  5
21E
330
21B
100
AcDbEntity
  8
0
  6
Continuous
 62
     7
370
    15
100
AcDbVertex
100
AcDb2dVertex
 10
222.9867958476602
 20
229.9202537306232
 30
0.0
  0
VERTEX
  5
21F
330
21B
100
AcDbEntity
  8
0
  6
Continuous
 62
     7
370
    15
100
AcDbVertex
100
AcDb2dVertex
 10
222.9705656003028
 20
229.9096354246099
 30
0.0
  0
VERTEX
  5
220
330
21B
100
AcDbEntity
  8
0
  6
Continuous
 62
     7
370
    15
100
AcDbVertex
100
AcDb2dVertex
 10
222.9476845377402
 20
229.9001648470008
 30
0.0
  0
SEQEND
  5
221
330
21B
100
AcDbEntity
  8
0
  6
Continuous
 62
     7
370
    15
  0
POLYLINE
  5
222
102
{ACAD_REACTORS
330
398
102
}
330
A
100
AcDbEntity
  8
0
  6
Continuous
 62
     7
370
    15
100
AcDb2dPolyline
 66
     1
 10
0.0
 20
0.0
 30
0.0
 75
     5
  0
VERTEX
  5
223
330
222
100
AcDbEntity
  8
0
  6
Continuous
 62
     7
370
    15
100
AcDbVertex
100
AcDb2dVertex
 10
205.8185046931881
 20
210.1272040023243
 30
0.0
  0
VERTEX
  5
224
330
222
100
AcDbEntity
  8
0
  6
Continuous
 62
     7
370
    15
100
AcDbVertex
100
AcDb2dVertex
 10
205.5284260504409
 20
210.0063546044143
 30
0.0
  0
VERTEX
  5
225
330
222
100
AcDbEntity
  8
0
  6
Continuous
 62
     7
370
    15
100
AcDbVertex
100
AcDb2dVertex
 10
205.3009604365133
 20
209.8741566128189
 30
0.0
  0
VERTEX
  5
226
330
222
100
AcDbEntity
  8
0
  6
Continuous
 62
     7
370
    15
100
AcDbVertex
100
AcDb2dVertex
 10
205.1410119301411
 20
209.7334597536435
 30
0.0
  0
VERTEX
  5
227
330
222
100
AcDbEntity
  8
0
  6
Continuous
 62
     7
370
    15
100
AcDbVertex
100
AcDb2dVertex
 10
205.0520288513383
 20
209.5872971770502
 30
0.0
  0
VERTEX
  5
228
330
222
100
AcDbEntity
  8
0
  6
Continuous
 62
     7
370
    15
100
AcDbVertex
100
AcDb2dVertex
 10
205.035928139914
 20
209.4388193387361
 30
0.0
  0
VERTEX
  5
229
330
222
100
AcDbEntity
  8
0
  6
Continuous
 62
     7
370
    15
100
AcDbVertex
100
AcDb2dVertex
 10
205.0930582772348
 20
209.291227235427
 30
0.0
  0
VERTEX
  5
22A
330
222
100
AcDbEntity
  8
0
  6
Continuous
 62
     7
370
    15
100
AcDbVertex
100
AcDb2dVertex
 10
205.1358429030879
 20
209.2335646676046
 30
0.0
  0
SEQEND
  5
22B
330
222
100
AcDbEntity
  8
0
  6
Continuous
 62
     7
370
    15
  0
LINE
  5
22C
102
{ACAD_REACTORS
330
398
102
}
330
A
100
AcDbEntity
  8
0
  6
Continuous
 62
     7
370
    15
100
AcDbLine
 10
208.691982447119
 20
211.3249741711193
 30
0.0
 11
208.3094984585182
 21
211.1956115820963
 31
0.0
  0
LINE
  5
22D
102
{ACAD_REACTORS
330
398
102
}
330
A
100
AcDbEntity
  8
0
  6
Continuous
 62
     7
370
    15
100
AcDbLine
 10
205.9817076680773
 20
210.4083131530155
 30
0.0
 11
205.5704644221745
 21
210.2692236941327
 31
0.0
  0
LINE
  5
22E
102
{ACAD_REACTORS
330
398
102
}
330
A
100
AcDbEntity
  8
0
  6
Continuous
 62
     7
370
    15
100
AcDbLine
 10
211.4276937544045
 20
208.7352474999991
 30
0.0
 11
211.6202518553248
 21
208.8003739241404
 31
0.0
  0
POLYLINE
  5
22F
102
{ACAD_REACTORS
330
398
102
}
330
A
100
AcDbEntity
  8
0
  6
Continuous
 62
     7
370
    15
100
AcDb2dPolyline
 66
     1
 10
0.0
 20
0.0
 30
0.0
 75
     5
  0
VERTEX
  5
230
330
22F
100
AcDbEntity
  8
0
  6
Continuous
 62
     7
370
    15
100
AcDbVertex
100
AcDb2dVertex
 10
210.9960474164795
 20
208.6746603185079
 30
0.0
  0
VERTEX
  5
231
330
22F
100
AcDbEntity
  8
0
  6
Continuous
 62
     7
370
    15
100
AcDbVertex
100
AcDb2dVertex
 10
210.6194221546018
 20
208.5706879383341
 30
0.0
  0
VERTEX
  5
232
330
22F
100
AcDbEntity
  8
0
  6
Continuous
 62
     7
370
    15
100
AcDbVertex
100
AcDb2dVertex
 10
210.1956658497019
 20
208.4842571504342
 30
0.0
  0
VERTEX
  5
233
330
22F
100
AcDbEntity
  8
0
  6
Continuous
 62
     7
370
    15
100
AcDbVertex
100
AcDb2dVertex
 10
209.7339135804096
 20
208.4172312563533
 30
0.0
  0
VERTEX
  5
234
330
22F
100
AcDbEntity
  8
0
  6
Continuous
 62
     7
370
    15
100
AcDbVertex
100
AcDb2dVertex
 10
209.244117651166
 20
208.3710546134379
 30
0.0
  0
VERTEX
  5
235
330
22F
100
AcDbEntity
  8
0
  6
Continuous
 62
     7
370
    15
100
AcDbVertex
100
AcDb2dVertex
 10
208.7368379165946
 20
208.3467231000844
 30
0.0
  0
VERTEX
  5
236
330
22F
100
AcDbEntity
  8
0
  6
Continuous
 62
     7
370
    15
100
AcDbVertex
100
AcDb2dVertex
 10
208.2230085400051
 20
208.3447610486265
 30
0.0
  0
VERTEX
  5
237
330
22F
100
AcDbEntity
  8
0
  6
Continuous
 62
     7
370
    15
100
AcDbVertex
100
AcDb2dVertex
 10
207.7137065393096
 20
208.365210701706
 30
0.0
  0
VERTEX
  5
238
330
22F
100
AcDbEntity
  8
0
  6
Continuous
 62
     7
370
    15
100
AcDbVertex
100
AcDb2dVertex
 10
207.2199103916923
 20
208.407631358764
 30
0.0
  0
VERTEX
  5
239
330
22F
100
AcDbEntity
  8
0
  6
Continuous
 62
     7
370
    15
100
AcDbVertex
100
AcDb2dVertex
 10
206.752264749317
 20
208.4711084376872
 30
0.0
  0
VERTEX
  5
23A
330
22F
100
AcDbEntity
  8
0
  6
Continuous
 62
     7
370
    15
100
AcDbVertex
100
AcDb2dVertex
 10
206.3208507687067
 20
208.5542737627085
 30
0.0
  0
VERTEX
  5
23B
330
22F
100
AcDbEntity
  8
0
  6
Continuous
 62
     7
370
    15
100
AcDbVertex
100
AcDb2dVertex
 10
205.9349677793404
 20
208.6553343983471
 30
0.0
  0
VERTEX
  5
23C
330
22F
100
AcDbEntity
  8
0
  6
Continuous
 62
     7
370
    15
100
AcDbVertex
100
AcDb2dVertex
 10
205.6029340856948
 20
208.7721118263402
 30
0.0
  0
VERTEX
  5
23D
330
22F
100
AcDbEntity
  8
0
  6
Continuous
 62
     7
370
    15
100
AcDbVertex
100
AcDb2dVertex
 10
205.3319077223527
 20
208.9020888889168
 30
0.0
  0
VERTEX
  5
23E
330
22F
100
AcDbEntity
  8
0
  6
Continuous
 62
     7
370
    15
100
AcDbVertex
100
AcDb2dVertex
 10
205.127730554553
 20
209.0424636099015
 30
0.0
  0
VERTEX
  5
23F
330
22F
100
AcDbEntity
  8
0
  6
Continuous
 62
     7
370
    15
100
AcDbVertex
100
AcDb2dVertex
 10
204.9948044153654
 20
209.1902099795223
 30
0.0
  0
VERTEX
  5
240
330
22F
100
AcDbEntity
  8
0
  6
Continuous
 62
     7
370
    15
100
AcDbVertex
100
AcDb2dVertex
 10
204.9359942820792
 20
209.342143173689
 30
0.0
  0
VERTEX
  5
241
330
22F
100
AcDbEntity
  8
0
  6
Continuous
 62
     7
370
    15
100
AcDbVertex
100
AcDb2dVertex
 10
204.9330215493458
 20
209.3851255636431
 30
0.0
  0
SEQEND
  5
242
330
22F
100
AcDbEntity
  8
0
  6
Continuous
 62
     7
370
    15
  0
ARC
  5
243
102
{ACAD_REACTORS
330
398
102
}
330
A
100
AcDbEntity
  8
0
  6
Continuous
 62
     7
370
    15
100
AcDbCircle
 10
205.8037881542769
 20
210.0717072012257
 30
0.0
 40
0.0574149061630711
100
AcDbArc
 50
75.14823605733837
 51
109.2772135105022
  0
POLYLINE
  5
244
102
{ACAD_REACTORS
330
398
102
}
330
A
100
AcDbEntity
  8
0
  6
Continuous
 62
     7
370
    15
100
AcDb2dPolyline
 66
     1
 10
0.0
 20
0.0
 30
0.0
 75
     5
  0
VERTEX
  5
245
330
244
100
AcDbEntity
  8
0
  6
Continuous
 62
     7
370
    15
100
AcDbVertex
100
AcDb2dVertex
 10
204.9329648157047
 20
209.0987174159537
 30
0.0
  0
VERTEX
  5
246
330
244
100
AcDbEntity
  8
0
  6
Continuous
 62
     7
370
    15
100
AcDbVertex
100
AcDb2dVertex
 10
204.935937548438
 20
209.0557350259996
 30
0.0
  0
VERTEX
  5
247
330
244
100
AcDbEntity
  8
0
  6
Continuous
 62
     7
370
    15
100
AcDbVertex
100
AcDb2dVertex
 10
204.9947476817243
 20
208.9038018318329
 30
0.0
  0
VERTEX
  5
248
330
244
100
AcDbEntity
  8
0
  6
Continuous
 62
     7
370
    15
100
AcDbVertex
100
AcDb2dVertex
 10
205.1276738209108
 20
208.7560554621722
 30
0.0
  0
VERTEX
  5
249
330
244
100
AcDbEntity
  8
0
  6
Continuous
 62
     7
370
    15
100
AcDbVertex
100
AcDb2dVertex
 10
205.3318509886716
 20
208.6156807412285
 30
0.0
  0
VERTEX
  5
24A
330
244
100
AcDbEntity
  8
0
  6
Continuous
 62
     7
370
    15
100
AcDbVertex
100
AcDb2dVertex
 10
205.6028773520137
 20
208.4857036786519
 30
0.0
  0
VERTEX
  5
24B
330
244
100
AcDbEntity
  8
0
  6
Continuous
 62
     7
370
    15
100
AcDbVertex
100
AcDb2dVertex
 10
205.9349110456981
 20
208.3689262506177
 30
0.0
  0
VERTEX
  5
24C
330
244
100
AcDbEntity
  8
0
  6
Continuous
 62
     7
370
    15
100
AcDbVertex
100
AcDb2dVertex
 10
206.3207940350245
 20
208.2678656149802
 30
0.0
  0
VERTEX
  5
24D
330
244
100
AcDbEntity
  8
0
  6
Continuous
 62
     7
370
    15
100
AcDbVertex
100
AcDb2dVertex
 10
206.752208015636
 20
208.1847002899989
 30
0.0
  0
VERTEX
  5
24E
330
244
100
AcDbEntity
  8
0
  6
Continuous
 62
     7
370
    15
100
AcDbVertex
100
AcDb2dVertex
 10
207.2198536580512
 20
208.1212232110747
 30
0.0
  0
VERTEX
  5
24F
330
244
100
AcDbEntity
  8
0
  6
Continuous
 62
     7
370
    15
100
AcDbVertex
100
AcDb2dVertex
 10
207.7136498056285
 20
208.0788025540177
 30
0.0
  0
VERTEX
  5
250
330
244
100
AcDbEntity
  8
0
  6
Continuous
 62
     7
370
    15
100
AcDbVertex
100
AcDb2dVertex
 10
208.222951806324
 20
208.0583529009382
 30
0.0
  0
VERTEX
  5
251
330
244
100
AcDbEntity
  8
0
  6
Continuous
 62
     7
370
    15
100
AcDbVertex
100
AcDb2dVertex
 10
208.7367811829135
 20
208.0603149523961
 30
0.0
  0
VERTEX
  5
252
330
244
100
AcDbEntity
  8
0
  6
Continuous
 62
     7
370
    15
100
AcDbVertex
100
AcDb2dVertex
 10
209.2440609174849
 20
208.0846464657497
 30
0.0
  0
VERTEX
  5
253
330
244
100
AcDbEntity
  8
0
  6
Continuous
 62
     7
370
    15
100
AcDbVertex
100
AcDb2dVertex
 10
209.7338568467285
 20
208.1308231086651
 30
0.0
  0
VERTEX
  5
254
330
244
100
AcDbEntity
  8
0
  6
Continuous
 62
     7
370
    15
100
AcDbVertex
100
AcDb2dVertex
 10
210.1956091160197
 20
208.197849002706
 30
0.0
  0
VERTEX
  5
255
330
244
100
AcDbEntity
  8
0
  6
Continuous
 62
     7
370
    15
100
AcDbVertex
100
AcDb2dVertex
 10
210.6193654209207
 20
208.2842797906458
 30
0.0
  0
VERTEX
  5
256
330
244
100
AcDbEntity
  8
0
  6
Continuous
 62
     7
370
    15
100
AcDbVertex
100
AcDb2dVertex
 10
210.9959906828384
 20
208.3882521708185
 30
0.0
  0
SEQEND
  5
257
330
244
100
AcDbEntity
  8
0
  6
Continuous
 62
     7
370
    15
  0
SPLINE
  5
258
102
{ACAD_REACTORS
330
398
102
}
330
A
100
AcDbEntity
  8
0
  6
Continuous
 62
     7
370
    15
100
AcDbSpline
210
0.0
220
0.0
230
1.0
 70
     8
 71
     2
 72
    17
 73
    14
 74
     0
 42
0.000000001
 43
0.000001
 40
0.0
 40
0.0
 40
0.0
 40
1.0
 40
1.0
 40
2.0
 40
3.0
 40
4.0
 40
5.0
 40
6.0
 40
7.0
 40
8.0
 40
9.0
 40
9.0
 40
10.0
 40
10.0
 40
10.0
 10
210.9499760015632
 20
208.3136937119001
 30
0.0
 10
210.9500109990883
 20
208.3137007614732
 30
0.0
 10
210.9500459966133
 20
208.3137078110462
 30
0.0
 10
210.9542128839788
 20
208.3144438751854
 30
0.0
 10
210.9614189474148
 20
208.3167439837574
 30
0.0
 10
210.9691317307006
 20
208.3214628150278
 30
0.0
 10
210.9779630143001
 20
208.3307811120888
 30
0.0
 10
210.9853329634668
 20
208.3419239250984
 30
0.0
 10
210.9905668607176
 20
208.3533356591489
 30
0.0
 10
210.9939206680364
 20
208.366925402845
 30
0.0
 10
210.9954563510171
 20
208.3811984856808
 30
0.0
 10
210.9959731618616
 20
208.388032264631
 30
0.0
 10
210.9959819223416
 20
208.388142217716
 30
0.0
 10
210.9959906828216
 20
208.3882521708011
 30
0.0
  0
POLYLINE
  5
259
102
{ACAD_REACTORS
330
398
102
}
330
A
100
AcDbEntity
  8
0
  6
Continuous
 62
     7
370
    15
100
AcDb2dPolyline
 66
     1
 10
0.0
 20
0.0
 30
0.0
 75
     5
  0
VERTEX
  5
25A
330
259
100
AcDbEntity
  8
0
  6
Continuous
 62
     7
370
    15
100
AcDbVertex
100
AcDb2dVertex
 10
210.9949316567979
 20
203.0419781278301
 30
0.0
  0
VERTEX
  5
25B
330
259
100
AcDbEntity
  8
0
  6
Continuous
 62
     7
370
    15
100
AcDbVertex
100
AcDb2dVertex
 10
210.6183063948812
 20
202.9380057476974
 30
0.0
  0
VERTEX
  5
25C
330
259
100
AcDbEntity
  8
0
  6
Continuous
 62
     7
370
    15
100
AcDbVertex
100
AcDb2dVertex
 10
210.1945500900202
 20
202.8515749597564
 30
0.0
  0
VERTEX
  5
25D
330
259
100
AcDbEntity
  8
0
  6
Continuous
 62
     7
370
    15
100
AcDbVertex
100
AcDb2dVertex
 10
209.7327978206891
 20
202.7845490657167
 30
0.0
  0
VERTEX
  5
25E
330
259
100
AcDbEntity
  8
0
  6
Continuous
 62
     7
370
    15
100
AcDbVertex
100
AcDb2dVertex
 10
209.2430018914855
 20
202.7383724228001
 30
0.0
  0
VERTEX
  5
25F
330
259
100
AcDbEntity
  8
0
  6
Continuous
 62
     7
370
    15
100
AcDbVertex
100
AcDb2dVertex
 10
208.7357221569141
 20
202.7140409094465
 30
0.0
  0
VERTEX
  5
260
330
259
100
AcDbEntity
  8
0
  6
Continuous
 62
     7
370
    15
100
AcDbVertex
100
AcDb2dVertex
 10
208.2218927803235
 20
202.7120788579487
 30
0.0
  0
VERTEX
  5
261
330
259
100
AcDbEntity
  8
0
  6
Continuous
 62
     7
370
    15
100
AcDbVertex
100
AcDb2dVertex
 10
207.7125907796279
 20
202.7325285110282
 30
0.0
  0
VERTEX
  5
262
330
259
100
AcDbEntity
  8
0
  6
Continuous
 62
     7
370
    15
100
AcDbVertex
100
AcDb2dVertex
 10
207.2187946320106
 20
202.7749491680863
 30
0.0
  0
VERTEX
  5
263
330
259
100
AcDbEntity
  8
0
  6
Continuous
 62
     7
370
    15
100
AcDbVertex
100
AcDb2dVertex
 10
206.7511489896355
 20
202.8384262470094
 30
0.0
  0
VERTEX
  5
264
330
259
100
AcDbEntity
  8
0
  6
Continuous
 62
     7
370
    15
100
AcDbVertex
100
AcDb2dVertex
 10
206.319735009025
 20
202.9215915720307
 30
0.0
  0
VERTEX
  5
265
330
259
100
AcDbEntity
  8
0
  6
Continuous
 62
     7
370
    15
100
AcDbVertex
100
AcDb2dVertex
 10
205.9338520196587
 20
203.0226522076693
 30
0.0
  0
VERTEX
  5
266
330
259
100
AcDbEntity
  8
0
  6
Continuous
 62
     7
370
    15
100
AcDbVertex
100
AcDb2dVertex
 10
205.6018183260132
 20
203.1394296356623
 30
0.0
  0
VERTEX
  5
267
330
259
100
AcDbEntity
  8
0
  6
Continuous
 62
     7
370
    15
100
AcDbVertex
100
AcDb2dVertex
 10
205.3307919626722
 20
203.269406698279
 30
0.0
  0
VERTEX
  5
268
330
259
100
AcDbEntity
  8
0
  6
Continuous
 62
     7
370
    15
100
AcDbVertex
100
AcDb2dVertex
 10
205.1266147948714
 20
203.4097814192237
 30
0.0
  0
VERTEX
  5
269
330
259
100
AcDbEntity
  8
0
  6
Continuous
 62
     7
370
    15
100
AcDbVertex
100
AcDb2dVertex
 10
204.9936886556837
 20
203.5575277888445
 30
0.0
  0
VERTEX
  5
26A
330
259
100
AcDbEntity
  8
0
  6
Continuous
 62
     7
370
    15
100
AcDbVertex
100
AcDb2dVertex
 10
204.9348785223976
 20
203.7094609830112
 30
0.0
  0
VERTEX
  5
26B
330
259
100
AcDbEntity
  8
0
  6
Continuous
 62
     7
370
    15
100
AcDbVertex
100
AcDb2dVertex
 10
204.9319057896641
 20
203.7524433729653
 30
0.0
  0
SEQEND
  5
26C
330
259
100
AcDbEntity
  8
0
  6
Continuous
 62
     7
370
    15
  0
ARC
  5
26D
102
{ACAD_REACTORS
330
398
102
}
330
A
100
AcDbEntity
  8
0
  6
Continuous
 62
     7
370
    15
100
AcDbCircle
 10
205.3926355977114
 20
203.8474234516153
 30
0.0
 40
0.3570727720548245
100
AcDbArc
 50
136.8862284085198
 51
224.421578821628
  0
POLYLINE
  5
26E
102
{ACAD_REACTORS
330
398
102
}
330
A
100
AcDbEntity
  8
0
  6
Continuous
 62
     7
370
    15
100
AcDb2dPolyline
 66
     1
 10
0.0
 20
0.0
 30
0.0
 75
     5
  0
VERTEX
  5
26F
330
26E
100
AcDbEntity
  8
0
  6
Continuous
 62
     7
370
    15
100
AcDbVertex
100
AcDb2dVertex
 10
204.9318490562881
 20
203.4660366478786
 30
0.0
  0
VERTEX
  5
270
330
26E
100
AcDbEntity
  8
0
  6
Continuous
 62
     7
370
    15
100
AcDbVertex
100
AcDb2dVertex
 10
204.9348217890216
 20
203.4230542579245
 30
0.0
  0
VERTEX
  5
271
330
26E
100
AcDbEntity
  8
0
  6
Continuous
 62
     7
370
    15
100
AcDbVertex
100
AcDb2dVertex
 10
204.9936319223077
 20
203.2711210637578
 30
0.0
  0
VERTEX
  5
272
330
26E
100
AcDbEntity
  8
0
  6
Continuous
 62
     7
370
    15
100
AcDbVertex
100
AcDb2dVertex
 10
205.1265580614954
 20
203.123374694137
 30
0.0
  0
VERTEX
  5
273
330
26E
100
AcDbEntity
  8
0
  6
Continuous
 62
     7
370
    15
100
AcDbVertex
100
AcDb2dVertex
 10
205.3307352292951
 20
202.9829999731523
 30
0.0
  0
VERTEX
  5
274
330
26E
100
AcDbEntity
  8
0
  6
Continuous
 62
     7
370
    15
100
AcDbVertex
100
AcDb2dVertex
 10
205.6017615926372
 20
202.8530229105756
 30
0.0
  0
VERTEX
  5
275
330
26E
100
AcDbEntity
  8
0
  6
Continuous
 62
     7
370
    15
100
AcDbVertex
100
AcDb2dVertex
 10
205.9337952862827
 20
202.7362454825826
 30
0.0
  0
VERTEX
  5
276
330
26E
100
AcDbEntity
  8
0
  6
Continuous
 62
     7
370
    15
100
AcDbVertex
100
AcDb2dVertex
 10
206.319678275649
 20
202.635184846944
 30
0.0
  0
VERTEX
  5
277
330
26E
100
AcDbEntity
  8
0
  6
Continuous
 62
     7
370
    15
100
AcDbVertex
100
AcDb2dVertex
 10
206.7510922562595
 20
202.5520195219227
 30
0.0
  0
VERTEX
  5
278
330
26E
100
AcDbEntity
  8
0
  6
Continuous
 62
     7
370
    15
100
AcDbVertex
100
AcDb2dVertex
 10
207.2187378986347
 20
202.4885424429995
 30
0.0
  0
VERTEX
  5
279
330
26E
100
AcDbEntity
  8
0
  6
Continuous
 62
     7
370
    15
100
AcDbVertex
100
AcDb2dVertex
 10
207.712534046252
 20
202.4461217859414
 30
0.0
  0
VERTEX
  5
27A
330
26E
100
AcDbEntity
  8
0
  6
Continuous
 62
     7
370
    15
100
AcDbVertex
100
AcDb2dVertex
 10
208.2218360469475
 20
202.425672132862
 30
0.0
  0
VERTEX
  5
27B
330
26E
100
AcDbEntity
  8
0
  6
Continuous
 62
     7
370
    15
100
AcDbVertex
100
AcDb2dVertex
 10
208.7356654235369
 20
202.4276341843199
 30
0.0
  0
VERTEX
  5
27C
330
26E
100
AcDbEntity
  8
0
  6
Continuous
 62
     7
370
    15
100
AcDbVertex
100
AcDb2dVertex
 10
209.2429451581084
 20
202.4519656976734
 30
0.0
  0
VERTEX
  5
27D
330
26E
100
AcDbEntity
  8
0
  6
Continuous
 62
     7
370
    15
100
AcDbVertex
100
AcDb2dVertex
 10
209.732741087352
 20
202.4981423405889
 30
0.0
  0
VERTEX
  5
27E
330
26E
100
AcDbEntity
  8
0
  6
Continuous
 62
     7
370
    15
100
AcDbVertex
100
AcDb2dVertex
 10
210.1944933566432
 20
202.5651682346298
 30
0.0
  0
VERTEX
  5
27F
330
26E
100
AcDbEntity
  8
0
  6
Continuous
 62
     7
370
    15
100
AcDbVertex
100
AcDb2dVertex
 10
210.6182496615042
 20
202.6515990225707
 30
0.0
  0
VERTEX
  5
280
330
26E
100
AcDbEntity
  8
0
  6
Continuous
 62
     7
370
    15
100
AcDbVertex
100
AcDb2dVertex
 10
210.9948749234219
 20
202.7555714027434
 30
0.0
  0
SEQEND
  5
281
330
26E
100
AcDbEntity
  8
0
  6
Continuous
 62
     7
370
    15
  0
ARC
  5
282
102
{ACAD_REACTORS
330
398
102
}
330
A
100
AcDbEntity
  8
0
  6
Continuous
 62
     7
370
    15
100
AcDbCircle
 10
210.9218597529176
 20
202.7475788503361
 30
0.0
 40
0.0734513173243277
100
AcDbArc
 50
294.041198867001
 51
6.246968681810429
  0
LINE
  5
283
102
{ACAD_REACTORS
330
398
102
}
330
A
100
AcDbEntity
  8
0
  6
Continuous
 62
     7
370
    15
100
AcDbLine
 10
211.6843439827051
 20
208.6815255009998
 30
0.0
 11
211.5027673980879
 21
208.6201132124051
 31
0.0
  0
LINE
  5
284
102
{ACAD_REACTORS
330
398
102
}
330
A
100
AcDbEntity
  8
0
  6
Continuous
 62
     7
370
    15
100
AcDbLine
 10
211.5015949050303
 20
202.7010242966406
 30
0.0
 11
211.7359628695953
 21
202.7802915276436
 31
0.0
  0
ARC
  5
285
102
{ACAD_REACTORS
330
398
102
}
330
A
100
AcDbEntity
  8
0
  6
Continuous
 62
     7
370
    15
100
AcDbCircle
 10
210.9149737648984
 20
208.2486064655512
 30
0.0
 40
0.0706947623532676
100
AcDbArc
 50
351.9596235903108
 51
66.31084635311183
  0
ARC
  5
286
102
{ACAD_REACTORS
330
398
102
}
330
A
100
AcDbEntity
  8
0
  6
Continuous
 62
     7
370
    15
100
AcDbCircle
 10
211.4276584228342
 20
202.69355255628
 30
0.0
 40
0.0743130560986001
100
AcDbArc
 50
294.5556149800436
 51
5.770503784325896
  0
ARC
  5
287
102
{ACAD_REACTORS
330
398
102
}
330
A
100
AcDbEntity
  8
0
  6
Continuous
 62
     7
370
    15
100
AcDbCircle
 10
211.4309083918247
 20
202.6885578546251
 30
0.0
 40
0.071122754901198
100
AcDbArc
 50
172.0821616989072
 51
245.2811003474306
  0
ARC
  5
288
102
{ACAD_REACTORS
330
398
102
}
330
A
100
AcDbEntity
  8
0
  6
Continuous
 62
     7
370
    15
100
AcDbCircle
 10
211.2045870103382
 20
202.74783018148
 30
0.0
 40
0.0711227549011177
100
AcDbArc
 50
172.0821616988297
 51
245.2811003474435
  0
LINE
  5
289
102
{ACAD_REACTORS
330
398
102
}
330
A
100
AcDbEntity
  8
0
  6
Continuous
 62
     7
370
    15
100
AcDbLine
 10
205.5044068377455
 20
210.1514203317994
 30
0.0
 11
205.5043779491615
 21
210.0055823107728
 31
0.0
  0
POLYLINE
  5
28A
102
{ACAD_REACTORS
330
398
102
}
330
A
100
AcDbEntity
  8
0
  6
Continuous
 62
     7
370
    15
100
AcDb2dPolyline
 66
     1
 10
0.0
 20
0.0
 30
0.0
 75
     5
  0
VERTEX
  5
28B
330
28A
100
AcDbEntity
  8
0
  6
Continuous
 62
     7
370
    15
100
AcDbVertex
100
AcDb2dVertex
 10
205.4704452155707
 20
210.1737754694921
 30
0.0
  0
VERTEX
  5
28C
330
28A
100
AcDbEntity
  8
0
  6
Continuous
 62
     7
370
    15
100
AcDbVertex
100
AcDb2dVertex
 10
205.4706509465295
 20
210.1718684742539
 30
0.0
  0
VERTEX
  5
28D
330
28A
100
AcDbEntity
  8
0
  6
Continuous
 62
     7
370
    15
100
AcDbVertex
100
AcDb2dVertex
 10
205.473817124511
 20
210.1661106203628
 30
0.0
  0
VERTEX
  5
28E
330
28A
100
AcDbEntity
  8
0
  6
Continuous
 62
     7
370
    15
100
AcDbVertex
100
AcDb2dVertex
 10
205.4806970810235
 20
210.1606465619386
 30
0.0
  0
VERTEX
  5
28F
330
28A
100
AcDbEntity
  8
0
  6
Continuous
 62
     7
370
    15
100
AcDbVertex
100
AcDb2dVertex
 10
205.4910259604954
 20
210.155686211766
 30
0.0
  0
VERTEX
  5
290
330
28A
100
AcDbEntity
  8
0
  6
Continuous
 62
     7
370
    15
100
AcDbVertex
100
AcDb2dVertex
 10
205.5044068377455
 20
210.1514203317994
 30
0.0
  0
SEQEND
  5
291
330
28A
100
AcDbEntity
  8
0
  6
Continuous
 62
     7
370
    15
  0
ARC
  5
292
102
{ACAD_REACTORS
330
398
102
}
330
A
100
AcDbEntity
  8
0
  6
Continuous
 62
     7
370
    15
100
AcDbCircle
 10
205.5556449461656
 20
210.2164091370771
 30
0.0
 40
0.0548543007224941
100
AcDbArc
 50
74.32617060955546
 51
108.3158615031389
  0
LINE
  5
293
102
{ACAD_REACTORS
330
398
102
}
330
A
100
AcDbEntity
  8
0
  6
Continuous
 62
     7
370
    15
100
AcDbLine
 10
213.6481733566102
 20
226.7986782417142
 30
0.0
 11
213.6131554621149
 21
50.0180744930733
 31
0.0
  0
LINE
  5
294
102
{ACAD_REACTORS
330
398
102
}
330
A
100
AcDbEntity
  8
0
  6
Continuous
 62
     7
370
    15
100
AcDbLine
 10
213.7328523132047
 20
226.7994797886924
 30
0.0
 11
213.6978345771202
 21
50.01967589794198
 31
0.0
  0
LINE
  5
295
102
{ACAD_REACTORS
330
398
102
}
330
A
100
AcDbEntity
  8
0
  6
Continuous
 62
     7
370
    15
100
AcDbLine
 10
203.2253071928868
 20
229.5170788939704
 30
0.0
 11
203.1902915348259
 21
52.74776531313375
 31
0.0
  0
LINE
  5
296
102
{ACAD_REACTORS
330
398
102
}
330
A
100
AcDbEntity
  8
0
  6
Continuous
 62
     7
370
    15
100
AcDbLine
 10
222.8989981471732
 20
229.8836983738216
 30
0.0
 11
222.8639835664376
 21
53.11982335511715
 31
0.0
  0
LINE
  5
297
102
{ACAD_REACTORS
330
398
102
}
330
A
100
AcDbEntity
  8
0
  6
Continuous
 62
     7
370
    15
100
AcDbLine
 10
205.5087018403856
 20
210.5321915605705
 30
0.0
 11
205.5086464120247
 21
210.2523729042941
 31
0.0
  0
LINE
  5
298
102
{ACAD_REACTORS
330
398
102
}
330
A
100
AcDbEntity
  8
0
  6
Continuous
 62
     7
370
    15
100
AcDbLine
 10
205.5345471643944
 20
210.5254225647548
 30
0.0
 11
205.5344959880933
 21
210.2670695466669
 31
0.0
  0
LINE
  5
299
102
{ACAD_REACTORS
330
398
102
}
330
A
100
AcDbEntity
  8
0
  6
Continuous
 62
     7
370
    15
100
AcDbLine
 10
209.6750338578522
 20
82.05983984922605
 30
0.0
 11
209.6740957076052
 21
77.32378230234025
 31
0.0
  0
LINE
  5
29A
102
{ACAD_REACTORS
330
398
102
}
330
A
100
AcDbEntity
  8
0
  6
Continuous
 62
     7
370
    15
100
AcDbLine
 10
205.127789922976
 20
204.4261311607675
 30
0.0
 11
205.1320395468832
 21
204.4275684558445
 31
0.0
  0
LINE
  5
29B
102
{ACAD_REACTORS
330
398
102
}
330
A
100
AcDbEntity
  8
0
  6
Continuous
 62
     7
370
    15
100
AcDbLine
 10
209.7008748110098
 20
82.0303846644691
 30
0.0
 11
209.6999456512772
 21
77.33971380464538
 31
0.0
  0
LINE
  5
29C
102
{ACAD_REACTORS
330
398
102
}
330
A
100
AcDbEntity
  8
0
  6
Continuous
 62
     7
370
    15
100
AcDbLine
 10
209.973496367015
 20
81.67291608546043
 30
0.0
 11
209.9726805331274
 21
77.55434737494792
 31
0.0
  0
LINE
  5
29D
102
{ACAD_REACTORS
330
398
102
}
330
A
100
AcDbEntity
  8
0
  6
Continuous
 62
     7
370
    15
100
AcDbLine
 10
209.9993354219717
 20
81.633878255132
 30
0.0
 11
209.9985323727195
 21
77.57985014200761
 31
0.0
  0
LINE
  5
29E
102
{ACAD_REACTORS
330
398
102
}
330
A
100
AcDbEntity
  8
0
  6
Continuous
 62
     7
370
    15
100
AcDbLine
 10
210.6380888484196
 20
79.8403008102432
 30
0.0
 11
210.6379300605913
 21
79.03869316163306
 31
0.0
  0
LINE
  5
29F
102
{ACAD_REACTORS
330
398
102
}
330
A
100
AcDbEntity
  8
0
  6
Continuous
 62
     7
370
    15
100
AcDbLine
 10
210.6518311650294
 20
79.68292309974692
 30
0.0
 11
210.6517332975206
 21
79.18885919342321
 31
0.0
  0
LINE
  5
2A0
102
{ACAD_REACTORS
330
398
102
}
330
A
100
AcDbEntity
  8
0
  6
Continuous
 62
     7
370
    15
100
AcDbLine
 10
210.7464887022038
 20
202.6283051203524
 30
0.0
 11
210.7464850929453
 21
202.6100844367926
 31
0.0
  0
ARC
  5
2A1
102
{ACAD_REACTORS
330
398
102
}
330
A
100
AcDbEntity
  8
0
  6
Continuous
 62
     7
370
    15
100
AcDbCircle
 10
203.9832268887941
 20
230.917906144183
 30
0.0
 40
0.4267413434543715
100
AcDbArc
 50
172.0834573594267
 51
245.2804968445262
  0
ARC
  5
2A2
102
{ACAD_REACTORS
330
398
102
}
330
A
100
AcDbEntity
  8
0
  6
Continuous
 62
     7
370
    15
100
AcDbCircle
 10
213.6701823819515
 20
228.3809457013938
 30
0.0
 40
0.426741343454462
100
AcDbArc
 50
172.0834573594293
 51
245.2804968445173
  0
ARC
  5
2A3
102
{ACAD_REACTORS
330
398
102
}
330
A
100
AcDbEntity
  8
0
  6
Continuous
 62
     7
370
    15
100
AcDbCircle
 10
213.6506792295037
 20
228.4109118219783
 30
0.0
 40
0.445875485101124
100
AcDbArc
 50
294.5554024141212
 51
5.769602494522974
  0
ARC
  5
2A4
102
{ACAD_REACTORS
330
398
102
}
330
A
100
AcDbEntity
  8
0
  6
Continuous
 62
     7
370
    15
100
AcDbCircle
 10
222.1696503992526
 20
231.2921727354775
 30
0.0
 40
0.4458754851013882
100
AcDbArc
 50
294.5554024141272
 51
5.76960249453057
  0
ARC
  5
2A5
102
{ACAD_REACTORS
330
398
102
}
330
A
100
AcDbEntity
  8
0
  6
Continuous
 62
     7
370
    15
100
AcDbCircle
 10
222.2535657404806
 20
244.1005814196933
 30
0.0
 40
0.2583141843123539
100
AcDbArc
 50
75.7477327275181
 51
109.9889920813261
  0
ARC
  5
2A6
102
{ACAD_REACTORS
330
398
102
}
330
A
100
AcDbEntity
  8
0
  6
Continuous
 62
     7
370
    15
100
AcDbCircle
 10
212.5666102473232
 20
246.6375418624825
 30
0.0
 40
0.2583141843117916
100
AcDbArc
 50
75.74773272751916
 51
109.9889920814171
  0
POLYLINE
  5
2A7
102
{ACAD_REACTORS
330
398
102
}
330
A
100
AcDbEntity
  8
0
  6
Continuous
 62
     7
370
    15
100
AcDb2dPolyline
 66
     1
 10
0.0
 20
0.0
 30
0.0
 75
     5
  0
VERTEX
  5
2A8
330
2A7
100
AcDbEntity
  8
0
  6
Continuous
 62
     7
370
    15
100
AcDbVertex
100
AcDb2dVertex
 10
203.3592232951761
 20
243.4263378897012
 30
0.0
  0
VERTEX
  5
2A9
330
2A7
100
AcDbEntity
  8
0
  6
Continuous
 62
     7
370
    15
100
AcDbVertex
100
AcDb2dVertex
 10
203.360454101964
 20
243.4148953792263
 30
0.0
  0
VERTEX
  5
2AA
330
2A7
100
AcDbEntity
  8
0
  6
Continuous
 62
     7
370
    15
100
AcDbVertex
100
AcDb2dVertex
 10
203.3794532727659
 20
243.3803482957834
 30
0.0
  0
VERTEX
  5
2AB
330
2A7
100
AcDbEntity
  8
0
  6
Continuous
 62
     7
370
    15
100
AcDbVertex
100
AcDb2dVertex
 10
203.4207325200332
 20
243.3475637787182
 30
0.0
  0
VERTEX
  5
2AC
330
2A7
100
AcDbEntity
  8
0
  6
Continuous
 62
     7
370
    15
100
AcDbVertex
100
AcDb2dVertex
 10
203.4827062213055
 20
243.3178021570776
 30
0.0
  0
VERTEX
  5
2AD
330
2A7
100
AcDbEntity
  8
0
  6
Continuous
 62
     7
370
    15
100
AcDbVertex
100
AcDb2dVertex
 10
203.562992044256
 20
243.2922067307547
 30
0.0
  0
SEQEND
  5
2AE
330
2A7
100
AcDbEntity
  8
0
  6
Continuous
 62
     7
370
    15
  0
ARC
  5
2AF
102
{ACAD_REACTORS
330
398
102
}
330
A
100
AcDbEntity
  8
0
  6
Continuous
 62
     7
370
    15
100
AcDbCircle
 10
203.8704295059282
 20
243.6822206743642
 30
0.0
 40
0.329051883927347
100
AcDbArc
 50
74.32424120021847
 51
108.3219313154222
  0
POLYLINE
  5
2B0
102
{ACAD_REACTORS
330
398
102
}
330
A
100
AcDbEntity
  8
0
  6
Continuous
 62
     7
370
    15
100
AcDb2dPolyline
 66
     1
 10
0.0
 20
0.0
 30
0.0
 75
     5
  0
VERTEX
  5
2B1
330
2B0
100
AcDbEntity
  8
0
  6
Continuous
 62
     7
370
    15
100
AcDbVertex
100
AcDb2dVertex
 10
203.3567837528453
 20
231.110812611842
 30
0.0
  0
VERTEX
  5
2B2
330
2B0
100
AcDbEntity
  8
0
  6
Continuous
 62
     7
370
    15
100
AcDbVertex
100
AcDb2dVertex
 10
203.3580145596332
 20
231.0993701013669
 30
0.0
  0
VERTEX
  5
2B3
330
2B0
100
AcDbEntity
  8
0
  6
Continuous
 62
     7
370
    15
100
AcDbVertex
100
AcDb2dVertex
 10
203.3770137304351
 20
231.0648230179241
 30
0.0
  0
VERTEX
  5
2B4
330
2B0
100
AcDbEntity
  8
0
  6
Continuous
 62
     7
370
    15
100
AcDbVertex
100
AcDb2dVertex
 10
203.4182929777023
 20
231.0320385008589
 30
0.0
  0
VERTEX
  5
2B5
330
2B0
100
AcDbEntity
  8
0
  6
Continuous
 62
     7
370
    15
100
AcDbVertex
100
AcDb2dVertex
 10
203.4802666789746
 20
231.0022768792183
 30
0.0
  0
VERTEX
  5
2B6
330
2B0
100
AcDbEntity
  8
0
  6
Continuous
 62
     7
370
    15
100
AcDbVertex
100
AcDb2dVertex
 10
203.5605525019651
 20
230.9766814528942
 30
0.0
  0
SEQEND
  5
2B7
330
2B0
100
AcDbEntity
  8
0
  6
Continuous
 62
     7
370
    15
  0
ARC
  5
2B8
102
{ACAD_REACTORS
330
398
102
}
330
A
100
AcDbEntity
  8
0
  6
Continuous
 62
     7
370
    15
100
AcDbCircle
 10
212.389400675676
 20
246.5634815878234
 30
0.0
 40
0.3290518839279537
100
AcDbArc
 50
74.32424120022273
 51
108.3219313154286
  0
POLYLINE
  5
2B9
102
{ACAD_REACTORS
330
398
102
}
330
A
100
AcDbEntity
  8
0
  6
Continuous
 62
     7
370
    15
100
AcDb2dPolyline
 66
     1
 10
0.0
 20
0.0
 30
0.0
 75
     5
  0
VERTEX
  5
2BA
330
2B9
100
AcDbEntity
  8
0
  6
Continuous
 62
     7
370
    15
100
AcDbVertex
100
AcDb2dVertex
 10
222.7651505543526
 20
243.7704005379939
 30
0.0
  0
VERTEX
  5
2BB
330
2B9
100
AcDbEntity
  8
0
  6
Continuous
 62
     7
370
    15
100
AcDbVertex
100
AcDb2dVertex
 10
222.7599087350202
 20
243.7468608090663
 30
0.0
  0
VERTEX
  5
2BC
330
2B9
100
AcDbEntity
  8
0
  6
Continuous
 62
     7
370
    15
100
AcDbVertex
100
AcDb2dVertex
 10
222.7330417517826
 20
243.7127875479911
 30
0.0
  0
VERTEX
  5
2BD
330
2B9
100
AcDbEntity
  8
0
  6
Continuous
 62
     7
370
    15
100
AcDbVertex
100
AcDb2dVertex
 10
222.6843503826566
 20
243.6809330894354
 30
0.0
  0
VERTEX
  5
2BE
330
2B9
100
AcDbEntity
  8
0
  6
Continuous
 62
     7
370
    15
100
AcDbVertex
100
AcDb2dVertex
 10
222.6157067030056
 20
243.6525211902528
 30
0.0
  0
SEQEND
  5
2BF
330
2B9
100
AcDbEntity
  8
0
  6
Continuous
 62
     7
370
    15
  0
POLYLINE
  5
2C0
102
{ACAD_REACTORS
330
398
102
}
330
A
100
AcDbEntity
  8
0
  6
Continuous
 62
     7
370
    15
100
AcDb2dPolyline
 66
     1
 10
0.0
 20
0.0
 30
0.0
 75
     5
  0
VERTEX
  5
2C1
330
2C0
100
AcDbEntity
  8
0
  6
Continuous
 62
     7
370
    15
100
AcDbVertex
100
AcDb2dVertex
 10
222.6132671606748
 20
231.3369959123935
 30
0.0
  0
VERTEX
  5
2C2
330
2C0
100
AcDbEntity
  8
0
  6
Continuous
 62
     7
370
    15
100
AcDbVertex
100
AcDb2dVertex
 10
222.6819108403657
 20
231.365407811575
 30
0.0
  0
VERTEX
  5
2C3
330
2C0
100
AcDbEntity
  8
0
  6
Continuous
 62
     7
370
    15
100
AcDbVertex
100
AcDb2dVertex
 10
222.7306022094517
 20
231.3972622701318
 30
0.0
  0
VERTEX
  5
2C4
330
2C0
100
AcDbEntity
  8
0
  6
Continuous
 62
     7
370
    15
100
AcDbVertex
100
AcDb2dVertex
 10
222.7574691926893
 20
231.431335531207
 30
0.0
  0
VERTEX
  5
2C5
330
2C0
100
AcDbEntity
  8
0
  6
Continuous
 62
     7
370
    15
100
AcDbVertex
100
AcDb2dVertex
 10
222.7627110120228
 20
231.4548752601746
 30
0.0
  0
SEQEND
  5
2C6
330
2C0
100
AcDbEntity
  8
0
  6
Continuous
 62
     7
370
    15
  0
LINE
  5
2C7
102
{ACAD_REACTORS
330
398
102
}
330
A
100
AcDbEntity
  8
0
  6
Continuous
 62
     7
370
    15
100
AcDbLine
 10
222.8578775828228
 20
230.5326955196347
 30
0.0
 11
221.9846605655133
 21
230.7613862607322
 31
0.0
  0
LINE
  5
2C8
102
{ACAD_REACTORS
330
398
102
}
330
A
100
AcDbEntity
  8
0
  6
Continuous
 62
     7
370
    15
100
AcDbLine
 10
204.107556193619
 20
230.45097184427
 30
0.0
 11
203.2529763570093
 21
230.1619384115108
 31
0.0
  0
POLYLINE
  5
2C9
102
{ACAD_REACTORS
330
398
102
}
330
A
100
AcDbEntity
  8
0
  6
Continuous
 62
     7
370
    15
100
AcDb2dPolyline
 66
     1
 10
0.0
 20
0.0
 30
0.0
 75
     5
  0
VERTEX
  5
2CA
330
2C9
100
AcDbEntity
  8
0
  6
Continuous
 62
     7
370
    15
100
AcDbVertex
100
AcDb2dVertex
 10
203.195192036372
 20
230.0074736785743
 30
0.0
  0
VERTEX
  5
2CB
330
2C9
100
AcDbEntity
  8
0
  6
Continuous
 62
     7
370
    15
100
AcDbVertex
100
AcDb2dVertex
 10
203.1696019811127
 20
230.0156318458766
 30
0.0
  0
VERTEX
  5
2CC
330
2C9
100
AcDbEntity
  8
0
  6
Continuous
 62
     7
370
    15
100
AcDbVertex
100
AcDb2dVertex
 10
203.1498487195673
 20
230.0251181276031
 30
0.0
  0
VERTEX
  5
2CD
330
2C9
100
AcDbEntity
  8
0
  6
Continuous
 62
     7
370
    15
100
AcDbVertex
100
AcDb2dVertex
 10
203.1366918979484
 20
230.0355676347255
 30
0.0
  0
VERTEX
  5
2CE
330
2C9
100
AcDbEntity
  8
0
  6
Continuous
 62
     7
370
    15
100
AcDbVertex
100
AcDb2dVertex
 10
203.130635590426
 20
230.0465790666866
 30
0.0
  0
VERTEX
  5
2CF
330
2C9
100
AcDbEntity
  8
0
  6
Continuous
 62
     7
370
    15
100
AcDbVertex
100
AcDb2dVertex
 10
203.1303063736038
 20
230.0487625906064
 30
0.0
  0
SEQEND
  5
2D0
330
2C9
100
AcDbEntity
  8
0
  6
Continuous
 62
     7
370
    15
  0
ARC
  5
2D1
102
{ACAD_REACTORS
330
398
102
}
330
A
100
AcDbEntity
  8
0
  6
Continuous
 62
     7
370
    15
100
AcDbCircle
 10
203.2381594876903
 20
230.1091146002676
 30
0.0
 40
0.0548625067689092
100
AcDbArc
 50
74.33140267237808
 51
108.3155847309085
  0
ARC
  5
2D2
102
{ACAD_REACTORS
330
398
102
}
330
A
100
AcDbEntity
  8
0
  6
Continuous
 62
     7
370
    15
100
AcDbCircle
 10
222.8725856908986
 20
230.4924011112293
 30
0.0
 40
0.0428948457579684
100
AcDbArc
 50
75.6825861165871
 51
110.0528964931754
  0
POLYLINE
  5
2D3
102
{ACAD_REACTORS
330
398
102
}
330
A
100
AcDbEntity
  8
0
  6
Continuous
 62
     7
370
    15
100
AcDb2dPolyline
 66
     1
 10
0.0
 20
0.0
 30
0.0
 75
     5
  0
VERTEX
  5
2D4
330
2D3
100
AcDbEntity
  8
0
  6
Continuous
 62
     7
370
    15
100
AcDbVertex
100
AcDb2dVertex
 10
222.9888333225699
 20
230.4187814253253
 30
0.0
  0
VERTEX
  5
2D5
330
2D3
100
AcDbEntity
  8
0
  6
Continuous
 62
     7
370
    15
100
AcDbVertex
100
AcDb2dVertex
 10
222.9871647655023
 20
230.4109688586822
 30
0.0
  0
VERTEX
  5
2D6
330
2D3
100
AcDbEntity
  8
0
  6
Continuous
 62
     7
370
    15
100
AcDbVertex
100
AcDb2dVertex
 10
222.9786016059753
 20
230.4001085951664
 30
0.0
  0
VERTEX
  5
2D7
330
2D3
100
AcDbEntity
  8
0
  6
Continuous
 62
     7
370
    15
100
AcDbVertex
100
AcDb2dVertex
 10
222.9630819799045
 20
230.3899552520363
 30
0.0
  0
VERTEX
  5
2D8
330
2D3
100
AcDbEntity
  8
0
  6
Continuous
 62
     7
370
    15
100
AcDbVertex
100
AcDb2dVertex
 10
222.9412026882998
 20
230.3808993705447
 30
0.0
  0
SEQEND
  5
2D9
330
2D3
100
AcDbEntity
  8
0
  6
Continuous
 62
     7
370
    15
  0
SPLINE
  5
2DA
102
{ACAD_REACTORS
330
398
102
}
330
A
100
AcDbEntity
  8
0
  6
Continuous
 62
     7
370
    15
100
AcDbSpline
210
0.0
220
0.0
230
1.0
 70
     8
 71
     2
 72
    11
 73
     8
 74
     0
 42
0.000000001
 43
0.000001
 40
0.0
 40
0.0
 40
0.0
 40
1.0
 40
1.0
 40
2.0
 40
3.0
 40
3.0
 40
4.0
 40
4.0
 40
4.0
 10
212.2868650119841
 20
240.0393925731061
 30
0.0
 10
212.2883965749918
 20
240.0117225069444
 30
0.0
 10
212.2899281379994
 20
239.9840524407827
 30
0.0
 10
212.5015170231468
 20
235.8864806397425
 30
0.0
 10
213.1363015795441
 20
230.4009640039721
 30
0.0
 10
213.328379869245
 20
228.8901030862675
 30
0.0
 10
213.3283973189642
 20
228.8899646737613
 30
0.0
 10
213.3284147686833
 20
228.8898262612552
 30
0.0
  0
SPLINE
  5
2DB
102
{ACAD_REACTORS
330
398
102
}
330
A
100
AcDbEntity
  8
0
  6
Continuous
 62
     7
370
    15
100
AcDbSpline
210
0.0
220
0.0
230
1.0
 70
     8
 71
     2
 72
    17
 73
    14
 74
     0
 42
0.000000001
 43
0.000001
 40
0.0
 40
0.0
 40
0.0
 40
1.0
 40
1.0
 40
2.0
 40
3.0
 40
4.0
 40
5.0
 40
6.0
 40
7.0
 40
8.0
 40
9.0
 40
9.0
 40
10.0
 40
10.0
 40
10.0
 10
217.2509040634203
 20
230.2164785063425
 30
0.0
 10
217.2510773603854
 20
230.2144328188106
 30
0.0
 10
217.2512506573506
 20
230.2123871312787
 30
0.0
 10
217.2583086244144
 20
230.1510188177868
 30
0.0
 10
217.2471862521229
 20
229.9813883957928
 30
0.0
 10
217.0295909829194
 20
229.6894466923758
 30
0.0
 10
216.4022159539367
 20
229.3547022473628
 30
0.0
 10
215.673837512294
 20
229.1535464846474
 30
0.0
 10
215.0554922835636
 20
229.0304124576536
 30
0.0
 10
214.2209202117337
 20
228.9257636429321
 30
0.0
 10
213.547491325928
 20
228.8961908380003
 30
0.0
 10
213.3420972155297
 20
228.8902405375766
 30
0.0
 10
213.3352554663518
 20
228.8900333894731
 30
0.0
 10
213.3284137171738
 20
228.8898262413696
 30
0.0
  0
SPLINE
  5
2DC
102
{ACAD_REACTORS
330
398
102
}
330
A
100
AcDbEntity
  8
0
  6
Continuous
 62
     7
370
    15
100
AcDbSpline
210
0.0
220
0.0
230
1.0
 70
     8
 71
     2
 72
    11
 73
     8
 74
     0
 42
0.000000001
 43
0.000001
 40
0.0
 40
0.0
 40
0.0
 40
1.0
 40
1.0
 40
2.0
 40
3.0
 40
3.0
 40
4.0
 40
4.0
 40
4.0
 10
216.1517878209463
 20
240.7277260923706
 30
0.0
 10
216.1561269452847
 20
240.701805818513
 30
0.0
 10
216.1604660696232
 20
240.6758855446554
 30
0.0
 10
216.6050011373084
 20
238.0942080189093
 30
0.0
 10
217.2086418319438
 20
232.8919585363025
 30
0.0
 10
217.2509003372204
 20
230.2167441315981
 30
0.0
 10
217.250902166591
 20
230.2166114754389
 30
0.0
 10
217.2509039959616
 20
230.2164788192797
 30
0.0
  0
SPLINE
  5
2DD
102
{ACAD_REACTORS
330
398
102
}
330
A
100
AcDbEntity
  8
0
  6
Continuous
 62
     7
370
    15
100
AcDbSpline
210
0.0
220
0.0
230
1.0
 70
     8
 71
     2
 72
    11
 73
     8
 74
     0
 42
0.000000001
 43
0.000001
 40
0.0
 40
0.0
 40
0.0
 40
1.0
 40
1.0
 40
2.0
 40
3.0
 40
3.0
 40
4.0
 40
4.0
 40
4.0
 10
214.224974411126
 20
240.0760450319874
 30
0.0
 10
214.234347957894
 20
240.0793193350399
 30
0.0
 10
214.2437215046621
 20
240.0825936380924
 30
0.0
 10
214.9392989185731
 20
240.3274398920224
 30
0.0
 10
215.8589680489882
 20
240.6321060136427
 30
0.0
 10
216.1334807762425
 20
240.7217423261626
 30
0.0
 10
216.1426342985944
 20
240.7247342092666
 30
0.0
 10
216.1517878209463
 20
240.7277260923706
 30
0.0
  0
SPLINE
  5
2DE
102
{ACAD_REACTORS
330
398
102
}
330
A
100
AcDbEntity
  8
0
  6
Continuous
 62
     7
370
    15
100
AcDbSpline
210
0.0
220
0.0
230
1.0
 70
     8
 71
     2
 72
    12
 73
     9
 74
     0
 42
0.000000001
 43
0.000001
 40
0.0
 40
0.0
 40
0.0
 40
1.0
 40
1.0
 40
2.0
 40
3.0
 40
4.0
 40
4.0
 40
5.0
 40
5.0
 40
5.0
 10
213.3284147686833
 20
228.8898262612552
 30
0.0
 10
213.3284318925107
 20
228.8899653275972
 30
0.0
 10
213.3284490163381
 20
228.8901043939393
 30
0.0
 10
213.4725392482954
 20
230.051896895913
 30
0.0
 10
214.0163684886247
 20
234.8924767847362
 30
0.0
 10
214.1981135242112
 20
239.2998901345049
 30
0.0
 10
214.2230258726806
 20
240.0206101218224
 30
0.0
 10
214.2240001419033
 20
240.0483275769049
 30
0.0
 10
214.224974411126
 20
240.0760450319874
 30
0.0
  0
SPLINE
  5
2DF
102
{ACAD_REACTORS
330
398
102
}
330
A
100
AcDbEntity
  8
0
  6
Continuous
 62
     7
370
    15
100
AcDbSpline
210
0.0
220
0.0
230
1.0
 70
     8
 71
     2
 72
    16
 73
    13
 74
     0
 42
0.000000001
 43
0.000001
 40
0.0
 40
0.0
 40
0.0
 40
1.0
 40
1.0
 40
2.0
 40
3.0
 40
4.0
 40
5.0
 40
6.0
 40
7.0
 40
8.0
 40
8.0
 40
9.0
 40
9.0
 40
9.0
 10
213.9298614044467
 20
240.5039924157728
 30
0.0
 10
213.9276247190086
 20
240.50338891965
 30
0.0
 10
213.9253880335705
 20
240.5027854235273
 30
0.0
 10
213.8674978191642
 20
240.4869725750331
 30
0.0
 10
213.6841627429059
 20
240.4402563117217
 30
0.0
 10
213.4791248221607
 20
240.4184972970689
 30
0.0
 10
213.2421894406947
 20
240.4017992189143
 30
0.0
 10
212.9554016156887
 20
240.413661013023
 30
0.0
 10
212.7364976807718
 20
240.4362899065148
 30
0.0
 10
212.5889388255625
 20
240.4679306258589
 30
0.0
 10
212.5482182381525
 20
240.4771971041484
 30
0.0
 10
212.5468579024231
 20
240.4775045962519
 30
0.0
 10
212.5454975666938
 20
240.4778120883555
 30
0.0
  0
SPLINE
  5
2E0
102
{ACAD_REACTORS
330
398
102
}
330
A
100
AcDbEntity
  8
0
  6
Continuous
 62
     7
370
    15
100
AcDbSpline
210
0.0
220
0.0
230
1.0
 70
     8
 71
     2
 72
    16
 73
    13
 74
     0
 42
0.000000001
 43
0.000001
 40
0.0
 40
0.0
 40
0.0
 40
1.0
 40
1.0
 40
2.0
 40
3.0
 40
4.0
 40
5.0
 40
6.0
 40
7.0
 40
8.0
 40
8.0
 40
9.0
 40
9.0
 40
9.0
 10
212.2868650119841
 20
240.0393925731061
 30
0.0
 10
212.2889158791749
 20
240.0389863328759
 30
0.0
 10
212.2909667463656
 20
240.0385800926457
 30
0.0
 10
212.3522503012915
 20
240.026291253192
 30
0.0
 10
212.598482576287
 20
239.9807694220713
 30
0.0
 10
212.9614906376642
 20
239.9557384079419
 30
0.0
 10
213.2501370142602
 20
239.9517431977779
 30
0.0
 10
213.5389453159173
 20
239.9629512471278
 30
0.0
 10
213.8639028021742
 20
239.995442916982
 30
0.0
 10
214.1175160343294
 20
240.0498078178481
 30
0.0
 10
214.2182264383814
 20
240.0744182917781
 30
0.0
 10
214.2216004247537
 20
240.0752316618828
 30
0.0
 10
214.224974411126
 20
240.0760450319874
 30
0.0
  0
ARC
  5
2E1
102
{ACAD_REACTORS
330
398
102
}
330
A
100
AcDbEntity
  8
0
  6
Continuous
 62
     7
370
    15
100
AcDbCircle
 10
212.7816716363692
 20
240.0429921699433
 30
0.0
 40
0.4948197172854623
100
AcDbArc
 50
118.5087631702165
 51
180.4168053927218
  0
SPLINE
  5
2E2
102
{ACAD_REACTORS
330
398
102
}
330
A
100
AcDbEntity
  8
0
  6
Continuous
 62
     7
370
    15
100
AcDbSpline
210
0.0
220
0.0
230
1.0
 70
     8
 71
     2
 72
    10
 73
     7
 74
     0
 42
0.000000001
 43
0.000001
 40
0.0
 40
0.0
 40
0.0
 40
1.0
 40
1.0
 40
2.0
 40
2.0
 40
3.0
 40
3.0
 40
3.0
 10
212.5454975666938
 20
240.4778120883555
 30
0.0
 10
212.5340182875738
 20
240.4807485614788
 30
0.0
 10
212.5225390084537
 20
240.4836850346021
 30
0.0
 10
211.4415737616136
 20
240.7591403672745
 30
0.0
 10
210.3860767945445
 20
241.0432127330014
 30
0.0
 10
210.3748277709126
 20
241.0462286885169
 30
0.0
 10
210.3635787472807
 20
241.0492446440323
 30
0.0
  0
SPLINE
  5
2E3
102
{ACAD_REACTORS
330
398
102
}
330
A
100
AcDbEntity
  8
0
  6
Continuous
 62
     7
370
    15
100
AcDbSpline
210
0.0
220
0.0
230
1.0
 70
     8
 71
     2
 72
    10
 73
     7
 74
     0
 42
0.000000001
 43
0.000001
 40
0.0
 40
0.0
 40
0.0
 40
1.0
 40
1.0
 40
2.0
 40
2.0
 40
3.0
 40
3.0
 40
3.0
 10
210.0958779347161
 20
240.6132000557122
 30
0.0
 10
210.1071869594428
 20
240.6103595197436
 30
0.0
 10
210.1184959841694
 20
240.6075189837751
 30
0.0
 10
211.1798284350138
 20
240.3428192850345
 30
0.0
 10
212.2638375298935
 20
240.0456657771255
 30
0.0
 10
212.2753512709388
 20
240.0425291751158
 30
0.0
 10
212.2868650119841
 20
240.0393925731061
 30
0.0
  0
ARC
  5
2E4
102
{ACAD_REACTORS
330
398
102
}
330
A
100
AcDbEntity
  8
0
  6
Continuous
 62
     7
370
    15
100
AcDbCircle
 10
213.7543101911191
 20
240.0672032718944
 30
0.0
 40
0.4707472620317977
100
AcDbArc
 50
1.076215133822169
 51
68.10416671372202
  0
SPLINE
  5
2E5
102
{ACAD_REACTORS
330
398
102
}
330
A
100
AcDbEntity
  8
0
  6
Continuous
 62
     7
370
    15
100
AcDbSpline
210
0.0
220
0.0
230
1.0
 70
     8
 71
     2
 72
    10
 73
     7
 74
     0
 42
0.000000001
 43
0.000001
 40
0.0
 40
0.0
 40
0.0
 40
1.0
 40
1.0
 40
2.0
 40
2.0
 40
3.0
 40
3.0
 40
3.0
 10
215.8486999425664
 20
241.1529762389352
 30
0.0
 10
215.8395980805684
 20
241.1498244785978
 30
0.0
 10
215.8304962185703
 20
241.1466727182603
 30
0.0
 10
214.903691482802
 20
240.8247128298109
 30
0.0
 10
213.9485584599506
 20
240.5101693431835
 30
0.0
 10
213.9392099321987
 20
240.5070808794781
 30
0.0
 10
213.9298614044467
 20
240.5039924157728
 30
0.0
  0
POLYLINE
  5
2E6
102
{ACAD_REACTORS
330
398
102
}
330
A
100
AcDbEntity
  8
0
  6
Continuous
 62
     7
370
    15
100
AcDb2dPolyline
 66
     1
 10
0.0
 20
0.0
 30
0.0
 75
     5
  0
VERTEX
  5
2E7
330
2E6
100
AcDbEntity
  8
0
  6
Continuous
 62
     7
370
    15
100
AcDbVertex
100
AcDb2dVertex
 10
208.8681368331566
 20
230.0579488519339
 30
0.0
  0
VERTEX
  5
2E8
330
2E6
100
AcDbEntity
  8
0
  6
Continuous
 62
     7
370
    15
100
AcDbVertex
100
AcDb2dVertex
 10
208.8688970723705
 20
230.2214433838341
 30
0.0
  0
VERTEX
  5
2E9
330
2E6
100
AcDbEntity
  8
0
  6
Continuous
 62
     7
370
    15
100
AcDbVertex
100
AcDb2dVertex
 10
209.0041398456735
 20
230.4631147013259
 30
0.0
  0
VERTEX
  5
2EA
330
2E6
100
AcDbEntity
  8
0
  6
Continuous
 62
     7
370
    15
100
AcDbVertex
100
AcDb2dVertex
 10
209.2952287661984
 20
230.6922617454761
 30
0.0
  0
VERTEX
  5
2EB
330
2E6
100
AcDbEntity
  8
0
  6
Continuous
 62
     7
370
    15
100
AcDbVertex
100
AcDb2dVertex
 10
209.7309771861206
 20
230.9000786429851
 30
0.0
  0
VERTEX
  5
2EC
330
2E6
100
AcDbEntity
  8
0
  6
Continuous
 62
     7
370
    15
100
AcDbVertex
100
AcDb2dVertex
 10
210.2946396726634
 20
231.0785790655299
 30
0.0
  0
VERTEX
  5
2ED
330
2E6
100
AcDbEntity
  8
0
  6
Continuous
 62
     7
370
    15
100
AcDbVertex
100
AcDb2dVertex
 10
210.9645550017553
 20
231.2209033474345
 30
0.0
  0
VERTEX
  5
2EE
330
2E6
100
AcDbEntity
  8
0
  6
Continuous
 62
     7
370
    15
100
AcDbVertex
100
AcDb2dVertex
 10
211.7149785534803
 20
231.3215820529324
 30
0.0
  0
VERTEX
  5
2EF
330
2E6
100
AcDbEntity
  8
0
  6
Continuous
 62
     7
370
    15
100
AcDbVertex
100
AcDb2dVertex
 10
212.2458417853543
 20
231.363583342356
 30
0.0
  0
VERTEX
  5
2F0
330
2E6
100
AcDbEntity
  8
0
  6
Continuous
 62
     7
370
    15
100
AcDbVertex
100
AcDb2dVertex
 10
212.7906271794132
 20
231.3846011169132
 30
0.0
  0
SEQEND
  5
2F1
330
2E6
100
AcDbEntity
  8
0
  6
Continuous
 62
     7
370
    15
  0
POLYLINE
  5
2F2
102
{ACAD_REACTORS
330
398
102
}
330
A
100
AcDbEntity
  8
0
  6
Continuous
 62
     7
370
    15
100
AcDb2dPolyline
 66
     1
 10
0.0
 20
0.0
 30
0.0
 75
     5
  0
VERTEX
  5
2F3
330
2F2
100
AcDbEntity
  8
0
  6
Continuous
 62
     7
370
    15
100
AcDbVertex
100
AcDb2dVertex
 10
212.7906271794132
 20
231.3846011169132
 30
0.0
  0
VERTEX
  5
2F4
330
2F2
100
AcDbEntity
  8
0
  6
Continuous
 62
     7
370
    15
100
AcDbVertex
100
AcDb2dVertex
 10
213.340011859502
 20
231.3842756849321
 30
0.0
  0
VERTEX
  5
2F5
330
2F2
100
AcDbEntity
  8
0
  6
Continuous
 62
     7
370
    15
100
AcDbVertex
100
AcDb2dVertex
 10
214.1521724917208
 20
231.3438813497198
 30
0.0
  0
VERTEX
  5
2F6
330
2F2
100
AcDbEntity
  8
0
  6
Continuous
 62
     7
370
    15
100
AcDbVertex
100
AcDb2dVertex
 10
214.9223428506497
 20
231.2571154095054
 30
0.0
  0
VERTEX
  5
2F7
330
2F2
100
AcDbEntity
  8
0
  6
Continuous
 62
     7
370
    15
100
AcDbVertex
100
AcDb2dVertex
 10
215.6209261211767
 20
231.127312309233
 30
0.0
  0
VERTEX
  5
2F8
330
2F2
100
AcDbEntity
  8
0
  6
Continuous
 62
     7
370
    15
100
AcDbVertex
100
AcDb2dVertex
 10
216.2210760007821
 20
230.9594602691715
 30
0.0
  0
VERTEX
  5
2F9
330
2F2
100
AcDbEntity
  8
0
  6
Continuous
 62
     7
370
    15
100
AcDbVertex
100
AcDb2dVertex
 10
216.6997290843027
 20
230.7600097463629
 30
0.0
  0
VERTEX
  5
2FA
330
2F2
100
AcDbEntity
  8
0
  6
Continuous
 62
     7
370
    15
100
AcDbVertex
100
AcDb2dVertex
 10
217.0384910242121
 20
230.5366255570548
 30
0.0
  0
VERTEX
  5
2FB
330
2F2
100
AcDbEntity
  8
0
  6
Continuous
 62
     7
370
    15
100
AcDbVertex
100
AcDb2dVertex
 10
217.1799483589079
 20
230.3786172570707
 30
0.0
  0
VERTEX
  5
2FC
330
2F2
100
AcDbEntity
  8
0
  6
Continuous
 62
     7
370
    15
100
AcDbVertex
100
AcDb2dVertex
 10
217.2509040634051
 20
230.2164785063479
 30
0.0
  0
SEQEND
  5
2FD
330
2F2
100
AcDbEntity
  8
0
  6
Continuous
 62
     7
370
    15
  0
POLYLINE
  5
2FE
102
{ACAD_REACTORS
330
398
102
}
330
A
100
AcDbEntity
  8
0
  6
Continuous
 62
     7
370
    15
100
AcDb2dPolyline
 66
     1
 10
0.0
 20
0.0
 30
0.0
 75
     5
  0
VERTEX
  5
2FF
330
2FE
100
AcDbEntity
  8
0
  6
Continuous
 62
     7
370
    15
100
AcDbVertex
100
AcDb2dVertex
 10
213.3284137171885
 20
228.8898262413674
 30
0.0
  0
VERTEX
  5
300
330
2FE
100
AcDbEntity
  8
0
  6
Continuous
 62
     7
370
    15
100
AcDbVertex
100
AcDb2dVertex
 10
212.7790290370998
 20
228.8901516733485
 30
0.0
  0
VERTEX
  5
301
330
2FE
100
AcDbEntity
  8
0
  6
Continuous
 62
     7
370
    15
100
AcDbVertex
100
AcDb2dVertex
 10
211.9668684048409
 20
228.930546008562
 30
0.0
  0
VERTEX
  5
302
330
2FE
100
AcDbEntity
  8
0
  6
Continuous
 62
     7
370
    15
100
AcDbVertex
100
AcDb2dVertex
 10
211.196698045952
 20
229.0173119487752
 30
0.0
  0
VERTEX
  5
303
330
2FE
100
AcDbEntity
  8
0
  6
Continuous
 62
     7
370
    15
100
AcDbVertex
100
AcDb2dVertex
 10
210.4981147754251
 20
229.1471150490478
 30
0.0
  0
VERTEX
  5
304
330
2FE
100
AcDbEntity
  8
0
  6
Continuous
 62
     7
370
    15
100
AcDbVertex
100
AcDb2dVertex
 10
209.8979648958197
 20
229.3149670891092
 30
0.0
  0
VERTEX
  5
305
330
2FE
100
AcDbEntity
  8
0
  6
Continuous
 62
     7
370
    15
100
AcDbVertex
100
AcDb2dVertex
 10
209.419311812299
 20
229.5144176119178
 30
0.0
  0
VERTEX
  5
306
330
2FE
100
AcDbEntity
  8
0
  6
Continuous
 62
     7
370
    15
100
AcDbVertex
100
AcDb2dVertex
 10
209.0805498723897
 20
229.7378018012259
 30
0.0
  0
VERTEX
  5
307
330
2FE
100
AcDbEntity
  8
0
  6
Continuous
 62
     7
370
    15
100
AcDbVertex
100
AcDb2dVertex
 10
208.9390925376927
 20
229.89581010117
 30
0.0
  0
VERTEX
  5
308
330
2FE
100
AcDbEntity
  8
0
  6
Continuous
 62
     7
370
    15
100
AcDbVertex
100
AcDb2dVertex
 10
208.8681368331566
 20
230.0579488519339
 30
0.0
  0
SEQEND
  5
309
330
2FE
100
AcDbEntity
  8
0
  6
Continuous
 62
     7
370
    15
  0
SPLINE
  5
30A
102
{ACAD_REACTORS
330
398
102
}
330
A
100
AcDbEntity
  8
0
  6
Continuous
 62
     7
370
    15
100
AcDbSpline
210
0.0
220
0.0
230
1.0
 70
     8
 71
     2
 72
    18
 73
    15
 74
     0
 42
0.000000001
 43
0.000001
 40
0.0
 40
0.0
 40
0.0
 40
1.0
 40
1.0
 40
2.0
 40
3.0
 40
4.0
 40
5.0
 40
6.0
 40
7.0
 40
8.0
 40
9.0
 40
10.0
 40
10.0
 40
11.0
 40
11.0
 40
11.0
 10
209.9715403254775
 20
241.1899960591017
 30
0.0
 10
209.9703553450645
 20
241.1895718294783
 30
0.0
 10
209.9691703646517
 20
241.1891475998549
 30
0.0
 10
209.9334497457082
 20
241.1764585951538
 30
0.0
 10
209.8641058207596
 20
241.1506282557678
 30
0.0
 10
209.7281348964051
 20
241.0890935139092
 30
0.0
 10
209.6411802910556
 20
240.9866389597914
 30
0.0
 10
209.6380095571626
 20
240.888569590751
 30
0.0
 10
209.6985738850627
 20
240.8060143028871
 30
0.0
 10
209.7773517287811
 20
240.7464372326961
 30
0.0
 10
209.8871556009065
 20
240.6913116907949
 30
0.0
 10
210.0209403169514
 20
240.6400057522295
 30
0.0
 10
210.0912165342244
 20
240.6148788776949
 30
0.0
 10
210.0935472344702
 20
240.6140394667036
 30
0.0
 10
210.0958779347161
 20
240.6132000557122
 30
0.0
  0
SPLINE
  5
30B
102
{ACAD_REACTORS
330
398
102
}
330
A
100
AcDbEntity
  8
0
  6
Continuous
 62
     7
370
    15
100
AcDbSpline
210
0.0
220
0.0
230
1.0
 70
     8
 71
     2
 72
    11
 73
     8
 74
     0
 42
0.000000001
 43
0.000001
 40
0.0
 40
0.0
 40
0.0
 40
1.0
 40
1.0
 40
2.0
 40
3.0
 40
3.0
 40
4.0
 40
4.0
 40
4.0
 10
209.9715403254775
 20
241.1899960591017
 30
0.0
 10
209.9671906355103
 20
241.1631626081743
 30
0.0
 10
209.9628409455432
 20
241.1363291572469
 30
0.0
 10
209.5172835530983
 20
238.4696106102697
 30
0.0
 10
208.9118702114902
 20
232.9507589010243
 30
0.0
 10
208.8681406683552
 20
230.0582346542028
 30
0.0
 10
208.8681387844926
 20
230.0580915965976
 30
0.0
 10
208.86813690063
 20
230.0579485389925
 30
0.0
  0
SPLINE
  5
30C
102
{ACAD_REACTORS
330
398
102
}
330
A
100
AcDbEntity
  8
0
  6
Continuous
 62
     7
370
    15
100
AcDbSpline
210
0.0
220
0.0
230
1.0
 70
     8
 71
     2
 72
    11
 73
     8
 74
     0
 42
0.000000001
 43
0.000001
 40
0.0
 40
0.0
 40
0.0
 40
1.0
 40
1.0
 40
2.0
 40
3.0
 40
3.0
 40
4.0
 40
4.0
 40
4.0
 10
208.86813690063
 20
230.0579485389925
 30
0.0
 10
208.8681410025264
 20
230.0580813072489
 30
0.0
 10
208.8681451044227
 20
230.0582140755053
 30
0.0
 10
208.9627025871141
 20
232.7346527249109
 30
0.0
 10
209.6301645255786
 20
237.9634539889273
 30
0.0
 10
210.086857036101
 20
240.5610246630738
 30
0.0
 10
210.0913674854085
 20
240.587112359393
 30
0.0
 10
210.0958779347161
 20
240.6132000557122
 30
0.0
  0
ARC
  5
30D
102
{ACAD_REACTORS
330
398
102
}
330
A
100
AcDbEntity
  8
0
  6
Continuous
 62
     7
370
    15
100
AcDbCircle
 10
210.2270203531299
 20
241.2095057890714
 30
0.0
 40
0.256223874933686
100
AcDbArc
 50
79.2604912839306
 51
184.3669161139229
  0
ARC
  5
30E
102
{ACAD_REACTORS
330
398
102
}
330
A
100
AcDbEntity
  8
0
  6
Continuous
 62
     7
370
    15
100
AcDbCircle
 10
210.5838642559048
 20
240.6138077213748
 30
0.0
 40
0.4879866995403399
100
AcDbArc
 50
116.8346357982308
 51
180.0713476138231
  0
SPLINE
  5
30F
102
{ACAD_REACTORS
330
398
102
}
330
A
100
AcDbEntity
  8
0
  6
Continuous
 62
     7
370
    15
100
AcDbSpline
210
0.0
220
0.0
230
1.0
 70
     8
 71
     2
 72
    18
 73
    15
 74
     0
 42
0.000000001
 43
0.000001
 40
0.0
 40
0.0
 40
0.0
 40
1.0
 40
1.0
 40
2.0
 40
3.0
 40
4.0
 40
5.0
 40
6.0
 40
7.0
 40
8.0
 40
9.0
 40
10.0
 40
10.0
 40
11.0
 40
11.0
 40
11.0
 10
210.3635787472807
 20
241.0492446440323
 30
0.0
 10
210.3621582644931
 20
241.0497108404989
 30
0.0
 10
210.3607377817054
 20
241.0501770369654
 30
0.0
 10
210.3178778120181
 20
241.064116034093
 30
0.0
 10
210.2352239153731
 20
241.0925813569644
 30
0.0
 10
210.1294512815586
 20
241.1374914819423
 30
0.0
 10
210.0469284437674
 20
241.2093104460467
 30
0.0
 10
210.030524525347
 20
241.2869625125528
 30
0.0
 10
210.0654835044862
 20
241.343637071586
 30
0.0
 10
210.1234765330789
 20
241.3963367205822
 30
0.0
 10
210.2090459933616
 20
241.4350365812255
 30
0.0
 10
210.2515918327643
 20
241.45218687546
 30
0.0
 10
210.2733207708479
 20
241.4606752820684
 30
0.0
 10
210.2740434706528
 20
241.4609585328954
 30
0.0
 10
210.2747661704578
 20
241.4612417837224
 30
0.0
  0
SPLINE
  5
310
102
{ACAD_REACTORS
330
398
102
}
330
A
100
AcDbEntity
  8
0
  6
Continuous
 62
     7
370
    15
100
AcDbSpline
210
0.0
220
0.0
230
1.0
 70
     8
 71
     2
 72
    11
 73
     8
 74
     0
 42
0.000000001
 43
0.000001
 40
0.0
 40
0.0
 40
0.0
 40
1.0
 40
1.0
 40
2.0
 40
3.0
 40
3.0
 40
4.0
 40
4.0
 40
4.0
 10
217.2509039959616
 20
230.2164788192797
 30
0.0
 10
217.2508999485813
 20
230.2166217646746
 30
0.0
 10
217.2508959012011
 20
230.2167647100696
 30
0.0
 10
217.159879072322
 20
233.1090267359531
 30
0.0
 10
216.4925830691431
 20
238.6003796443423
 30
0.0
 10
216.0364500251758
 20
241.2511898259673
 30
0.0
 10
216.0319501184417
 20
241.2778559608637
 30
0.0
 10
216.0274502117076
 20
241.3045220957601
 30
0.0
  0
SPLINE
  5
311
102
{ACAD_REACTORS
330
398
102
}
330
A
100
AcDbEntity
  8
0
  6
Continuous
 62
     7
370
    15
100
AcDbSpline
210
0.0
220
0.0
230
1.0
 70
     8
 71
     2
 72
    18
 73
    15
 74
     0
 42
0.000000001
 43
0.000001
 40
0.0
 40
0.0
 40
0.0
 40
1.0
 40
1.0
 40
2.0
 40
3.0
 40
4.0
 40
5.0
 40
6.0
 40
7.0
 40
8.0
 40
9.0
 40
10.0
 40
10.0
 40
11.0
 40
11.0
 40
11.0
 10
216.1517878209463
 20
240.7277260923706
 30
0.0
 10
216.1529728181081
 20
240.7282348754856
 30
0.0
 10
216.1541578152699
 20
240.7287436586005
 30
0.0
 10
216.1898789388355
 20
240.7439801440844
 30
0.0
 10
216.2592238465688
 20
240.7747720989559
 30
0.0
 10
216.3951967267906
 20
240.8461798095642
 30
0.0
 10
216.4821527770093
 20
240.9558222770397
 30
0.0
 10
216.4853238144719
 20
241.055492530164
 30
0.0
 10
216.424758921825
 20
241.1352328124972
 30
0.0
 10
216.3459802159798
 20
241.1904600114399
 30
0.0
 10
216.2361750614441
 20
241.2391116012305
 30
0.0
 10
216.1023887363961
 20
241.2822948166502
 30
0.0
 10
216.0321116685799
 20
241.3031278996874
 30
0.0
 10
216.0297809401438
 20
241.3038249977238
 30
0.0
 10
216.0274502117076
 20
241.3045220957601
 30
0.0
  0
SPLINE
  5
312
102
{ACAD_REACTORS
330
398
102
}
330
A
100
AcDbEntity
  8
0
  6
Continuous
 62
     7
370
    15
100
AcDbSpline
210
0.0
220
0.0
230
1.0
 70
     8
 71
     2
 72
    11
 73
     8
 74
     0
 42
0.000000001
 43
0.000001
 40
0.0
 40
0.0
 40
0.0
 40
1.0
 40
1.0
 40
2.0
 40
3.0
 40
3.0
 40
4.0
 40
4.0
 40
4.0
 10
213.8364631344396
 20
241.8783295783661
 30
0.0
 10
213.834921121606
 20
241.8532458577403
 30
0.0
 10
213.8333791087724
 20
241.8281621371144
 30
0.0
 10
213.6178186303023
 20
238.1321945309901
 30
0.0
 10
212.9834333930511
 20
232.8832617779788
 30
0.0
 10
212.7906611365771
 20
231.3848756993948
 30
0.0
 10
212.7906436322427
 20
231.3847383982059
 30
0.0
 10
212.7906261279083
 20
231.384601097017
 30
0.0
  0
SPLINE
  5
313
102
{ACAD_REACTORS
330
398
102
}
330
A
100
AcDbEntity
  8
0
  6
Continuous
 62
     7
370
    15
100
AcDbSpline
210
0.0
220
0.0
230
1.0
 70
     8
 71
     2
 72
    11
 73
     8
 74
     0
 42
0.000000001
 43
0.000001
 40
0.0
 40
0.0
 40
0.0
 40
1.0
 40
1.0
 40
2.0
 40
3.0
 40
3.0
 40
4.0
 40
4.0
 40
4.0
 10
216.0274502117076
 20
241.3045220957601
 30
0.0
 10
216.016141259673
 20
241.3077296028855
 30
0.0
 10
216.0048323076385
 20
241.3109371100109
 30
0.0
 10
215.3055097753202
 20
241.5135728233104
 30
0.0
 10
214.2511423561525
 20
241.7790039468464
 30
0.0
 10
213.8594907618915
 20
241.8727902014286
 30
0.0
 10
213.8479769481656
 20
241.8755598898973
 30
0.0
 10
213.8364631344396
 20
241.8783295783661
 30
0.0
  0
POLYLINE
  5
314
102
{ACAD_REACTORS
330
398
102
}
330
A
100
AcDbEntity
  8
0
  6
Continuous
 62
     7
370
    15
100
AcDb2dPolyline
 66
     1
 10
0.0
 20
0.0
 30
0.0
 75
     5
  0
VERTEX
  5
315
330
314
100
AcDbEntity
  8
0
  6
Continuous
 62
     7
370
    15
100
AcDbVertex
100
AcDb2dVertex
 10
216.027450211711
 20
241.3045220957684
 30
0.0
  0
VERTEX
  5
316
330
314
100
AcDbEntity
  8
0
  6
Continuous
 62
     7
370
    15
100
AcDbVertex
100
AcDb2dVertex
 10
216.018521237077
 20
241.3711066933137
 30
0.0
  0
VERTEX
  5
317
330
314
100
AcDbEntity
  8
0
  6
Continuous
 62
     7
370
    15
100
AcDbVertex
100
AcDb2dVertex
 10
216.0007319455255
 20
241.4312526050696
 30
0.0
  0
VERTEX
  5
318
330
314
100
AcDbEntity
  8
0
  6
Continuous
 62
     7
370
    15
100
AcDbVertex
100
AcDb2dVertex
 10
215.9746915967578
 20
241.4828999882246
 30
0.0
  0
VERTEX
  5
319
330
314
100
AcDbEntity
  8
0
  6
Continuous
 62
     7
370
    15
100
AcDbVertex
100
AcDb2dVertex
 10
215.9412920466232
 20
241.5242787837836
 30
0.0
  0
VERTEX
  5
31A
330
314
100
AcDbEntity
  8
0
  6
Continuous
 62
     7
370
    15
100
AcDbVertex
100
AcDb2dVertex
 10
215.901677135805
 20
241.5539733390683
 30
0.0
  0
VERTEX
  5
31B
330
314
100
AcDbEntity
  8
0
  6
Continuous
 62
     7
370
    15
100
AcDbVertex
100
AcDb2dVertex
 10
215.8572035343315
 20
241.5709663164458
 30
0.0
  0
VERTEX
  5
31C
330
314
100
AcDbEntity
  8
0
  6
Continuous
 62
     7
370
    15
100
AcDbVertex
100
AcDb2dVertex
 10
215.8093944895602
 20
241.574674932076
 30
0.0
  0
VERTEX
  5
31D
330
314
100
AcDbEntity
  8
0
  6
Continuous
 62
     7
370
    15
100
AcDbVertex
100
AcDb2dVertex
 10
215.7598873657463
 20
241.5649733786295
 30
0.0
  0
SEQEND
  5
31E
330
314
100
AcDbEntity
  8
0
  6
Continuous
 62
     7
370
    15
  0
ARC
  5
31F
102
{ACAD_REACTORS
330
398
102
}
330
A
100
AcDbEntity
  8
0
  6
Continuous
 62
     7
370
    15
100
AcDbCircle
 10
215.6854052189793
 20
240.7159566931404
 30
0.0
 40
0.4665310816728734
100
AcDbArc
 50
1.445580966822479
 51
69.51152526032196
  0
SPLINE
  5
320
102
{ACAD_REACTORS
330
398
102
}
330
A
100
AcDbEntity
  8
0
  6
Continuous
 62
     7
370
    15
100
AcDbSpline
210
0.0
220
0.0
230
1.0
 70
     8
 71
     2
 72
    18
 73
    15
 74
     0
 42
0.000000001
 43
0.000001
 40
0.0
 40
0.0
 40
0.0
 40
1.0
 40
1.0
 40
2.0
 40
3.0
 40
4.0
 40
5.0
 40
6.0
 40
7.0
 40
8.0
 40
9.0
 40
10.0
 40
10.0
 40
11.0
 40
11.0
 40
11.0
 10
215.7598873657435
 20
241.5649733786253
 30
0.0
 10
215.7613078485311
 20
241.5645071821587
 30
0.0
 10
215.7627283313188
 20
241.5640409856922
 30
0.0
 10
215.8055883010061
 20
241.5501019885644
 30
0.0
 10
215.8882421976512
 20
241.5216366656935
 30
0.0
 10
215.9940148314656
 20
241.4767265407151
 30
0.0
 10
216.0765376692568
 20
241.4049075766111
 30
0.0
 10
216.0929415876772
 20
241.3272555101048
 30
0.0
 10
216.057982608538
 20
241.2705809510715
 30
0.0
 10
215.9999895799452
 20
241.2178813020755
 30
0.0
 10
215.9144201196627
 20
241.1791814414322
 30
0.0
 10
215.8718742802599
 20
241.1620311471976
 30
0.0
 10
215.8501453421763
 20
241.1535427405892
 30
0.0
 10
215.8494226423714
 20
241.1532594897622
 30
0.0
 10
215.8486999425664
 20
241.1529762389352
 30
0.0
  0
SPLINE
  5
321
102
{ACAD_REACTORS
330
398
102
}
330
A
100
AcDbEntity
  8
0
  6
Continuous
 62
     7
370
    15
100
AcDbSpline
210
0.0
220
0.0
230
1.0
 70
     8
 71
     2
 72
    11
 73
     8
 74
     0
 42
0.000000001
 43
0.000001
 40
0.0
 40
0.0
 40
0.0
 40
1.0
 40
1.0
 40
2.0
 40
3.0
 40
3.0
 40
4.0
 40
4.0
 40
4.0
 10
211.8983537352977
 20
241.8416771194849
 30
0.0
 10
211.8889802556301
 20
241.8387415590387
 30
0.0
 10
211.8796067759624
 20
241.8358059985926
 30
0.0
 10
211.1840355489743
 20
241.6221931465354
 30
0.0
 10
210.2643623015646
 20
241.296743228033
 30
0.0
 10
209.9898475043609
 20
241.1966572041545
 30
0.0
 10
209.9806939149192
 20
241.1933266316281
 30
0.0
 10
209.9715403254775
 20
241.1899960591017
 30
0.0
  0
SPLINE
  5
322
102
{ACAD_REACTORS
330
398
102
}
330
A
100
AcDbEntity
  8
0
  6
Continuous
 62
     7
370
    15
100
AcDbSpline
210
0.0
220
0.0
230
1.0
 70
     8
 71
     2
 72
    11
 73
     8
 74
     0
 42
0.000000001
 43
0.000001
 40
0.0
 40
0.0
 40
0.0
 40
1.0
 40
1.0
 40
2.0
 40
3.0
 40
3.0
 40
4.0
 40
4.0
 40
4.0
 10
212.7906261279083
 20
231.384601097017
 30
0.0
 10
212.7906090586961
 20
231.38473774437
 30
0.0
 10
212.790591989484
 20
231.384874391723
 30
0.0
 10
212.5544865720794
 20
233.2258616369927
 30
0.0
 10
212.0188056806747
 20
238.4318745581612
 30
0.0
 10
211.9002813740912
 20
241.7916044560747
 30
0.0
 10
211.8993175546945
 20
241.8166407877798
 30
0.0
 10
211.8983537352977
 20
241.8416771194849
 30
0.0
  0
POLYLINE
  5
323
102
{ACAD_REACTORS
330
398
102
}
330
A
100
AcDbEntity
  8
0
  6
Continuous
 62
     7
370
    15
100
AcDb2dPolyline
 66
     1
 10
0.0
 20
0.0
 30
0.0
 75
     5
  0
VERTEX
  5
324
330
323
100
AcDbEntity
  8
0
  6
Continuous
 62
     7
370
    15
100
AcDbVertex
100
AcDb2dVertex
 10
213.8364631344585
 20
241.8783295783616
 30
0.0
  0
VERTEX
  5
325
330
323
100
AcDbEntity
  8
0
  6
Continuous
 62
     7
370
    15
100
AcDbVertex
100
AcDb2dVertex
 10
213.8278371204598
 20
241.9448348321711
 30
0.0
  0
VERTEX
  5
326
330
323
100
AcDbEntity
  8
0
  6
Continuous
 62
     7
370
    15
100
AcDbVertex
100
AcDb2dVertex
 10
213.8106510925857
 20
242.0048227525244
 30
0.0
  0
VERTEX
  5
327
330
323
100
AcDbEntity
  8
0
  6
Continuous
 62
     7
370
    15
100
AcDbVertex
100
AcDb2dVertex
 10
213.7854934698099
 20
242.0562389545385
 30
0.0
  0
VERTEX
  5
328
330
323
100
AcDbEntity
  8
0
  6
Continuous
 62
     7
370
    15
100
AcDbVertex
100
AcDb2dVertex
 10
213.7532258958743
 20
242.0973212917805
 30
0.0
  0
VERTEX
  5
329
330
323
100
AcDbEntity
  8
0
  6
Continuous
 62
     7
370
    15
100
AcDbVertex
100
AcDb2dVertex
 10
213.714953607005
 20
242.1266642217529
 30
0.0
  0
VERTEX
  5
32A
330
323
100
AcDbEntity
  8
0
  6
Continuous
 62
     7
370
    15
100
AcDbVertex
100
AcDb2dVertex
 10
213.6719871157487
 20
242.1432624952343
 30
0.0
  0
VERTEX
  5
32B
330
323
100
AcDbEntity
  8
0
  6
Continuous
 62
     7
370
    15
100
AcDbVertex
100
AcDb2dVertex
 10
213.6257981969896
 20
242.1465468087287
 30
0.0
  0
VERTEX
  5
32C
330
323
100
AcDbEntity
  8
0
  6
Continuous
 62
     7
370
    15
100
AcDbVertex
100
AcDb2dVertex
 10
213.5779685463414
 20
242.1364059343001
 30
0.0
  0
SEQEND
  5
32D
330
323
100
AcDbEntity
  8
0
  6
Continuous
 62
     7
370
    15
  0
SPLINE
  5
32E
102
{ACAD_REACTORS
330
398
102
}
330
A
100
AcDbEntity
  8
0
  6
Continuous
 62
     7
370
    15
100
AcDbSpline
210
0.0
220
0.0
230
1.0
 70
     8
 71
     2
 72
    10
 73
     7
 74
     0
 42
0.000000001
 43
0.000001
 40
0.0
 40
0.0
 40
0.0
 40
1.0
 40
1.0
 40
2.0
 40
2.0
 40
3.0
 40
3.0
 40
3.0
 10
213.5779685463304
 20
242.1364059343021
 30
0.0
 10
213.5894478254505
 20
242.1334694611788
 30
0.0
 10
213.6009271045705
 20
242.1305329880555
 30
0.0
 10
214.6818923514107
 20
241.8550776553832
 30
0.0
 10
215.7373893184797
 20
241.5710052896562
 30
0.0
 10
215.7486383421116
 20
241.5679893341407
 30
0.0
 10
215.7598873657435
 20
241.5649733786253
 30
0.0
  0
ARC
  5
32F
102
{ACAD_REACTORS
330
398
102
}
330
A
100
AcDbEntity
  8
0
  6
Continuous
 62
     7
370
    15
100
AcDbCircle
 10
212.14669850706
 20
241.8652172933342
 30
0.0
 40
0.2494579432463198
100
AcDbArc
 50
79.16201444962267
 51
185.4147901168243
  0
SPLINE
  5
330
102
{ACAD_REACTORS
330
398
102
}
330
A
100
AcDbEntity
  8
0
  6
Continuous
 62
     7
370
    15
100
AcDbSpline
210
0.0
220
0.0
230
1.0
 70
     8
 71
     2
 72
    10
 73
     7
 74
     0
 42
0.000000001
 43
0.000001
 40
0.0
 40
0.0
 40
0.0
 40
1.0
 40
1.0
 40
2.0
 40
2.0
 40
3.0
 40
3.0
 40
3.0
 10
210.2747661704578
 20
241.4612417837224
 30
0.0
 10
210.2838680324559
 20
241.4643935440598
 30
0.0
 10
210.2929698944539
 20
241.4675453043973
 30
0.0
 10
211.2197746302222
 20
241.7895051928467
 30
0.0
 10
212.1749076530736
 20
242.1040486794741
 30
0.0
 10
212.1842561808255
 20
242.1071371431795
 30
0.0
 10
212.1936047085775
 20
242.1102256068849
 30
0.0
  0
SPLINE
  5
331
102
{ACAD_REACTORS
330
398
102
}
330
A
100
AcDbEntity
  8
0
  6
Continuous
 62
     7
370
    15
100
AcDbSpline
210
0.0
220
0.0
230
1.0
 70
     8
 71
     2
 72
    16
 73
    13
 74
     0
 42
0.000000001
 43
0.000001
 40
0.0
 40
0.0
 40
0.0
 40
1.0
 40
1.0
 40
2.0
 40
3.0
 40
4.0
 40
5.0
 40
6.0
 40
7.0
 40
8.0
 40
8.0
 40
9.0
 40
9.0
 40
9.0
 10
213.8364631344396
 20
241.8783295783661
 30
0.0
 10
213.8344122891513
 20
241.8788463885469
 30
0.0
 10
213.832361443863
 20
241.8793631987276
 30
0.0
 10
213.7710785508238
 20
241.894993436783
 30
0.0
 10
213.5248487437806
 20
241.9529742146569
 30
0.0
 10
213.1618422440716
 20
241.9858889884071
 30
0.0
 10
212.8731963298157
 20
241.9922182269043
 30
0.0
 10
212.5843877476157
 20
241.9795939143804
 30
0.0
 10
212.2594289715045
 20
241.9405906815744
 30
0.0
 10
212.0058133025688
 20
241.8739241981903
 30
0.0
 10
211.9051017817708
 20
241.8436760628074
 30
0.0
 10
211.9017277585343
 20
241.8426765911461
 30
0.0
 10
211.8983537352977
 20
241.8416771194849
 30
0.0
  0
SPLINE
  5
332
102
{ACAD_REACTORS
330
398
102
}
330
A
100
AcDbEntity
  8
0
  6
Continuous
 62
     7
370
    15
100
AcDbSpline
210
0.0
220
0.0
230
1.0
 70
     8
 71
     2
 72
    16
 73
    13
 74
     0
 42
0.000000001
 43
0.000001
 40
0.0
 40
0.0
 40
0.0
 40
1.0
 40
1.0
 40
2.0
 40
3.0
 40
4.0
 40
5.0
 40
6.0
 40
7.0
 40
8.0
 40
8.0
 40
9.0
 40
9.0
 40
9.0
 10
212.1936047085775
 20
242.1102256068849
 30
0.0
 10
212.1958413940156
 20
242.1108291030076
 30
0.0
 10
212.1980780794537
 20
242.1114325991303
 30
0.0
 10
212.2559682938601
 20
242.1272454476247
 30
0.0
 10
212.4393033701183
 20
242.1739617109357
 30
0.0
 10
212.6443412908635
 20
242.1957207255888
 30
0.0
 10
212.8812766723296
 20
242.2124188037431
 30
0.0
 10
213.1680644973355
 20
242.2005570096347
 30
0.0
 10
213.3869684322524
 20
242.1779281161427
 30
0.0
 10
213.5345272874617
 20
242.1462873967988
 30
0.0
 10
213.5752478748718
 20
242.1370209185093
 30
0.0
 10
213.5766082106011
 20
242.1367134264057
 30
0.0
 10
213.5779685463304
 20
242.1364059343021
 30
0.0
  0
LINE
  5
333
102
{ACAD_REACTORS
330
398
102
}
330
A
100
AcDbEntity
  8
0
  6
Continuous
 62
     7
370
    15
100
AcDbLine
 10
217.2174799857268
 20
229.9600724124162
 30
0.0
 11
217.2300760490132
 21
230.9852120065098
 31
0.0
  0
SPLINE
  5
334
102
{ACAD_REACTORS
330
398
102
}
330
A
100
AcDbEntity
  8
0
  6
Continuous
 62
     7
370
    15
100
AcDbSpline
210
0.0
220
0.0
230
1.0
 70
     8
 71
     2
 72
    11
 73
     8
 74
     0
 42
0.000000001
 43
0.000001
 40
0.0
 40
0.0
 40
0.0
 40
1.0
 40
1.0
 40
2.0
 40
3.0
 40
3.0
 40
4.0
 40
4.0
 40
4.0
 10
209.6487142336594
 20
240.9497907577969
 30
0.0
 10
209.645942233189
 20
240.9286134278953
 30
0.0
 10
209.6431702327186
 20
240.9074360979936
 30
0.0
 10
209.4849696738056
 20
239.7331236991563
 30
0.0
 10
208.9939668106207
 20
234.8175020001804
 30
0.0
 10
208.8931137452961
 20
230.9707412473512
 30
0.0
 10
208.8923056860697
 20
230.9420932111562
 30
0.0
 10
208.8914976268433
 20
230.9134451749611
 30
0.0
  0
SPLINE
  5
335
102
{ACAD_REACTORS
330
398
102
}
330
A
100
AcDbEntity
  8
0
  6
Continuous
 62
     7
370
    15
100
AcDbSpline
210
0.0
220
0.0
230
1.0
 70
     8
 71
     2
 72
    17
 73
    14
 74
     0
 42
0.000000001
 43
0.000001
 40
0.0
 40
0.0
 40
0.0
 40
1.0
 40
1.0
 40
2.0
 40
3.0
 40
4.0
 40
5.0
 40
6.0
 40
7.0
 40
8.0
 40
9.0
 40
9.0
 40
10.0
 40
10.0
 40
10.0
 10
210.1462226083032
 20
241.4553058446301
 30
0.0
 10
210.1459184310316
 20
241.4552186520483
 30
0.0
 10
210.14561425376
 20
241.4551314594666
 30
0.0
 10
210.0805112366735
 20
241.4374371944912
 30
0.0
 10
209.9796317527697
 20
241.3910730039722
 30
0.0
 10
209.8966678250463
 20
241.3392567369293
 30
0.0
 10
209.8093489910113
 20
241.2721362179654
 30
0.0
 10
209.7429711214366
 20
241.1985180445328
 30
0.0
 10
209.6976046270154
 20
241.1321750830157
 30
0.0
 10
209.6678545184898
 20
241.0574974196054
 30
0.0
 10
209.6502178884967
 20
240.992481781362
 30
0.0
 10
209.64233986692
 20
240.9594315815453
 30
0.0
 10
209.6420739745591
 20
240.9583318037308
 30
0.0
 10
209.6418080821981
 20
240.9572320259162
 30
0.0
  0
SPLINE
  5
336
102
{ACAD_REACTORS
330
398
102
}
330
A
100
AcDbEntity
  8
0
  6
Continuous
 62
     7
370
    15
100
AcDbSpline
210
0.0
220
0.0
230
1.0
 70
     8
 71
     2
 72
    11
 73
     8
 74
     0
 42
0.000000001
 43
0.000001
 40
0.0
 40
0.0
 40
0.0
 40
1.0
 40
1.0
 40
2.0
 40
3.0
 40
3.0
 40
4.0
 40
4.0
 40
4.0
 10
217.2364571213648
 20
230.8245826023361
 30
0.0
 10
217.2360678642302
 20
230.8397435295034
 30
0.0
 10
217.2356786070955
 20
230.8549044566708
 30
0.0
 10
217.144100253803
 20
234.6083247192144
 30
0.0
 10
216.6595611924461
 20
239.6201875778588
 30
0.0
 10
216.4807576793982
 20
240.9739284204923
 30
0.0
 10
216.4773952782234
 20
240.9999263027186
 30
0.0
 10
216.4740328770487
 20
241.025924184945
 30
0.0
  0
SPLINE
  5
337
102
{ACAD_REACTORS
330
398
102
}
330
A
100
AcDbEntity
  8
0
  6
Continuous
 62
     7
370
    15
100
AcDbSpline
210
0.0
220
0.0
230
1.0
 70
     8
 71
     2
 72
    17
 73
    14
 74
     0
 42
0.000000001
 43
0.000001
 40
0.0
 40
0.0
 40
0.0
 40
1.0
 40
1.0
 40
2.0
 40
3.0
 40
4.0
 40
5.0
 40
6.0
 40
7.0
 40
8.0
 40
9.0
 40
9.0
 40
10.0
 40
10.0
 40
10.0
 10
216.4758436086487
 20
241.0265111572375
 30
0.0
 10
216.4758375545883
 20
241.0269215576672
 30
0.0
 10
216.475831500528
 20
241.0273319580968
 30
0.0
 10
216.4756932528131
 20
241.0396527282718
 30
0.0
 10
216.4741860093062
 20
241.0935268322177
 30
0.0
 10
216.4468019472121
 20
241.1692230944822
 30
0.0
 10
216.3645368981235
 20
241.3064824441651
 30
0.0
 10
216.2165582128453
 20
241.4251765587913
 30
0.0
 10
216.0853334092883
 20
241.495906810444
 30
0.0
 10
215.9771966447565
 20
241.5336350232863
 30
0.0
 10
215.9011156319708
 20
241.555455280299
 30
0.0
 10
215.8625133264562
 20
241.5659025589801
 30
0.0
 10
215.8612285524534
 20
241.5662524222321
 30
0.0
 10
215.8599437784505
 20
241.566602285484
 30
0.0
  0
LINE
  5
338
102
{ACAD_REACTORS
330
398
102
}
330
A
100
AcDbEntity
  8
0
  6
Continuous
 62
     7
370
    15
100
AcDbLine
 10
208.894813885755
 20
231.0813474322767
 30
0.0
 11
208.9072426733638
 21
230.3258237465264
 31
0.0
  0
SPLINE
  5
339
102
{ACAD_REACTORS
330
398
102
}
330
A
100
AcDbEntity
  8
0
  6
Continuous
 62
     7
370
    15
100
AcDbSpline
210
0.0
220
0.0
230
1.0
 70
     8
 71
     2
 72
    10
 73
     7
 74
     0
 42
0.000000001
 43
0.000001
 40
0.0
 40
0.0
 40
0.0
 40
1.0
 40
1.0
 40
2.0
 40
2.0
 40
3.0
 40
3.0
 40
3.0
 10
215.8595280507582
 20
241.5678346481231
 30
0.0
 10
215.8485743492434
 20
241.5708101923024
 30
0.0
 10
215.8376206477286
 20
241.5737857364818
 30
0.0
 10
214.7866269999072
 20
241.8606901423635
 30
0.0
 10
213.6974950134453
 20
242.1353136103405
 30
0.0
 10
213.6856760619482
 20
242.1383099531386
 30
0.0
 10
213.673857110451
 20
242.1413062959367
 30
0.0
  0
SPLINE
  5
33A
102
{ACAD_REACTORS
330
398
102
}
330
A
100
AcDbEntity
  8
0
  6
Continuous
 62
     7
370
    15
100
AcDbSpline
210
0.0
220
0.0
230
1.0
 70
     8
 71
     2
 72
    11
 73
     8
 74
     0
 42
0.000000001
 43
0.000001
 40
0.0
 40
0.0
 40
0.0
 40
1.0
 40
1.0
 40
2.0
 40
3.0
 40
3.0
 40
4.0
 40
4.0
 40
4.0
 10
212.0734737028103
 20
242.1070602395839
 30
0.0
 10
212.0644209158299
 20
242.1041086713841
 30
0.0
 10
212.0553681288494
 20
242.1011571031841
 30
0.0
 10
211.3650580464636
 20
241.8779155135565
 30
0.0
 10
210.4489802136159
 20
241.5622128668266
 30
0.0
 10
210.1650581852749
 20
241.462915940783
 30
0.0
 10
210.1555886228765
 20
241.4596075228106
 30
0.0
 10
210.1461190604783
 20
241.456299104838
 30
0.0
  0
SPLINE
  5
33B
102
{ACAD_REACTORS
330
398
102
}
330
A
100
AcDbEntity
  8
0
  6
Continuous
 62
     7
370
    15
100
AcDbSpline
210
0.0
220
0.0
230
1.0
 70
     8
 71
     2
 72
    15
 73
    12
 74
     0
 42
0.000000001
 43
0.000001
 40
0.0
 40
0.0
 40
0.0
 40
1.0
 40
1.0
 40
2.0
 40
3.0
 40
4.0
 40
5.0
 40
6.0
 40
7.0
 40
7.0
 40
8.0
 40
8.0
 40
8.0
 10
213.6740596783344
 20
242.1406163282556
 30
0.0
 10
213.6737348348397
 20
242.1407175411207
 30
0.0
 10
213.673409991345
 20
242.1408187539857
 30
0.0
 10
213.5930318351544
 20
242.1664445599112
 30
0.0
 10
213.3732068991606
 20
242.2006358483064
 30
0.0
 10
213.0737968711613
 20
242.2271101899904
 30
0.0
 10
212.6885863097113
 20
242.2233215899168
 30
0.0
 10
212.3223165916584
 20
242.1785454654491
 30
0.0
 10
212.1292188397123
 20
242.1247572803051
 30
0.0
 10
212.0748316924615
 20
242.1083801956067
 30
0.0
 10
212.073014400313
 20
242.1078373356902
 30
0.0
 10
212.0711971081645
 20
242.1072944757738
 30
0.0
  0
ENDSEC
  0
SECTION
  2
OBJECTS
  0
DICTIONARY
  5
19
330
0
100
AcDbDictionary
281
     1
  3
ACAD_DETAILVIEWSTYLE
350
385
  3
ACAD_GROUP
350
1A
  3
ACAD_LAYOUT
350
1E
  3
ACAD_MATERIAL
350
377
  3
ACAD_MLEADERSTYLE
350
37D
  3
ACAD_MLINESTYLE
350
1B
  3
ACAD_PLOTSETTINGS
350
22
  3
ACAD_PLOTSTYLENAME
350
1F
  3
ACAD_SCALELIST
350
33C
  3
ACAD_SECTIONVIEWSTYLE
350
386
  3
ACAD_TABLESTYLE
350
37B
  3
ACAD_VISUALSTYLE
350
35E
  3
ACAD_WIPEOUT_VARS
350
23
  3
ACDB_RECOMPOSE_DATA
350
39C
  3
AcDbVariableDictionary
350
380
  3
APPDATA
350
37F
  0
SUN
  5
387
330
15
100
AcDbSun
 90
        1
290
     0
 63
     7
421
 16777215
 40
1.0
291
     1
 91
  2455826
 92
 54000000
292
     0
 70
     2
 71
   256
280
     1
  0
DICTIONARY
  5
385
102
{ACAD_REACTORS
330
19
102
}
330
19
100
AcDbDictionary
281
     1
  0
DICTIONARY
  5
1A
102
{ACAD_REACTORS
330
19
102
}
330
19
100
AcDbDictionary
281
     1
  3
*A1
350
398
  0
DICTIONARY
  5
1E
102
{ACAD_REACTORS
330
19
102
}
330
19
100
AcDbDictionary
281
     1
  3
Layout1
350
21
  3
Model
350
20
  0
DICTIONARY
  5
377
102
{ACAD_REACTORS
330
19
102
}
330
19
100
AcDbDictionary
281
     1
  3
ByBlock
350
379
  3
ByLayer
350
378
  3
Global
350
37A
  0
DICTIONARY
  5
37D
102
{ACAD_REACTORS
330
19
102
}
330
19
100
AcDbDictionary
281
     1
  3
Standard
350
37E
  0
DICTIONARY
  5
1B
102
{ACAD_REACTORS
330
19
102
}
330
19
100
AcDbDictionary
281
     1
  3
Standard
350
1C
  0
DICTIONARY
  5
22
102
{ACAD_REACTORS
330
19
102
}
330
19
100
AcDbDictionary
281
     1
  0
ACDBDICTIONARYWDFLT
  5
1F
102
{ACAD_REACTORS
330
19
102
}
330
19
100
AcDbDictionary
281
     1
  3
Normal
350
1D
100
AcDbDictionaryWithDefault
340
1D
  0
DICTIONARY
  5
33C
102
{ACAD_REACTORS
330
19
102
}
330
19
100
AcDbDictionary
281
     1
  3
A0
350
33D
  3
A1
350
33E
  3
A2
350
33F
  3
A3
350
340
  3
A4
350
341
  3
A5
350
342
  3
A6
350
343
  3
A7
350
344
  3
A8
350
345
  3
A9
350
346
  3
B0
350
347
  3
B1
350
348
  3
B2
350
349
  3
B3
350
34A
  3
B4
350
34B
  3
B5
350
34C
  3
B6
350
34D
  3
B7
350
34E
  3
B8
350
34F
  3
B9
350
350
  3
C0
350
351
  3
C1
350
352
  3
C2
350
353
  3
C3
350
354
  3
C4
350
355
  3
C5
350
356
  3
C6
350
357
  3
C7
350
358
  3
C8
350
359
  3
C9
350
35A
  3
D0
350
35B
  3
D1
350
35C
  3
D2
350
35D
  0
DICTIONARY
  5
386
102
{ACAD_REACTORS
330
19
102
}
330
19
100
AcDbDictionary
281
     1
  0
DICTIONARY
  5
37B
102
{ACAD_REACTORS
330
19
102
}
330
19
100
AcDbDictionary
281
     1
  3
Standard
350
37C
  0
DICTIONARY
  5
35E
102
{ACAD_REACTORS
330
19
102
}
330
19
100
AcDbDictionary
281
     1
  3
2dWireframe
350
363
  3
Basic
350
366
  3
Brighten
350
36A
  3
ColorChange
350
36E
  3
Conceptual
350
368
  3
Dim
350
369
  3
EdgeColorOff
350
371
  3
Facepattern
350
36D
  3
Flat
350
35F
  3
FlatWithEdges
350
360
  3
Gouraud
350
361
  3
GouraudWithEdges
350
362
  3
Hidden
350
365
  3
JitterOff
350
36F
  3
Linepattern
350
36C
  3
OverhangOff
350
370
  3
Realistic
350
367
  3
Shaded
350
376
  3
Shaded with edges
350
375
  3
Shades of Gray
350
372
  3
Sketchy
350
373
  3
Thicken
350
36B
  3
Wireframe
350
364
  3
X-Ray
350
374
  0
WIPEOUTVARIABLES
  5
23
330
19
100
AcDbWipeoutVariables
 70
     1
  0
XRECORD
  5
39C
102
{ACAD_REACTORS
330
19
102
}
330
19
100
AcDbXrecord
280
     1
 90
        1
330
37C
  0
DICTIONARY
  5
380
102
{ACAD_REACTORS
330
19
102
}
330
19
100
AcDbDictionary
281
     1
  3
CANNOSCALE
350
381
  3
CMLEADERSTYLE
350
383
  3
CTABLESTYLE
350
382
  3
MSLTSCALE
350
384
  0
DICTIONARY
  5
37F
102
{ACAD_REACTORS
330
19
102
}
330
19
100
AcDbDictionary
281
     1
  0
GROUP
  5
398
102
{ACAD_REACTORS
330
1A
102
}
330
1A
100
AcDbGroup
300

 70
     1
 71
     1
340
36
340
37
340
38
340
39
340
3A
340
3B
340
3C
340
3D
340
3E
340
3F
340
40
340
41
340
42
340
43
340
44
340
45
340
46
340
47
340
48
340
49
340
4A
340
4B
340
4C
340
4D
340
4E
340
4F
340
50
340
51
340
52
340
53
340
54
340
55
340
56
340
57
340
58
340
59
340
5A
340
5B
340
6D
340
78
340
79
340
7A
340
7B
340
7C
340
7D
340
7E
340
8F
340
90
340
91
340
92
340
93
340
A7
340
A8
340
BA
340
BB
340
BC
340
BD
340
CE
340
CF
340
D0
340
D1
340
D2
340
D3
340
D4
340
D5
340
D6
340
D7
340
D8
340
D9
340
DA
340
DB
340
DC
340
DD
340
DE
340
DF
340
E0
340
E1
340
E2
340
E3
340
E4
340
E5
340
E6
340
E7
340
E8
340
E9
340
EA
340
F5
340
F6
340
F7
340
F8
340
F9
340
104
340
105
340
118
340
12B
340
157
340
175
340
188
340
189
340
18A
340
18B
340
193
340
194
340
195
340
196
340
197
340
198
340
199
340
19A
340
1A2
340
1A3
340
1A4
340
1A5
340
1A6
340
1A7
340
1A8
340
1A9
340
1AA
340
1B6
340
1B7
340
1B8
340
1B9
340
1BA
340
1BB
340
1C0
340
1CF
340
1D0
340
1D1
340
1D2
340
1D3
340
1D4
340
1D5
340
1D6
340
1D7
340
1D8
340
1D9
340
1DA
340
1DB
340
1DC
340
1DD
340
1DE
340
1DF
340
1E0
340
1E1
340
1E2
340
1E3
340
1E4
340
1E5
340
1E6
340
1E7
340
1E8
340
1E9
340
1EA
340
1EB
340
1EC
340
1ED
340
1F8
340
1F9
340
204
340
205
340
206
340
207
340
208
340
209
340
20A
340
20B
340
20C
340
211
340
219
340
21A
340
21B
340
222
340
22C
340
22D
340
22E
340
22F
340
243
340
244
340
258
340
259
340
26D
340
26E
340
282
340
283
340
284
340
285
340
286
340
287
340
288
340
289
340
28A
340
292
340
293
340
294
340
295
340
296
340
297
340
298
340
299
340
29A
340
29B
340
29C
340
29D
340
29E
340
29F
340
2A0
340
2A1
340
2A2
340
2A3
340
2A4
340
2A5
340
2A6
340
2A7
340
2AF
340
2B0
340
2B8
340
2B9
340
2C0
340
2C7
340
2C8
340
2C9
340
2D1
340
2D2
340
2D3
340
2DA
340
2DB
340
2DC
340
2DD
340
2DE
340
2DF
340
2E0
340
2E1
340
2E2
340
2E3
340
2E4
340
2E5
340
2E6
340
2F2
340
2FE
340
30A
340
30B
340
30C
340
30D
340
30E
340
30F
340
310
340
311
340
312
340
313
340
314
340
31F
340
320
340
321
340
322
340
323
340
32E
340
32F
340
330
340
331
340
332
340
333
340
334
340
335
340
336
340
337
340
338
340
339
340
33A
340
33B
  0
LAYOUT
  5
21
102
{ACAD_REACTORS
330
1E
102
}
330
1E
100
AcDbPlotSettings
  1

  2

  4

  6

 40
0.0
 41
0.0
 42
0.0
 43
0.0
 44
0.0
 45
0.0
 46
0.0
 47
0.0
 48
0.0
 49
0.0
140
0.0
141
0.0
142
1.0
143
1.0
 70
     0
 72
     0
 73
     0
 74
     0
  7

 75
     0
 76
     0
 77
     2
 78
   300
147
1.0
148
0.0
149
0.0
100
AcDbLayout
  1
Layout1
 70
     0
 71
     0
 10
0.0
 20
0.0
 11
0.0
 21
0.0
 12
0.0
 22
0.0
 32
0.0
 14
0.0
 24
0.0
 34
0.0
 15
0.0
 25
0.0
 35
0.0
146
0.0
 13
0.0
 23
0.0
 33
0.0
 16
0.0
 26
0.0
 36
0.0
 17
0.0
 27
0.0
 37
0.0
 76
     0
330
B
  0
LAYOUT
  5
20
102
{ACAD_REACTORS
330
1E
102
}
330
1E
100
AcDbPlotSettings
  1

  2

  4

  6

 40
0.0
 41
0.0
 42
0.0
 43
0.0
 44
0.0
 45
0.0
 46
0.0
 47
0.0
 48
0.0
 49
0.0
140
0.0
141
0.0
142
1.0
143
1.0
 70
  1024
 72
     0
 73
     0
 74
     0
  7

 75
     0
 76
     0
 77
     2
 78
   300
147
1.0
148
0.0
149
0.0
100
AcDbLayout
  1
Model
 70
     0
 71
     1
 10
0.0
 20
0.0
 11
0.0
 21
0.0
 12
0.0
 22
0.0
 32
0.0
 14
203.1213931510331
 24
50.01346009418324
 34
0.0
 15
291.4319215735662
 25
246.9074801712344
 35
0.0
146
0.0
 13
0.0
 23
0.0
 33
0.0
 16
0.0
 26
0.0
 36
0.0
 17
0.0
 27
0.0
 37
0.0
 76
     0
330
A
331
15
  0
MATERIAL
  5
379
102
{ACAD_REACTORS
330
377
102
}
330
377
100
AcDbMaterial
  1
ByBlock
 72
     1
 94
      127
  0
MATERIAL
  5
378
102
{ACAD_REACTORS
330
377
102
}
330
377
100
AcDbMaterial
  1
ByLayer
 72
     1
 94
      127
  0
MATERIAL
  5
37A
102
{ACAD_REACTORS
330
377
102
}
330
377
100
AcDbMaterial
  1
Global
 72
     1
 94
      127
  0
MLEADERSTYLE
  5
37E
102
{ACAD_REACTORS
330
37D
102
}
330
37D
100
AcDbMLeaderStyle
179
     2
170
     2
171
     1
172
     0
 90
        2
 40
0.0
 41
0.0
173
     1
 91
-1056964608
340
11
 92
       -2
290
     1
 42
2.0
291
     1
 43
8.0
  3
Standard
341
0
 44
4.0
300

342
17
174
     1
178
     1
175
     1
176
     0
 93
-1056964608
 45
4.0
292
     0
297
     0
 46
4.0
343
0
 94
-1056964608
 47
1.0
 49
1.0
140
1.0
293
     1
141
0.0
294
     1
177
     0
142
1.0
295
     0
296
     0
143
3.75
271
     0
272
     9
273
     9
298
     0
  0
MLINESTYLE
  5
1C
102
{ACAD_REACTORS
330
1B
102
}
330
1B
100
AcDbMlineStyle
  2
Standard
 70
     0
  3

 62
     0
 51
90.0
 52
90.0
 71
     2
 49
0.5
 62
   256
  6
BYLAYER
 49
-0.5
 62
   256
  6
BYLAYER
  0
ACDBPLACEHOLDER
  5
1D
102
{ACAD_REACTORS
330
1F
102
}
330
1F
  0
SCALE
  5
33D
102
{ACAD_REACTORS
330
33C
102
}
330
33C
100
AcDbScale
 70
     0
300
1:1
140
1.0
141
1.0
290
     1
  0
SCALE
  5
33E
102
{ACAD_REACTORS
330
33C
102
}
330
33C
100
AcDbScale
 70
     0
300
1:2
140
1.0
141
2.0
290
     0
  0
SCALE
  5
33F
102
{ACAD_REACTORS
330
33C
102
}
330
33C
100
AcDbScale
 70
     0
300
1:4
140
1.0
141
4.0
290
     0
  0
SCALE
  5
340
102
{ACAD_REACTORS
330
33C
102
}
330
33C
100
AcDbScale
 70
     0
300
1:5
140
1.0
141
5.0
290
     0
  0
SCALE
  5
341
102
{ACAD_REACTORS
330
33C
102
}
330
33C
100
AcDbScale
 70
     0
300
1:8
140
1.0
141
8.0
290
     0
  0
SCALE
  5
342
102
{ACAD_REACTORS
330
33C
102
}
330
33C
100
AcDbScale
 70
     0
300
1:10
140
1.0
141
10.0
290
     0
  0
SCALE
  5
343
102
{ACAD_REACTORS
330
33C
102
}
330
33C
100
AcDbScale
 70
     0
300
1:16
140
1.0
141
16.0
290
     0
  0
SCALE
  5
344
102
{ACAD_REACTORS
330
33C
102
}
330
33C
100
AcDbScale
 70
     0
300
1:20
140
1.0
141
20.0
290
     0
  0
SCALE
  5
345
102
{ACAD_REACTORS
330
33C
102
}
330
33C
100
AcDbScale
 70
     0
300
1:30
140
1.0
141
30.0
290
     0
  0
SCALE
  5
346
102
{ACAD_REACTORS
330
33C
102
}
330
33C
100
AcDbScale
 70
     0
300
1:40
140
1.0
141
40.0
290
     0
  0
SCALE
  5
347
102
{ACAD_REACTORS
330
33C
102
}
330
33C
100
AcDbScale
 70
     0
300
1:50
140
1.0
141
50.0
290
     0
  0
SCALE
  5
348
102
{ACAD_REACTORS
330
33C
102
}
330
33C
100
AcDbScale
 70
     0
300
1:100
140
1.0
141
100.0
290
     0
  0
SCALE
  5
349
102
{ACAD_REACTORS
330
33C
102
}
330
33C
100
AcDbScale
 70
     0
300
2:1
140
2.0
141
1.0
290
     0
  0
SCALE
  5
34A
102
{ACAD_REACTORS
330
33C
102
}
330
33C
100
AcDbScale
 70
     0
300
4:1
140
4.0
141
1.0
290
     0
  0
SCALE
  5
34B
102
{ACAD_REACTORS
330
33C
102
}
330
33C
100
AcDbScale
 70
     0
300
8:1
140
8.0
141
1.0
290
     0
  0
SCALE
  5
34C
102
{ACAD_REACTORS
330
33C
102
}
330
33C
100
AcDbScale
 70
     0
300
10:1
140
10.0
141
1.0
290
     0
  0
SCALE
  5
34D
102
{ACAD_REACTORS
330
33C
102
}
330
33C
100
AcDbScale
 70
     0
300
100:1
140
100.0
141
1.0
290
     0
  0
SCALE
  5
34E
102
{ACAD_REACTORS
330
33C
102
}
330
33C
100
AcDbScale
 70
     0
300
1/128" = 1'-0"
140
0.0078125
141
12.0
290
     0
  0
SCALE
  5
34F
102
{ACAD_REACTORS
330
33C
102
}
330
33C
100
AcDbScale
 70
     0
300
1/64" = 1'-0"
140
0.015625
141
12.0
290
     0
  0
SCALE
  5
350
102
{ACAD_REACTORS
330
33C
102
}
330
33C
100
AcDbScale
 70
     0
300
1/32" = 1'-0"
140
0.03125
141
12.0
290
     0
  0
SCALE
  5
351
102
{ACAD_REACTORS
330
33C
102
}
330
33C
100
AcDbScale
 70
     0
300
1/16" = 1'-0"
140
0.0625
141
12.0
290
     0
  0
SCALE
  5
352
102
{ACAD_REACTORS
330
33C
102
}
330
33C
100
AcDbScale
 70
     0
300
3/32" = 1'-0"
140
0.09375
141
12.0
290
     0
  0
SCALE
  5
353
102
{ACAD_REACTORS
330
33C
102
}
330
33C
100
AcDbScale
 70
     0
300
1/8" = 1'-0"
140
0.125
141
12.0
290
     0
  0
SCALE
  5
354
102
{ACAD_REACTORS
330
33C
102
}
330
33C
100
AcDbScale
 70
     0
300
3/16" = 1'-0"
140
0.1875
141
12.0
290
     0
  0
SCALE
  5
355
102
{ACAD_REACTORS
330
33C
102
}
330
33C
100
AcDbScale
 70
     0
300
1/4" = 1'-0"
140
0.25
141
12.0
290
     0
  0
SCALE
  5
356
102
{ACAD_REACTORS
330
33C
102
}
330
33C
100
AcDbScale
 70
     0
300
3/8" = 1'-0"
140
0.375
141
12.0
290
     0
  0
SCALE
  5
357
102
{ACAD_REACTORS
330
33C
102
}
330
33C
100
AcDbScale
 70
     0
300
1/2" = 1'-0"
140
0.5
141
12.0
290
     0
  0
SCALE
  5
358
102
{ACAD_REACTORS
330
33C
102
}
330
33C
100
AcDbScale
 70
     0
300
3/4" = 1'-0"
140
0.75
141
12.0
290
     0
  0
SCALE
  5
359
102
{ACAD_REACTORS
330
33C
102
}
330
33C
100
AcDbScale
 70
     0
300
1" = 1'-0"
140
1.0
141
12.0
290
     0
  0
SCALE
  5
35A
102
{ACAD_REACTORS
330
33C
102
}
330
33C
100
AcDbScale
 70
     0
300
1-1/2" = 1'-0"
140
1.5
141
12.0
290
     0
  0
SCALE
  5
35B
102
{ACAD_REACTORS
330
33C
102
}
330
33C
100
AcDbScale
 70
     0
300
3" = 1'-0"
140
3.0
141
12.0
290
     0
  0
SCALE
  5
35C
102
{ACAD_REACTORS
330
33C
102
}
330
33C
100
AcDbScale
 70
     0
300
6" = 1'-0"
140
6.0
141
12.0
290
     0
  0
SCALE
  5
35D
102
{ACAD_REACTORS
330
33C
102
}
330
33C
100
AcDbScale
 70
     0
300
1'-0" = 1'-0"
140
12.0
141
12.0
290
     0
  0
TABLESTYLE
  5
37C
102
{ACAD_REACTORS
330
37B
102
}
102
{ACAD_XDICTIONARY
360
39A
102
}
330
37B
100
AcDbTableStyle
  3
Standard
 70
     0
 71
     0
 40
1.5
 41
1.5
280
     0
281
     0
  7
Standard
140
4.5
170
     2
 62
     0
 63
   257
283
     0
 90
        4
 91
        0
  1

274
    -2
284
     1
 64
     0
275
    -2
285
     1
 65
     0
276
    -2
286
     1
 66
     0
277
    -2
287
     1
 67
     0
278
    -2
288
     1
 68
     0
279
    -2
289
     1
 69
     0
  7
Standard
140
6.0
170
     5
 62
     0
 63
   257
283
     0
 90
        4
 91
        0
  1

274
    -2
284
     1
 64
     0
275
    -2
285
     1
 65
     0
276
    -2
286
     1
 66
     0
277
    -2
287
     1
 67
     0
278
    -2
288
     1
 68
     0
279
    -2
289
     1
 69
     0
  7
Standard
140
4.5
170
     5
 62
     0
 63
   257
283
     0
 90
        4
 91
        0
  1

274
    -2
284
     1
 64
     0
275
    -2
285
     1
 65
     0
276
    -2
286
     1
 66
     0
277
    -2
287
     1
 67
     0
278
    -2
288
     1
 68
     0
279
    -2
289
     1
 69
     0
  0
VISUALSTYLE
  5
363
102
{ACAD_REACTORS
330
35E
102
}
330
35E
100
AcDbVisualStyle
  2
2dWireframe
 70
     4
177
     3
291
     0
 70
    58
 90
        0
176
     1
 90
        2
176
     1
 90
        0
176
     1
 90
        0
176
     1
 40
0.6
176
     1
 40
30.0
176
     1
 62
     7
420
 16777215
176
     1
 90
        1
176
     1
 90
        4
176
     1
 62
     7
176
     1
 62
   257
176
     1
 90
        1
176
     1
 90
        1
176
     1
 40
1.0
176
     1
 90
        0
176
     1
 62
   257
176
     1
 40
1.0
176
     1
 90
        1
176
     1
 90
        6
176
     1
 90
        2
176
     1
 62
     7
176
     1
 90
        5
176
     1
 90
        0
176
     1
 90
        0
176
     1
290
     0
176
     1
 90
        1
176
     1
 40
0.0
176
     1
 90
        0
176
     1
290
     1
176
     1
290
     1
176
     1
290
     0
176
     1
290
     0
176
     1
290
     0
176
     1
290
     0
176
     1
290
     0
176
     1
290
     0
176
     1
290
     0
176
     1
 90
       50
176
     1
 40
0.0
176
     1
 40
1.0
176
     1
 90
        0
176
     1
 62
    18
420
        0
176
     1
 90
       50
176
     1
 90
        3
176
     1
 62
     5
420
      255
176
     1
290
     0
176
     1
 90
       50
176
     1
 90
       50
176
     1
 90
       50
176
     1
290
     0
176
     1
 90
       50
176
     1
 62
   256
176
     0
 40
1.0
176
     0
 90
        2
176
     1
  1
strokes_ogs.tif
176
     1
290
     0
176
     1
 40
1.0
176
     1
 40
1.0
176
     1
  0
VISUALSTYLE
  5
366
102
{ACAD_REACTORS
330
35E
102
}
330
35E
100
AcDbVisualStyle
  2
Basic
 70
     7
177
     3
291
     1
 70
    58
 90
        1
176
     1
 90
        0
176
     1
 90
        1
176
     1
 90
        0
176
     1
 40
0.6
176
     1
 40
30.0
176
     1
 62
     7
420
 16777215
176
     1
 90
        0
176
     1
 90
        4
176
     1
 62
     7
176
     1
 62
   257
176
     1
 90
        1
176
     1
 90
        1
176
     1
 40
1.0
176
     1
 90
        8
176
     1
 62
     7
176
     1
 40
1.0
176
     1
 90
        1
176
     1
 90
        6
176
     1
 90
        2
176
     1
 62
     7
176
     1
 90
        5
176
     1
 90
        0
176
     1
 90
        0
176
     1
290
     0
176
     1
 90
        1
176
     1
 40
0.0
176
     1
 90
        0
176
     1
290
     0
176
     1
290
     1
176
     1
290
     1
176
     1
290
     0
176
     1
290
     0
176
     1
290
     0
176
     1
290
     0
176
     1
290
     0
176
     1
290
     0
176
     1
 90
       50
176
     1
 40
0.0
176
     1
 40
1.0
176
     1
 90
        0
176
     1
 62
    18
420
        0
176
     1
 90
       50
176
     1
 90
        3
176
     1
 62
     5
420
      255
176
     1
290
     0
176
     1
 90
       50
176
     1
 90
       50
176
     1
 90
       50
176
     1
290
     0
176
     1
 90
       50
176
     1
 62
   256
176
     0
 40
1.0
176
     0
 90
        2
176
     1
  1
strokes_ogs.tif
176
     1
290
     0
176
     1
 40
1.0
176
     1
 40
1.0
176
     1
  0
VISUALSTYLE
  5
36A
102
{ACAD_REACTORS
330
35E
102
}
330
35E
100
AcDbVisualStyle
  2
Brighten
 70
    12
177
     3
291
     1
 70
    58
 90
        2
176
     1
 90
        2
176
     1
 90
        0
176
     1
 90
        0
176
     1
 40
0.6
176
     1
 40
30.0
176
     1
 62
     7
420
 16777215
176
     1
 90
        1
176
     1
 90
        4
176
     1
 62
     7
176
     1
 62
   257
176
     1
 90
        1
176
     1
 90
        1
176
     1
 40
1.0
176
     1
 90
        8
176
     1
 62
     7
176
     1
 40
1.0
176
     1
 90
        1
176
     1
 90
        6
176
     1
 90
        2
176
     1
 62
     7
176
     1
 90
        5
176
     1
 90
        0
176
     1
 90
        0
176
     1
290
     0
176
     1
 90
        1
176
     1
 40
50.0
176
     1
 90
        0
176
     1
290
     0
176
     1
290
     1
176
     1
290
     1
176
     1
290
     0
176
     1
290
     0
176
     1
290
     0
176
     1
290
     0
176
     1
290
     0
176
     1
290
     0
176
     1
 90
       50
176
     1
 40
0.0
176
     1
 40
1.0
176
     1
 90
        0
176
     1
 62
    18
420
        0
176
     1
 90
       50
176
     1
 90
        3
176
     1
 62
     5
420
      255
176
     1
290
     0
176
     1
 90
       50
176
     1
 90
       50
176
     1
 90
       50
176
     1
290
     0
176
     1
 90
       50
176
     1
 62
   256
176
     0
 40
1.0
176
     0
 90
        2
176
     1
  1
strokes_ogs.tif
176
     1
290
     0
176
     1
 40
1.0
176
     1
 40
1.0
176
     1
  0
VISUALSTYLE
  5
36E
102
{ACAD_REACTORS
330
35E
102
}
330
35E
100
AcDbVisualStyle
  2
ColorChange
 70
    16
177
     3
291
     1
 70
    58
 90
        2
176
     1
 90
        2
176
     1
 90
        3
176
     1
 90
        0
176
     1
 40
0.6
176
     1
 40
30.0
176
     1
 62
     8
420
  8421504
176
     1
 90
        1
176
     1
 90
        4
176
     1
 62
     7
176
     1
 62
   257
176
     1
 90
        1
176
     1
 90
        1
176
     1
 40
1.0
176
     1
 90
        8
176
     1
 62
     8
420
  8421504
176
     1
 40
1.0
176
     1
 90
        1
176
     1
 90
        6
176
     1
 90
        2
176
     1
 62
     7
176
     1
 90
        5
176
     1
 90
        0
176
     1
 90
        0
176
     1
290
     0
176
     1
 90
        1
176
     1
 40
0.0
176
     1
 90
        0
176
     1
290
     0
176
     1
290
     1
176
     1
290
     1
176
     1
290
     0
176
     1
290
     0
176
     1
290
     0
176
     1
290
     0
176
     1
290
     0
176
     1
290
     0
176
     1
 90
       50
176
     1
 40
0.0
176
     1
 40
1.0
176
     1
 90
        0
176
     1
 62
    18
420
        0
176
     1
 90
       50
176
     1
 90
        3
176
     1
 62
     5
420
      255
176
     1
290
     0
176
     1
 90
       50
176
     1
 90
       50
176
     1
 90
       50
176
     1
290
     0
176
     1
 90
       50
176
     1
 62
   256
176
     0
 40
1.0
176
     0
 90
        2
176
     1
  1
strokes_ogs.tif
176
     1
290
     0
176
     1
 40
1.0
176
     1
 40
1.0
176
     1
  0
VISUALSTYLE
  5
368
102
{ACAD_REACTORS
330
35E
102
}
330
35E
100
AcDbVisualStyle
  2
Conceptual
 70
     9
177
     3
291
     0
 70
    58
 90
        3
176
     1
 90
        2
176
     1
 90
        0
176
     1
 90
        0
176
     1
 40
0.6
176
     1
 40
30.0
176
     1
 62
     7
420
 16777215
176
     1
 90
        2
176
     1
 90
        2
176
     1
 62
     7
176
     1
 62
   257
176
     1
 90
        1
176
     1
 90
        1
176
     1
 40
179.0
176
     1
 90
        8
176
     1
 62
     7
176
     1
 40
1.0
176
     1
 90
        1
176
     1
 90
        6
176
     1
 90
        2
176
     1
 62
     7
176
     1
 90
        3
176
     1
 90
        0
176
     1
 90
        0
176
     1
290
     0
176
     1
 90
        1
176
     1
 40
0.0
176
     1
 90
        0
176
     1
290
     0
176
     1
290
     1
176
     1
290
     1
176
     1
290
     0
176
     1
290
     0
176
     1
290
     0
176
     1
290
     0
176
     1
290
     0
176
     1
290
     0
176
     1
 90
       50
176
     1
 40
0.0
176
     1
 40
1.0
176
     1
 90
        0
176
     1
 62
    18
420
        0
176
     1
 90
       50
176
     1
 90
        3
176
     1
 62
     5
420
      255
176
     1
290
     0
176
     1
 90
       50
176
     1
 90
       50
176
     1
 90
       50
176
     1
290
     0
176
     1
 90
       50
176
     1
 62
   256
176
     0
 40
1.0
176
     0
 90
        2
176
     1
  1
strokes_ogs.tif
176
     1
290
     0
176
     1
 40
1.0
176
     1
 40
1.0
176
     1
  0
VISUALSTYLE
  5
369
102
{ACAD_REACTORS
330
35E
102
}
330
35E
100
AcDbVisualStyle
  2
Dim
 70
    11
177
     3
291
     1
 70
    58
 90
        2
176
     1
 90
        2
176
     1
 90
        0
176
     1
 90
        0
176
     1
 40
0.6
176
     1
 40
30.0
176
     1
 62
     7
420
 16777215
176
     1
 90
        1
176
     1
 90
        4
176
     1
 62
     7
176
     1
 62
   257
176
     1
 90
        1
176
     1
 90
        1
176
     1
 40
1.0
176
     1
 90
        8
176
     1
 62
     7
176
     1
 40
1.0
176
     1
 90
        1
176
     1
 90
        6
176
     1
 90
        2
176
     1
 62
     7
176
     1
 90
        5
176
     1
 90
        0
176
     1
 90
        0
176
     1
290
     0
176
     1
 90
        1
176
     1
 40
-50.0
176
     1
 90
        0
176
     1
290
     0
176
     1
290
     1
176
     1
290
     1
176
     1
290
     0
176
     1
290
     0
176
     1
290
     0
176
     1
290
     0
176
     1
290
     0
176
     1
290
     0
176
     1
 90
       50
176
     1
 40
0.0
176
     1
 40
1.0
176
     1
 90
        0
176
     1
 62
    18
420
        0
176
     1
 90
       50
176
     1
 90
        3
176
     1
 62
     5
420
      255
176
     1
290
     0
176
     1
 90
       50
176
     1
 90
       50
176
     1
 90
       50
176
     1
290
     0
176
     1
 90
       50
176
     1
 62
   256
176
     0
 40
1.0
176
     0
 90
        2
176
     1
  1
strokes_ogs.tif
176
     1
290
     0
176
     1
 40
1.0
176
     1
 40
1.0
176
     1
  0
VISUALSTYLE
  5
371
102
{ACAD_REACTORS
330
35E
102
}
330
35E
100
AcDbVisualStyle
  2
EdgeColorOff
 70
    22
177
     3
291
     1
 70
    58
 90
        2
176
     0
 90
        2
176
     0
 90
        0
176
     0
 90
        0
176
     0
 40
0.6
176
     0
 40
30.0
176
     0
 62
     7
420
 16777215
176
     0
 90
        1
176
     0
 90
        4
176
     0
 62
     7
176
     0
 62
   257
176
     0
 90
        1
176
     0
 90
        1
176
     0
 40
1.0
176
     0
 90
        8
176
     2
 62
     7
176
     0
 40
1.0
176
     0
 90
        1
176
     0
 90
        6
176
     0
 90
        2
176
     0
 62
     7
176
     0
 90
        5
176
     0
 90
        0
176
     0
 90
        0
176
     0
290
     0
176
     0
 90
        1
176
     0
 40
0.0
176
     0
 90
        0
176
     0
290
     0
176
     0
290
     1
176
     0
290
     1
176
     0
290
     0
176
     0
290
     0
176
     0
290
     0
176
     0
290
     0
176
     0
290
     0
176
     0
290
     0
176
     0
 90
       50
176
     0
 40
0.0
176
     0
 40
1.0
176
     0
 90
        0
176
     0
 62
    18
420
        0
176
     0
 90
       50
176
     0
 90
        3
176
     0
 62
     5
420
      255
176
     0
290
     0
176
     0
 90
       50
176
     0
 90
       50
176
     0
 90
       50
176
     0
290
     0
176
     0
 90
       50
176
     0
 62
   256
176
     0
 40
1.0
176
     0
 90
        2
176
     0
  1
strokes_ogs.tif
176
     0
290
     0
176
     0
 40
1.0
176
     0
 40
1.0
176
     0
  0
VISUALSTYLE
  5
36D
102
{ACAD_REACTORS
330
35E
102
}
330
35E
100
AcDbVisualStyle
  2
Facepattern
 70
    15
177
     3
291
     1
 70
    58
 90
        2
176
     1
 90
        2
176
     1
 90
        0
176
     1
 90
        0
176
     1
 40
0.6
176
     1
 40
30.0
176
     1
 62
     7
420
 16777215
176
     1
 90
        1
176
     1
 90
        4
176
     1
 62
     7
176
     1
 62
   257
176
     1
 90
        1
176
     1
 90
        1
176
     1
 40
1.0
176
     1
 90
        8
176
     1
 62
     7
176
     1
 40
1.0
176
     1
 90
        1
176
     1
 90
        6
176
     1
 90
        2
176
     1
 62
     7
176
     1
 90
        5
176
     1
 90
        0
176
     1
 90
        0
176
     1
290
     0
176
     1
 90
        1
176
     1
 40
0.0
176
     1
 90
        0
176
     1
290
     0
176
     1
290
     1
176
     1
290
     1
176
     1
290
     0
176
     1
290
     0
176
     1
290
     0
176
     1
290
     0
176
     1
290
     0
176
     1
290
     0
176
     1
 90
       50
176
     1
 40
0.0
176
     1
 40
1.0
176
     1
 90
        0
176
     1
 62
    18
420
        0
176
     1
 90
       50
176
     1
 90
        3
176
     1
 62
     5
420
      255
176
     1
290
     0
176
     1
 90
       50
176
     1
 90
       50
176
     1
 90
       50
176
     1
290
     0
176
     1
 90
       50
176
     1
 62
   256
176
     0
 40
1.0
176
     0
 90
        2
176
     1
  1
strokes_ogs.tif
176
     1
290
     0
176
     1
 40
1.0
176
     1
 40
1.0
176
     1
  0
VISUALSTYLE
  5
35F
102
{ACAD_REACTORS
330
35E
102
}
330
35E
100
AcDbVisualStyle
  2
Flat
 70
     0
177
     3
291
     1
 70
    58
 90
        2
176
     1
 90
        1
176
     1
 90
        1
176
     1
 90
        2
176
     1
 40
0.6
176
     1
 40
30.0
176
     1
 62
     7
420
 16777215
176
     1
 90
        0
176
     1
 90
        0
176
     1
 62
     7
176
     1
 62
   257
176
     1
 90
        1
176
     1
 90
        1
176
     1
 40
1.0
176
     1
 90
        8
176
     1
 62
     7
176
     1
 40
1.0
176
     1
 90
        1
176
     1
 90
        6
176
     1
 90
        2
176
     1
 62
     7
176
     1
 90
        5
176
     1
 90
        0
176
     1
 90
        0
176
     1
290
     0
176
     1
 90
       13
176
     1
 40
0.0
176
     1
 90
        0
176
     1
290
     0
176
     1
290
     1
176
     1
290
     1
176
     1
290
     0
176
     1
290
     0
176
     1
290
     0
176
     1
290
     0
176
     1
290
     0
176
     1
290
     0
176
     1
 90
       50
176
     1
 40
0.0
176
     1
 40
1.0
176
     1
 90
        0
176
     1
 62
    18
420
        0
176
     1
 90
       50
176
     1
 90
        3
176
     1
 62
     5
420
      255
176
     1
290
     0
176
     1
 90
       50
176
     1
 90
       50
176
     1
 90
       50
176
     1
290
     0
176
     1
 90
       50
176
     1
 62
   256
176
     0
 40
1.0
176
     0
 90
        2
176
     1
  1
strokes_ogs.tif
176
     1
290
     0
176
     1
 40
1.0
176
     1
 40
1.0
176
     1
  0
VISUALSTYLE
  5
360
102
{ACAD_REACTORS
330
35E
102
}
330
35E
100
AcDbVisualStyle
  2
FlatWithEdges
 70
     1
177
     3
291
     1
 70
    58
 90
        2
176
     1
 90
        1
176
     1
 90
        1
176
     1
 90
        2
176
     1
 40
0.6
176
     1
 40
30.0
176
     1
 62
     7
420
 16777215
176
     1
 90
        1
176
     1
 90
        0
176
     1
 62
     7
176
     1
 62
   257
176
     1
 90
        1
176
     1
 90
        1
176
     1
 40
1.0
176
     1
 90
        0
176
     1
 62
   257
176
     1
 40
1.0
176
     1
 90
        1
176
     1
 90
        6
176
     1
 90
        2
176
     1
 62
     7
176
     1
 90
        5
176
     1
 90
        0
176
     1
 90
        0
176
     1
290
     0
176
     1
 90
       13
176
     1
 40
0.0
176
     1
 90
        0
176
     1
290
     0
176
     1
290
     1
176
     1
290
     1
176
     1
290
     0
176
     1
290
     0
176
     1
290
     0
176
     1
290
     0
176
     1
290
     0
176
     1
290
     0
176
     1
 90
       50
176
     1
 40
0.0
176
     1
 40
1.0
176
     1
 90
        0
176
     1
 62
    18
420
        0
176
     1
 90
       50
176
     1
 90
        3
176
     1
 62
     5
420
      255
176
     1
290
     0
176
     1
 90
       50
176
     1
 90
       50
176
     1
 90
       50
176
     1
290
     0
176
     1
 90
       50
176
     1
 62
   256
176
     0
 40
1.0
176
     0
 90
        2
176
     1
  1
strokes_ogs.tif
176
     1
290
     0
176
     1
 40
1.0
176
     1
 40
1.0
176
     1
  0
VISUALSTYLE
  5
361
102
{ACAD_REACTORS
330
35E
102
}
330
35E
100
AcDbVisualStyle
  2
Gouraud
 70
     2
177
     3
291
     1
 70
    58
 90
        2
176
     1
 90
        2
176
     1
 90
        1
176
     1
 90
        2
176
     1
 40
0.6
176
     1
 40
30.0
176
     1
 62
     7
420
 16777215
176
     1
 90
        0
176
     1
 90
        0
176
     1
 62
     7
176
     1
 62
   257
176
     1
 90
        1
176
     1
 90
        1
176
     1
 40
1.0
176
     1
 90
        0
176
     1
 62
     7
176
     1
 40
1.0
176
     1
 90
        1
176
     1
 90
        6
176
     1
 90
        2
176
     1
 62
     7
176
     1
 90
        5
176
     1
 90
        0
176
     1
 90
        0
176
     1
290
     0
176
     1
 90
       13
176
     1
 40
0.0
176
     1
 90
        0
176
     1
290
     0
176
     1
290
     1
176
     1
290
     1
176
     1
290
     0
176
     1
290
     0
176
     1
290
     0
176
     1
290
     0
176
     1
290
     0
176
     1
290
     0
176
     1
 90
       50
176
     1
 40
0.0
176
     1
 40
1.0
176
     1
 90
        0
176
     1
 62
    18
420
        0
176
     1
 90
       50
176
     1
 90
        3
176
     1
 62
     5
420
      255
176
     1
290
     0
176
     1
 90
       50
176
     1
 90
       50
176
     1
 90
       50
176
     1
290
     0
176
     1
 90
       50
176
     1
 62
   256
176
     0
 40
1.0
176
     0
 90
        2
176
     1
  1
strokes_ogs.tif
176
     1
290
     0
176
     1
 40
1.0
176
     1
 40
1.0
176
     1
  0
VISUALSTYLE
  5
362
102
{ACAD_REACTORS
330
35E
102
}
330
35E
100
AcDbVisualStyle
  2
GouraudWithEdges
 70
     3
177
     3
291
     1
 70
    58
 90
        2
176
     1
 90
        2
176
     1
 90
        1
176
     1
 90
        2
176
     1
 40
0.6
176
     1
 40
30.0
176
     1
 62
     7
420
 16777215
176
     1
 90
        1
176
     1
 90
        0
176
     1
 62
     7
176
     1
 62
   257
176
     1
 90
        1
176
     1
 90
        1
176
     1
 40
1.0
176
     1
 90
        0
176
     1
 62
   257
176
     1
 40
1.0
176
     1
 90
        1
176
     1
 90
        6
176
     1
 90
        2
176
     1
 62
     7
176
     1
 90
        5
176
     1
 90
        0
176
     1
 90
        0
176
     1
290
     0
176
     1
 90
       13
176
     1
 40
0.0
176
     1
 90
        0
176
     1
290
     0
176
     1
290
     1
176
     1
290
     1
176
     1
290
     0
176
     1
290
     0
176
     1
290
     0
176
     1
290
     0
176
     1
290
     0
176
     1
290
     0
176
     1
 90
       50
176
     1
 40
0.0
176
     1
 40
1.0
176
     1
 90
        0
176
     1
 62
    18
420
        0
176
     1
 90
       50
176
     1
 90
        3
176
     1
 62
     5
420
      255
176
     1
290
     0
176
     1
 90
       50
176
     1
 90
       50
176
     1
 90
       50
176
     1
290
     0
176
     1
 90
       50
176
     1
 62
   256
176
     0
 40
1.0
176
     0
 90
        2
176
     1
  1
strokes_ogs.tif
176
     1
290
     0
176
     1
 40
1.0
176
     1
 40
1.0
176
     1
  0
VISUALSTYLE
  5
365
102
{ACAD_REACTORS
330
35E
102
}
330
35E
100
AcDbVisualStyle
  2
Hidden
 70
     6
177
     3
291
     0
 70
    58
 90
        1
176
     1
 90
        2
176
     1
 90
        2
176
     1
 90
        0
176
     1
 40
0.6
176
     1
 40
30.0
176
     1
 62
     7
420
 16777215
176
     1
 90
        2
176
     1
 90
        2
176
     1
 62
     7
176
     1
 62
   257
176
     1
 90
        2
176
     1
 90
        1
176
     1
 40
40.0
176
     1
 90
        0
176
     1
 62
   257
176
     1
 40
1.0
176
     1
 90
        1
176
     1
 90
        6
176
     1
 90
        2
176
     1
 62
     7
176
     1
 90
        3
176
     1
 90
        0
176
     1
 90
        0
176
     1
290
     0
176
     1
 90
        1
176
     1
 40
0.0
176
     1
 90
        0
176
     1
290
     0
176
     1
290
     1
176
     1
290
     1
176
     1
290
     0
176
     1
290
     0
176
     1
290
     0
176
     1
290
     0
176
     1
290
     0
176
     1
290
     0
176
     1
 90
       50
176
     1
 40
0.0
176
     1
 40
1.0
176
     1
 90
        0
176
     1
 62
    18
420
        0
176
     1
 90
       50
176
     1
 90
        3
176
     1
 62
     5
420
      255
176
     1
290
     0
176
     1
 90
       50
176
     1
 90
       50
176
     1
 90
       50
176
     1
290
     0
176
     1
 90
       50
176
     1
 62
   256
176
     0
 40
1.0
176
     0
 90
        2
176
     1
  1
strokes_ogs.tif
176
     1
290
     0
176
     1
 40
1.0
176
     1
 40
1.0
176
     1
  0
VISUALSTYLE
  5
36F
102
{ACAD_REACTORS
330
35E
102
}
330
35E
100
AcDbVisualStyle
  2
JitterOff
 70
    20
177
     3
291
     1
 70
    58
 90
        2
176
     0
 90
        2
176
     0
 90
        0
176
     0
 90
        0
176
     0
 40
0.6
176
     0
 40
30.0
176
     0
 62
     7
420
 16777215
176
     0
 90
        1
176
     0
 90
        4
176
     0
 62
     7
176
     0
 62
   257
176
     0
 90
        1
176
     0
 90
        1
176
     0
 40
1.0
176
     0
 90
       10
176
     2
 62
     7
176
     0
 40
1.0
176
     0
 90
        1
176
     0
 90
        6
176
     0
 90
        2
176
     0
 62
     7
176
     0
 90
        5
176
     0
 90
        0
176
     0
 90
        0
176
     0
290
     0
176
     0
 90
        1
176
     0
 40
0.0
176
     0
 90
        0
176
     0
290
     0
176
     0
290
     1
176
     0
290
     1
176
     0
290
     0
176
     0
290
     0
176
     0
290
     0
176
     0
290
     0
176
     0
290
     0
176
     0
290
     0
176
     0
 90
       50
176
     0
 40
0.0
176
     0
 40
1.0
176
     0
 90
        0
176
     0
 62
    18
420
        0
176
     0
 90
       50
176
     0
 90
        3
176
     0
 62
     5
420
      255
176
     0
290
     0
176
     0
 90
       50
176
     0
 90
       50
176
     0
 90
       50
176
     0
290
     0
176
     0
 90
       50
176
     0
 62
   256
176
     0
 40
1.0
176
     0
 90
        2
176
     0
  1
strokes_ogs.tif
176
     0
290
     0
176
     0
 40
1.0
176
     0
 40
1.0
176
     0
  0
VISUALSTYLE
  5
36C
102
{ACAD_REACTORS
330
35E
102
}
330
35E
100
AcDbVisualStyle
  2
Linepattern
 70
    14
177
     3
291
     1
 70
    58
 90
        2
176
     1
 90
        2
176
     1
 90
        0
176
     1
 90
        0
176
     1
 40
0.6
176
     1
 40
30.0
176
     1
 62
     7
420
 16777215
176
     1
 90
        1
176
     1
 90
        4
176
     1
 62
     7
176
     1
 62
   257
176
     1
 90
        7
176
     1
 90
        7
176
     1
 40
1.0
176
     1
 90
        8
176
     1
 62
     7
176
     1
 40
1.0
176
     1
 90
        1
176
     1
 90
        6
176
     1
 90
        2
176
     1
 62
     7
176
     1
 90
        5
176
     1
 90
        0
176
     1
 90
        0
176
     1
290
     0
176
     1
 90
        1
176
     1
 40
0.0
176
     1
 90
        0
176
     1
290
     0
176
     1
290
     1
176
     1
290
     1
176
     1
290
     0
176
     1
290
     0
176
     1
290
     0
176
     1
290
     0
176
     1
290
     0
176
     1
290
     0
176
     1
 90
       50
176
     1
 40
0.0
176
     1
 40
1.0
176
     1
 90
        0
176
     1
 62
    18
420
        0
176
     1
 90
       50
176
     1
 90
        3
176
     1
 62
     5
420
      255
176
     1
290
     0
176
     1
 90
       50
176
     1
 90
       50
176
     1
 90
       50
176
     1
290
     0
176
     1
 90
       50
176
     1
 62
   256
176
     0
 40
1.0
176
     0
 90
        2
176
     1
  1
strokes_ogs.tif
176
     1
290
     0
176
     1
 40
1.0
176
     1
 40
1.0
176
     1
  0
VISUALSTYLE
  5
370
102
{ACAD_REACTORS
330
35E
102
}
330
35E
100
AcDbVisualStyle
  2
OverhangOff
 70
    21
177
     3
291
     1
 70
    58
 90
        2
176
     0
 90
        2
176
     0
 90
        0
176
     0
 90
        0
176
     0
 40
0.6
176
     0
 40
30.0
176
     0
 62
     7
420
 16777215
176
     0
 90
        1
176
     0
 90
        4
176
     0
 62
     7
176
     0
 62
   257
176
     0
 90
        1
176
     0
 90
        1
176
     0
 40
1.0
176
     0
 90
        9
176
     2
 62
     7
176
     0
 40
1.0
176
     0
 90
        1
176
     0
 90
        6
176
     0
 90
        2
176
     0
 62
     7
176
     0
 90
        5
176
     0
 90
        0
176
     0
 90
        0
176
     0
290
     0
176
     0
 90
        1
176
     0
 40
0.0
176
     0
 90
        0
176
     0
290
     0
176
     0
290
     1
176
     0
290
     1
176
     0
290
     0
176
     0
290
     0
176
     0
290
     0
176
     0
290
     0
176
     0
290
     0
176
     0
290
     0
176
     0
 90
       50
176
     0
 40
0.0
176
     0
 40
1.0
176
     0
 90
        0
176
     0
 62
    18
420
        0
176
     0
 90
       50
176
     0
 90
        3
176
     0
 62
     5
420
      255
176
     0
290
     0
176
     0
 90
       50
176
     0
 90
       50
176
     0
 90
       50
176
     0
290
     0
176
     0
 90
       50
176
     0
 62
   256
176
     0
 40
1.0
176
     0
 90
        2
176
     0
  1
strokes_ogs.tif
176
     0
290
     0
176
     0
 40
1.0
176
     0
 40
1.0
176
     0
  0
VISUALSTYLE
  5
367
102
{ACAD_REACTORS
330
35E
102
}
330
35E
100
AcDbVisualStyle
  2
Realistic
 70
     8
177
     3
291
     0
 70
    58
 90
        2
176
     1
 90
        3
176
     1
 90
        0
176
     1
 90
        2
176
     1
 40
0.6
176
     1
 40
30.0
176
     1
 62
     7
420
 16777215
176
     1
 90
        0
176
     1
 90
        0
176
     1
 62
     7
176
     1
 62
   257
176
     1
 90
        1
176
     1
 90
        1
176
     1
 40
1.0
176
     1
 90
        8
176
     1
 62
   257
176
     1
 40
1.0
176
     1
 90
        1
176
     1
 90
        6
176
     1
 90
        2
176
     1
 62
     7
176
     1
 90
        3
176
     1
 90
        0
176
     1
 90
        0
176
     1
290
     0
176
     1
 90
       13
176
     1
 40
0.0
176
     1
 90
        0
176
     1
290
     0
176
     1
290
     1
176
     1
290
     1
176
     1
290
     0
176
     1
290
     0
176
     1
290
     0
176
     1
290
     0
176
     1
290
     0
176
     1
290
     0
176
     1
 90
       50
176
     1
 40
0.0
176
     1
 40
1.0
176
     1
 90
        0
176
     1
 62
    18
420
        0
176
     1
 90
       50
176
     1
 90
        3
176
     1
 62
     5
420
      255
176
     1
290
     0
176
     1
 90
       50
176
     1
 90
       50
176
     1
 90
       50
176
     1
290
     0
176
     1
 90
       50
176
     1
 62
   256
176
     0
 40
1.0
176
     0
 90
        2
176
     1
  1
strokes_ogs.tif
176
     1
290
     0
176
     1
 40
1.0
176
     1
 40
1.0
176
     1
  0
VISUALSTYLE
  5
376
102
{ACAD_REACTORS
330
35E
102
}
330
35E
100
AcDbVisualStyle
  2
Shaded
 70
    27
177
     3
291
     0
 70
    58
 90
        2
176
     1
 90
        2
176
     1
 90
        1
176
     1
 90
        2
176
     1
 40
0.6
176
     1
 40
30.0
176
     1
 62
     7
420
 16777215
176
     1
 90
        0
176
     1
 90
        4
176
     1
 62
     7
176
     1
 62
   257
176
     1
 90
        1
176
     1
 90
        1
176
     1
 40
1.0
176
     1
 90
        8
176
     1
 62
   257
176
     1
 40
1.0
176
     1
 90
        1
176
     1
 90
        6
176
     1
 90
        2
176
     1
 62
     8
420
  7895160
176
     1
 90
        3
176
     1
 90
        0
176
     1
 90
        0
176
     1
290
     0
176
     1
 90
        5
176
     1
 40
0.0
176
     1
 90
        0
176
     1
290
     0
176
     1
290
     1
176
     1
290
     1
176
     1
290
     0
176
     1
290
     0
176
     1
290
     0
176
     1
290
     0
176
     1
290
     0
176
     1
290
     0
176
     1
 90
       50
176
     1
 40
0.0
176
     1
 40
1.0
176
     1
 90
        0
176
     1
 62
    18
420
        0
176
     1
 90
       50
176
     1
 90
        3
176
     1
 62
     5
420
      255
176
     1
290
     0
176
     1
 90
       50
176
     1
 90
       50
176
     1
 90
       50
176
     1
290
     0
176
     1
 90
       50
176
     1
 62
   256
176
     0
 40
1.0
176
     0
 90
        2
176
     1
  1
strokes_ogs.tif
176
     1
290
     0
176
     1
 40
1.0
176
     1
 40
1.0
176
     1
  0
VISUALSTYLE
  5
375
102
{ACAD_REACTORS
330
35E
102
}
330
35E
100
AcDbVisualStyle
  2
Shaded with edges
 70
    26
177
     3
291
     0
 70
    58
 90
        2
176
     1
 90
        2
176
     1
 90
        1
176
     1
 90
        2
176
     1
 40
0.6
176
     1
 40
30.0
176
     1
 62
     7
420
 16777215
176
     1
 90
        1
176
     1
 90
       10
176
     1
 62
     7
176
     1
 62
   257
176
     1
 90
        2
176
     1
 90
        1
176
     1
 40
1.0
176
     1
 90
        8
176
     1
 62
   257
176
     1
 40
1.0
176
     1
 90
        1
176
     1
 90
        6
176
     1
 90
        2
176
     1
 62
     7
176
     1
 90
        3
176
     1
 90
        0
176
     1
 90
        0
176
     1
290
     0
176
     1
 90
        5
176
     1
 40
0.0
176
     1
 90
        0
176
     1
290
     0
176
     1
290
     1
176
     1
290
     1
176
     1
290
     0
176
     1
290
     0
176
     1
290
     0
176
     1
290
     0
176
     1
290
     0
176
     1
290
     0
176
     1
 90
       50
176
     1
 40
0.0
176
     1
 40
1.0
176
     1
 90
        0
176
     1
 62
    18
420
        0
176
     1
 90
       50
176
     1
 90
        3
176
     1
 62
     5
420
      255
176
     1
290
     0
176
     1
 90
       50
176
     1
 90
       50
176
     1
 90
       50
176
     1
290
     0
176
     1
 90
       50
176
     1
 62
   256
176
     0
 40
1.0
176
     0
 90
        2
176
     1
  1
strokes_ogs.tif
176
     1
290
     0
176
     1
 40
1.0
176
     1
 40
1.0
176
     1
  0
VISUALSTYLE
  5
372
102
{ACAD_REACTORS
330
35E
102
}
330
35E
100
AcDbVisualStyle
  2
Shades of Gray
 70
    23
177
     3
291
     0
 70
    58
 90
        2
176
     1
 90
        2
176
     1
 90
        3
176
     1
 90
        0
176
     1
 40
0.6
176
     1
 40
30.0
176
     1
 62
     7
420
 16777215
176
     1
 90
        2
176
     1
 90
        2
176
     1
 62
     7
176
     1
 62
     7
176
     1
 90
        1
176
     1
 90
        1
176
     1
 40
40.0
176
     1
 90
        8
176
     1
 62
     7
176
     1
 40
1.0
176
     1
 90
        1
176
     1
 90
        6
176
     1
 90
        2
176
     1
 62
     7
176
     1
 90
        3
176
     1
 90
        0
176
     1
 90
        0
176
     1
290
     0
176
     1
 90
        1
176
     1
 40
0.0
176
     1
 90
        0
176
     1
290
     0
176
     1
290
     1
176
     1
290
     1
176
     1
290
     0
176
     1
290
     0
176
     1
290
     0
176
     1
290
     0
176
     1
290
     0
176
     1
290
     0
176
     1
 90
       50
176
     1
 40
0.0
176
     1
 40
1.0
176
     1
 90
        0
176
     1
 62
    18
420
        0
176
     1
 90
       50
176
     1
 90
        3
176
     1
 62
     5
420
      255
176
     1
290
     0
176
     1
 90
       50
176
     1
 90
       50
176
     1
 90
       50
176
     1
290
     0
176
     1
 90
       50
176
     1
 62
   256
176
     0
 40
1.0
176
     0
 90
        2
176
     1
  1
strokes_ogs.tif
176
     1
290
     0
176
     1
 40
1.0
176
     1
 40
1.0
176
     1
  0
VISUALSTYLE
  5
373
102
{ACAD_REACTORS
330
35E
102
}
330
35E
100
AcDbVisualStyle
  2
Sketchy
 70
    24
177
     3
291
     0
 70
    58
 90
        1
176
     1
 90
        2
176
     1
 90
        2
176
     1
 90
        0
176
     1
 40
0.6
176
     1
 40
30.0
176
     1
 62
     7
420
 16777215
176
     1
 90
        2
176
     1
 90
        2
176
     1
 62
     7
176
     1
 62
     7
176
     1
 90
        1
176
     1
 90
        1
176
     1
 40
40.0
176
     1
 90
       11
176
     1
 62
     7
176
     1
 40
1.0
176
     1
 90
        1
176
     1
 90
        6
176
     1
 90
        2
176
     1
 62
     7
176
     1
 90
        6
176
     1
 90
        0
176
     1
 90
        0
176
     1
290
     0
176
     1
 90
        1
176
     1
 40
0.0
176
     1
 90
        0
176
     1
290
     0
176
     1
290
     1
176
     1
290
     1
176
     1
290
     0
176
     1
290
     0
176
     1
290
     0
176
     1
290
     0
176
     1
290
     0
176
     1
290
     0
176
     1
 90
       50
176
     1
 40
0.0
176
     1
 40
1.0
176
     1
 90
        0
176
     1
 62
    18
420
        0
176
     1
 90
       50
176
     1
 90
        3
176
     1
 62
     5
420
      255
176
     1
290
     0
176
     1
 90
       50
176
     1
 90
       50
176
     1
 90
       50
176
     1
290
     0
176
     1
 90
       50
176
     1
 62
   256
176
     0
 40
1.0
176
     0
 90
        2
176
     1
  1
strokes_ogs.tif
176
     1
290
     0
176
     1
 40
1.0
176
     1
 40
1.0
176
     1
  0
VISUALSTYLE
  5
36B
102
{ACAD_REACTORS
330
35E
102
}
330
35E
100
AcDbVisualStyle
  2
Thicken
 70
    13
177
     3
291
     1
 70
    58
 90
        2
176
     1
 90
        2
176
     1
 90
        0
176
     1
 90
        0
176
     1
 40
0.6
176
     1
 40
30.0
176
     1
 62
     7
420
 16777215
176
     1
 90
        1
176
     1
 90
        4
176
     1
 62
     7
176
     1
 62
   257
176
     1
 90
        1
176
     1
 90
        1
176
     1
 40
1.0
176
     1
 90
       12
176
     1
 62
     7
176
     1
 40
1.0
176
     1
 90
        1
176
     1
 90
        6
176
     1
 90
        2
176
     1
 62
     7
176
     1
 90
        5
176
     1
 90
        0
176
     1
 90
        0
176
     1
290
     0
176
     1
 90
        1
176
     1
 40
0.0
176
     1
 90
        0
176
     1
290
     0
176
     1
290
     1
176
     1
290
     1
176
     1
290
     0
176
     1
290
     0
176
     1
290
     0
176
     1
290
     0
176
     1
290
     0
176
     1
290
     0
176
     1
 90
       50
176
     1
 40
0.0
176
     1
 40
1.0
176
     1
 90
        0
176
     1
 62
    18
420
        0
176
     1
 90
       50
176
     1
 90
        3
176
     1
 62
     5
420
      255
176
     1
290
     0
176
     1
 90
       50
176
     1
 90
       50
176
     1
 90
       50
176
     1
290
     0
176
     1
 90
       50
176
     1
 62
   256
176
     0
 40
1.0
176
     0
 90
        2
176
     1
  1
strokes_ogs.tif
176
     1
290
     0
176
     1
 40
1.0
176
     1
 40
1.0
176
     1
  0
VISUALSTYLE
  5
364
102
{ACAD_REACTORS
330
35E
102
}
330
35E
100
AcDbVisualStyle
  2
Wireframe
 70
     5
177
     3
291
     0
 70
    58
 90
        0
176
     1
 90
        2
176
     1
 90
        0
176
     1
 90
        0
176
     1
 40
0.6
176
     1
 40
30.0
176
     1
 62
     7
420
 16777215
176
     1
 90
        1
176
     1
 90
        4
176
     1
 62
     7
176
     1
 62
   257
176
     1
 90
        1
176
     1
 90
        1
176
     1
 40
1.0
176
     1
 90
        0
176
     1
 62
   257
176
     1
 40
1.0
176
     1
 90
        1
176
     1
 90
        6
176
     1
 90
        2
176
     1
 62
     7
176
     1
 90
        3
176
     1
 90
        0
176
     1
 90
        0
176
     1
290
     0
176
     1
 90
        1
176
     1
 40
0.0
176
     1
 90
        0
176
     1
290
     0
176
     1
290
     1
176
     1
290
     1
176
     1
290
     0
176
     1
290
     0
176
     1
290
     0
176
     1
290
     0
176
     1
290
     0
176
     1
290
     0
176
     1
 90
       50
176
     1
 40
0.0
176
     1
 40
1.0
176
     1
 90
        0
176
     1
 62
    18
420
        0
176
     1
 90
       50
176
     1
 90
        3
176
     1
 62
     5
420
      255
176
     1
290
     0
176
     1
 90
       50
176
     1
 90
       50
176
     1
 90
       50
176
     1
290
     0
176
     1
 90
       50
176
     1
 62
   256
176
     0
 40
1.0
176
     0
 90
        2
176
     1
  1
strokes_ogs.tif
176
     1
290
     0
176
     1
 40
1.0
176
     1
 40
1.0
176
     1
  0
VISUALSTYLE
  5
374
102
{ACAD_REACTORS
330
35E
102
}
330
35E
100
AcDbVisualStyle
  2
X-Ray
 70
    25
177
     3
291
     0
 70
    58
 90
        2
176
     1
 90
        2
176
     1
 90
        1
176
     1
 90
        1
176
     1
 40
0.5
176
     1
 40
30.0
176
     1
 62
     7
420
 16777215
176
     1
 90
        1
176
     1
 90
        0
176
     1
 62
     7
176
     1
 62
   257
176
     1
 90
        1
176
     1
 90
        1
176
     1
 40
1.0
176
     1
 90
        8
176
     1
 62
     7
176
     1
 40
1.0
176
     1
 90
        1
176
     1
 90
        6
176
     1
 90
        2
176
     1
 62
     7
176
     1
 90
        3
176
     1
 90
        0
176
     1
 90
        0
176
     1
290
     0
176
     1
 90
       13
176
     1
 40
0.0
176
     1
 90
        0
176
     1
290
     0
176
     1
290
     1
176
     1
290
     1
176
     1
290
     0
176
     1
290
     0
176
     1
290
     0
176
     1
290
     0
176
     1
290
     0
176
     1
290
     0
176
     1
 90
       50
176
     1
 40
0.0
176
     1
 40
1.0
176
     1
 90
        0
176
     1
 62
    18
420
        0
176
     1
 90
       50
176
     1
 90
        3
176
     1
 62
     5
420
      255
176
     1
290
     0
176
     1
 90
       50
176
     1
 90
       50
176
     1
 90
       50
176
     1
290
     0
176
     1
 90
       50
176
     1
 62
   256
176
     0
 40
1.0
176
     0
 90
        2
176
     1
  1
strokes_ogs.tif
176
     1
290
     0
176
     1
 40
1.0
176
     1
 40
1.0
176
     1
  0
DICTIONARYVAR
  5
381
102
{ACAD_REACTORS
330
380
102
}
330
380
100
DictionaryVariables
280
     0
  1
1:1
  0
DICTIONARYVAR
  5
383
102
{ACAD_REACTORS
330
380
102
}
330
380
100
DictionaryVariables
280
     0
  1
Standard
  0
DICTIONARYVAR
  5
382
102
{ACAD_REACTORS
330
380
102
}
330
380
100
DictionaryVariables
280
     0
  1
Standard
  0
DICTIONARYVAR
  5
384
102
{ACAD_REACTORS
330
380
102
}
330
380
100
DictionaryVariables
280
     0
  1
0
  0
DICTIONARY
  5
39A
330
37C
100
AcDbDictionary
280
     1
281
     1
  3
ACAD_ROUNDTRIP_2008_TABLESTYLE_CELLSTYLEMAP
360
39B
  0
CELLSTYLEMAP
  5
39B
102
{ACAD_REACTORS
330
39A
102
}
330
39A
100
AcDbCellStyleMap
 90
        3
300
CELLSTYLE
  1
TABLEFORMAT_BEGIN
 90
        5
170
     1
 91
        0
 92
    32768
 62
   257
 93
        1
300
CONTENTFORMAT
  1
CONTENTFORMAT_BEGIN
 90
        0
 91
        0
 92
        4
 93
        0
300

 40
0.0
140
1.0
 94
        5
 62
     0
340
17
144
6.0
309
CONTENTFORMAT_END
171
     1
301
MARGIN
  1
CELLMARGIN_BEGIN
 40
1.5
 40
1.5
 40
1.5
 40
1.5
 40
1.5
 40
1.5
309
CELLMARGIN_END
 94
        6
 95
        1
302
GRIDFORMAT
  1
GRIDFORMAT_BEGIN
 90
        0
 91
        1
 62
     0
 92
       -2
340
11
 93
        0
 40
0.045
309
GRIDFORMAT_END
 95
        2
302
GRIDFORMAT
  1
GRIDFORMAT_BEGIN
 90
        0
 91
        1
 62
     0
 92
       -2
340
11
 93
        0
 40
0.045
309
GRIDFORMAT_END
 95
        4
302
GRIDFORMAT
  1
GRIDFORMAT_BEGIN
 90
        0
 91
        1
 62
     0
 92
       -2
340
11
 93
        0
 40
0.045
309
GRIDFORMAT_END
 95
        8
302
GRIDFORMAT
  1
GRIDFORMAT_BEGIN
 90
        0
 91
        1
 62
     0
 92
       -2
340
11
 93
        0
 40
0.045
309
GRIDFORMAT_END
 95
       16
302
GRIDFORMAT
  1
GRIDFORMAT_BEGIN
 90
        0
 91
        1
 62
     0
 92
       -2
340
11
 93
        0
 40
0.045
309
GRIDFORMAT_END
 95
       32
302
GRIDFORMAT
  1
GRIDFORMAT_BEGIN
 90
        0
 91
        1
 62
     0
 92
       -2
340
11
 93
        0
 40
0.045
309
GRIDFORMAT_END
309
TABLEFORMAT_END
  1
CELLSTYLE_BEGIN
 90
        1
 91
        1
300
_TITLE
309
CELLSTYLE_END
300
CELLSTYLE
  1
TABLEFORMAT_BEGIN
 90
        5
170
     1
 91
        0
 92
        0
 62
   257
 93
        1
300
CONTENTFORMAT
  1
CONTENTFORMAT_BEGIN
 90
        0
 91
        0
 92
        4
 93
        0
300

 40
0.0
140
1.0
 94
        5
 62
     0
340
17
144
4.5
309
CONTENTFORMAT_END
171
     1
301
MARGIN
  1
CELLMARGIN_BEGIN
 40
1.5
 40
1.5
 40
1.5
 40
1.5
 40
1.5
 40
1.5
309
CELLMARGIN_END
 94
        6
 95
        1
302
GRIDFORMAT
  1
GRIDFORMAT_BEGIN
 90
        0
 91
        1
 62
     0
 92
       -2
340
11
 93
        0
 40
0.045
309
GRIDFORMAT_END
 95
        2
302
GRIDFORMAT
  1
GRIDFORMAT_BEGIN
 90
        0
 91
        1
 62
     0
 92
       -2
340
11
 93
        0
 40
0.045
309
GRIDFORMAT_END
 95
        4
302
GRIDFORMAT
  1
GRIDFORMAT_BEGIN
 90
        0
 91
        1
 62
     0
 92
       -2
340
11
 93
        0
 40
0.045
309
GRIDFORMAT_END
 95
        8
302
GRIDFORMAT
  1
GRIDFORMAT_BEGIN
 90
        0
 91
        1
 62
     0
 92
       -2
340
11
 93
        0
 40
0.045
309
GRIDFORMAT_END
 95
       16
302
GRIDFORMAT
  1
GRIDFORMAT_BEGIN
 90
        0
 91
        1
 62
     0
 92
       -2
340
11
 93
        0
 40
0.045
309
GRIDFORMAT_END
 95
       32
302
GRIDFORMAT
  1
GRIDFORMAT_BEGIN
 90
        0
 91
        1
 62
     0
 92
       -2
340
11
 93
        0
 40
0.045
309
GRIDFORMAT_END
309
TABLEFORMAT_END
  1
CELLSTYLE_BEGIN
 90
        2
 91
        1
300
_HEADER
309
CELLSTYLE_END
300
CELLSTYLE
  1
TABLEFORMAT_BEGIN
 90
        5
170
     1
 91
        0
 92
        0
 62
   257
 93
        1
300
CONTENTFORMAT
  1
CONTENTFORMAT_BEGIN
 90
        0
 91
        0
 92
        4
 93
        0
300

 40
0.0
140
1.0
 94
        2
 62
     0
340
17
144
4.5
309
CONTENTFORMAT_END
171
     1
301
MARGIN
  1
CELLMARGIN_BEGIN
 40
1.5
 40
1.5
 40
1.5
 40
1.5
 40
1.5
 40
1.5
309
CELLMARGIN_END
 94
        6
 95
        1
302
GRIDFORMAT
  1
GRIDFORMAT_BEGIN
 90
        0
 91
        1
 62
     0
 92
       -2
340
11
 93
        0
 40
0.045
309
GRIDFORMAT_END
 95
        2
302
GRIDFORMAT
  1
GRIDFORMAT_BEGIN
 90
        0
 91
        1
 62
     0
 92
       -2
340
11
 93
        0
 40
0.045
309
GRIDFORMAT_END
 95
        4
302
GRIDFORMAT
  1
GRIDFORMAT_BEGIN
 90
        0
 91
        1
 62
     0
 92
       -2
340
11
 93
        0
 40
0.045
309
GRIDFORMAT_END
 95
        8
302
GRIDFORMAT
  1
GRIDFORMAT_BEGIN
 90
        0
 91
        1
 62
     0
 92
       -2
340
11
 93
        0
 40
0.045
309
GRIDFORMAT_END
 95
       16
302
GRIDFORMAT
  1
GRIDFORMAT_BEGIN
 90
        0
 91
        1
 62
     0
 92
       -2
340
11
 93
        0
 40
0.045
309
GRIDFORMAT_END
 95
       32
302
GRIDFORMAT
  1
GRIDFORMAT_BEGIN
 90
        0
 91
        1
 62
     0
 92
       -2
340
11
 93
        0
 40
0.045
309
GRIDFORMAT_END
309
TABLEFORMAT_END
  1
CELLSTYLE_BEGIN
 90
        3
 91
        2
300
_DATA
309
CELLSTYLE_END
  0
ENDSEC
  0
EOF
