  0
SECTION
  2
HEADER
  9
$ACADVER
  1
AC1027
  9
$ACADMAINTVER
 70
   105
  9
$DWGCODEPAGE
  3
DOS932
  9
$REQUIREDVERSIONS
160
                 0
  9
$INSBASE
 10
0.0
 20
0.0
 30
0.0
  9
$EXTMIN
 10
0.0
 20
0.0
 30
0.0
  9
$EXTMAX
 10
210.0
 20
297.0
 30
0.0
  9
$LIMMIN
 10
0.0
 20
0.0
  9
$LIMMAX
 10
210.0
 20
297.0
  9
$ORTHOMODE
 70
     0
  9
$REGENMODE
 70
     1
  9
$FILLMODE
 70
     1
  9
$QTEXTMODE
 70
     0
  9
$MIRRTEXT
 70
     1
  9
$LTSCALE
 40
1.0
  9
$ATTMODE
 70
     1
  9
$TEXTSIZE
 40
3.5
  9
$TRACEWID
 40
1.0
  9
$TEXTSTYLE
  7
STANDARD
  9
$CLAYER
  8
0
  9
$CELTYPE
  6
ByLayer
  9
$CECOLOR
 62
   256
  9
$CELTSCALE
 40
1.0
  9
$DISPSILH
 70
     0
  9
$DIMSCALE
 40
1.0
  9
$DIMASZ
 40
3.302
  9
$DIMEXO
 40
1.0
  9
$DIMDLI
 40
3.75
  9
$DIMRND
 40
0.0
  9
$DIMDLE
 40
0.0
  9
$DIMEXE
 40
1.0
  9
$DIMTP
 40
0.0
  9
$DIMTM
 40
0.0
  9
$DIMTXT
 40
3.5
  9
$DIMCEN
 40
2.5
  9
$DIMTSZ
 40
0.0
  9
$DIMTOL
 70
     0
  9
$DIMLIM
 70
     0
  9
$DIMTIH
 70
     1
  9
$DIMTOH
 70
     1
  9
$DIMSE1
 70
     0
  9
$DIMSE2
 70
     0
  9
$DIMTAD
 70
     1
  9
$DIMZIN
 70
     1
  9
$DIMBLK
  1

  9
$DIMASO
 70
     1
  9
$DIMSHO
 70
     1
  9
$DIMPOST
  1

  9
$DIMAPOST
  1

  9
$DIMALT
 70
     0
  9
$DIMALTD
 70
     3
  9
$DIMALTF
 40
0.0393700787
  9
$DIMLFAC
 40
5.0
  9
$DIMTOFL
 70
     1
  9
$DIMTVP
 40
0.0
  9
$DIMTIX
 70
     0
  9
$DIMSOXD
 70
     0
  9
$DIMSAH
 70
     0
  9
$DIMBLK1
  1

  9
$DIMBLK2
  1

  9
$DIMSTYLE
  2
ISO-25
  9
$DIMCLRD
 70
     0
  9
$DIMCLRE
 70
     0
  9
$DIMCLRT
 70
     0
  9
$DIMTFAC
 40
1.0
  9
$DIMGAP
 40
1.524
  9
$DIMJUST
 70
     0
  9
$DIMSD1
 70
     0
  9
$DIMSD2
 70
     0
  9
$DIMTOLJ
 70
     0
  9
$DIMTZIN
 70
     1
  9
$DIMALTZ
 70
     0
  9
$DIMALTTZ
 70
     0
  9
$DIMUPT
 70
     0
  9
$DIMDEC
 70
     2
  9
$DIMTDEC
 70
     2
  9
$DIMALTU
 70
     2
  9
$DIMALTTD
 70
     3
  9
$DIMTXSTY
  7
STANDARD
  9
$DIMAUNIT
 70
     0
  9
$DIMADEC
 70
     2
  9
$DIMALTRND
 40
0.0
  9
$DIMAZIN
 70
     0
  9
$DIMDSEP
 70
    44
  9
$DIMATFIT
 70
     3
  9
$DIMFRAC
 70
     0
  9
$DIMLDRBLK
  1

  9
$DIMLUNIT
 70
     2
  9
$DIMLWD
 70
    -2
  9
$DIMLWE
 70
    -2
  9
$DIMTMOVE
 70
     0
  9
$DIMFXL
 40
1.0
  9
$DIMFXLON
 70
     0
  9
$DIMJOGANG
 40
0.7853981634
  9
$DIMTFILL
 70
     0
  9
$DIMTFILLCLR
 70
     0
  9
$DIMARCSYM
 70
     0
  9
$DIMLTYPE
  6

  9
$DIMLTEX1
  6

  9
$DIMLTEX2
  6

  9
$DIMTXTDIRECTION
 70
     0
  9
$LUNITS
 70
     2
  9
$LUPREC
 70
     2
  9
$SKETCHINC
 40
1.0
  9
$FILLETRAD
 40
10.0
  9
$AUNITS
 70
     0
  9
$AUPREC
 70
     2
  9
$MENU
  1
.
  9
$ELEVATION
 40
0.0
  9
$PELEVATION
 40
0.0
  9
$THICKNESS
 40
0.0
  9
$LIMCHECK
 70
     0
  9
$CHAMFERA
 40
0.0
  9
$CHAMFERB
 40
0.0
  9
$CHAMFERC
 40
0.0
  9
$CHAMFERD
 40
0.0
  9
$SKPOLY
 70
     0
  9
$TDCREATE
 40
2458612.572573241
  9
$TDUCREATE
 40
2458612.197573241
  9
$TDUPDATE
 40
2458612.572573739
  9
$TDUUPDATE
 40
2458612.197573739
  9
$TDINDWG
 40
0.0000000116
  9
$TDUSRTIMER
 40
0.0000000116
  9
$USRTIMER
 70
     1
  9
$ANGBASE
 50
0.0
  9
$ANGDIR
 70
     0
  9
$PDMODE
 70
     0
  9
$PDSIZE
 40
-1.0
  9
$PLINEWID
 40
0.0
  9
$SPLFRAME
 70
     0
  9
$SPLINETYPE
 70
     6
  9
$SPLINESEGS
 70
     8
  9
$HANDSEED
  5
195
  9
$SURFTAB1
 70
     6
  9
$SURFTAB2
 70
     6
  9
$SURFTYPE
 70
     6
  9
$SURFU
 70
     6
  9
$SURFV
 70
     6
  9
$UCSBASE
  2

  9
$UCSNAME
  2

  9
$UCSORG
 10
0.0
 20
0.0
 30
0.0
  9
$UCSXDIR
 10
1.0
 20
0.0
 30
0.0
  9
$UCSYDIR
 10
0.0
 20
1.0
 30
0.0
  9
$UCSORTHOREF
  2

  9
$UCSORTHOVIEW
 70
     0
  9
$UCSORGTOP
 10
0.0
 20
0.0
 30
0.0
  9
$UCSORGBOTTOM
 10
0.0
 20
0.0
 30
0.0
  9
$UCSORGLEFT
 10
0.0
 20
0.0
 30
0.0
  9
$UCSORGRIGHT
 10
0.0
 20
0.0
 30
0.0
  9
$UCSORGFRONT
 10
0.0
 20
0.0
 30
0.0
  9
$UCSORGBACK
 10
0.0
 20
0.0
 30
0.0
  9
$PUCSBASE
  2

  9
$PUCSNAME
  2

  9
$PUCSORG
 10
0.0
 20
0.0
 30
0.0
  9
$PUCSXDIR
 10
1.0
 20
0.0
 30
0.0
  9
$PUCSYDIR
 10
0.0
 20
1.0
 30
0.0
  9
$PUCSORTHOREF
  2

  9
$PUCSORTHOVIEW
 70
     0
  9
$PUCSORGTOP
 10
0.0
 20
0.0
 30
0.0
  9
$PUCSORGBOTTOM
 10
0.0
 20
0.0
 30
0.0
  9
$PUCSORGLEFT
 10
0.0
 20
0.0
 30
0.0
  9
$PUCSORGRIGHT
 10
0.0
 20
0.0
 30
0.0
  9
$PUCSORGFRONT
 10
0.0
 20
0.0
 30
0.0
  9
$PUCSORGBACK
 10
0.0
 20
0.0
 30
0.0
  9
$USERI1
 70
     0
  9
$USERI2
 70
     0
  9
$USERI3
 70
     0
  9
$USERI4
 70
     0
  9
$USERI5
 70
     0
  9
$USERR1
 40
0.0
  9
$USERR2
 40
0.0
  9
$USERR3
 40
0.0
  9
$USERR4
 40
0.0
  9
$USERR5
 40
0.0
  9
$WORLDVIEW
 70
     1
  9
$SHADEDGE
 70
     3
  9
$SHADEDIF
 70
    70
  9
$TILEMODE
 70
     1
  9
$MAXACTVP
 70
    64
  9
$PINSBASE
 10
0.0
 20
0.0
 30
0.0
  9
$PLIMCHECK
 70
     0
  9
$PEXTMIN
 10
1.0000000000E+20
 20
1.0000000000E+20
 30
1.0000000000E+20
  9
$PEXTMAX
 10
-1.0000000000E+20
 20
-1.0000000000E+20
 30
-1.0000000000E+20
  9
$PLIMMIN
 10
0.0
 20
0.0
  9
$PLIMMAX
 10
420.0
 20
297.0
  9
$UNITMODE
 70
     0
  9
$VISRETAIN
 70
     1
  9
$PLINEGEN
 70
     0
  9
$PSLTSCALE
 70
     1
  9
$TREEDEPTH
 70
  3020
  9
$CMLSTYLE
  2
Standard
  9
$CMLJUST
 70
     0
  9
$CMLSCALE
 40
20.0
  9
$PROXYGRAPHICS
 70
     1
  9
$MEASUREMENT
 70
     1
  9
$CELWEIGHT
370
    -1
  9
$ENDCAPS
280
     0
  9
$JOINSTYLE
280
     0
  9
$LWDISPLAY
290
     1
  9
$INSUNITS
 70
     4
  9
$HYPERLINKBASE
  1

  9
$STYLESHEET
  1

  9
$XEDIT
290
     1
  9
$CEPSNTYPE
380
     0
  9
$PSTYLEMODE
290
     1
  9
$FINGERPRINTGUID
  2
{C48D6D01-9828-435A-8D5B-DC4B2C02AC5E}
  9
$VERSIONGUID
  2
{FAEB1C32-E019-11D5-929B-00C0DF256EC4}
  9
$EXTNAMES
290
     1
  9
$PSVPSCALE
 40
0.0
  9
$OLESTARTUP
290
     0
  9
$SORTENTS
280
   127
  9
$INDEXCTL
280
     0
  9
$HIDETEXT
280
     1
  9
$XCLIPFRAME
280
     2
  9
$HALOGAP
280
     0
  9
$OBSCOLOR
 70
   257
  9
$OBSLTYPE
280
     0
  9
$INTERSECTIONDISPLAY
280
     0
  9
$INTERSECTIONCOLOR
 70
   257
  9
$DIMASSOC
280
     2
  9
$PROJECTNAME
  1

  9
$CAMERADISPLAY
290
     0
  9
$LENSLENGTH
 40
50.0
  9
$CAMERAHEIGHT
 40
0.0
  9
$STEPSPERSEC
 40
2.0
  9
$STEPSIZE
 40
6.0
  9
$3DDWFPREC
 40
2.0
  9
$PSOLWIDTH
 40
5.0
  9
$PSOLHEIGHT
 40
80.0
  9
$LOFTANG1
 40
1.5707963268
  9
$LOFTANG2
 40
1.5707963268
  9
$LOFTMAG1
 40
0.0
  9
$LOFTMAG2
 40
0.0
  9
$LOFTPARAM
 70
     7
  9
$LOFTNORMALS
280
     1
  9
$LATITUDE
 40
37.795
  9
$LONGITUDE
 40
-122.394
  9
$NORTHDIRECTION
 40
0.0
  9
$TIMEZONE
 70
 -8000
  9
$LIGHTGLYPHDISPLAY
280
     1
  9
$TILEMODELIGHTSYNCH
280
     1
  9
$CMATERIAL
347
44
  9
$SOLIDHIST
280
     0
  9
$SHOWHIST
280
     1
  9
$DWFFRAME
280
     2
  9
$DGNFRAME
280
     2
  9
$REALWORLDSCALE
290
     1
  9
$INTERFERECOLOR
 62
   256
  9
$CSHADOW
280
     0
  9
$SHADOWPLANELOCATION
 40
0.0
  0
ENDSEC
  0
SECTION
  2
CLASSES
  0
CLASS
  1
ACDBDICTIONARYWDFLT
  2
AcDbDictionaryWithDefault
  3
ObjectDBX Classes
 90
        0
 91
        4
280
     0
281
     0
  0
CLASS
  1
VISUALSTYLE
  2
AcDbVisualStyle
  3
ObjectDBX Classes
 90
     4095
 91
        4
280
     0
281
     0
  0
CLASS
  1
MATERIAL
  2
AcDbMaterial
  3
ObjectDBX Classes
 90
     1153
 91
        4
280
     0
281
     0
  0
CLASS
  1
SCALE
  2
AcDbScale
  3
ObjectDBX Classes
 90
     1153
 91
        4
280
     0
281
     0
  0
CLASS
  1
TABLESTYLE
  2
AcDbTableStyle
  3
ObjectDBX Classes
 90
     4095
 91
        4
280
     0
281
     0
  0
CLASS
  1
MLEADERSTYLE
  2
AcDbMLeaderStyle
  3
ACDB_MLEADERSTYLE_CLASS
 90
     4095
 91
        4
280
     0
281
     0
  0
CLASS
  1
SUN
  2
AcDbSun
  3
SCENEOE
 90
     1153
 91
        4
280
     0
281
     0
  0
CLASS
  1
DICTIONARYVAR
  2
AcDbDictionaryVar
  3
ObjectDBX Classes
 90
        0
 91
        4
280
     0
281
     0
  0
CLASS
  1
CELLSTYLEMAP
  2
AcDbCellStyleMap
  3
ObjectDBX Classes
 90
     1152
 91
        4
280
     0
281
     0
  0
ENDSEC
  0
SECTION
  2
TABLES
  0
TABLE
  2
VPORT
  5
8
330
0
100
AcDbSymbolTable
 70
     1
  0
VPORT
  5
29
330
8
100
AcDbSymbolTableRecord
100
AcDbViewportTableRecord
  2
*Active
 70
     0
 10
0.0
 20
0.0
 11
1.0
 21
1.0
 12
105.0
 22
148.5
 13
0.0
 23
0.0
 14
10.0
 24
10.0
 15
10.0
 25
10.0
 16
0.0
 26
0.0
 36
1.0
 17
0.0
 27
0.0
 37
0.0
 40
297.0
 41
0.7070707071
 42
50.0
 43
0.0
 44
0.0
 50
0.0
 51
0.0
 71
     0
 72
  2000
 73
     1
 74
     3
 75
     0
 76
     0
 77
     0
 78
     0
281
     0
 65
     1
110
0.0
120
0.0
130
0.0
111
1.0
121
0.0
131
0.0
112
0.0
122
1.0
132
0.0
 79
     0
146
0.0
348
2F
 60
     3
 61
     5
292
     1
282
     1
141
0.0
142
0.0
 63
   250
361
6D
  0
ENDTAB
  0
TABLE
  2
LTYPE
  5
5
330
0
100
AcDbSymbolTable
 70
     8
  0
LTYPE
  5
14
330
5
100
AcDbSymbolTableRecord
100
AcDbLinetypeTableRecord
  2
ByBlock
 70
     0
  3

 72
    65
 73
     0
 40
0.0
  0
LTYPE
  5
15
330
5
100
AcDbSymbolTableRecord
100
AcDbLinetypeTableRecord
  2
ByLayer
 70
     0
  3

 72
    65
 73
     0
 40
0.0
  0
LTYPE
  5
16
330
5
100
AcDbSymbolTableRecord
100
AcDbLinetypeTableRecord
  2
Continuous
 70
     0
  3
Solid line
 72
    65
 73
     0
 40
0.0
  0
LTYPE
  5
6E
330
5
100
AcDbSymbolTableRecord
100
AcDbLinetypeTableRecord
  2
SLD-実線
 70
     0
  3
SolidWorks Line Style
 72
    65
 73
     0
 40
0.0
  0
LTYPE
  5
6F
330
5
100
AcDbSymbolTableRecord
100
AcDbLinetypeTableRecord
  2
SLD-破線
 70
     0
  3
SolidWorks Line Style
 72
    65
 73
     2
 40
1.905
 49
1.27
 74
     0
 49
-0.635
 74
     0
  0
LTYPE
  5
70
330
5
100
AcDbSymbolTableRecord
100
AcDbLinetypeTableRecord
  2
SLD-2点鎖線
 70
     0
  3
SolidWorks Line Style
 72
    65
 73
     6
 40
12.7
 49
6.35
 74
     0
 49
-1.27
 74
     0
 49
1.27
 74
     0
 49
-1.27
 74
     0
 49
1.27
 74
     0
 49
-1.27
 74
     0
  0
LTYPE
  5
71
330
5
100
AcDbSymbolTableRecord
100
AcDbLinetypeTableRecord
  2
SLD-鎖線
 70
     0
  3
SolidWorks Line Style
 72
    65
 73
     4
 40
10.16
 49
6.35
 74
     0
 49
-1.27
 74
     0
 49
1.27
 74
     0
 49
-1.27
 74
     0
  0
LTYPE
  5
72
330
5
100
AcDbSymbolTableRecord
100
AcDbLinetypeTableRecord
  2
SLD-1点鎖線(中心線)
 70
     0
  3
SolidWorks Line Style
 72
    65
 73
     4
 40
34.29
 49
30.48
 74
     0
 49
-1.27
 74
     0
 49
1.27
 74
     0
 49
-1.27
 74
     0
  0
LTYPE
  5
73
330
5
100
AcDbSymbolTableRecord
100
AcDbLinetypeTableRecord
  2
SLD-点線
 70
     0
  3
SolidWorks Line Style
 72
    65
 73
     2
 40
0.635
 49
0.0
 74
     0
 49
-0.635
 74
     0
  0
LTYPE
  5
74
330
5
100
AcDbSymbolTableRecord
100
AcDbLinetypeTableRecord
  2
SLD-細-太鎖線(切断面)
 70
     0
  3
SolidWorks Line Style
 72
    65
 73
     4
 40
10.16
 49
6.35
 74
     0
 49
-1.27
 74
     0
 49
1.27
 74
     0
 49
-1.27
 74
     0
  0
ENDTAB
  0
TABLE
  2
LAYER
  5
2
330
0
100
AcDbSymbolTable
 70
     1
  0
LAYER
  5
10
330
2
100
AcDbSymbolTableRecord
100
AcDbLayerTableRecord
  2
0
 70
     0
 62
     7
  6
Continuous
370
    -3
390
F
347
46
348
0
  0
ENDTAB
  0
TABLE
  2
STYLE
  5
3
330
0
100
AcDbSymbolTable
 70
     2
  0
STYLE
  5
11
330
3
100
AcDbSymbolTableRecord
100
AcDbTextStyleTableRecord
  2
STANDARD
 70
     0
 40
0.0
 41
1.0
 50
0.0
 71
     0
 42
3.5
  3
GOTHIC.TTF
  4

1001
ACAD
1000
CENTURY GOTHIC
1071
       34
  0
STYLE
  5
76
330
3
100
AcDbSymbolTableRecord
100
AcDbTextStyleTableRecord
  2
SLDTEXTSTYLE0
 70
     0
 40
0.0
 41
1.0
 50
0.0
 71
     0
 42
3.5
  3
MSGOTHIC.TTC
  4

1001
ACAD
1000
ＭＳ Ｐゴシック
1071
      306
  0
ENDTAB
  0
TABLE
  2
VIEW
  5
6
330
0
100
AcDbSymbolTable
 70
     0
  0
ENDTAB
  0
TABLE
  2
UCS
  5
7
330
0
100
AcDbSymbolTable
 70
     0
  0
ENDTAB
  0
TABLE
  2
APPID
  5
9
330
0
100
AcDbSymbolTable
 70
     1
  0
APPID
  5
12
330
9
100
AcDbSymbolTableRecord
100
AcDbRegAppTableRecord
  2
ACAD
 70
     0
  0
ENDTAB
  0
TABLE
  2
DIMSTYLE
  5
A
330
0
100
AcDbSymbolTable
 70
     1
100
AcDbDimStyleTable
  0
DIMSTYLE
105
27
330
A
100
AcDbSymbolTableRecord
100
AcDbDimStyleTableRecord
  2
ISO-25
 70
     0
 41
2.5
 42
0.625
 43
3.75
 44
1.25
 73
     0
 74
     0
 77
     1
 78
     8
140
2.5
141
2.5
143
0.0393700787
147
0.625
171
     3
172
     1
178
     0
271
     2
272
     2
274
     3
278
    44
283
     0
284
     8
340
11
  0
ENDTAB
  0
TABLE
  2
BLOCK_RECORD
  5
1
330
0
100
AcDbSymbolTable
 70
     1
  0
BLOCK_RECORD
  5
1F
330
1
100
AcDbSymbolTableRecord
100
AcDbBlockTableRecord
  2
*Model_Space
340
22
 70
     0
280
     1
281
     0
  0
BLOCK_RECORD
  5
1B
330
1
100
AcDbSymbolTableRecord
100
AcDbBlockTableRecord
  2
*Paper_Space
340
1E
 70
     0
280
     1
281
     0
  0
BLOCK_RECORD
  5
23
330
1
100
AcDbSymbolTableRecord
100
AcDbBlockTableRecord
  2
*Paper_Space0
340
26
 70
     0
280
     1
281
     0
  0
ENDTAB
  0
ENDSEC
  0
SECTION
  2
BLOCKS
  0
BLOCK
  5
20
330
1F
100
AcDbEntity
  8
0
100
AcDbBlockBegin
  2
*Model_Space
 70
     0
 10
0.0
 20
0.0
 30
0.0
  3
*Model_Space
  1

  0
ENDBLK
  5
21
330
1F
100
AcDbEntity
  8
0
100
AcDbBlockEnd
  0
BLOCK
  5
1C
330
1B
100
AcDbEntity
 67
     1
  8
0
100
AcDbBlockBegin
  2
*Paper_Space
 70
     0
 10
0.0
 20
0.0
 30
0.0
  3
*Paper_Space
  1

  0
ENDBLK
  5
1D
330
1B
100
AcDbEntity
 67
     1
  8
0
100
AcDbBlockEnd
  0
BLOCK
  5
24
330
23
100
AcDbEntity
  8
0
100
AcDbBlockBegin
  2
*Paper_Space0
 70
     0
 10
0.0
 20
0.0
 30
0.0
  3
*Paper_Space0
  1

  0
ENDBLK
  5
25
330
23
100
AcDbEntity
  8
0
100
AcDbBlockEnd
  0
ENDSEC
  0
SECTION
  2
ENTITIES
  0
SPLINE
  5
75
330
1F
100
AcDbEntity
  8
0
  6
Continuous
 62
     7
370
    25
100
AcDbSpline
210
0.0
220
0.0
230
1.0
 70
     8
 71
     3
 72
    12
 73
     8
 74
     0
 42
0.000000001
 43
0.00000001
 40
0.0
 40
0.0
 40
0.0
 40
0.0
 40
0.2677592524994702
 40
0.4329950320337449
 40
0.6213660986930574
 40
0.7706041389798193
 40
1.0
 40
1.0
 40
1.0
 40
1.0
 10
92.03524597531434
 20
144.9493925139157
 30
0.0
 10
93.19387855018252
 20
141.8055993044556
 30
0.0
 10
97.55563715126333
 20
140.926742512549
 30
0.0
 10
103.6285413244494
 20
139.9754800489594
 30
0.0
 10
108.6662259360285
 20
140.0348574013554
 30
0.0
 10
114.2401829386974
 20
140.8402570507422
 30
0.0
 10
117.8814927828072
 20
142.0880226685493
 30
0.0
 10
119.4433980763317
 20
143.9241952701686
 30
0.0
  0
MTEXT
  5
77
330
1F
100
AcDbEntity
  8
0
  6
Continuous
 62
     7
370
     0
100
AcDbMText
 10
153.9130126925
 20
102.6033344152
 30
0.0
 40
3.5
 41
0.0
 46
0.0
 71
     1
 72
     1
  1
HFE-D72K
  7
SLDTEXTSTYLE0
 73
     1
 44
1.0
  0
LINE
  5
78
330
1F
100
AcDbEntity
  8
0
  6
SLD-実線
 62
     7
370
    25
100
AcDbLine
 10
92.1857151392
 20
150.3667223619
 30
0.0
 11
92.0348098354
 21
144.9336965349
 31
0.0
  0
SPLINE
  5
79
330
1F
100
AcDbEntity
  8
0
  6
SLD-実線
 62
     7
370
    25
100
AcDbSpline
210
0.0
220
0.0
230
1.0
 70
     8
 71
     3
 72
     9
 73
     5
 74
     0
 42
0.000000001
 43
0.00000001
 40
0.0
 40
0.0
 40
0.0
 40
0.0
 40
0.6433558468163569
 40
1.0
 40
1.0
 40
1.0
 40
1.0
 10
119.3269561578001
 20
150.3577558366936
 30
0.0
 10
119.3296651474231
 20
150.4705788278306
 30
0.0
 10
119.3338758647677
 20
150.6459452159584
 30
0.0
 10
119.2704931988493
 20
150.8124324732919
 30
0.0
 10
119.2478881416364
 20
150.8718091801995
 30
0.0
  0
SPLINE
  5
7A
330
1F
100
AcDbEntity
  8
0
  6
SLD-実線
 62
     7
370
    25
100
AcDbSpline
210
0.0
220
0.0
230
1.0
 70
     8
 71
     3
 72
     9
 73
     5
 74
     0
 42
0.000000001
 43
0.00000001
 40
0.0
 40
0.0
 40
0.0
 40
0.0
 40
0.4968590999105554
 40
1.0
 40
1.0
 40
1.0
 40
1.0
 10
67.737436236894
 20
134.0486352484517
 30
0.0
 10
67.68949749822303
 20
133.9970013266691
 30
0.0
 10
67.59301393038739
 20
133.8930806743314
 30
0.0
 10
67.57940240262283
 20
133.7752309578623
 30
0.0
 10
67.5725538862918
 20
133.7159359454428
 30
0.0
  0
LINE
  5
7B
330
1F
100
AcDbEntity
  8
0
  6
SLD-実線
 62
     7
370
    25
100
AcDbLine
 10
67.5733156002
 20
133.7809438766
 30
0.0
 11
67.5281109295
 21
132.5114521011
 31
0.0
  0
SPLINE
  5
7C
330
1F
100
AcDbEntity
  8
0
  6
SLD-実線
 62
     7
370
    25
100
AcDbSpline
210
0.0
220
0.0
230
1.0
 70
     8
 71
     3
 72
     9
 73
     5
 74
     0
 42
0.000000001
 43
0.00000001
 40
0.0
 40
0.0
 40
0.0
 40
0.0
 40
0.8313390947753062
 40
1.0
 40
1.0
 40
1.0
 40
1.0
 10
92.28131953524957
 20
150.8757477942293
 30
0.0
 10
92.2350887875594
 20
150.7386540421968
 30
0.0
 10
92.1794788108595
 20
150.5737469027467
 30
0.0
 10
92.1933838514238
 20
150.4049534365262
 30
0.0
 10
92.19572908815258
 20
150.3764845777174
 30
0.0
  0
LINE
  5
7D
330
1F
100
AcDbEntity
  8
0
  6
SLD-実線
 62
     7
370
    25
100
AcDbLine
 10
70.3280187989
 20
131.8300964779
 30
0.0
 11
70.7513835509
 21
114.1529216313
 31
0.0
  0
LINE
  5
7E
330
1F
100
AcDbEntity
  8
0
  6
SLD-実線
 62
     7
370
    25
100
AcDbLine
 10
71.9403085476
 20
137.755224477
 30
0.0
 11
67.7295748822
 21
134.0417064384
 31
0.0
  0
LINE
  5
7F
330
1F
100
AcDbEntity
  8
0
  6
SLD-実線
 62
     7
370
    25
100
AcDbLine
 10
81.9020414383
 20
136.5001641425
 30
0.0
 11
81.8999370587
 21
136.4410719558
 31
0.0
  0
LINE
  5
80
330
1F
100
AcDbEntity
  8
0
  6
SLD-実線
 62
     7
370
    25
100
AcDbLine
 10
81.9025765433
 20
136.4880596168
 30
0.0
 11
81.8288821979
 21
136.302507131
 31
0.0
  0
LINE
  5
81
330
1F
100
AcDbEntity
  8
0
  6
SLD-実線
 62
     7
370
    25
100
AcDbLine
 10
119.4433997399
 20
146.7682643215
 30
0.0
 11
119.3434468551
 21
150.3667218317
 31
0.0
  0
LINE
  5
82
330
1F
100
AcDbEntity
  8
0
  6
SLD-実線
 62
     7
370
    25
100
AcDbLine
 10
140.777781148
 20
124.2386794303
 30
0.0
 11
141.1763864268
 21
141.0019614292
 31
0.0
  0
SPLINE
  5
83
330
1F
100
AcDbEntity
  8
0
  6
SLD-実線
 62
     7
370
    25
100
AcDbSpline
210
0.0
220
0.0
230
1.0
 70
     8
 71
     3
 72
    11
 73
     7
 74
     0
 42
0.000000001
 43
0.00000001
 40
0.0
 40
0.0
 40
0.0
 40
0.0
 40
0.2561539613539577
 40
0.5097941626767397
 40
0.7585035692110946
 40
1.0
 40
1.0
 40
1.0
 40
1.0
 10
143.956421659358
 20
144.7702894984708
 30
0.0
 10
143.9397728754629
 20
144.8381566821071
 30
0.0
 10
143.9066386900671
 20
144.9732250365928
 30
0.0
 10
143.6771159410414
 20
145.1566743549622
 30
0.0
 10
143.3517696661868
 20
145.3056785824489
 30
0.0
 10
143.0797830252936
 20
145.3605310175596
 30
0.0
 10
142.945790734715
 20
145.3875536808793
 30
0.0
  0
LINE
  5
84
330
1F
100
AcDbEntity
  8
0
  6
SLD-実線
 62
     7
370
    25
100
AcDbLine
 10
144.0003302833
 20
143.5874483249
 30
0.0
 11
143.9558466025
 21
144.8233193804
 31
0.0
  0
LINE
  5
85
330
1F
100
AcDbEntity
  8
0
  6
SLD-実線
 62
     7
370
    25
100
AcDbLine
 10
142.9498407623
 20
145.3912115193
 30
0.0
 11
139.6726989072
 21
145.8040925838
 31
0.0
  0
LINE
  5
86
330
1F
100
AcDbEntity
  8
0
  6
SLD-実線
 62
     7
370
    25
100
AcDbLine
 10
92.0145820783
 20
188.9413401504
 30
0.0
 11
92.0145820783
 21
151.9623906888
 31
0.0
  0
SPLINE
  5
87
330
1F
100
AcDbEntity
  8
0
  6
SLD-実線
 62
     7
370
    25
100
AcDbSpline
210
0.0
220
0.0
230
1.0
 70
     8
 71
     3
 72
    30
 73
    26
 74
     0
 42
0.000000001
 43
0.00000001
 40
0.0
 40
0.0
 40
0.0
 40
0.0
 40
0.0054305162487246
 40
0.0405410229276633
 40
0.0778383658199457
 40
0.1186257272959733
 40
0.1639376490757918
 40
0.2134292326928665
 40
0.2646374266765908
 40
0.3149783860884178
 40
0.3641694851245852
 40
0.4124380537491762
 40
0.4600479040311999
 40
0.507207568619439
 40
0.5540740347727262
 40
0.6007692043067987
 40
0.6473945890448486
 40
0.6940377294650248
 40
0.7407657848003303
 40
0.7876787384657782
 40
0.8348950423698037
 40
0.8825656844897276
 40
0.9308942872941582
 40
0.980160718135024
 40
1.0
 40
1.0
 40
1.0
 40
1.0
 10
119.1122193650391
 20
190.748870039777
 30
0.0
 10
119.0983650728347
 20
190.7832414054791
 30
0.0
 10
118.9949371200994
 20
191.0398376959905
 30
0.0
 10
118.6957709806783
 20
191.4663821149329
 30
0.0
 10
118.2187296026997
 20
192.0299827981816
 30
0.0
 10
117.6130644288615
 20
192.5545026549233
 30
0.0
 10
116.8744309252918
 20
193.0538359233702
 30
0.0
 10
115.990140252207
 20
193.5188234537803
 30
0.0
 10
114.9786836757213
 20
193.9365686566053
 30
0.0
 10
113.8730535738451
 20
194.2971537995953
 30
0.0
 10
112.7019909749437
 20
194.5990639374372
 30
0.0
 10
111.4773658091655
 20
194.8457690003868
 30
0.0
 10
110.2076846677591
 20
195.0399344226426
 30
0.0
 10
108.9019132278247
 20
195.1829380210347
 30
0.0
 10
107.5702364334483
 20
195.2754104408672
 30
0.0
 10
106.2238293976645
 20
195.3175650750884
 30
0.0
 10
104.8745397353014
 20
195.3095438380689
 30
0.0
 10
103.5346771978665
 20
195.2514978696211
 30
0.0
 10
102.2164466922528
 20
195.1436220579923
 30
0.0
 10
100.9312885876131
 20
194.9862382898172
 30
0.0
 10
99.69011044900842
 20
194.778922584243
 30
0.0
 10
98.50000241956639
 20
194.5222109785738
 30
0.0
 10
97.37539937715964
 20
194.2093151457246
 30
0.0
 10
96.51772765756209
 20
193.9270633485449
 30
0.0
 10
96.07038501042328
 20
193.7258228921935
 30
0.0
 10
95.94195920422999
 20
193.6680495767922
 30
0.0
  0
SPLINE
  5
88
330
1F
100
AcDbEntity
  8
0
  6
SLD-実線
 62
     7
370
    25
100
AcDbSpline
210
0.0
220
0.0
230
1.0
 70
     8
 71
     3
 72
    35
 73
    31
 74
     0
 42
0.000000001
 43
0.00000001
 40
0.0
 40
0.0
 40
0.0
 40
0.0
 40
0.0109050624747463
 40
0.0415198857005388
 40
0.0723115728513096
 40
0.1046879184555953
 40
0.139628622854627
 40
0.1771028284467251
 40
0.2159680429692132
 40
0.2549039190806111
 40
0.2934491522295944
 40
0.331608870351396
 40
0.3694656312982783
 40
0.4070998160042683
 40
0.4445751857813364
 40
0.4819400557817029
 40
0.519231913663985
 40
0.556480746384695
 40
0.5937123439686031
 40
0.6309489709749501
 40
0.6682083627726414
 40
0.7055159602826019
 40
0.7429013142350053
 40
0.7804008183337893
 40
0.8180613221386802
 40
0.8559453566409129
 40
0.8941358897369008
 40
0.9327373540022437
 40
0.9718513816852181
 40
1.0
 40
1.0
 40
1.0
 40
1.0
 10
92.03142280040399
 20
151.9529258341664
 30
0.0
 10
92.02709515416976
 20
151.8838100376193
 30
0.0
 10
92.01061809340894
 20
151.6206588654564
 30
0.0
 10
92.12971834167965
 20
151.1686605626209
 30
0.0
 10
92.37268213920481
 20
150.6267924151203
 30
0.0
 10
92.74661285286746
 20
150.1153525693883
 30
0.0
 10
93.2471963384583
 20
149.6253019667064
 30
0.0
 10
93.88791129883242
 20
149.1561989057027
 30
0.0
 10
94.66471020339075
 20
148.7160683744293
 30
0.0
 10
95.56141279477023
 20
148.314031607871
 30
0.0
 10
96.55851605308143
 20
147.9550818582876
 30
0.0
 10
97.64247342417998
 20
147.6402456471436
 30
0.0
 10
98.80286942786765
 20
147.3697154196597
 30
0.0
 10
100.0293051363096
 20
147.1440442971222
 30
0.0
 10
101.3106295872628
 20
146.9640619505207
 30
0.0
 10
102.6348724855503
 20
146.8306607696327
 30
0.0
 10
103.9893577667717
 20
146.7446113646146
 30
0.0
 10
105.3609091148457
 20
146.7064433629698
 30
0.0
 10
106.7360284894467
 20
146.7163938049673
 30
0.0
 10
108.1010579131988
 20
146.7743309958434
 30
0.0
 10
109.4424608688829
 20
146.8797805099514
 30
0.0
 10
110.7470581192132
 20
147.0319611820712
 30
0.0
 10
112.0022942270421
 20
147.2297955654433
 30
0.0
 10
113.1963624412809
 20
147.4721338459978
 30
0.0
 10
114.3184852562893
 20
147.7578003430957
 30
0.0
 10
115.3588464998076
 20
148.0861323113616
 30
0.0
 10
116.3097548605377
 20
148.4569053342915
 30
0.0
 10
117.1614004960944
 20
148.8731014478591
 30
0.0
 10
117.842445367287
 20
149.2893755678086
 30
0.0
 10
118.2020580376292
 20
149.5857580440563
 30
0.0
 10
118.3525516682092
 20
149.7097905895403
 30
0.0
  0
SPLINE
  5
89
330
1F
100
AcDbEntity
  8
0
  6
SLD-実線
 62
     7
370
    25
100
AcDbSpline
210
0.0
220
0.0
230
1.0
 70
     8
 71
     3
 72
    11
 73
     7
 74
     0
 42
0.000000001
 43
0.00000001
 40
0.0
 40
0.0
 40
0.0
 40
0.0
 40
0.1896886851208893
 40
0.5062859109276031
 40
0.7987998870284669
 40
1.0
 40
1.0
 40
1.0
 40
1.0
 10
118.3525516682092
 20
149.7097905895403
 30
0.0
 10
118.4532761645278
 20
149.8030696181786
 30
0.0
 10
118.7221134614857
 20
150.0520346945852
 30
0.0
 10
119.063252504547
 20
150.487106949147
 30
0.0
 10
119.3351770718996
 20
150.972412556549
 30
0.0
 10
119.4120658240994
 20
151.2989665367537
 30
0.0
 10
119.4433998005267
 20
151.432044970533
 30
0.0
  0
LINE
  5
8A
330
1F
100
AcDbEntity
  8
0
  6
SLD-実線
 62
     7
370
    25
100
AcDbLine
 10
96.2435027624
 20
114.6253916551
 30
0.0
 11
96.2760305805
 21
114.6540784943
 31
0.0
  0
LINE
  5
8B
330
1F
100
AcDbEntity
  8
0
  6
SLD-実線
 62
     7
370
    25
100
AcDbLine
 10
94.9312277298
 20
116.2680744957
 30
0.0
 11
94.9006658316
 21
116.241121435
 31
0.0
  0
LINE
  5
8C
330
1F
100
AcDbEntity
  8
0
  6
SLD-実線
 62
     7
370
    25
100
AcDbLine
 10
95.0195907791
 20
116.3460033803
 30
0.0
 11
94.9890568279
 21
116.3190749665
 31
0.0
  0
LINE
  5
8D
330
1F
100
AcDbEntity
  8
0
  6
SLD-実線
 62
     7
370
    25
100
AcDbLine
 10
95.1080019433
 20
116.4239746981
 30
0.0
 11
95.0774451077
 21
116.3970261022
 31
0.0
  0
LINE
  5
8E
330
1F
100
AcDbEntity
  8
0
  6
SLD-実線
 62
     7
370
    25
100
AcDbLine
 10
95.1964023239
 20
116.5019365057
 30
0.0
 11
95.1658308768
 21
116.4749750237
 31
0.0
  0
LINE
  5
8F
330
1F
100
AcDbEntity
  8
0
  6
SLD-実線
 62
     7
370
    25
100
AcDbLine
 10
96.4222681264
 20
114.7830478872
 30
0.0
 11
96.4528303538
 21
114.8100012383
 31
0.0
  0
LINE
  5
90
330
1F
100
AcDbEntity
  8
0
  6
SLD-実線
 62
     7
370
    25
100
AcDbLine
 10
95.2847896158
 20
116.5798867703
 30
0.0
 11
95.2542192389
 21
116.552926232
 31
0.0
  0
LINE
  5
91
330
1F
100
AcDbEntity
  8
0
  6
SLD-実線
 62
     7
370
    25
100
AcDbLine
 10
96.5106601105
 20
114.8610022898
 30
0.0
 11
96.5412072737
 21
114.8879423555
 31
0.0
  0
LINE
  5
92
330
1F
100
AcDbEntity
  8
0
  6
SLD-実線
 62
     7
370
    25
100
AcDbLine
 10
96.5990479375
 20
114.9389530262
 30
0.0
 11
96.6296142809
 21
114.9659100072
 31
0.0
  0
LINE
  5
93
330
1F
100
AcDbEntity
  8
0
  6
SLD-実線
 62
     7
370
    25
100
AcDbLine
 10
96.6874367936
 20
115.0169046701
 30
0.0
 11
96.7067719896
 21
115.0339567102
 31
0.0
  0
LWPOLYLINE
  5
94
330
1F
100
AcDbEntity
  8
0
  6
SLD-実線
 62
     7
370
    25
100
AcDbPolyline
 90
        3
 70
   128
 43
0.0
 10
115.6359983563
 20
131.6767851
 10
115.759431785
 20
131.8620237782
 10
115.7651701743
 20
131.9124872544
  0
LINE
  5
95
330
1F
100
AcDbEntity
  8
0
  6
SLD-実線
 62
     7
370
    25
100
AcDbLine
 10
123.7505592381
 20
125.6338298975
 30
0.0
 11
123.7314143689
 21
126.8326487257
 31
0.0
  0
SPLINE
  5
96
330
1F
100
AcDbEntity
  8
0
  6
SLD-実線
 62
     7
370
    25
100
AcDbSpline
210
0.0
220
0.0
230
1.0
 70
     8
 71
     3
 72
    13
 73
     9
 74
     0
 42
0.000000001
 43
0.00000001
 40
0.0
 40
0.0
 40
0.0
 40
0.0
 40
0.1361232368631362
 40
0.2704290844764293
 40
0.499998411364089
 40
0.7295668260190342
 40
0.8638102753129048
 40
0.9999999999999999
 40
0.9999999999999999
 40
0.9999999999999999
 40
0.9999999999999999
 10
123.7505592381331
 20
125.633829897478
 30
0.0
 10
123.707010840511
 20
125.6012555017828
 30
0.0
 10
123.6204954624555
 20
125.5365416130433
 30
0.0
 10
123.3673522524484
 20
125.435379473554
 30
0.0
 10
122.978999873175
 20
125.3445405800179
 30
0.0
 10
122.5177998468643
 20
125.3075504508413
 30
0.0
 10
122.1227395038252
 20
125.3111441105998
 30
0.0
 10
121.919910461053
 20
125.3323294044575
 30
0.0
 10
121.8177660714166
 20
125.3429982854067
 30
0.0
  0
LINE
  5
97
330
1F
100
AcDbEntity
  8
0
  6
SLD-実線
 62
     7
370
    25
100
AcDbLine
 10
121.7986260259
 20
126.5418160993
 30
0.0
 11
121.8177660715
 21
125.3429982855
 31
0.0
  0
SPLINE
  5
98
330
1F
100
AcDbEntity
  8
0
  6
SLD-実線
 62
     7
370
    25
100
AcDbSpline
210
0.0
220
0.0
230
1.0
 70
     8
 71
     3
 72
    11
 73
     7
 74
     0
 42
0.000000001
 43
0.00000001
 40
0.0
 40
0.0
 40
0.0
 40
0.0
 40
0.2500136638277167
 40
0.4999980931004919
 40
0.7499830837497745
 40
1.0
 40
1.0
 40
1.0
 40
1.0
 10
121.7986260258627
 20
126.5418160992995
 30
0.0
 10
121.9904016264986
 20
126.526524026761
 30
0.0
 10
122.3739304030987
 20
126.495941669814
 30
0.0
 10
122.9601378037086
 20
126.54672428272
 30
0.0
 10
123.4597150309907
 20
126.6593241344902
 30
0.0
 10
123.6408440678656
 20
126.7748714026769
 30
0.0
 10
123.7314143689344
 20
126.8326487256722
 30
0.0
  0
SPLINE
  5
99
330
1F
100
AcDbEntity
  8
0
  6
SLD-実線
 62
     7
370
    25
100
AcDbSpline
210
0.0
220
0.0
230
1.0
 70
     8
 71
     3
 72
    11
 73
     7
 74
     0
 42
0.000000001
 43
0.00000001
 40
0.0
 40
0.0
 40
0.0
 40
0.0
 40
0.2499997036100231
 40
0.500000905878436
 40
0.7500006117797091
 40
1.0
 40
1.0
 40
1.0
 40
1.0
 10
121.7986260258627
 20
126.5418160992995
 30
0.0
 10
121.800207589904
 20
126.573481360754
 30
0.0
 10
121.8033707274676
 20
126.6368120734848
 30
0.0
 10
121.8239144804675
 20
126.7305959360495
 30
0.0
 10
121.8528172420959
 20
126.8088699207978
 30
0.0
 10
121.8755951342331
 20
126.8358048522206
 30
0.0
 10
121.8869840730656
 20
126.8492723093753
 30
0.0
  0
SPLINE
  5
9A
330
1F
100
AcDbEntity
  8
0
  6
SLD-実線
 62
     7
370
    25
100
AcDbSpline
210
0.0
220
0.0
230
1.0
 70
     8
 71
     3
 72
    11
 73
     7
 74
     0
 42
0.000000001
 43
0.00000001
 40
0.0
 40
0.0
 40
0.0
 40
0.0
 40
0.2781316997576488
 40
0.5596637309653177
 40
0.7812985803183089
 40
0.9999999999999999
 40
0.9999999999999999
 40
0.9999999999999999
 40
0.9999999999999999
 10
121.8869851534902
 20
126.8492732622202
 30
0.0
 10
122.0658021197201
 20
126.8350683816377
 30
0.0
 10
122.425622199802
 20
126.8064849570527
 30
0.0
 10
122.9297407039899
 20
126.8623194213633
 30
0.0
 10
123.3047563449903
 20
126.9624093978704
 30
0.0
 10
123.4336351601443
 20
127.0487543517389
 30
0.0
 10
123.4976452856397
 20
127.0916392225101
 30
0.0
  0
SPLINE
  5
9B
330
1F
100
AcDbEntity
  8
0
  6
SLD-実線
 62
     7
370
    25
100
AcDbSpline
210
0.0
220
0.0
230
1.0
 70
     8
 71
     3
 72
    11
 73
     7
 74
     0
 42
0.000000001
 43
0.00000001
 40
0.0
 40
0.0
 40
0.0
 40
0.0
 40
0.2499984002295673
 40
0.4999966259392122
 40
0.750000256809781
 40
1.0
 40
1.0
 40
1.0
 40
1.0
 10
123.4976369715153
 20
127.0916318901416
 30
0.0
 10
123.5277691573294
 20
127.0844120797987
 30
0.0
 10
123.5880335079228
 20
127.0699724641529
 30
0.0
 10
123.6645044782196
 20
127.0075560370549
 30
0.0
 10
123.7188597860755
 20
126.9250423751854
 30
0.0
 10
123.7272295296739
 20
126.8634464492008
 30
0.0
 10
123.7314143689344
 20
126.8326487256722
 30
0.0
  0
SPLINE
  5
9C
330
1F
100
AcDbEntity
  8
0
  6
SLD-実線
 62
     7
370
    25
100
AcDbSpline
210
0.0
220
0.0
230
1.0
 70
     8
 71
     3
 72
     9
 73
     5
 74
     0
 42
0.000000001
 43
0.00000001
 40
0.0
 40
0.0
 40
0.0
 40
0.0
 40
0.5589181800277819
 40
1.0
 40
1.0
 40
1.0
 40
1.0
 10
81.53462911958061
 20
135.8242406034437
 30
0.0
 10
81.46674865801641
 20
135.895319453674
 30
0.0
 10
81.34529892889714
 20
136.022491645902
 30
0.0
 10
81.45178705369894
 20
136.1502606792066
 30
0.0
 10
81.49875702959193
 20
136.2066172769526
 30
0.0
  0
SPLINE
  5
9D
330
1F
100
AcDbEntity
  8
0
  6
SLD-実線
 62
     7
370
    25
100
AcDbSpline
210
0.0
220
0.0
230
1.0
 70
     8
 71
     3
 72
     9
 73
     5
 74
     0
 42
0.000000001
 43
0.00000001
 40
0.0
 40
0.0
 40
0.0
 40
0.0
 40
0.5597245555064894
 40
1.0
 40
1.0
 40
1.0
 40
1.0
 10
82.37124947803697
 20
135.5623541846829
 30
0.0
 10
82.17217766197659
 20
135.5966674502752
 30
0.0
 10
81.81651733923043
 20
135.6579712920572
 30
0.0
 10
81.62079906830695
 20
135.7734140096445
 30
0.0
 10
81.53462911958061
 20
135.8242406034437
 30
0.0
  0
LINE
  5
9E
330
1F
100
AcDbEntity
  8
0
  6
SLD-実線
 62
     7
370
    25
100
AcDbLine
 10
115.5552448692
 20
131.3815637433
 30
0.0
 11
82.371249478
 21
135.5623541847
 31
0.0
  0
SPLINE
  5
9F
330
1F
100
AcDbEntity
  8
0
  6
SLD-実線
 62
     7
370
    25
100
AcDbSpline
210
0.0
220
0.0
230
1.0
 70
     8
 71
     3
 72
     9
 73
     5
 74
     0
 42
0.000000001
 43
0.00000001
 40
0.0
 40
0.0
 40
0.0
 40
0.0
 40
0.558916710327966
 40
1.0
 40
1.0
 40
1.0
 40
1.0
 10
116.7023748900475
 20
131.3935211066406
 30
0.0
 10
116.4891389308891
 20
131.3708942100481
 30
0.0
 10
116.1076224093429
 20
131.3304107244512
 30
0.0
 10
115.7243152514196
 20
131.3659069509561
 30
0.0
 10
115.5552448692479
 20
131.3815637433139
 30
0.0
  0
SPLINE
  5
A0
330
1F
100
AcDbEntity
  8
0
  6
SLD-実線
 62
     7
370
    25
100
AcDbSpline
210
0.0
220
0.0
230
1.0
 70
     8
 71
     3
 72
     9
 73
     5
 74
     0
 42
0.000000001
 43
0.00000001
 40
0.0
 40
0.0
 40
0.0
 40
0.0
 40
0.5597237869529887
 40
0.9999999999999999
 40
0.9999999999999999
 40
0.9999999999999999
 40
0.9999999999999999
 10
117.4880367600344
 20
131.6723942301208
 30
0.0
 10
117.3850970923496
 20
131.6060368910169
 30
0.0
 10
117.2011855451108
 20
131.4874831674649
 30
0.0
 10
116.8548556880009
 20
131.4222442501148
 30
0.0
 10
116.7023748900475
 20
131.3935211066406
 30
0.0
  0
SPLINE
  5
A1
330
1F
100
AcDbEntity
  8
0
  6
SLD-実線
 62
     7
370
    25
100
AcDbSpline
210
0.0
220
0.0
230
1.0
 70
     8
 71
     3
 72
    11
 73
     7
 74
     0
 42
0.000000001
 43
0.00000001
 40
0.0
 40
0.0
 40
0.0
 40
0.0
 40
0.2781327935467167
 40
0.5596641021914983
 40
0.7813000223036703
 40
1.0
 40
1.0
 40
1.0
 40
1.0
 10
143.6272777096244
 20
144.8443063486091
 30
0.0
 10
143.6698928662159
 20
144.9039113982633
 30
0.0
 10
143.7556438956052
 20
145.0238498139224
 30
0.0
 10
143.5881478366756
 20
145.1918883498295
 30
0.0
 10
143.2878816487714
 20
145.3168914915659
 30
0.0
 10
143.0288539598025
 20
145.3598526838758
 30
0.0
 10
142.9002036497048
 20
145.3811900580184
 30
0.0
  0
LINE
  5
A2
330
1F
100
AcDbEntity
  8
0
  6
SLD-実線
 62
     7
370
    25
100
AcDbLine
 10
123.4976452856
 20
127.0916392225
 30
0.0
 11
143.6272777096
 21
144.8443063486
 31
0.0
  0
LINE
  5
A3
330
1F
100
AcDbEntity
  8
0
  6
SLD-実線
 62
     7
370
    25
100
AcDbLine
 10
68.6289627121
 20
133.5591543415
 30
0.0
 11
121.8869851535
 21
126.8492732622
 31
0.0
  0
SPLINE
  5
A4
330
1F
100
AcDbEntity
  8
0
  6
SLD-実線
 62
     7
370
    25
100
AcDbSpline
210
0.0
220
0.0
230
1.0
 70
     8
 71
     3
 72
    11
 73
     7
 74
     0
 42
0.000000001
 43
0.00000001
 40
0.0
 40
0.0
 40
0.0
 40
0.0
 40
0.2781369505223724
 40
0.5596632048061368
 40
0.7812936994900207
 40
1.0
 40
1.0
 40
1.0
 40
1.0
 10
67.90188907551354
 20
134.0960377383273
 30
0.0
 10
67.85927247468081
 20
134.0364316951965
 30
0.0
 10
67.7735199583208
 20
133.9164932653629
 30
0.0
 10
67.9410112988533
 20
133.7484552880997
 30
0.0
 10
68.24127725890938
 20
133.6234525633241
 30
0.0
 10
68.50030761838421
 20
133.5804919844114
 30
0.0
 10
68.6289627120735
 20
133.5591543415337
 30
0.0
  0
LINE
  5
A5
330
1F
100
AcDbEntity
  8
0
  6
SLD-実線
 62
     7
370
    25
100
AcDbLine
 10
121.7986260259
 20
126.5418160993
 30
0.0
 11
68.5406026416
 21
133.2516981033
 31
0.0
  0
SPLINE
  5
A6
330
1F
100
AcDbEntity
  8
0
  6
SLD-実線
 62
     7
370
    25
100
AcDbSpline
210
0.0
220
0.0
230
1.0
 70
     8
 71
     3
 72
    11
 73
     7
 74
     0
 42
0.000000001
 43
0.00000001
 40
0.0
 40
0.0
 40
0.0
 40
0.0
 40
0.2500003453020291
 40
0.5000012108039888
 40
0.7500037110436386
 40
1.0
 40
1.0
 40
1.0
 40
1.0
 10
68.62896068499118
 20
133.5591525538152
 30
0.0
 10
68.61757176019174
 20
133.5456851060214
 30
0.0
 10
68.59479388689478
 20
133.5187501824107
 30
0.0
 10
68.56589114291613
 20
133.4404762029913
 30
0.0
 10
68.54534753334376
 20
133.3466929672636
 30
0.0
 10
68.54218425911385
 20
133.2833627956868
 30
0.0
 10
68.54060264164693
 20
133.2516981032611
 30
0.0
  0
LINE
  5
A7
330
1F
100
AcDbEntity
  8
0
  6
SLD-実線
 62
     7
370
    25
100
AcDbLine
 10
68.4981942393
 20
132.0606329067
 30
0.0
 11
68.5406026416
 21
133.2516981033
 31
0.0
  0
LINE
  5
A8
330
1F
100
AcDbEntity
  8
0
  6
SLD-実線
 62
     7
370
    25
100
AcDbLine
 10
68.498201207
 20
132.0606320272
 30
0.0
 11
121.8177660715
 21
125.3429982855
 31
0.0
  0
SPLINE
  5
A9
330
1F
100
AcDbEntity
  8
0
  6
SLD-実線
 62
     7
370
    25
100
AcDbSpline
210
0.0
220
0.0
230
1.0
 70
     8
 71
     3
 72
    11
 73
     7
 74
     0
 42
0.000000001
 43
0.00000001
 40
0.0
 40
0.0
 40
0.0
 40
0.0
 40
0.2500004601188299
 40
0.499999283453066
 40
0.7500008828456729
 40
1.0
 40
1.0
 40
1.0
 40
1.0
 10
143.8610551070435
 20
144.585321428021
 30
0.0
 10
143.8568700542215
 20
144.616119043913
 30
0.0
 10
143.8484999759777
 20
144.6777140740612
 30
0.0
 10
143.7941485412101
 20
144.7602291441329
 30
0.0
 10
143.7176780793469
 20
144.8226466212959
 30
0.0
 10
143.6574133895978
 20
144.8370861707131
 30
0.0
 10
143.6272811943144
 20
144.8443059095794
 30
0.0
  0
LINE
  5
AA
330
1F
100
AcDbEntity
  8
0
  6
SLD-実線
 62
     7
370
    25
100
AcDbLine
 10
143.861055107
 20
144.585321428
 30
0.0
 11
123.7314143689
 21
126.8326487257
 31
0.0
  0
LINE
  5
AB
330
1F
100
AcDbEntity
  8
0
  6
SLD-実線
 62
     7
370
    25
100
AcDbLine
 10
143.861055107
 20
144.585321428
 30
0.0
 11
143.903460468
 21
143.4070181814
 31
0.0
  0
LINE
  5
AC
330
1F
100
AcDbEntity
  8
0
  6
SLD-実線
 62
     7
370
    25
100
AcDbLine
 10
123.7505592381
 20
125.6338298975
 30
0.0
 11
143.903460468
 21
143.4070181814
 31
0.0
  0
SPLINE
  5
AD
330
1F
100
AcDbEntity
  8
0
  6
SLD-実線
 62
     7
370
    25
100
AcDbSpline
210
0.0
220
0.0
230
1.0
 70
     8
 71
     3
 72
    13
 73
     9
 74
     0
 42
0.000000001
 43
0.00000001
 40
0.0
 40
0.0
 40
0.0
 40
0.0
 40
0.1361188353316093
 40
0.2704279554158005
 40
0.4999986476072735
 40
0.7295704672718694
 40
0.8638155478887943
 40
1.0
 40
1.0
 40
1.0
 40
1.0
 10
122.2960154541455
 20
107.8518815943228
 30
0.0
 10
122.2524594454578
 20
107.8193024070281
 30
0.0
 10
122.1659265101238
 20
107.7545771764033
 30
0.0
 10
121.9127140053599
 20
107.6534026634372
 30
0.0
 10
121.5242844149841
 20
107.5625490343809
 30
0.0
 10
121.0630018331434
 20
107.5255480426348
 30
0.0
 10
120.6678681909606
 20
107.5291323911629
 30
0.0
 10
120.4650037313437
 20
107.5503204101433
 30
0.0
 10
120.3628440855127
 20
107.5609903940281
 30
0.0
  0
LINE
  5
AE
330
1F
100
AcDbEntity
  8
0
  6
SLD-実線
 62
     7
370
    25
100
AcDbLine
 10
120.3628440855
 20
107.560990394
 30
0.0
 11
71.7208771471
 21
113.689302191
 31
0.0
  0
LINE
  5
AF
330
1F
100
AcDbEntity
  8
0
  6
SLD-実線
 62
     7
370
    25
100
AcDbLine
 10
131.9549097659
 20
117.7597552887
 30
0.0
 11
131.0710264741
 21
116.9802434959
 31
0.0
  0
LINE
  5
B0
330
1F
100
AcDbEntity
  8
0
  6
SLD-実線
 62
     7
370
    25
100
AcDbLine
 10
131.0465360728
 20
115.5691153943
 30
0.0
 11
131.0710264741
 21
116.9802434959
 31
0.0
  0
LINE
  5
B1
330
1F
100
AcDbEntity
  8
0
  6
SLD-実線
 62
     7
370
    25
100
AcDbLine
 10
131.0465360728
 20
115.5691153943
 30
0.0
 11
122.2960154541
 21
107.8518815943
 31
0.0
  0
LINE
  5
B2
330
1F
100
AcDbEntity
  8
0
  6
SLD-実線
 62
     7
370
    25
100
AcDbLine
 10
140.6809467334
 20
124.06586694
 30
0.0
 11
131.9304193647
 21
116.3486271871
 31
0.0
  0
LINE
  5
B3
330
1F
100
AcDbEntity
  8
0
  6
SLD-実線
 62
     7
370
    25
100
AcDbLine
 10
131.9549097659
 20
117.7597552887
 30
0.0
 11
131.9304193647
 21
116.3486271871
 31
0.0
  0
LINE
  5
B4
330
1F
100
AcDbEntity
  8
0
  6
SLD-実線
 62
     7
370
    25
100
AcDbLine
 10
82.5479656162
 20
136.1772683995
 30
0.0
 11
115.7319610074
 21
131.9964797143
 31
0.0
  0
SPLINE
  5
B5
330
1F
100
AcDbEntity
  8
0
  6
SLD-実線
 62
     7
370
    25
100
AcDbSpline
210
0.0
220
0.0
230
1.0
 70
     8
 71
     3
 72
    11
 73
     7
 74
     0
 42
0.000000001
 43
0.00000001
 40
0.0
 40
0.0
 40
0.0
 40
0.0
 40
0.2499996660310113
 40
0.4999999208482643
 40
0.7499988688805187
 40
1.0
 40
1.0
 40
1.0
 40
1.0
 10
115.5552448692479
 20
131.3815637433139
 30
0.0
 10
115.5780228845015
 20
131.4084985862825
 30
0.0
 10
115.6235789686543
 20
131.4623683356552
 30
0.0
 10
115.6813837915769
 20
131.6189183056142
 30
0.0
 10
115.7224723998926
 20
131.8064852932819
 30
0.0
 10
115.7287981290146
 20
131.9331468855196
 30
0.0
 10
115.7319610073853
 20
131.9964779581517
 30
0.0
  0
SPLINE
  5
B6
330
1F
100
AcDbEntity
  8
0
  6
SLD-実線
 62
     7
370
    25
100
AcDbSpline
210
0.0
220
0.0
230
1.0
 70
     8
 71
     3
 72
    11
 73
     7
 74
     0
 42
0.000000001
 43
0.00000001
 40
0.0
 40
0.0
 40
0.0
 40
0.0
 40
0.2500011311194812
 40
0.5000000791517356
 40
0.7500003339689887
 40
1.0
 40
1.0
 40
1.0
 40
1.0
 10
82.5479656161743
 20
136.1772683995207
 30
0.0
 10
82.54480273780366
 20
136.1139373268886
 30
0.0
 10
82.53847700868164
 20
135.987275734651
 30
0.0
 10
82.4973884003659
 20
135.7997087469832
 30
0.0
 10
82.43958357744336
 20
135.6431587770243
 30
0.0
 10
82.39402749329057
 20
135.5892890276515
 30
0.0
 10
82.37124947803697
 20
135.5623541846829
 30
0.0
  0
LWPOLYLINE
  5
B7
330
1F
100
AcDbEntity
  8
0
  6
SLD-実線
 62
     7
370
    25
100
AcDbPolyline
 90
       15
 70
   128
 43
0.0
 10
118.4669923722
 20
148.7244618087
 10
117.8495751278
 20
148.2604514614
 10
117.0801797597
 20
147.8224019566
 10
116.1684850777
 20
147.4158216535
 10
115.1259562153
 20
147.0458239359
 10
113.9657017552
 20
146.7170609159
 10
112.7023143631
 20
146.4336671808
 10
111.3516800615
 20
146.1992074914
 10
109.9307851419
 20
146.0166294237
 10
108.4574987679
 20
145.8882296927
 10
106.9503457829
 20
145.8156223754
 10
105.428282892
 20
145.7997206464
 10
103.9104461175
 20
145.8407247879
 10
102.4159281889
 20
145.9381190395
 10
100.9635211277
 20
146.0906781438
  0
ARC
  5
B8
330
1F
100
AcDbEntity
  8
0
  6
SLD-実線
 62
     7
370
    25
100
AcDbCircle
 10
105.7749509388
 20
180.8095102518
 30
0.0
 40
34.40461489319565
100
AcDbArc
 50
264.3881331564
 51
284.2064688913
  0
LWPOLYLINE
  5
B9
330
1F
100
AcDbEntity
  8
0
  6
SLD-実線
 62
     7
370
    25
100
AcDbPolyline
 90
       13
 70
   128
 43
0.0
 10
101.3009698702
 20
146.8473451915
 10
102.6512932839
 20
146.7055088139
 10
104.0407688777
 20
146.6149600542
 10
105.4519207202
 20
146.5768380083
 10
106.8670046062
 20
146.591621952
 10
108.2682231889
 20
146.6591261413
 10
109.637958385
 20
146.7785010636
 10
110.9589851218
 20
146.9482463341
 10
112.214688377
 20
147.1662264945
 10
113.3892766249
 20
147.4297012042
 10
114.4679806846
 20
147.7353566064
 10
115.4372345697
 20
148.0793489182
 10
116.2631430347
 20
148.4464840565
  0
ARC
  5
BA
330
1F
100
AcDbEntity
  8
0
  6
SLD-実線
 62
     7
370
    25
100
AcDbCircle
 10
103.5465243154
 20
167.8064315107
 30
0.0
 40
21.07903731438633
100
AcDbArc
 50
248.2211192714
 51
263.884663854
  0
SPLINE
  5
BB
330
1F
100
AcDbEntity
  8
0
  6
SLD-実線
 62
     7
370
    25
100
AcDbSpline
210
0.0
220
0.0
230
1.0
 70
     8
 71
     3
 72
    12
 73
     8
 74
     0
 42
0.000000001
 43
0.00000001
 40
0.0
 40
0.0
 40
0.0
 40
0.0
 40
0.1751911588167883
 40
0.3480433277721943
 40
0.6434986107692349
 40
0.9389536945359636
 40
1.0
 40
1.0
 40
1.0
 40
1.0
 10
68.49820120687563
 20
132.0606320270972
 30
0.0
 10
68.40053485627284
 20
132.0751467605853
 30
0.0
 10
68.2065061055942
 20
132.1039824403026
 30
0.0
 10
67.90196772188334
 20
132.1883881203971
 30
0.0
 10
67.63633186383683
 20
132.3176846905897
 30
0.0
 10
67.52097105161307
 20
132.4493883196236
 30
0.0
 10
67.53396270875663
 20
132.521595115085
 30
0.0
 10
67.53618736395975
 20
132.5339596057307
 30
0.0
  0
SPLINE
  5
BC
330
1F
100
AcDbEntity
  8
0
  6
SLD-実線
 62
     7
370
    25
100
AcDbSpline
210
0.0
220
0.0
230
1.0
 70
     8
 71
     3
 72
     9
 73
     5
 74
     0
 42
0.000000001
 43
0.00000001
 40
0.0
 40
0.0
 40
0.0
 40
0.0
 40
0.9445460289865377
 40
1.0
 40
1.0
 40
1.0
 40
1.0
 10
70.88414223077926
 20
113.9512451908166
 30
0.0
 10
70.80419045895749
 20
114.0142132825238
 30
0.0
 10
70.71954474623604
 20
114.0808782091391
 30
0.0
 10
70.75570919096793
 20
114.1488040185994
 30
0.0
 10
70.75771465303782
 20
114.1525707744683
 30
0.0
  0
SPLINE
  5
BD
330
1F
100
AcDbEntity
  8
0
  6
SLD-実線
 62
     7
370
    25
100
AcDbSpline
210
0.0
220
0.0
230
1.0
 70
     8
 71
     3
 72
     9
 73
     5
 74
     0
 42
0.000000001
 43
0.00000001
 40
0.0
 40
0.0
 40
0.0
 40
0.0
 40
0.5000030528937028
 40
1.0
 40
1.0
 40
1.0
 40
1.0
 10
71.72087714712272
 20
113.6893021909635
 30
0.0
 10
71.5423418490101
 20
113.7190896124515
 30
0.0
 10
71.18527343296867
 20
113.7786640916784
 30
0.0
 10
70.98451888958753
 20
113.8937183919362
 30
0.0
 10
70.88414223077926
 20
113.9512451908166
 30
0.0
  0
LINE
  5
BE
330
1F
100
AcDbEntity
  8
0
  6
SLD-実線
 62
     7
370
    25
100
AcDbLine
 10
131.2288571829
 20
116.4370157138
 30
0.0
 11
131.9304193647
 21
116.3486271871
 31
0.0
  0
LINE
  5
BF
330
1F
100
AcDbEntity
  8
0
  6
SLD-実線
 62
     7
370
    25
100
AcDbLine
 10
131.2288571829
 20
116.4370157138
 30
0.0
 11
131.2172427112
 21
117.1091933005
 31
0.0
  0
LINE
  5
C0
330
1F
100
AcDbEntity
  8
0
  6
SLD-実線
 62
     7
370
    25
100
AcDbLine
 10
140.7675819596
 20
124.2392449017
 30
0.0
 11
140.6809467334
 21
124.06586694
 31
0.0
  0
LINE
  5
C1
330
1F
100
AcDbEntity
  8
0
  6
SLD-実線
 62
     7
370
    25
100
AcDbLine
 10
143.9948701183
 20
143.590089392
 30
0.0
 11
143.903460468
 21
143.4070181814
 31
0.0
  0
LINE
  5
C2
330
1F
100
AcDbEntity
  8
0
  6
SLD-実線
 62
     7
370
    25
100
AcDbLine
 10
119.4433996941
 20
185.474876284
 30
0.0
 11
119.5093268822
 21
189.2384290304
 31
0.0
  0
LINE
  5
C3
330
1F
100
AcDbEntity
  8
0
  6
SLD-実線
 62
     7
370
    25
100
AcDbLine
 10
123.2204095478
 20
188.8058893872
 30
0.0
 11
119.5093268822
 21
189.2384290304
 31
0.0
  0
LINE
  5
C4
330
1F
100
AcDbEntity
  8
0
  6
SLD-実線
 62
     7
370
    25
100
AcDbLine
 10
123.2204095478
 20
136.0085849396
 30
0.0
 11
123.2204095478
 21
188.8058893872
 31
0.0
  0
LINE
  5
C5
330
1F
100
AcDbEntity
  8
0
  6
SLD-実線
 62
     7
370
    25
100
AcDbLine
 10
119.4433996941
 20
136.448808621
 30
0.0
 11
123.2204095478
 21
136.0085849396
 31
0.0
  0
LINE
  5
C6
330
1F
100
AcDbEntity
  8
0
  6
SLD-実線
 62
     7
370
    25
100
AcDbLine
 10
119.4433996941
 20
185.474876284
 30
0.0
 11
119.4433996941
 21
136.448808621
 31
0.0
  0
LINE
  5
C7
330
1F
100
AcDbEntity
  8
0
  6
SLD-実線
 62
     7
370
    25
100
AcDbLine
 10
139.3677404542
 20
206.7519036121
 30
0.0
 11
90.5955719946
 21
212.8966192589
 31
0.0
  0
LINE
  5
C8
330
1F
100
AcDbEntity
  8
0
  6
SLD-実線
 62
     7
370
    25
100
AcDbLine
 10
90.5955719946
 20
212.8966192589
 30
0.0
 11
72.1614250501
 21
196.6392297762
 31
0.0
  0
LINE
  5
C9
330
1F
100
AcDbEntity
  8
0
  6
SLD-実線
 62
     7
370
    25
100
AcDbLine
 10
72.1614250501
 20
196.6392297762
 30
0.0
 11
120.9335935097
 21
190.4945141295
 31
0.0
  0
LINE
  5
CA
330
1F
100
AcDbEntity
  8
0
  6
SLD-実線
 62
     7
370
    25
100
AcDbLine
 10
120.9335935097
 20
190.4945141295
 30
0.0
 11
139.3677404542
 21
206.7519036121
 31
0.0
  0
LINE
  5
CB
330
1F
100
AcDbEntity
  8
0
  6
SLD-実線
 62
     7
370
    25
100
AcDbLine
 10
70.7718966325
 20
195.4137808986
 30
0.0
 11
119.5440650921
 21
189.2690652519
 31
0.0
  0
LINE
  5
CC
330
1F
100
AcDbEntity
  8
0
  6
SLD-実線
 62
     7
370
    25
100
AcDbLine
 10
70.7371584225
 20
195.3831446771
 30
0.0
 11
70.7718966325
 21
195.4137808986
 31
0.0
  0
LINE
  5
CD
330
1F
100
AcDbEntity
  8
0
  6
SLD-実線
 62
     7
370
    25
100
AcDbLine
 10
70.7371584225
 20
195.3831446771
 30
0.0
 11
67.0955499988
 21
195.8769570377
 31
0.0
  0
LINE
  5
CE
330
1F
100
AcDbEntity
  8
0
  6
SLD-実線
 62
     7
370
    25
100
AcDbLine
 10
88.3087529554
 20
214.5852435496
 30
0.0
 11
67.0955499988
 21
195.8769570377
 31
0.0
  0
LINE
  5
CF
330
1F
100
AcDbEntity
  8
0
  6
SLD-実線
 62
     7
370
    25
100
AcDbLine
 10
88.3087529554
 20
214.5852435496
 30
0.0
 11
92.0198378118
 21
214.1527036433
 31
0.0
  0
LINE
  5
D0
330
1F
100
AcDbEntity
  8
0
  6
SLD-実線
 62
     7
370
    25
100
AcDbLine
 10
91.985099589
 20
214.1220674105
 30
0.0
 11
92.0198378118
 21
214.1527036433
 31
0.0
  0
LINE
  5
D1
330
1F
100
AcDbEntity
  8
0
  6
SLD-実線
 62
     7
370
    25
100
AcDbLine
 10
140.7572680487
 20
207.9773517637
 30
0.0
 11
91.985099589
 21
214.1220674105
 31
0.0
  0
LINE
  5
D2
330
1F
100
AcDbEntity
  8
0
  6
SLD-実線
 62
     7
370
    25
100
AcDbLine
 10
140.7920062715
 20
208.0079879966
 30
0.0
 11
140.7572680487
 21
207.9773517637
 31
0.0
  0
LINE
  5
D3
330
1F
100
AcDbEntity
  8
0
  6
SLD-実線
 62
     7
370
    25
100
AcDbLine
 10
140.7920062715
 20
208.0079879966
 30
0.0
 11
144.4336125044
 21
207.514175899
 31
0.0
  0
LINE
  5
D4
330
1F
100
AcDbEntity
  8
0
  6
SLD-実線
 62
     7
370
    25
100
AcDbLine
 10
123.2204095478
 20
188.8058893872
 30
0.0
 11
144.4336125044
 21
207.514175899
 31
0.0
  0
LINE
  5
D5
330
1F
100
AcDbEntity
  8
0
  6
SLD-実線
 62
     7
370
    25
100
AcDbLine
 10
119.5440650921
 20
189.2690652519
 30
0.0
 11
119.5093268822
 21
189.2384290304
 31
0.0
  0
LINE
  5
D6
330
1F
100
AcDbEntity
  8
0
  6
SLD-実線
 62
     7
370
    25
100
AcDbLine
 10
144.4336125044
 20
154.7168714514
 30
0.0
 11
144.4336125044
 21
207.514175899
 31
0.0
  0
LINE
  5
D7
330
1F
100
AcDbEntity
  8
0
  6
SLD-実線
 62
     7
370
    25
100
AcDbLine
 10
143.019331539
 20
153.4695928786
 30
0.0
 11
144.4336125044
 21
154.7168714514
 31
0.0
  0
LINE
  5
D8
330
1F
100
AcDbEntity
  8
0
  6
SLD-実線
 62
     7
370
    25
100
AcDbLine
 10
143.019331539
 20
202.4956605416
 30
0.0
 11
143.019331539
 21
153.4695928786
 31
0.0
  0
LINE
  5
D9
330
1F
100
AcDbEntity
  8
0
  6
SLD-実線
 62
     7
370
    25
100
AcDbLine
 10
124.6346903486
 20
186.2819310302
 30
0.0
 11
143.019331539
 21
202.4956605416
 31
0.0
  0
LINE
  5
DA
330
1F
100
AcDbEntity
  8
0
  6
SLD-実線
 62
     7
370
    25
100
AcDbLine
 10
124.6346903486
 20
137.2558633672
 30
0.0
 11
124.6346903486
 21
186.2819310302
 31
0.0
  0
LINE
  5
DB
330
1F
100
AcDbEntity
  8
0
  6
SLD-実線
 62
     7
370
    25
100
AcDbLine
 10
123.2204095478
 20
136.0085849396
 30
0.0
 11
124.6346903486
 21
137.2558633672
 31
0.0
  0
LINE
  5
DC
330
1F
100
AcDbEntity
  8
0
  6
SLD-実線
 62
     7
370
    25
100
AcDbLine
 10
119.4435844116
 20
185.4856075118
 30
0.0
 11
70.812522375
 21
191.6125454202
 31
0.0
  0
LINE
  5
DD
330
1F
100
AcDbEntity
  8
0
  6
SLD-実線
 62
     7
370
    25
100
AcDbLine
 10
70.812522375
 20
191.6125454202
 30
0.0
 11
70.7718966325
 21
195.4137808986
 31
0.0
  0
LINE
  5
DE
330
1F
100
AcDbEntity
  8
0
  6
SLD-実線
 62
     7
370
    25
100
AcDbLine
 10
70.812522375
 20
191.6125454202
 30
0.0
 11
70.8018522253
 21
191.6031352327
 31
0.0
  0
LINE
  5
DF
330
1F
100
AcDbEntity
  8
0
  6
SLD-実線
 62
     7
370
    25
100
AcDbLine
 10
70.7371584225
 20
195.3831446771
 30
0.0
 11
70.8018522253
 21
191.6031352327
 31
0.0
  0
LINE
  5
E0
330
1F
100
AcDbEntity
  8
0
  6
SLD-実線
 62
     7
370
    25
100
AcDbLine
 10
70.8018522253
 20
191.6031352327
 30
0.0
 11
70.8018522253
 21
142.5770675697
 31
0.0
  0
LINE
  5
E1
330
1F
100
AcDbEntity
  8
0
  6
SLD-実線
 62
     7
370
    25
100
AcDbLine
 10
67.0955499988
 20
143.0796525901
 30
0.0
 11
70.8018522253
 21
142.5770675697
 31
0.0
  0
LINE
  5
E2
330
1F
100
AcDbEntity
  8
0
  6
SLD-実線
 62
     7
370
    25
100
AcDbLine
 10
67.0955499988
 20
143.0796525901
 30
0.0
 11
67.0955499988
 21
195.8769570377
 31
0.0
  0
LINE
  5
E3
330
1F
100
AcDbEntity
  8
0
  6
SLD-実線
 62
     7
370
    25
100
AcDbLine
 10
72.2761735758
 20
143.8772967851
 30
0.0
 11
72.2761735758
 21
191.4281474809
 31
0.0
  0
LINE
  5
E4
330
1F
100
AcDbEntity
  8
0
  6
SLD-実線
 62
     7
370
    25
100
AcDbLine
 10
70.8018522253
 20
142.5770675697
 30
0.0
 11
72.2761735758
 21
143.8772967851
 31
0.0
  0
LINE
  5
E5
330
1F
100
AcDbEntity
  8
0
  6
SLD-実線
 62
     7
370
    25
100
AcDbLine
 10
90.4596080164
 20
208.9396462854
 30
0.0
 11
75.9930786265
 21
196.1813665852
 31
0.0
  0
LINE
  5
E6
330
1F
100
AcDbEntity
  8
0
  6
SLD-実線
 62
     7
370
    25
100
AcDbLine
 10
139.2529921411
 20
153.9192270175
 30
0.0
 11
139.2529921411
 21
199.1740578959
 31
0.0
  0
LINE
  5
E7
330
1F
100
AcDbEntity
  8
0
  6
SLD-実線
 62
     7
370
    25
100
AcDbLine
 10
139.2529921411
 20
153.9192270175
 30
0.0
 11
143.019331539
 21
153.4695928786
 31
0.0
  0
LINE
  5
E8
330
1F
100
AcDbEntity
  8
0
  6
SLD-実線
 62
     7
370
    25
100
AcDbLine
 10
135.5360875119
 20
203.4385296996
 30
0.0
 11
91.1036570091
 21
209.0364897566
 31
0.0
  0
LINE
  5
E9
330
1F
100
AcDbEntity
  8
0
  6
SLD-実線
 62
     7
370
    25
100
AcDbLine
 10
92.0857664576
 20
208.9127556999
 30
0.0
 11
92.0857664576
 21
194.153877655
 31
0.0
  0
LINE
  5
EA
330
1F
100
AcDbEntity
  8
0
  6
SLD-実線
 62
     7
370
    25
100
AcDbLine
 10
90.6114446723
 20
160.0474859662
 30
0.0
 11
92.0145817475
 21
161.2849365517
 31
0.0
  0
LINE
  5
EB
330
1F
100
AcDbEntity
  8
0
  6
SLD-実線
 62
     7
370
    25
100
AcDbLine
 10
90.6114446723
 20
208.8427223644
 30
0.0
 11
90.6114446723
 21
194.3396265187
 31
0.0
  0
LINE
  5
EC
330
1F
100
AcDbEntity
  8
0
  6
SLD-実線
 62
     7
370
    25
100
AcDbLine
 10
90.6114446723
 20
189.1181166768
 30
0.0
 11
90.6114446723
 21
160.0474859662
 31
0.0
  0
LINE
  5
ED
330
1F
100
AcDbEntity
  8
0
  6
SLD-実線
 62
     7
370
    25
100
AcDbLine
 10
86.89447199
 20
160.5406605291
 30
0.0
 11
90.6114446723
 21
160.0474859662
 31
0.0
  0
LINE
  5
EE
330
1F
100
AcDbEntity
  8
0
  6
SLD-実線
 62
     7
370
    25
100
AcDbLine
 10
86.89447199
 20
160.5406605291
 30
0.0
 11
86.89447199
 21
189.5864105501
 31
0.0
  0
LINE
  5
EF
330
1F
100
AcDbEntity
  8
0
  6
SLD-実線
 62
     7
370
    25
100
AcDbLine
 10
86.89447199
 20
194.807920392
 30
0.0
 11
86.89447199
 21
205.7954914075
 31
0.0
  0
LINE
  5
F0
330
1F
100
AcDbEntity
  8
0
  6
SLD-実線
 62
     7
370
    25
100
AcDbLine
 10
92.0204507333
 20
214.1176160533
 30
0.0
 11
92.0198378118
 21
214.1527036433
 31
0.0
  0
LINE
  5
F1
330
1F
100
AcDbEntity
  8
0
  6
SLD-実線
 62
     7
370
    25
100
AcDbLine
 10
143.0194000276
 20
202.0243224913
 30
0.0
 11
143.0194000276
 21
153.4696532799
 31
0.0
  0
LWPOLYLINE
  5
F2
330
1F
100
AcDbEntity
  8
0
  6
SLD-実線
 62
     7
370
    25
100
AcDbPolyline
 90
        9
 70
   128
 43
0.0
 10
143.0194000276
 20
202.0243224913
 10
143.016003255
 20
202.1132912429
 10
143.0059433291
 20
202.1928503348
 10
142.9896074741
 20
202.2599414209
 10
142.9676226242
 20
202.311991514
 10
142.9408343507
 20
202.3469857193
 10
142.9102726172
 20
202.3635985962
 10
142.8771096329
 20
202.3611780622
 10
142.8426229741
 20
202.3398182359
  0
LINE
  5
F3
330
1F
100
AcDbEntity
  8
0
  6
SLD-実線
 62
     7
370
    25
100
AcDbLine
 10
124.8113997366
 20
186.4377740619
 30
0.0
 11
142.8426229741
 21
202.3398182359
 31
0.0
  0
ARC
  5
F4
330
1F
100
AcDbEntity
  8
0
  6
SLD-実線
 62
     7
370
    25
100
AcDbCircle
 10
125.617083609
 20
185.8721695845
 30
0.0
 40
0.9843957166994589
100
AcDbArc
 50
144.9304590157
 51
183.5933240741
  0
LINE
  5
F5
330
1F
100
AcDbEntity
  8
0
  6
SLD-実線
 62
     7
370
    25
100
AcDbLine
 10
124.634623177
 20
137.2558041275
 30
0.0
 11
124.634623177
 21
185.8104733388
 31
0.0
  0
LINE
  5
F6
330
1F
100
AcDbEntity
  8
0
  6
SLD-実線
 62
     7
370
    25
100
AcDbLine
 10
123.2204095478
 20
136.0085849396
 30
0.0
 11
124.634623177
 21
137.2558041275
 31
0.0
  0
LINE
  5
F7
330
1F
100
AcDbEntity
  8
0
  6
SLD-実線
 62
     7
370
    25
100
AcDbLine
 10
143.0194000276
 20
153.4696532799
 30
0.0
 11
144.4336125044
 21
154.7168714514
 31
0.0
  0
ARC
  5
F8
330
1F
100
AcDbEntity
  8
0
  6
SLD-実線
 62
     7
370
    25
100
AcDbCircle
 10
71.2426472944
 20
191.1734134805
 30
0.0
 40
0.405575573840476
100
AcDbArc
 50
102.4838903882
 51
181.4829699201
  0
LINE
  5
F9
330
1F
100
AcDbEntity
  8
0
  6
SLD-実線
 62
     7
370
    25
100
AcDbLine
 10
70.8372075634
 20
191.1629172585
 30
0.0
 11
70.8372075634
 21
142.6082480471
 31
0.0
  0
LINE
  5
FA
330
1F
100
AcDbEntity
  8
0
  6
SLD-実線
 62
     7
370
    25
100
AcDbLine
 10
67.0955499988
 20
195.8769570377
 30
0.0
 11
123.2204095478
 21
188.8058893872
 31
0.0
  0
ARC
  5
FB
330
1F
100
AcDbEntity
  8
0
  6
SLD-実線
 62
     7
370
    25
100
AcDbCircle
 10
118.9235168682
 20
185.0163011891
 30
0.0
 40
0.5579657402533976
100
AcDbArc
 50
21.2913158436
 51
64.8114587667
  0
LINE
  5
FC
330
1F
100
AcDbEntity
  8
0
  6
SLD-実線
 62
     7
370
    25
100
AcDbLine
 10
90.4594209898
 20
212.710718128
 30
0.0
 11
72.4281977523
 21
196.8086739541
 31
0.0
  0
LWPOLYLINE
  5
FD
330
1F
100
AcDbEntity
  8
0
  6
SLD-実線
 62
     7
370
    25
100
AcDbPolyline
 90
        9
 70
   128
 43
0.0
 10
72.4281977523
 20
196.8086739541
 10
72.4026970148
 20
196.7771267964
 10
72.3961500447
 20
196.7445273204
 10
72.4088086981
 20
196.7121284842
 10
72.4401857279
 20
196.6811754742
 10
72.4890760461
 20
196.6528577251
 10
72.5536005153
 20
196.6282632459
 10
72.63127975
 20
196.6083374619
 10
72.7191280071
 20
196.5938461628
  0
LINE
  5
FE
330
1F
100
AcDbEntity
  8
0
  6
SLD-実線
 62
     7
370
    25
100
AcDbLine
 10
72.7191280071
 20
196.5938461628
 30
0.0
 11
120.4252605403
 21
190.5834384184
 31
0.0
  0
ARC
  5
FF
330
1F
100
AcDbEntity
  8
0
  6
SLD-実線
 62
     7
370
    25
100
AcDbCircle
 10
120.6092815548
 20
191.5505146915
 30
0.0
 40
0.9844288962854921
100
AcDbArc
 50
259.2262215918
 51
297.8881487597
  0
LINE
  5
100
330
1F
100
AcDbEntity
  8
0
  6
SLD-実線
 62
     7
370
    25
100
AcDbLine
 10
121.0697452211
 20
190.6804150053
 30
0.0
 11
139.1009684586
 21
206.5824591793
 31
0.0
  0
LWPOLYLINE
  5
101
330
1F
100
AcDbEntity
  8
0
  6
SLD-実線
 62
     7
370
    25
100
AcDbPolyline
 90
        9
 70
   128
 43
0.0
 10
139.1009684586
 20
206.5824591793
 10
139.1264681019
 20
206.614005811
 10
139.1330150241
 20
206.6466061228
 10
139.1203561476
 20
206.6790043233
 10
139.0889779758
 20
206.7099576431
 10
139.0400877159
 20
206.7382758827
 10
138.9755648244
 20
206.7628699972
 10
138.897883741
 20
206.782796346
 10
138.8100373909
 20
206.7972875708
  0
LINE
  5
102
330
1F
100
AcDbEntity
  8
0
  6
SLD-実線
 62
     7
370
    25
100
AcDbLine
 10
138.8100373909
 20
206.7972875708
 30
0.0
 11
91.1039048577
 21
212.8076953152
 31
0.0
  0
ARC
  5
103
330
1F
100
AcDbEntity
  8
0
  6
SLD-実線
 62
     7
370
    25
100
AcDbCircle
 10
90.9198846222
 20
211.8406231099
 30
0.0
 40
0.9844247545218535
100
AcDbArc
 50
79.2262218745
 51
117.8882741016
  0
LINE
  5
104
330
1F
100
AcDbEntity
  8
0
  6
SLD-実線
 62
     7
370
    25
100
AcDbLine
 10
144.4336125044
 20
207.514175899
 30
0.0
 11
88.3087529554
 21
214.5852435496
 31
0.0
  0
LINE
  5
105
330
1F
100
AcDbEntity
  8
0
  6
SLD-実線
 62
     7
370
    25
100
AcDbLine
 10
123.074943839
 20
135.880296243
 30
0.0
 11
123.074943839
 21
136.0255395513
 31
0.0
  0
LINE
  5
106
330
1F
100
AcDbEntity
  8
0
  6
SLD-実線
 62
     7
370
    25
100
AcDbLine
 10
119.80099396
 20
136.2927751563
 30
0.0
 11
123.074943839
 21
135.880296243
 31
0.0
  0
LINE
  5
107
330
1F
100
AcDbEntity
  8
0
  6
SLD-実線
 62
     7
370
    25
100
AcDbLine
 10
119.80099396
 20
136.2927751563
 30
0.0
 11
119.80099396
 21
136.4071300931
 31
0.0
  0
LINE
  5
108
330
1F
100
AcDbEntity
  8
0
  6
SLD-実線
 62
     7
370
    25
100
AcDbLine
 10
123.074943839
 20
135.880296243
 30
0.0
 11
123.2204090665
 21
136.0085845151
 31
0.0
  0
LINE
  5
109
330
1F
100
AcDbEntity
  8
0
  6
SLD-実線
 62
     7
370
    25
100
AcDbLine
 10
72.2514211927
 20
143.855467235
 30
0.0
 11
72.2514211927
 21
191.4312618407
 31
0.0
  0
LINE
  5
10A
330
1F
100
AcDbEntity
  8
0
  6
SLD-実線
 62
     7
370
    25
100
AcDbLine
 10
70.8372075634
 20
142.6082480471
 30
0.0
 11
72.2514211927
 21
143.855467235
 31
0.0
  0
LINE
  5
10B
330
1F
100
AcDbEntity
  8
0
  6
SLD-実線
 62
     7
370
    25
100
AcDbLine
 10
90.4594209898
 20
208.9394813434
 30
0.0
 11
90.4594209898
 21
212.710718128
 31
0.0
  0
LINE
  5
10C
330
1F
100
AcDbEntity
  8
0
  6
SLD-実線
 62
     7
370
    25
100
AcDbLine
 10
90.4594209898
 20
208.9394813434
 30
0.0
 11
75.9930786265
 21
196.1813665852
 31
0.0
  0
LINE
  5
10D
330
1F
100
AcDbEntity
  8
0
  6
SLD-実線
 62
     7
370
    25
100
AcDbLine
 10
70.6917420725
 20
142.4799593231
 30
0.0
 11
70.6917420725
 21
142.5919996954
 31
0.0
  0
LINE
  5
10E
330
1F
100
AcDbEntity
  8
0
  6
SLD-実線
 62
     7
370
    25
100
AcDbLine
 10
67.4177919484
 20
142.8924382673
 30
0.0
 11
70.6917420725
 21
142.4799593231
 31
0.0
  0
LINE
  5
10F
330
1F
100
AcDbEntity
  8
0
  6
SLD-実線
 62
     7
370
    25
100
AcDbLine
 10
67.4177919484
 20
142.8924382673
 30
0.0
 11
67.4177919484
 21
143.035955311
 31
0.0
  0
LINE
  5
110
330
1F
100
AcDbEntity
  8
0
  6
SLD-実線
 62
     7
370
    25
100
AcDbLine
 10
70.6917420725
 20
142.4799593231
 30
0.0
 11
70.8018519592
 21
142.5770671155
 31
0.0
  0
LINE
  5
111
330
1F
100
AcDbEntity
  8
0
  6
SLD-実線
 62
     7
370
    25
100
AcDbLine
 10
135.5360875119
 20
203.4385296996
 30
0.0
 11
91.1039048577
 21
209.0364585306
 31
0.0
  0
LINE
  5
112
330
1F
100
AcDbEntity
  8
0
  6
SLD-実線
 62
     7
370
    25
100
AcDbLine
 10
91.1039048577
 20
212.8076953152
 30
0.0
 11
91.1039048577
 21
209.0364585306
 31
0.0
  0
SPLINE
  5
113
330
1F
100
AcDbEntity
  8
0
  6
SLD-実線
 62
     7
370
    25
100
AcDbSpline
210
0.0
220
0.0
230
1.0
 70
     8
 71
     3
 72
    11
 73
     7
 74
     0
 42
0.000000001
 43
0.00000001
 40
0.0
 40
0.0
 40
0.0
 40
0.0
 40
0.294476584986881
 40
0.5564750175775346
 40
0.7830509277951537
 40
1.0
 40
1.0
 40
1.0
 40
1.0
 10
90.72140859486444
 20
208.8943957615144
 30
0.0
 10
90.75397886380235
 20
208.920455153745
 30
0.0
 10
90.8155271902356
 20
208.9696998186483
 30
0.0
 10
90.91712176654413
 20
209.016809647776
 30
0.0
 10
91.01432817990602
 20
209.0410978136591
 30
0.0
 10
91.0744811778385
 20
209.0379824181043
 30
0.0
 10
91.10390485769643
 20
209.0364585306076
 30
0.0
  0
SPLINE
  5
114
330
1F
100
AcDbEntity
  8
0
  6
SLD-実線
 62
     7
370
    25
100
AcDbSpline
210
0.0
220
0.0
230
1.0
 70
     8
 71
     3
 72
    11
 73
     7
 74
     0
 42
0.000000001
 43
0.00000001
 40
0.0
 40
0.0
 40
0.0
 40
0.0
 40
0.2169636980396392
 40
0.4436043920475526
 40
0.7055309822728302
 40
0.9999999999999999
 40
0.9999999999999999
 40
0.9999999999999999
 40
0.9999999999999999
 10
90.45942098975314
 20
208.9394813434301
 30
0.0
 10
90.47188147183105
 20
208.9473089615499
 30
0.0
 10
90.49735819732355
 20
208.9633133245312
 30
0.0
 10
90.55669170094177
 20
208.9625654958254
 30
0.0
 10
90.63199582891762
 20
208.9420822920984
 30
0.0
 10
90.69046443692676
 20
208.9108992162311
 30
0.0
 10
90.72140859486444
 20
208.8943957615144
 30
0.0
  0
LINE
  5
115
330
1F
100
AcDbEntity
  8
0
  6
SLD-実線
 62
     7
370
    25
100
AcDbLine
 10
142.8739331767
 20
153.341363576
 30
0.0
 11
143.0193319015
 21
153.4695931983
 31
0.0
  0
LINE
  5
116
330
1F
100
AcDbEntity
  8
0
  6
SLD-実線
 62
     7
370
    25
100
AcDbLine
 10
142.8739331767
 20
153.341363576
 30
0.0
 11
142.8739331767
 21
153.4869510836
 31
0.0
  0
LINE
  5
117
330
1F
100
AcDbEntity
  8
0
  6
SLD-実線
 62
     7
370
    25
100
AcDbLine
 10
139.5999832977
 20
153.7538424894
 30
0.0
 11
142.8739331767
 21
153.341363576
 31
0.0
  0
LINE
  5
118
330
1F
100
AcDbEntity
  8
0
  6
SLD-実線
 62
     7
370
    25
100
AcDbLine
 10
139.5999832977
 20
153.7538424894
 30
0.0
 11
139.5999832977
 21
153.8778016392
 31
0.0
  0
SPLINE
  5
119
330
1F
100
AcDbEntity
  8
0
  6
SLD-実線
 62
     7
370
    25
100
AcDbSpline
210
0.0
220
0.0
230
1.0
 70
     8
 71
     3
 72
    11
 73
     7
 74
     0
 42
0.000000001
 43
0.00000001
 40
0.0
 40
0.0
 40
0.0
 40
0.0
 40
0.2944776700932883
 40
0.5564756840642503
 40
0.7830622323544284
 40
1.0
 40
1.0
 40
1.0
 40
1.0
 10
90.72140859486444
 20
208.8943957615144
 30
0.0
 10
90.70787239379533
 20
208.8798260701275
 30
0.0
 10
90.68229297805497
 20
208.8522936634138
 30
0.0
 10
90.65555681458694
 20
208.7861075233187
 30
0.0
 10
90.63913776238225
 20
208.7102576472043
 30
0.0
 10
90.63716363404652
 20
208.6523228282282
 30
0.0
 10
90.63619804325742
 20
208.6239855988
 30
0.0
  0
LINE
  5
11A
330
1F
100
AcDbEntity
  8
0
  6
SLD-実線
 62
     7
370
    25
100
AcDbLine
 10
90.6361980433
 20
208.6239855988
 30
0.0
 11
90.6361980433
 21
194.3365130301
 31
0.0
  0
LINE
  5
11B
330
1F
100
AcDbEntity
  8
0
  6
SLD-実線
 62
     7
370
    25
100
AcDbLine
 10
90.6361980433
 20
189.1149996759
 30
0.0
 11
90.6361980433
 21
160.0693163874
 31
0.0
  0
LINE
  5
11C
330
1F
100
AcDbEntity
  8
0
  6
SLD-実線
 62
     7
370
    25
100
AcDbLine
 10
90.6361980433
 20
160.0693163874
 30
0.0
 11
92.0145817475
 21
161.2849365517
 31
0.0
  0
LINE
  5
11D
330
1F
100
AcDbEntity
  8
0
  6
SLD-実線
 62
     7
370
    25
100
AcDbLine
 10
92.05041052
 20
208.9172098543
 30
0.0
 11
92.05041052
 21
194.1583318094
 31
0.0
  0
LINE
  5
11E
330
1F
100
AcDbEntity
  8
0
  6
SLD-実線
 62
     7
370
    25
100
AcDbLine
 10
90.4907314101
 20
159.9410266561
 30
0.0
 11
90.4907314101
 21
160.0635018857
 31
0.0
  0
LINE
  5
11F
330
1F
100
AcDbEntity
  8
0
  6
SLD-実線
 62
     7
370
    25
100
AcDbLine
 10
87.2167812861
 20
160.3535056004
 30
0.0
 11
90.4907314101
 21
159.9410266561
 31
0.0
  0
LINE
  5
120
330
1F
100
AcDbEntity
  8
0
  6
SLD-実線
 62
     7
370
    25
100
AcDbLine
 10
87.2167812861
 20
160.3535056004
 30
0.0
 11
87.2167812861
 21
160.497895435
 31
0.0
  0
LINE
  5
121
330
1F
100
AcDbEntity
  8
0
  6
SLD-実線
 62
     7
370
    25
100
AcDbLine
 10
90.4907314101
 20
159.9410266561
 30
0.0
 11
90.6114452526
 21
160.0474862585
 31
0.0
  0
LINE
  5
122
330
1F
100
AcDbEntity
  8
0
  6
SLD-実線
 62
     7
370
    25
100
AcDbLine
 10
123.2204095478
 20
135.7728822015
 30
0.0
 11
123.2204095478
 21
131.2945389588
 31
0.0
  0
LINE
  5
123
330
1F
100
AcDbEntity
  8
0
  6
SLD-実線
 62
     7
370
    25
100
AcDbLine
 10
67.0955499988
 20
138.3656066093
 30
0.0
 11
123.2204095478
 21
131.2945389588
 31
0.0
  0
LINE
  5
124
330
1F
100
AcDbEntity
  8
0
  6
SLD-実線
 62
     7
370
    25
100
AcDbLine
 10
67.0955499988
 20
138.3656066093
 30
0.0
 11
67.0955499988
 21
142.843949852
 31
0.0
  0
LINE
  5
125
330
1F
100
AcDbEntity
  8
0
  6
SLD-実線
 62
     7
370
    25
100
AcDbLine
 10
67.0955499988
 20
142.843949852
 30
0.0
 11
123.2204095478
 21
135.7728822015
 31
0.0
  0
LINE
  5
126
330
1F
100
AcDbEntity
  8
0
  6
SLD-実線
 62
     7
370
    25
100
AcDbLine
 10
144.4336125044
 20
150.0028254707
 30
0.0
 11
144.4336125044
 21
154.4811687134
 31
0.0
  0
LINE
  5
127
330
1F
100
AcDbEntity
  8
0
  6
SLD-実線
 62
     7
370
    25
100
AcDbLine
 10
123.2204095478
 20
131.2945389588
 30
0.0
 11
144.4336125044
 21
150.0028254707
 31
0.0
  0
LINE
  5
128
330
1F
100
AcDbEntity
  8
0
  6
SLD-実線
 62
     7
370
    25
100
AcDbLine
 10
123.2204095478
 20
135.7728822015
 30
0.0
 11
144.4336125044
 21
154.4811687134
 31
0.0
  0
LINE
  5
129
330
1F
100
AcDbEntity
  8
0
  6
SLD-実線
 62
     7
370
    25
100
AcDbLine
 10
124.6346932669
 20
140.7913964751
 30
0.0
 11
139.2777455121
 21
153.7053547006
 31
0.0
  0
LINE
  5
12A
330
1F
100
AcDbEntity
  8
0
  6
SLD-実線
 62
     7
370
    25
100
AcDbLine
 10
90.6361980433
 20
159.8336136494
 30
0.0
 11
92.0145828503
 21
159.6599534871
 31
0.0
  0
LINE
  5
12B
330
1F
100
AcDbEntity
  8
0
  6
SLD-実線
 62
     7
370
    25
100
AcDbLine
 10
124.6346913698
 20
155.5502061138
 30
0.0
 11
139.2777455121
 21
153.7053547006
 31
0.0
  0
LINE
  5
12C
330
1F
100
AcDbEntity
  8
0
  6
SLD-実線
 62
     7
370
    25
100
AcDbLine
 10
90.6361980433
 20
159.8336136494
 30
0.0
 11
72.2514211927
 21
143.619764497
 31
0.0
  0
LINE
  5
12D
330
1F
100
AcDbEntity
  8
0
  6
SLD-実線
 62
     7
370
    25
100
AcDbLine
 10
119.443396865
 20
137.6741344282
 30
0.0
 11
72.2514211927
 21
143.619764497
 31
0.0
  0
LINE
  5
12E
330
1F
100
AcDbEntity
  8
0
  6
SLD-実線
 62
     7
370
    25
100
AcDbLine
 10
144.4336125044
 20
154.4811687134
 30
0.0
 11
144.1997584438
 21
154.5106315556
 31
0.0
  0
LINE
  5
12F
330
1F
100
AcDbEntity
  8
0
  6
SLD-実線
 62
     7
370
    25
100
AcDbLine
 10
139.252990104
 20
155.1338657848
 30
0.0
 11
124.6346911994
 21
156.9755983312
 31
0.0
  0
LINE
  5
130
330
1F
100
AcDbEntity
  8
0
  6
SLD-実線
 62
     7
370
    25
100
AcDbLine
 10
92.0145818087
 20
161.0853458142
 30
0.0
 11
91.8165566772
 21
161.1102946357
 31
0.0
  0
LINE
  5
131
330
1F
100
AcDbEntity
  8
0
  6
SLD-実線
 62
     7
370
    25
100
AcDbLine
 10
87.1267827848
 20
160.5098366543
 30
0.0
 11
72.2761734451
 21
147.4128302771
 31
0.0
  0
LINE
  5
132
330
1F
100
AcDbEntity
  8
0
  6
SLD-実線
 62
     7
370
    25
100
AcDbLine
 10
67.3271938732
 20
143.0482405468
 30
0.0
 11
67.0955499988
 21
142.843949852
 31
0.0
  0
LINE
  5
133
330
1F
100
AcDbEntity
  8
0
  6
SLD-実線
 62
     7
370
    25
100
AcDbLine
 10
75.9930786265
 20
143.1483611556
 30
0.0
 11
89.7523140928
 21
155.2828662473
 31
0.0
  0
LINE
  5
134
330
1F
100
AcDbEntity
  8
0
  6
SLD-実線
 62
     7
370
    25
100
AcDbLine
 10
92.0145822399
 20
154.9978472515
 30
0.0
 11
89.7523140928
 21
155.2828662473
 31
0.0
  0
LINE
  5
135
330
1F
100
AcDbEntity
  8
0
  6
SLD-実線
 62
     7
370
    25
100
AcDbLine
 10
124.6346913698
 20
151.7789710853
 30
0.0
 11
135.5360875119
 21
150.40552427
 31
0.0
  0
LINE
  5
136
330
1F
100
AcDbEntity
  8
0
  6
SLD-実線
 62
     7
370
    25
100
AcDbLine
 10
90.6361980433
 20
155.3552704067
 30
0.0
 11
90.6361980433
 21
159.8336136494
 31
0.0
  0
LINE
  5
137
330
1F
100
AcDbEntity
  8
0
  6
SLD-実線
 62
     7
370
    25
100
AcDbLine
 10
90.4538747279
 20
155.1944763565
 30
0.0
 11
90.6361980433
 21
155.3552704067
 31
0.0
  0
LINE
  5
138
330
1F
100
AcDbEntity
  8
0
  6
SLD-実線
 62
     7
370
    25
100
AcDbLine
 10
90.6361980433
 20
155.3552704067
 30
0.0
 11
92.0145828503
 21
155.1816102444
 31
0.0
  0
ARC
  5
139
330
1F
100
AcDbEntity
  8
0
  6
SLD-実線
 62
     7
370
    25
100
AcDbCircle
 10
115.8237890175
 20
153.5202793096
 30
0.0
 40
4.237594199267988
100
AcDbArc
 50
311.4066355135
 51
312.1519126847
  0
LINE
  5
13A
330
1F
100
AcDbEntity
  8
0
  6
SLD-実線
 62
     7
370
    25
100
AcDbLine
 10
94.9438528176
 20
115.138028633
 30
0.0
 11
94.9438528176
 21
115.8451353106
 31
0.0
  0
LINE
  5
13B
330
1F
100
AcDbEntity
  8
0
  6
SLD-実線
 62
     7
370
    25
100
AcDbLine
 10
94.9438528176
 20
115.138028633
 30
0.0
 11
95.5514224562
 21
114.707928605
 31
0.0
  0
LINE
  5
13C
330
1F
100
AcDbEntity
  8
0
  6
SLD-実線
 62
     7
370
    25
100
AcDbLine
 10
95.5514224562
 20
114.707928605
 30
0.0
 11
96.1589920949
 21
114.9849354742
 31
0.0
  0
LINE
  5
13D
330
1F
100
AcDbEntity
  8
0
  6
SLD-実線
 62
     7
370
    25
100
AcDbLine
 10
96.1589920949
 20
115.6920421518
 30
0.0
 11
96.1589920949
 21
114.9849354742
 31
0.0
  0
LINE
  5
13E
330
1F
100
AcDbEntity
  8
0
  6
SLD-実線
 62
     7
370
    25
100
AcDbLine
 10
96.1589920949
 20
115.6920421518
 30
0.0
 11
95.5514224562
 21
116.1221423992
 31
0.0
  0
LINE
  5
13F
330
1F
100
AcDbEntity
  8
0
  6
SLD-実線
 62
     7
370
    25
100
AcDbLine
 10
95.5514224562
 20
116.1221423992
 30
0.0
 11
94.9438528176
 21
115.8451353106
 31
0.0
  0
ARC
  5
140
330
1F
100
AcDbEntity
  8
0
  6
SLD-実線
 62
     7
370
    25
100
AcDbCircle
 10
95.380546027
 20
115.2670201953
 30
0.0
 40
1.15331786272135
100
AcDbArc
 50
1.2058750589
 51
70.7755655076
  0
SPLINE
  5
141
330
1F
100
AcDbEntity
  8
0
  6
SLD-実線
 62
     7
370
    25
100
AcDbSpline
210
0.0
220
0.0
230
1.0
 70
     8
 71
     3
 72
    15
 73
    11
 74
     0
 42
0.000000001
 43
0.00000001
 40
0.0
 40
0.0
 40
0.0
 40
0.0
 40
0.1351564990105611
 40
0.2585807120291004
 40
0.3738610010183988
 40
0.496121877364213
 40
0.6200722825339526
 40
0.7476343529417784
 40
0.8757404055751427
 40
1.0
 40
1.0
 40
1.0
 40
1.0
 10
96.53360498064477
 20
115.2912923549528
 30
0.0
 10
96.51811585067846
 20
115.1927977165402
 30
0.0
 10
96.48848212766313
 20
115.0043582858193
 30
0.0
 10
96.3444066132909
 20
114.777316746648
 30
0.0
 10
96.15087731106713
 20
114.6123697457588
 30
0.0
 10
95.91039439373705
 20
114.5151494705195
 30
0.0
 10
95.6335384709978
 20
114.4993732208541
 30
0.0
 10
95.35146525837638
 20
114.5752540591113
 30
0.0
 10
95.09117335960961
 20
114.7351704275561
 30
0.0
 10
94.96998503070239
 20
114.8959694717095
 30
0.0
 10
94.91031441873687
 20
114.9751435758054
 30
0.0
  0
SPLINE
  5
142
330
1F
100
AcDbEntity
  8
0
  6
SLD-実線
 62
     7
370
    25
100
AcDbSpline
210
0.0
220
0.0
230
1.0
 70
     8
 71
     3
 72
    15
 73
    11
 74
     0
 42
0.000000001
 43
0.00000001
 40
0.0
 40
0.0
 40
0.0
 40
0.0
 40
0.1185687993974189
 40
0.2386542460272655
 40
0.3614781478207639
 40
0.4849069751254338
 40
0.6103922517503005
 40
0.7374814310813914
 40
0.8681885008706124
 40
1.0
 40
1.0
 40
1.0
 40
1.0
 10
94.91031441873687
 20
114.9751435758054
 30
0.0
 10
94.85582849014867
 20
115.0523623611431
 30
0.0
 10
94.74615968796462
 20
115.2077876592616
 30
0.0
 10
94.67528887927578
 20
115.4836678078299
 30
0.0
 10
94.68192313078323
 20
115.7599010214614
 30
0.0
 10
94.7792843335468
 20
116.0122235625048
 30
0.0
 10
94.95070351827202
 20
116.2173974860218
 30
0.0
 10
95.18684839743791
 20
116.3525414202044
 30
0.0
 10
95.46655340747658
 20
116.4127961521745
 30
0.0
 10
95.66210907084042
 20
116.3750002039985
 30
0.0
 10
95.76029825897064
 20
116.3560227251458
 30
0.0
  0
SPLINE
  5
143
330
1F
100
AcDbEntity
  8
0
  6
SLD-実線
 62
     7
370
    25
100
AcDbSpline
210
0.0
220
0.0
230
1.0
 70
     8
 71
     3
 72
    15
 73
    11
 74
     0
 42
0.000000001
 43
0.00000001
 40
0.0
 40
0.0
 40
0.0
 40
0.0
 40
0.1249999822985507
 40
0.2499999680936597
 40
0.3749998554983559
 40
0.4999997276821141
 40
0.6250001550934478
 40
0.7500000424981439
 40
0.8750000872739878
 40
1.0
 40
1.0
 40
1.0
 40
1.0
 10
94.61343265863444
 20
115.5777549465742
 30
0.0
 10
94.62635493544464
 20
115.4447042906636
 30
0.0
 10
94.65219948942648
 20
115.1786029751205
 30
0.0
 10
94.87380521254053
 20
114.8155918410168
 30
0.0
 10
95.19293725820098
 20
114.5496364647148
 30
0.0
 10
95.5735212491942
 20
114.418802295817
 30
0.0
 10
95.95410556819776
 20
114.4426025007077
 30
0.0
 10
96.27323812007654
 20
114.6170090160708
 30
0.0
 10
96.4948436883307
 20
114.9130454832835
 30
0.0
 10
96.52068830439688
 20
115.1652109281248
 30
0.0
 10
96.53361060560441
 20
115.2912935839487
 30
0.0
  0
SPLINE
  5
144
330
1F
100
AcDbEntity
  8
0
  6
SLD-実線
 62
     7
370
    25
100
AcDbSpline
210
0.0
220
0.0
230
1.0
 70
     8
 71
     3
 72
    15
 73
    11
 74
     0
 42
0.000000001
 43
0.00000001
 40
0.0
 40
0.0
 40
0.0
 40
0.0
 40
0.1249999863746152
 40
0.2499999159122935
 40
0.374999846802762
 40
0.5000002782900205
 40
0.6250001531972381
 40
0.7500000827349164
 40
0.8750000136253848
 40
0.9999999999999999
 40
0.9999999999999999
 40
0.9999999999999999
 40
0.9999999999999999
 10
96.62200040828652
 20
115.3692460627276
 30
0.0
 10
96.60539523467618
 20
115.4990487045732
 30
0.0
 10
96.57218489500579
 20
115.7586539292438
 30
0.0
 10
96.3395303008128
 20
116.1119208794004
 30
0.0
 10
96.0093492666086
 20
116.3681328143234
 30
0.0
 10
95.61771622600325
 20
116.4892224987702
 30
0.0
 10
95.22608329211853
 20
116.4556779879306
 30
0.0
 10
94.89590283342416
 20
116.271527406637
 30
0.0
 10
94.66324815555814
 20
115.9657472332492
 30
0.0
 10
94.63003782673255
 20
115.7070857279347
 30
0.0
 10
94.61343265863444
 20
115.5777549465742
 30
0.0
  0
SPLINE
  5
145
330
1F
100
AcDbEntity
  8
0
  6
SLD-実線
 62
     7
370
    25
100
AcDbSpline
210
0.0
220
0.0
230
1.0
 70
     8
 71
     3
 72
    10
 73
     6
 74
     0
 42
0.000000001
 43
0.00000001
 40
0.0
 40
0.0
 40
0.0
 40
0.0
 40
0.1381335239003489
 40
0.5690668879018242
 40
0.9999999999999999
 40
0.9999999999999999
 40
0.9999999999999999
 40
0.9999999999999999
 10
96.24500470752662
 20
114.6608767059796
 30
0.0
 10
96.2794808491067
 20
114.6775472399931
 30
0.0
 10
96.42151176268851
 20
114.7462246228822
 30
0.0
 10
96.5798533939521
 20
114.9965028090542
 30
0.0
 10
96.60795140624585
 20
115.2449983357129
 30
0.0
 10
96.62200040828652
 20
115.3692460627276
 30
0.0
  0
SPLINE
  5
146
330
1F
100
AcDbEntity
  8
0
  6
SLD-実線
 62
     7
370
    25
100
AcDbSpline
210
0.0
220
0.0
230
1.0
 70
     8
 71
     3
 72
    14
 73
    10
 74
     0
 42
0.000000001
 43
0.00000001
 40
0.0
 40
0.0
 40
0.0
 40
0.0
 40
0.1586172381278507
 40
0.3172344041333632
 40
0.4758521705988019
 40
0.6344692672813731
 40
0.7930863639639443
 40
0.9517035299694567
 40
1.0
 40
1.0
 40
1.0
 40
1.0
 10
96.71038514840777
 20
115.4471940767474
 30
0.0
 10
96.69378991357931
 20
115.5769892797566
 30
0.0
 10
96.66059945146819
 20
115.8365796267579
 30
0.0
 10
96.42780017483804
 20
116.1899627421107
 30
0.0
 10
96.09817146692014
 20
116.4457380068344
 30
0.0
 10
95.70447555363077
 20
116.5684585555186
 30
0.0
 10
95.32054799974377
 20
116.5288333243305
 30
0.0
 10
95.04483025651817
 20
116.4048101321205
 30
0.0
 10
94.95500388572073
 20
116.2696506984766
 30
0.0
 10
94.93403718334054
 20
116.2381026397726
 30
0.0
  0
SPLINE
  5
147
330
1F
100
AcDbEntity
  8
0
  6
SLD-実線
 62
     7
370
    25
100
AcDbSpline
210
0.0
220
0.0
230
1.0
 70
     8
 71
     3
 72
    10
 73
     6
 74
     0
 42
0.000000001
 43
0.00000001
 40
0.0
 40
0.0
 40
0.0
 40
0.0
 40
0.1367459686585626
 40
0.568373108148091
 40
1.0
 40
1.0
 40
1.0
 40
1.0
 10
96.33455813523562
 20
114.7394585227485
 30
0.0
 10
96.36862453462402
 20
114.7559471090158
 30
0.0
 10
96.51021865614528
 20
114.8244805299103
 30
0.0
 10
96.66821522811179
 20
115.0744844606587
 30
0.0
 10
96.69632851099733
 20
115.3229575618106
 30
0.0
 10
96.71038514840777
 20
115.4471940767474
 30
0.0
  0
SPLINE
  5
148
330
1F
100
AcDbEntity
  8
0
  6
SLD-実線
 62
     7
370
    25
100
AcDbSpline
210
0.0
220
0.0
230
1.0
 70
     8
 71
     3
 72
    14
 73
    10
 74
     0
 42
0.000000001
 43
0.00000001
 40
0.0
 40
0.0
 40
0.0
 40
0.0
 40
0.1666246706844699
 40
0.3332492674086976
 40
0.4998744931025517
 40
0.6664990152012324
 40
0.8331235372999131
 40
0.9997481340241406
 40
1.0
 40
1.0
 40
1.0
 40
1.0
 10
96.79877713251858
 20
115.5251484793656
 30
0.0
 10
96.78218748488099
 20
115.6549379274693
 30
0.0
 10
96.74900819696951
 20
115.9145167660668
 30
0.0
 10
96.51612239409019
 20
116.2679838104145
 30
0.0
 10
96.1868200759994
 20
116.5234379937561
 30
0.0
 10
95.7919024122938
 20
116.6473565446245
 30
0.0
 10
95.41253274875399
 20
116.6032579935065
 30
0.0
 10
95.1617136388333
 20
116.5066772624803
 30
0.0
 10
95.08871529088003
 20
116.4068587132072
 30
0.0
 10
95.08860511476624
 20
116.4067080574711
 30
0.0
  0
SPLINE
  5
149
330
1F
100
AcDbEntity
  8
0
  6
SLD-実線
 62
     7
370
    25
100
AcDbSpline
210
0.0
220
0.0
230
1.0
 70
     8
 71
     3
 72
    10
 73
     6
 74
     0
 42
0.000000001
 43
0.00000001
 40
0.0
 40
0.0
 40
0.0
 40
0.0
 40
0.1367317238503886
 40
0.5683660899141136
 40
1.0
 40
1.0
 40
1.0
 40
1.0
 10
96.42296029896885
 20
114.8174175126531
 30
0.0
 10
96.45702259069526
 20
114.8339043496458
 30
0.0
 10
96.59861264029654
 20
114.9024367926863
 30
0.0
 10
96.75660612492732
 20
115.1524384392562
 30
0.0
 10
96.7847201349381
 20
115.400911843077
 30
0.0
 10
96.79877713251858
 20
115.5251484793656
 30
0.0
  0
SPLINE
  5
14A
330
1F
100
AcDbEntity
  8
0
  6
SLD-実線
 62
     7
370
    25
100
AcDbSpline
210
0.0
220
0.0
230
1.0
 70
     8
 71
     3
 72
    14
 73
    10
 74
     0
 42
0.000000001
 43
0.00000001
 40
0.0
 40
0.0
 40
0.0
 40
0.0
 40
0.166624651265961
 40
0.333249228571698
 40
0.499873805877435
 40
0.666499054083902
 40
0.8331235567641103
 40
0.9997481340698473
 40
1.0
 40
1.0
 40
1.0
 40
1.0
 10
96.88716500072623
 20
115.6030992520983
 30
0.0
 10
96.87057528404975
 20
115.7328886477771
 30
0.0
 10
96.83739585806052
 20
115.9924673815246
 30
0.0
 10
96.60450990206928
 20
116.3459334607372
 30
0.0
 10
96.27520819912785
 20
116.6013888206818
 30
0.0
 10
95.88028966346532
 20
116.7253061304311
 30
0.0
 10
95.50091936526105
 20
116.6812077212114
 30
0.0
 10
95.25009994765887
 20
116.5846266622456
 30
0.0
 10
95.17710159504436
 20
116.4848081065833
 30
0.0
 10
95.17699141893068
 20
116.4846574508474
 30
0.0
  0
SPLINE
  5
14B
330
1F
100
AcDbEntity
  8
0
  6
SLD-実線
 62
     7
370
    25
100
AcDbSpline
210
0.0
220
0.0
230
1.0
 70
     8
 71
     3
 72
    12
 73
     8
 74
     0
 42
0.000000001
 43
0.00000001
 40
0.0
 40
0.0
 40
0.0
 40
0.0
 40
0.2429658201621225
 40
0.3312809470466987
 40
0.493748520399487
 40
0.8258772734323796
 40
1.0
 40
1.0
 40
1.0
 40
1.0
 10
96.27570824668962
 20
114.6543875711687
 30
0.0
 10
96.31681968479248
 20
114.6950012435033
 30
0.0
 10
96.37287463169852
 20
114.7503774928253
 30
0.0
 10
96.43790387748935
 20
114.8491200530922
 30
0.0
 10
96.5025954997243
 20
114.974021746925
 30
0.0
 10
96.54801750356556
 20
115.1351389560336
 30
0.0
 10
96.5514731337035
 20
115.2638317830381
 30
0.0
 10
96.5526616808305
 20
115.3080950530346
 30
0.0
  0
SPLINE
  5
14C
330
1F
100
AcDbEntity
  8
0
  6
SLD-実線
 62
     7
370
    25
100
AcDbSpline
210
0.0
220
0.0
230
1.0
 70
     8
 71
     3
 72
    11
 73
     7
 74
     0
 42
0.000000001
 43
0.00000001
 40
0.0
 40
0.0
 40
0.0
 40
0.0
 40
0.2487579312505609
 40
0.4997992964751407
 40
0.7499050962675989
 40
1.0
 40
1.0
 40
1.0
 40
1.0
 10
96.55266168083048
 20
115.3080950530346
 30
0.0
 10
96.54018971613559
 20
115.4194639955849
 30
0.0
 10
96.51513130232406
 20
115.6432241742292
 30
0.0
 10
96.33946493346373
 20
115.9567408693818
 30
0.0
 10
96.08383866448445
 20
116.2160505836458
 30
0.0
 10
95.86814261655317
 20
116.309366418594
 30
0.0
 10
95.7602969418816
 20
116.3560233197011
 30
0.0
  0
LINE
  5
14D
330
1F
100
AcDbEntity
  8
0
  6
SLD-実線
 62
     7
370
    25
100
AcDbLine
 10
96.6410434575
 20
115.3860404535
 30
0.0
 11
96.6220004083
 21
115.3692460627
 31
0.0
  0
SPLINE
  5
14E
330
1F
100
AcDbEntity
  8
0
  6
SLD-実線
 62
     7
370
    25
100
AcDbSpline
210
0.0
220
0.0
230
1.0
 70
     8
 71
     3
 72
    13
 73
     9
 74
     0
 42
0.000000001
 43
0.00000001
 40
0.0
 40
0.0
 40
0.0
 40
0.0
 40
0.1666664676559646
 40
0.3333329675623396
 40
0.5000002077749922
 40
0.6666667805236479
 40
0.8333333532723036
 40
1.0
 40
1.0
 40
1.0
 40
1.0
 10
94.93122772977445
 20
116.2680749347697
 30
0.0
 10
95.03441651987201
 20
116.3380247192669
 30
0.0
 10
95.24079412003445
 20
116.4779243017968
 30
0.0
 10
95.63794464925208
 20
116.5045777433238
 30
0.0
 10
96.02809352519071
 20
116.3853291997085
 30
0.0
 10
96.35866587086005
 20
116.1286193948254
 30
0.0
 10
96.59121172803626
 20
115.7754783891446
 30
0.0
 10
96.62443287855538
 20
115.5158531179464
 30
0.0
 10
96.64104345750144
 20
115.386040453537
 30
0.0
  0
LINE
  5
14F
330
1F
100
AcDbEntity
  8
0
  6
SLD-実線
 62
     7
370
    25
100
AcDbLine
 10
96.7294559388
 20
115.464012933
 30
0.0
 11
96.7103851484
 21
115.4471940767
 31
0.0
  0
SPLINE
  5
150
330
1F
100
AcDbEntity
  8
0
  6
SLD-実線
 62
     7
370
    25
100
AcDbSpline
210
0.0
220
0.0
230
1.0
 70
     8
 71
     3
 72
    13
 73
     9
 74
     0
 42
0.000000001
 43
0.00000001
 40
0.0
 40
0.0
 40
0.0
 40
0.0
 40
0.1666670337035803
 40
0.3333337101954502
 40
0.499999792195764
 40
0.6666666171387254
 40
0.8333332847999233
 40
1.0
 40
1.0
 40
1.0
 40
1.0
 10
95.01959256258998
 20
116.3460058312258
 30
0.0
 10
95.12278474034633
 20
116.415957434478
 30
0.0
 10
95.32916887469078
 20
116.5558604910574
 30
0.0
 10
95.72632665265394
 20
116.582521091609
 30
0.0
 10
96.11648217754725
 20
116.4632779155031
 30
0.0
 10
96.44706169652196
 20
116.2065765854036
 30
0.0
 10
96.67961593245589
 20
115.8534431502918
 30
0.0
 10
96.71284260177912
 20
115.5938230177623
 30
0.0
 10
96.72945593881005
 20
115.4640129329845
 30
0.0
  0
LINE
  5
151
330
1F
100
AcDbEntity
  8
0
  6
SLD-実線
 62
     7
370
    25
100
AcDbLine
 10
96.8178265614
 20
115.5419484965
 30
0.0
 11
96.7987771325
 21
115.5251484794
 31
0.0
  0
SPLINE
  5
152
330
1F
100
AcDbEntity
  8
0
  6
SLD-実線
 62
     7
370
    25
100
AcDbSpline
210
0.0
220
0.0
230
1.0
 70
     8
 71
     3
 72
    13
 73
     9
 74
     0
 42
0.000000001
 43
0.00000001
 40
0.0
 40
0.0
 40
0.0
 40
0.0
 40
0.1666664694587554
 40
0.3333337096708807
 40
0.5000002077750724
 40
0.6666667805237205
 40
0.8333333532723687
 40
0.9999999999999999
 40
0.9999999999999999
 40
0.9999999999999999
 40
0.9999999999999999
 10
95.10800194330555
 20
116.4239751371776
 30
0.0
 10
95.21119125127922
 20
116.4939253777556
 30
0.0
 10
95.41757034442813
 20
116.6338261823984
 30
0.0
 10
95.81472243255791
 20
116.6604804348986
 30
0.0
 10
96.20487267945545
 20
116.5412329544889
 30
0.0
 10
96.5354460099804
 20
116.2845248207726
 30
0.0
 10
96.76799335052127
 20
115.9313851262206
 30
0.0
 10
96.80121548863828
 20
115.6717607256119
 30
0.0
 10
96.8178265613834
 20
115.5419484964974
 30
0.0
  0
SPLINE
  5
153
330
1F
100
AcDbEntity
  8
0
  6
SLD-実線
 62
     7
370
    25
100
AcDbSpline
210
0.0
220
0.0
230
1.0
 70
     8
 71
     3
 72
     9
 73
     5
 74
     0
 42
0.000000001
 43
0.00000001
 40
0.0
 40
0.0
 40
0.0
 40
0.0
 40
0.5000003747578249
 40
1.0
 40
1.0
 40
1.0
 40
1.0
 10
96.64104345750144
 20
115.386040453537
 30
0.0
 10
96.62947476362342
 20
115.2582681306383
 30
0.0
 10
96.6063373932092
 20
115.0027236763755
 30
0.0
 10
96.44505450780215
 20
114.8222582936929
 30
0.0
 10
96.36441312554064
 20
114.7320256699824
 30
0.0
  0
LINE
  5
154
330
1F
100
AcDbEntity
  8
0
  6
SLD-実線
 62
     7
370
    25
100
AcDbLine
 10
96.0123075877
 20
115.1143910853
 30
0.0
 11
95.5514224562
 21
114.707928605
 31
0.0
  0
LINE
  5
155
330
1F
100
AcDbEntity
  8
0
  6
SLD-実線
 62
     7
370
    25
100
AcDbLine
 10
96.9062406479
 20
115.6199223916
 30
0.0
 11
96.8871650007
 21
115.6030992521
 31
0.0
  0
SPLINE
  5
156
330
1F
100
AcDbEntity
  8
0
  6
SLD-実線
 62
     7
370
    25
100
AcDbSpline
210
0.0
220
0.0
230
1.0
 70
     8
 71
     3
 72
    13
 73
     9
 74
     0
 42
0.000000001
 43
0.00000001
 40
0.0
 40
0.0
 40
0.0
 40
0.0
 40
0.1666665561349579
 40
0.3333330376255572
 40
0.5000002576162405
 40
0.6666668137511983
 40
0.8333333698861561
 40
1.0
 40
1.0
 40
1.0
 40
1.0
 10
95.19640232385885
 20
116.5019365057323
 30
0.0
 10
95.29959235533714
 20
116.5718875900715
 30
0.0
 10
95.50597237207835
 20
116.7117897274212
 30
0.0
 10
95.90312680104059
 20
116.7384463897231
 30
0.0
 10
96.29327933110437
 20
116.6192010992227
 30
0.0
 10
96.62385549518208
 20
116.3624946587549
 30
0.0
 10
96.85640513000129
 20
116.0093569865004
 30
0.0
 10
96.88962880613875
 20
115.7497339424402
 30
0.0
 10
96.90624064789425
 20
115.6199223916001
 30
0.0
  0
SPLINE
  5
157
330
1F
100
AcDbEntity
  8
0
  6
SLD-実線
 62
     7
370
    25
100
AcDbSpline
210
0.0
220
0.0
230
1.0
 70
     8
 71
     3
 72
     9
 73
     5
 74
     0
 42
0.000000001
 43
0.00000001
 40
0.0
 40
0.0
 40
0.0
 40
0.0
 40
0.4999999903012654
 40
1.0
 40
1.0
 40
1.0
 40
1.0
 10
96.72945593881005
 20
115.4640129329845
 30
0.0
 10
96.71788842595852
 20
115.3362410835336
 30
0.0
 10
96.69475339980671
 20
115.0806973796749
 30
0.0
 10
96.53347137018079
 20
114.9002332865758
 30
0.0
 10
96.45283035380359
 20
114.8100012382759
 30
0.0
  0
SPLINE
  5
158
330
1F
100
AcDbEntity
  8
0
  6
SLD-実線
 62
     7
370
    25
100
AcDbSpline
210
0.0
220
0.0
230
1.0
 70
     8
 71
     3
 72
    10
 73
     6
 74
     0
 42
0.000000001
 43
0.00000001
 40
0.0
 40
0.0
 40
0.0
 40
0.0
 40
0.1367360749313533
 40
0.5683682701240589
 40
1.0
 40
1.0
 40
1.0
 40
1.0
 10
96.51134488828167
 20
114.8953660522169
 30
0.0
 10
96.54540835268261
 20
114.9118535828605
 30
0.0
 10
96.68699931429039
 20
114.9803869912916
 30
0.0
 10
96.84499413070894
 20
115.2303889678268
 30
0.0
 10
96.87310804910513
 20
115.4788625353186
 30
0.0
 10
96.88716500072623
 20
115.6030992520983
 30
0.0
  0
SPLINE
  5
159
330
1F
100
AcDbEntity
  8
0
  6
SLD-実線
 62
     7
370
    25
100
AcDbSpline
210
0.0
220
0.0
230
1.0
 70
     8
 71
     3
 72
    14
 73
    10
 74
     0
 42
0.000000001
 43
0.00000001
 40
0.0
 40
0.0
 40
0.0
 40
0.0
 40
0.1666246524687383
 40
0.333249227370737
 40
0.499873805879254
 40
0.6664990516819729
 40
0.8331235555649639
 40
0.9997481340734808
 40
1.0
 40
1.0
 40
1.0
 40
1.0
 10
96.97555377443256
 20
115.6810508234059
 30
0.0
 10
96.95896402106484
 20
115.8108401852689
 30
0.0
 10
96.92578452205224
 20
116.0704188485756
 30
0.0
 10
96.69289862618317
 20
116.4238849972767
 30
0.0
 10
96.36359677686994
 20
116.6793402107146
 30
0.0
 10
95.96867829586672
 20
116.8032575835896
 30
0.0
 10
95.58930789563186
 20
116.7591590763391
 30
0.0
 10
95.33848839365035
 20
116.6625779453014
 30
0.0
 10
95.26549003947841
 20
116.5627593875
 30
0.0
 10
95.26537986336477
 20
116.5626087317641
 30
0.0
  0
SPLINE
  5
15A
330
1F
100
AcDbEntity
  8
0
  6
SLD-実線
 62
     7
370
    25
100
AcDbSpline
210
0.0
220
0.0
230
1.0
 70
     8
 71
     3
 72
    10
 73
     6
 74
     0
 42
0.000000001
 43
0.00000001
 40
0.0
 40
0.0
 40
0.0
 40
0.0
 40
0.1367257636897383
 40
0.5683630080022467
 40
1.0
 40
1.0
 40
1.0
 40
1.0
 10
96.59974286762137
 20
114.9733233274668
 30
0.0
 10
96.63380330825616
 20
114.9898094065723
 30
0.0
 10
96.77539106736356
 20
115.058341314954
 30
0.0
 10
96.93338308971254
 20
115.3083411921208
 30
0.0
 10
96.96149688226488
 20
115.5568143038518
 30
0.0
 10
96.97555377443256
 20
115.6810508234059
 30
0.0
  0
LINE
  5
15B
330
1F
100
AcDbEntity
  8
0
  6
SLD-実線
 62
     7
370
    25
100
AcDbLine
 10
95.4024237413
 20
115.5424501739
 30
0.0
 11
94.9438528176
 21
115.138028633
 31
0.0
  0
LINE
  5
15C
330
1F
100
AcDbEntity
  8
0
  6
SLD-実線
 62
     7
370
    25
100
AcDbLine
 10
96.994632632
 20
115.6978767942
 30
0.0
 11
96.9755537744
 21
115.6810508234
 31
0.0
  0
SPLINE
  5
15D
330
1F
100
AcDbEntity
  8
0
  6
SLD-実線
 62
     7
370
    25
100
AcDbSpline
210
0.0
220
0.0
230
1.0
 70
     8
 71
     3
 72
    13
 73
     9
 74
     0
 42
0.000000001
 43
0.00000001
 40
0.0
 40
0.0
 40
0.0
 40
0.0
 40
0.1666664703617643
 40
0.3333329675642029
 40
0.5000002068733829
 40
0.6666667823275855
 40
0.8333333541743606
 40
1.0
 40
1.0
 40
1.0
 40
1.0
 10
95.28478961584004
 20
116.5798872093108
 30
0.0
 10
95.38797995266786
 20
116.6498383589173
 30
0.0
 10
95.5943606429417
 20
116.7897406693955
 30
0.0
 10
95.99151562149676
 20
116.8163980296118
 30
0.0
 10
96.38166901505684
 20
116.6971534642045
 30
0.0
 10
96.71224601457291
 20
116.4404477792168
 30
0.0
 10
96.94479636857898
 20
116.0873107302257
 30
0.0
 10
96.97802054173849
 20
115.8276881254274
 30
0.0
 10
96.99463263200506
 20
115.6978767942183
 30
0.0
  0
SPLINE
  5
15E
330
1F
100
AcDbEntity
  8
0
  6
SLD-実線
 62
     7
370
    25
100
AcDbSpline
210
0.0
220
0.0
230
1.0
 70
     8
 71
     3
 72
     9
 73
     5
 74
     0
 42
0.000000001
 43
0.00000001
 40
0.0
 40
0.0
 40
0.0
 40
0.0
 40
0.4999999930068967
 40
1.0
 40
1.0
 40
1.0
 40
1.0
 10
96.8178265613834
 20
115.5419484964974
 30
0.0
 10
96.80626010862628
 20
115.4141775819692
 30
0.0
 10
96.78312720278849
 20
115.1586357493387
 30
0.0
 10
96.62184725082058
 20
114.9781734876299
 30
0.0
 10
96.54120727370878
 20
114.8879423555135
 30
0.0
  0
SPLINE
  5
15F
330
1F
100
AcDbEntity
  8
0
  6
SLD-実線
 62
     7
370
    25
100
AcDbSpline
210
0.0
220
0.0
230
1.0
 70
     8
 71
     3
 72
     9
 73
     5
 74
     0
 42
0.000000001
 43
0.00000001
 40
0.0
 40
0.0
 40
0.0
 40
0.0
 40
0.4999999930068837
 40
1.0
 40
1.0
 40
1.0
 40
1.0
 10
96.90624064789425
 20
115.6199223916001
 30
0.0
 10
96.89467301524489
 20
115.4921504365048
 30
0.0
 10
96.87153774962256
 20
115.23660652274
 30
0.0
 10
96.71025543787022
 20
115.0561421798969
 30
0.0
 10
96.62961428086618
 20
114.9659100072134
 30
0.0
  0
SPLINE
  5
160
330
1F
100
AcDbEntity
  8
0
  6
SLD-実線
 62
     7
370
    25
100
AcDbSpline
210
0.0
220
0.0
230
1.0
 70
     8
 71
     3
 72
     9
 73
     5
 74
     0
 42
0.000000001
 43
0.00000001
 40
0.0
 40
0.0
 40
0.0
 40
0.0
 40
0.4999999875964666
 40
1.0
 40
1.0
 40
1.0
 40
1.0
 10
96.99463263200506
 20
115.6978767942183
 30
0.0
 10
96.98306482736116
 20
115.5701046874234
 30
0.0
 10
96.95992921749936
 20
115.3145604674943
 30
0.0
 10
96.79864664681898
 20
115.1340958981615
 30
0.0
 10
96.71800535947828
 20
115.0438636112567
 30
0.0
  0
LINE
  5
161
330
1F
100
AcDbEntity
  8
0
  6
SLD-実線
 62
     7
370
    25
100
AcDbLine
 10
141.8556766073
 20
124.6304793442
 30
0.0
 11
122.0566873623
 21
107.1694120928
 31
0.0
  0
LINE
  5
162
330
1F
100
AcDbEntity
  8
0
  6
SLD-実線
 62
     7
370
    25
100
AcDbLine
 10
141.8556766073
 20
124.6304793442
 30
0.0
 11
141.8556766073
 21
123.2162658793
 31
0.0
  0
LINE
  5
163
330
1F
100
AcDbEntity
  8
0
  6
SLD-実線
 62
     7
370
    25
100
AcDbLine
 10
141.8556766073
 20
123.2162658793
 30
0.0
 11
122.0566873623
 21
105.7551986279
 31
0.0
  0
LINE
  5
164
330
1F
100
AcDbEntity
  8
0
  6
SLD-実線
 62
     7
370
    25
100
AcDbLine
 10
122.0566873623
 20
107.1694120928
 30
0.0
 11
122.0566873623
 21
105.7551986279
 31
0.0
  0
LINE
  5
165
330
1F
100
AcDbEntity
  8
0
  6
SLD-実線
 62
     7
370
    25
100
AcDbLine
 10
122.0566873623
 20
107.1694120928
 30
0.0
 11
69.6734855957
 21
113.769075173
 31
0.0
  0
LINE
  5
166
330
1F
100
AcDbEntity
  8
0
  6
SLD-実線
 62
     7
370
    25
100
AcDbLine
 10
69.6734855957
 20
113.769075173
 30
0.0
 11
70.7380905404
 21
114.7079684824
 31
0.0
  0
LINE
  5
167
330
1F
100
AcDbEntity
  8
0
  6
SLD-実線
 62
     7
370
    25
100
AcDbLine
 10
140.7902883977
 20
124.7647056419
 30
0.0
 11
141.8556766073
 21
124.6304793442
 31
0.0
  0
LINE
  5
168
330
1F
100
AcDbEntity
  8
0
  6
SLD-実線
 62
     7
370
    25
100
AcDbLine
 10
122.0566873623
 20
105.7551986279
 30
0.0
 11
69.6734855957
 21
112.354861708
 31
0.0
  0
LINE
  5
169
330
1F
100
AcDbEntity
  8
0
  6
SLD-実線
 62
     7
370
    25
100
AcDbLine
 10
69.6734855957
 20
113.769075173
 30
0.0
 11
69.6734855957
 21
112.354861708
 31
0.0
  0
LINE
  5
16A
330
1F
100
AcDbEntity
  8
0
  6
SLD-実線
 62
     8
370
    25
100
AcDbLine
 10
81.4987570296
 20
136.206617277
 30
0.0
 11
81.8404128837
 21
136.5079294183
 31
0.0
  0
LINE
  5
16B
330
1F
100
AcDbEntity
  8
0
  6
SLD-実線
 62
     8
370
    25
100
AcDbLine
 10
117.8296926141
 20
131.9737063714
 30
0.0
 11
117.48803676
 21
131.6723942301
 31
0.0
  0
LINE
  5
16C
330
1F
100
AcDbEntity
  8
0
  6
SLD-実線
 62
     8
370
    25
100
AcDbLine
 10
72.0371791412
 20
137.7430207761
 30
0.0
 11
67.9018890755
 21
134.0960377383
 31
0.0
  0
LINE
  5
16D
330
1F
100
AcDbEntity
  8
0
  6
SLD-実線
 62
     8
370
    25
100
AcDbLine
 10
142.9002036497
 20
145.381190058
 30
0.0
 11
139.6565496655
 21
145.7898520474
 31
0.0
  0
LINE
  5
16E
330
1F
100
AcDbEntity
  8
0
  6
SLD-実線
 62
     8
370
    25
100
AcDbLine
 10
122.296011009
 20
107.8518774545
 30
0.0
 11
122.4856408638
 21
125.3153035077
 31
0.0
  0
LINE
  5
16F
330
1F
100
AcDbEntity
  8
0
  6
SLD-実線
 62
     8
370
    25
100
AcDbLine
 10
120.5576689393
 20
125.5017554736
 30
0.0
 11
120.3628440855
 21
107.560990394
 31
0.0
  0
LINE
  5
170
330
1F
100
AcDbEntity
  8
0
  6
SLD-実線
 62
     8
370
    25
100
AcDbLine
 10
71.7208771471
 20
113.689302191
 30
0.0
 11
71.2893091559
 21
131.7089853511
 31
0.0
  0
LINE
  5
171
330
1F
100
AcDbEntity
  8
0
  6
SLD-実線
 62
     8
370
    25
100
AcDbLine
 10
141.0816743986
 20
140.9184332716
 30
0.0
 11
140.6809467334
 21
124.06586694
 31
0.0
  0
LINE
  5
172
330
1F
100
AcDbEntity
  8
0
  6
SLD-実線
 62
     8
370
    25
100
AcDbLine
 10
115.7280961748
 20
132.2384818145
 30
0.0
 11
115.7319610074
 21
131.9964779582
 31
0.0
  0
SPLINE
  5
173
330
1F
100
AcDbEntity
  8
0
  6
SLD-実線
 62
     8
370
    25
100
AcDbSpline
210
0.0
220
0.0
230
1.0
 70
     8
 71
     3
 72
    11
 73
     7
 74
     0
 42
0.000000001
 43
0.00000001
 40
0.0
 40
0.0
 40
0.0
 40
0.0
 40
0.0562975953994384
 40
0.3708221440130891
 40
0.6853496102842653
 40
1.0
 40
1.0
 40
1.0
 40
1.0
 10
116.8510331930433
 20
132.0970059512319
 30
0.0
 10
116.8392070467697
 20
132.0900825669671
 30
0.0
 10
116.7613103464668
 20
132.044479478972
 30
0.0
 10
116.5011182503173
 20
131.9943087000128
 30
0.0
 10
116.1168565118517
 20
131.9599088948922
 30
0.0
 10
115.8602762183694
 20
131.9842878534928
 30
0.0
 10
115.7319610073853
 20
131.9964797142704
 30
0.0
  0
LINE
  5
174
330
1F
100
AcDbEntity
  8
0
  6
SLD-実線
 62
     8
370
    25
100
AcDbLine
 10
82.5479656162
 20
136.1772683995
 30
0.0
 11
82.5565271881
 21
136.4177066761
 31
0.0
  0
SPLINE
  5
175
330
1F
100
AcDbEntity
  8
0
  6
SLD-実線
 62
     8
370
    25
100
AcDbSpline
210
0.0
220
0.0
230
1.0
 70
     8
 71
     3
 72
    11
 73
     7
 74
     0
 42
0.000000001
 43
0.00000001
 40
0.0
 40
0.0
 40
0.0
 40
0.0
 40
0.1045782997467275
 40
0.4030507805148285
 40
0.7015223966857765
 40
1.0
 40
1.0
 40
1.0
 40
1.0
 10
117.0458505083299
 20
132.0724617748232
 30
0.0
 10
117.0495350254853
 20
132.0510579721355
 30
0.0
 10
117.0637353664629
 20
131.9685664858506
 30
0.0
 10
117.1562871951307
 20
131.8410206319892
 30
0.0
 10
117.3067442102722
 20
131.7155939197536
 30
0.0
 10
117.4276055060514
 20
131.6867942229479
 30
0.0
 10
117.4880367600344
 20
131.6723942301208
 30
0.0
  0
LWPOLYLINE
  5
176
330
1F
100
AcDbEntity
  8
0
  6
SLD-実線
 62
     8
370
    25
100
AcDbPolyline
 90
       12
 70
   128
 43
0.0
 10
100.9635211277
 20
146.0906781438
 10
99.5714907441
 20
146.2964844726
 10
98.2573415707
 20
146.5529490145
 10
97.0376006613
 20
146.8568472417
 10
95.9276075082
 20
147.2043568624
 10
94.9413184478
 20
147.5911083491
 10
94.0911372423
 20
148.0122374797
 10
93.3877581741
 20
148.4624489134
 10
92.8400239707
 20
148.9360805532
 10
92.4548254361
 20
149.4271765918
 10
92.2370034844
 20
149.9295609201
 10
92.1857151392
 20
150.3667223619
  0
LWPOLYLINE
  5
177
330
1F
100
AcDbEntity
  8
0
  6
SLD-実線
 62
     8
370
    25
100
AcDbPolyline
 90
       19
 70
   128
 43
0.0
 10
119.1929321981
 20
150.6279462917
 10
119.1380931233
 20
150.2454249975
 10
118.9284254118
 20
149.7658211796
 10
118.564421791
 20
149.2965837434
 10
118.0503514115
 20
148.8432162832
 10
117.3922412725
 20
148.4110341128
 10
116.5978064166
 20
148.0051027026
 10
115.6763631665
 20
147.6301822354
 10
114.6387135523
 20
147.2906678275
 10
113.4970256773
 20
146.9905402173
 10
112.2646766034
 20
146.7333185206
 10
110.9561247051
 20
146.5220179034
 10
109.5867040435
 20
146.3591157499
 10
108.1724710936
 20
146.2465218559
 10
106.7300122888
 20
146.1855562135
 10
105.2762317831
 20
146.1769339339
 10
103.8281741426
 20
146.2207563904
 10
102.4028231102
 20
146.3165093573
 10
101.0168843063
 20
146.4630698112
  0
ARC
  5
178
330
1F
100
AcDbEntity
  8
0
  6
SLD-実線
 62
     8
370
    25
100
AcDbCircle
 10
117.2324050426
 20
150.4388768551
 30
0.0
 40
2.112681903608525
100
AcDbArc
 50
305.7584759962
 51
357.8637983476
  0
LWPOLYLINE
  5
179
330
1F
100
AcDbEntity
  8
0
  6
SLD-実線
 62
     8
370
    25
100
AcDbPolyline
 90
        8
 70
   128
 43
0.0
 10
118.4718328741
 20
149.75096215
 10
118.4402793691
 20
149.70874845
 10
117.9994445467
 20
149.2424325279
 10
117.4047543505
 20
148.7955012247
 10
116.6636809257
 20
148.3735749757
 10
115.7855424505
 20
147.9819599968
 10
114.781386629
 20
147.6255806574
 10
114.2184227399
 20
147.4570694132
  0
LINE
  5
17A
330
1F
100
AcDbEntity
  8
0
  6
SLD-実線
 62
     8
370
    25
100
AcDbLine
 10
102.410557204
 20
146.569790908
 30
0.0
 11
101.1402375951
 21
146.705592649
 31
0.0
  0
LWPOLYLINE
  5
17B
330
1F
100
AcDbEntity
  8
0
  6
SLD-実線
 62
     8
370
    25
100
AcDbPolyline
 90
       10
 70
   128
 43
0.0
 10
101.1402375951
 20
146.705592649
 10
99.7994443438
 20
146.9038232951
 10
98.533666255
 20
147.1508483508
 10
97.3588206592
 20
147.443560595
 10
96.2896826408
 20
147.7782792021
 10
95.3396976891
 20
148.1507952491
 10
94.5208116213
 20
148.5564236759
 10
93.8433221556
 20
148.9900638018
 10
93.3157490323
 20
149.4462621511
 10
93.0443343441
 20
149.7688952662
  0
SPLINE
  5
17C
330
1F
100
AcDbEntity
  8
0
  6
SLD-実線
 62
     8
370
    25
100
AcDbSpline
210
0.0
220
0.0
230
1.0
 70
     8
 71
     3
 72
    11
 73
     7
 74
     0
 42
0.000000001
 43
0.00000001
 40
0.0
 40
0.0
 40
0.0
 40
0.0
 40
0.0243538458798852
 40
0.3495547878208771
 40
0.6747571209657551
 40
1.0
 40
1.0
 40
1.0
 40
1.0
 10
67.57922959059815
 20
133.7200739123252
 30
0.0
 10
67.57664983482364
 20
133.7153313617201
 30
0.0
 10
67.53962217246453
 20
133.6472607465628
 30
0.0
 10
67.68496095417731
 20
133.5121434413002
 30
0.0
 10
68.00992361752475
 20
133.3448156477953
 30
0.0
 10
68.36370228260499
 20
133.2827385746429
 30
0.0
 10
68.54060264164693
 20
133.2516981032611
 30
0.0
  0
SPLINE
  5
17D
330
1F
100
AcDbEntity
  8
0
  6
SLD-実線
 62
     8
370
    25
100
AcDbSpline
210
0.0
220
0.0
230
1.0
 70
     8
 71
     3
 72
    10
 73
     6
 74
     0
 42
0.000000001
 43
0.00000001
 40
0.0
 40
0.0
 40
0.0
 40
0.0
 40
0.0096696589911232
 40
0.5048352123876904
 40
1.0
 40
1.0
 40
1.0
 40
1.0
 10
67.73770583755791
 20
134.048402840549
 30
0.0
 10
67.73803687220577
 20
134.0488464325167
 30
0.0
 10
67.75531958578573
 20
134.0720055579237
 30
0.0
 10
67.81346906696072
 20
134.0955106669115
 30
0.0
 10
67.87241217908495
 20
134.0958624984088
 30
0.0
 10
67.90188371235784
 20
134.0960384140214
 30
0.0
  0
LWPOLYLINE
  5
17E
330
1F
100
AcDbEntity
  8
0
  6
SLD-実線
 62
     8
370
    25
100
AcDbPolyline
 90
       13
 70
   128
 43
0.0
 10
101.0168843063
 20
146.4630698112
 10
99.6866083183
 20
146.6587202546
 10
98.4275911406
 20
146.9011658928
 10
97.2545939036
 20
147.1875653114
 10
96.1813678297
 20
147.5145604941
 10
95.2204951876
 20
147.8783174377
 10
94.3832437992
 20
148.2745716953
 10
93.6794272426
 20
148.6986771862
 10
93.1172982401
 20
149.1456614436
 10
92.7034466578
 20
149.610284928
 10
92.4427262729
 20
150.0870993711
 10
92.3381920794
 20
150.5705154126
 10
92.3366866203
 20
150.6071356911
  0
SPLINE
  5
17F
330
1F
100
AcDbEntity
  8
0
  6
SLD-実線
 62
     8
370
    25
100
AcDbSpline
210
0.0
220
0.0
230
1.0
 70
     8
 71
     3
 72
    11
 73
     7
 74
     0
 42
0.000000001
 43
0.00000001
 40
0.0
 40
0.0
 40
0.0
 40
0.0
 40
0.321741853607207
 40
0.6433595340688772
 40
0.964978494226238
 40
1.0
 40
1.0
 40
1.0
 40
1.0
 10
82.5479656161743
 20
136.1772683995207
 30
0.0
 10
82.43002240523161
 20
136.1960906059852
 30
0.0
 10
82.19418150238378
 20
136.2337277546661
 30
0.0
 10
81.97668588331639
 20
136.3441227861035
 30
0.0
 10
81.88024484094478
 20
136.4360693951958
 30
0.0
 10
81.90649417226666
 20
136.4847114775918
 30
0.0
 10
81.90907181332611
 20
136.4894880498886
 30
0.0
  0
SPLINE
  5
180
330
1F
100
AcDbEntity
  8
0
  6
SLD-実線
 62
     8
370
    25
100
AcDbSpline
210
0.0
220
0.0
230
1.0
 70
     8
 71
     3
 72
     9
 73
     5
 74
     0
 42
0.000000001
 43
0.00000001
 40
0.0
 40
0.0
 40
0.0
 40
0.0
 40
0.5000990376038238
 40
1.0
 40
1.0
 40
1.0
 40
1.0
 10
81.49875702959193
 20
136.2066172769526
 30
0.0
 10
81.5596366405201
 20
136.2051571556238
 30
0.0
 10
81.68137174966944
 20
136.2022374912792
 30
0.0
 10
81.77716960460096
 20
136.2668860423375
 30
0.0
 10
81.8250590444767
 20
136.2992039152292
 30
0.0
  0
SPLINE
  5
181
330
1F
100
AcDbEntity
  8
0
  6
SLD-実線
 62
     8
370
    25
100
AcDbSpline
210
0.0
220
0.0
230
1.0
 70
     8
 71
     3
 72
     9
 73
     5
 74
     0
 42
0.000000001
 43
0.00000001
 40
0.0
 40
0.0
 40
0.0
 40
0.0
 40
0.7126346824275847
 40
1.0
 40
1.0
 40
1.0
 40
1.0
 10
142.9002049667938
 20
145.3811912195818
 30
0.0
 10
142.9118837304065
 20
145.389524937078
 30
0.0
 10
142.9282718797634
 20
145.4012191721492
 30
0.0
 10
142.9412202886641
 20
145.3873184350289
 30
0.0
 10
142.9449412122999
 20
145.3833238452918
 30
0.0
  0
LINE
  5
182
330
1F
100
AcDbEntity
  8
0
  6
SLD-実線
 62
     8
370
    25
100
AcDbLine
 10
143.861055107
 20
144.585321428
 30
0.0
 11
143.9550830825
 21
144.7758191142
 31
0.0
  0
LINE
  5
183
330
1F
100
AcDbEntity
  8
0
  6
SLD-実線
 62
     8
370
    25
100
AcDbLine
 10
71.2802295517
 20
191.5536259272
 30
0.0
 11
70.8372075634
 21
191.1629172585
 31
0.0
  0
LINE
  5
184
330
1F
100
AcDbEntity
  8
0
  6
SLD-実線
 62
     8
370
    25
100
AcDbLine
 10
72.4281977523
 20
196.8086739541
 30
0.0
 11
72.4281977523
 21
196.6908243412
 31
0.0
  0
LINE
  5
185
330
1F
100
AcDbEntity
  8
0
  6
SLD-実線
 62
     8
370
    25
100
AcDbLine
 10
138.8100373909
 20
206.3258820947
 30
0.0
 11
138.8100373909
 21
206.7972875708
 31
0.0
  0
LINE
  5
186
330
1F
100
AcDbEntity
  8
0
  6
SLD-実線
 62
     8
370
    25
100
AcDbLine
 10
91.1039042553
 20
209.0364637067
 30
0.0
 11
90.6361980433
 21
208.6239855988
 31
0.0
  0
LWPOLYLINE
  5
187
330
1F
100
AcDbEntity
  8
0
  6
SLD-実線
 62
     8
370
    25
100
AcDbPolyline
 90
       24
 70
   128
 43
0.0
 10
115.8837599533
 20
185.958982851
 10
115.4087218923
 20
185.7952237788
 10
114.2959019671
 20
185.467685598
 10
113.0836264632
 20
185.182047937
 10
111.7860374797
 20
184.9416406013
 10
110.4182553411
 20
184.7492652636
 10
108.9962246654
 20
184.6071650764
 10
107.5365222928
 20
184.5169957707
 10
106.0561637884
 20
184.4798095452
 10
104.5724092862
 20
184.4960383755
 10
103.1025496321
 20
184.5654950714
 10
101.663721256
 20
184.6873680589
 10
100.2726976657
 20
184.860237694
 10
98.9456929053
 20
185.0820890767
 10
97.6981751235
 20
185.3503355392
 10
96.5446887043
 20
185.6618496843
 10
95.4986777554
 20
186.0130008895
 10
94.5723364316
 20
186.3996954054
 10
93.7764645685
 20
186.8174264032
 10
93.1203361705
 20
187.2613230681
 10
92.6116035286
 20
187.7262117965
 10
92.2561949856
 20
188.2066735478
 10
92.0582546009
 20
188.6971065373
 10
92.0176165164
 20
188.9658342918
  0
LWPOLYLINE
  5
188
330
1F
100
AcDbEntity
  8
0
  6
SLD-実線
 62
     8
370
    25
100
AcDbPolyline
 90
       27
 70
   128
 43
0.0
 10
92.0145820783
 20
151.9623906888
 10
92.0578240895
 20
151.5991831931
 10
92.2552258925
 20
151.1086527847
 10
92.6101535017
 20
150.6280777227
 10
93.118466576
 20
150.1630613147
 10
93.7742383226
 20
149.7190257248
 10
94.5698234614
 20
149.3011489833
 10
95.4959434196
 20
148.9143031442
 10
96.5417988281
 20
148.5629989601
 10
97.6951970824
 20
148.2513333039
 10
98.9426862549
 20
147.9829404382
 10
100.2697215365
 20
147.7609491414
 10
101.6608308683
 20
147.5879479012
 10
103.099788902
 20
147.4659556971
 10
104.5698227879
 20
147.3963927538
 10
106.0537867262
 20
147.3800711619
 10
107.5343779076
 20
147.4171816104
 10
108.994330738
 20
147.5072908201
 10
110.416624
 20
147.649348632
 10
111.7846753929
 20
147.8416980118
 10
113.0825291861
 20
148.0820965434
 10
114.2950506499
 20
148.3677403864
 10
115.4081059716
 20
148.6953000188
 10
116.40871251
 20
149.0609544072
 10
117.2852033467
 20
149.4604412958
 10
118.0273617092
 20
149.8891020004
 10
118.6265284494
 20
150.3419375605
  0
LWPOLYLINE
  5
189
330
1F
100
AcDbEntity
  8
0
  6
SLD-実線
 62
     8
370
    25
100
AcDbPolyline
 90
       23
 70
   128
 43
0.0
 10
117.2887678588
 20
190.9785994693
 10
117.3564237975
 20
191.4320725023
 10
117.2597204302
 20
191.8962355393
 10
116.9963502495
 20
192.3531606759
 10
116.570132561
 20
192.7962203955
 10
115.9872466714
 20
193.2189929719
 10
115.2561453499
 20
193.6153477128
 10
114.3874243055
 20
193.9795370712
 10
113.393685079
 20
194.3062829495
 10
112.2893310938
 20
194.5908462023
 10
111.0903772616
 20
194.829101069
 10
109.8142027764
 20
195.0175928685
 10
108.4793156376
 20
195.1535902342
 10
107.1050669055
 20
195.2351211146
 10
105.711382339
 20
195.2610012734
 10
104.3184704492
 20
195.2308577967
 10
102.9465251201
 20
195.1451267338
 10
101.6154395743
 20
195.0050519644
 10
100.3445101455
 20
194.8126627823
 10
99.1521657602
 20
194.5707495669
 10
98.0556933447
 20
194.282820057
 10
97.0709906424
 20
193.953048187
 10
96.2913327324
 20
193.6240276353
  0
ARC
  5
18A
330
1F
100
AcDbEntity
  8
0
  6
SLD-実線
 62
     8
370
    25
100
AcDbCircle
 10
117.1048737352
 20
152.2912155259
 30
0.0
 40
2.469833117159993
100
AcDbArc
 50
309.2524648941
 51
341.2329689147
  0
ENDSEC
  0
SECTION
  2
OBJECTS
  0
DICTIONARY
  5
C
330
0
100
AcDbDictionary
281
     1
  3
ACAD_DETAILVIEWSTYLE
350
192
  3
ACAD_GROUP
350
D
  3
ACAD_LAYOUT
350
1A
  3
ACAD_MATERIAL
350
43
  3
ACAD_MLEADERSTYLE
350
6B
  3
ACAD_MLINESTYLE
350
17
  3
ACAD_PLOTSETTINGS
350
19
  3
ACAD_PLOTSTYLENAME
350
E
  3
ACAD_SCALELIST
350
47
  3
ACAD_SECTIONVIEWSTYLE
350
193
  3
ACAD_TABLESTYLE
350
69
  3
ACAD_VISUALSTYLE
350
2A
  3
ACDB_RECOMPOSE_DATA
350
18F
  3
AcDbVariableDictionary
350
18B
  0
SUN
  5
6D
330
29
100
AcDbSun
 90
        1
290
     0
 63
     7
421
 16777215
 40
1.0
291
     1
 91
  2455826
 92
 54000000
292
     0
 70
     2
 71
   256
280
     1
  0
DICTIONARY
  5
192
102
{ACAD_REACTORS
330
C
102
}
330
C
100
AcDbDictionary
281
     1
  0
DICTIONARY
  5
D
102
{ACAD_REACTORS
330
C
102
}
330
C
100
AcDbDictionary
281
     1
  0
DICTIONARY
  5
1A
102
{ACAD_REACTORS
330
C
102
}
330
C
100
AcDbDictionary
281
     1
  3
Layout1
350
1E
  3
Layout2
350
26
  3
Model
350
22
  0
DICTIONARY
  5
43
102
{ACAD_REACTORS
330
C
102
}
330
C
100
AcDbDictionary
281
     1
  3
ByBlock
350
45
  3
ByLayer
350
44
  3
Global
350
46
  0
DICTIONARY
  5
6B
102
{ACAD_REACTORS
330
C
102
}
330
C
100
AcDbDictionary
281
     1
  3
Standard
350
6C
  0
DICTIONARY
  5
17
102
{ACAD_REACTORS
330
C
102
}
330
C
100
AcDbDictionary
281
     1
  3
Standard
350
18
  0
DICTIONARY
  5
19
102
{ACAD_REACTORS
330
C
102
}
330
C
100
AcDbDictionary
281
     1
  0
ACDBDICTIONARYWDFLT
  5
E
102
{ACAD_REACTORS
330
C
102
}
330
C
100
AcDbDictionary
281
     1
  3
Normal
350
F
100
AcDbDictionaryWithDefault
340
F
  0
DICTIONARY
  5
47
102
{ACAD_REACTORS
330
C
102
}
330
C
100
AcDbDictionary
281
     1
  3
A0
350
48
  3
A1
350
49
  3
A2
350
4A
  3
A3
350
4B
  3
A4
350
4C
  3
A5
350
4D
  3
A6
350
4E
  3
A7
350
4F
  3
A8
350
50
  3
A9
350
51
  3
B0
350
52
  3
B1
350
53
  3
B2
350
54
  3
B3
350
55
  3
B4
350
56
  3
B5
350
57
  3
B6
350
58
  3
B7
350
59
  3
B8
350
5A
  3
B9
350
5B
  3
C0
350
5C
  3
C1
350
5D
  3
C2
350
5E
  3
C3
350
5F
  3
C4
350
60
  3
C5
350
61
  3
C6
350
62
  3
C7
350
63
  3
C8
350
64
  3
C9
350
65
  3
D0
350
66
  3
D1
350
67
  3
D2
350
68
  0
DICTIONARY
  5
193
102
{ACAD_REACTORS
330
C
102
}
330
C
100
AcDbDictionary
281
     1
  0
DICTIONARY
  5
69
102
{ACAD_REACTORS
330
C
102
}
330
C
100
AcDbDictionary
281
     1
  3
Standard
350
6A
  0
DICTIONARY
  5
2A
102
{ACAD_REACTORS
330
C
102
}
330
C
100
AcDbDictionary
281
     1
  3
2dWireframe
350
2F
  3
Basic
350
32
  3
Brighten
350
36
  3
ColorChange
350
3A
  3
Conceptual
350
34
  3
Dim
350
35
  3
EdgeColorOff
350
3D
  3
Facepattern
350
39
  3
Flat
350
2B
  3
FlatWithEdges
350
2C
  3
Gouraud
350
2D
  3
GouraudWithEdges
350
2E
  3
Hidden
350
31
  3
JitterOff
350
3B
  3
Linepattern
350
38
  3
OverhangOff
350
3C
  3
Realistic
350
33
  3
Shaded
350
42
  3
Shaded with edges
350
41
  3
Shades of Gray
350
3E
  3
Sketchy
350
3F
  3
Thicken
350
37
  3
Wireframe
350
30
  3
X-Ray
350
40
  0
XRECORD
  5
18F
102
{ACAD_REACTORS
330
C
102
}
330
C
100
AcDbXrecord
280
     1
 90
        1
330
6A
  0
DICTIONARY
  5
18B
102
{ACAD_REACTORS
330
C
102
}
330
C
100
AcDbDictionary
281
     1
  3
CANNOSCALE
350
18C
  3
CMLEADERSTYLE
350
191
  3
CTABLESTYLE
350
190
  3
SECTIONTHICKNESSINC
350
194
  0
LAYOUT
  5
1E
102
{ACAD_REACTORS
330
1A
102
}
330
1A
100
AcDbPlotSettings
  1

  2
none_device
  4

  6

 40
0.0
 41
0.0
 42
0.0
 43
0.0
 44
0.0
 45
0.0
 46
0.0
 47
0.0
 48
0.0
 49
0.0
140
0.0
141
0.0
142
1.0
143
1.0
 70
   688
 72
     1
 73
     0
 74
     5
  7

 75
    16
 76
     0
 77
     2
 78
   300
147
1.0
148
0.0
149
0.0
100
AcDbLayout
  1
Layout1
 70
     1
 71
     1
 10
0.0
 20
0.0
 11
420.0
 21
297.0
 12
0.0
 22
0.0
 32
0.0
 14
1.0000000000E+20
 24
1.0000000000E+20
 34
1.0000000000E+20
 15
-1.0000000000E+20
 25
-1.0000000000E+20
 35
-1.0000000000E+20
146
0.0
 13
0.0
 23
0.0
 33
0.0
 16
1.0
 26
0.0
 36
0.0
 17
0.0
 27
1.0
 37
0.0
 76
     0
330
1B
  0
LAYOUT
  5
26
102
{ACAD_REACTORS
330
1A
102
}
330
1A
100
AcDbPlotSettings
  1

  2
none_device
  4

  6

 40
0.0
 41
0.0
 42
0.0
 43
0.0
 44
0.0
 45
0.0
 46
0.0
 47
0.0
 48
0.0
 49
0.0
140
0.0
141
0.0
142
1.0
143
1.0
 70
   688
 72
     1
 73
     0
 74
     5
  7

 75
    16
 76
     0
 77
     2
 78
   300
147
1.0
148
0.0
149
0.0
100
AcDbLayout
  1
Layout2
 70
     1
 71
     2
 10
0.0
 20
0.0
 11
0.0
 21
0.0
 12
0.0
 22
0.0
 32
0.0
 14
0.0
 24
0.0
 34
0.0
 15
0.0
 25
0.0
 35
0.0
146
0.0
 13
0.0
 23
0.0
 33
0.0
 16
1.0
 26
0.0
 36
0.0
 17
0.0
 27
1.0
 37
0.0
 76
     0
330
23
  0
LAYOUT
  5
22
102
{ACAD_REACTORS
330
1A
102
}
330
1A
100
AcDbPlotSettings
  1

  2
none_device
  4
Letter_(8.50_x_11.00_Inches)
  6

 40
6.35
 41
6.35
 42
6.35000508
 43
6.35000508
 44
215.9
 45
279.4
 46
0.0
 47
0.0
 48
0.0
 49
0.0
140
0.0
141
0.0
142
1.0
143
1.0
 70
  1712
 72
     1
 73
     0
 74
     0
  7

 75
     0
 76
     0
 77
     2
 78
   300
147
1.0
148
0.0
149
0.0
100
AcDbLayout
  1
Model
 70
     1
 71
     0
 10
0.0
 20
0.0
 11
210.0
 21
297.0
 12
0.0
 22
0.0
 32
0.0
 14
0.0
 24
0.0
 34
0.0
 15
210.0
 25
297.0
 35
0.0
146
0.0
 13
0.0
 23
0.0
 33
0.0
 16
1.0
 26
0.0
 36
0.0
 17
0.0
 27
1.0
 37
0.0
 76
     0
330
1F
331
29
  0
MATERIAL
  5
45
102
{ACAD_REACTORS
330
43
102
}
330
43
100
AcDbMaterial
  1
ByBlock
 72
     1
 94
      127
  0
MATERIAL
  5
44
102
{ACAD_REACTORS
330
43
102
}
330
43
100
AcDbMaterial
  1
ByLayer
 72
     1
 94
      127
  0
MATERIAL
  5
46
102
{ACAD_REACTORS
330
43
102
}
330
43
100
AcDbMaterial
  1
Global
 72
     1
 94
      127
  0
MLEADERSTYLE
  5
6C
102
{ACAD_REACTORS
330
6B
102
}
330
6B
100
AcDbMLeaderStyle
179
     2
170
     2
171
     1
172
     0
 90
        2
 40
0.0
 41
0.0
173
     1
 91
-1056964608
340
14
 92
       -2
290
     1
 42
2.0
291
     1
 43
8.0
  3
Standard
341
0
 44
4.0
300

342
11
174
     1
178
     6
175
     1
176
     0
 93
-1056964608
 45
4.0
292
     0
297
     0
 46
4.0
343
0
 94
-1056964608
 47
1.0
 49
1.0
140
1.0
293
     1
141
0.0
294
     1
177
     0
142
1.0
295
     0
296
     0
143
3.75
271
     0
272
     9
273
     9
298
     0
  0
MLINESTYLE
  5
18
102
{ACAD_REACTORS
330
17
102
}
330
17
100
AcDbMlineStyle
  2
Standard
 70
     0
  3

 62
   256
 51
90.0
 52
90.0
 71
     2
 49
0.5
 62
   256
  6
BYLAYER
 49
-0.5
 62
   256
  6
BYLAYER
  0
ACDBPLACEHOLDER
  5
F
102
{ACAD_REACTORS
330
E
102
}
330
E
  0
SCALE
  5
48
102
{ACAD_REACTORS
330
47
102
}
330
47
100
AcDbScale
 70
     0
300
1:1
140
1.0
141
1.0
290
     1
  0
SCALE
  5
49
102
{ACAD_REACTORS
330
47
102
}
330
47
100
AcDbScale
 70
     0
300
1:2
140
1.0
141
2.0
290
     0
  0
SCALE
  5
4A
102
{ACAD_REACTORS
330
47
102
}
330
47
100
AcDbScale
 70
     0
300
1:4
140
1.0
141
4.0
290
     0
  0
SCALE
  5
4B
102
{ACAD_REACTORS
330
47
102
}
330
47
100
AcDbScale
 70
     0
300
1:5
140
1.0
141
5.0
290
     0
  0
SCALE
  5
4C
102
{ACAD_REACTORS
330
47
102
}
330
47
100
AcDbScale
 70
     0
300
1:8
140
1.0
141
8.0
290
     0
  0
SCALE
  5
4D
102
{ACAD_REACTORS
330
47
102
}
330
47
100
AcDbScale
 70
     0
300
1:10
140
1.0
141
10.0
290
     0
  0
SCALE
  5
4E
102
{ACAD_REACTORS
330
47
102
}
330
47
100
AcDbScale
 70
     0
300
1:16
140
1.0
141
16.0
290
     0
  0
SCALE
  5
4F
102
{ACAD_REACTORS
330
47
102
}
330
47
100
AcDbScale
 70
     0
300
1:20
140
1.0
141
20.0
290
     0
  0
SCALE
  5
50
102
{ACAD_REACTORS
330
47
102
}
330
47
100
AcDbScale
 70
     0
300
1:30
140
1.0
141
30.0
290
     0
  0
SCALE
  5
51
102
{ACAD_REACTORS
330
47
102
}
330
47
100
AcDbScale
 70
     0
300
1:40
140
1.0
141
40.0
290
     0
  0
SCALE
  5
52
102
{ACAD_REACTORS
330
47
102
}
330
47
100
AcDbScale
 70
     0
300
1:50
140
1.0
141
50.0
290
     0
  0
SCALE
  5
53
102
{ACAD_REACTORS
330
47
102
}
330
47
100
AcDbScale
 70
     0
300
1:100
140
1.0
141
100.0
290
     0
  0
SCALE
  5
54
102
{ACAD_REACTORS
330
47
102
}
330
47
100
AcDbScale
 70
     0
300
2:1
140
2.0
141
1.0
290
     0
  0
SCALE
  5
55
102
{ACAD_REACTORS
330
47
102
}
330
47
100
AcDbScale
 70
     0
300
4:1
140
4.0
141
1.0
290
     0
  0
SCALE
  5
56
102
{ACAD_REACTORS
330
47
102
}
330
47
100
AcDbScale
 70
     0
300
8:1
140
8.0
141
1.0
290
     0
  0
SCALE
  5
57
102
{ACAD_REACTORS
330
47
102
}
330
47
100
AcDbScale
 70
     0
300
10:1
140
10.0
141
1.0
290
     0
  0
SCALE
  5
58
102
{ACAD_REACTORS
330
47
102
}
330
47
100
AcDbScale
 70
     0
300
100:1
140
100.0
141
1.0
290
     0
  0
SCALE
  5
59
102
{ACAD_REACTORS
330
47
102
}
330
47
100
AcDbScale
 70
     0
300
1/128" = 1'-0"
140
0.0078125
141
12.0
290
     0
  0
SCALE
  5
5A
102
{ACAD_REACTORS
330
47
102
}
330
47
100
AcDbScale
 70
     0
300
1/64" = 1'-0"
140
0.015625
141
12.0
290
     0
  0
SCALE
  5
5B
102
{ACAD_REACTORS
330
47
102
}
330
47
100
AcDbScale
 70
     0
300
1/32" = 1'-0"
140
0.03125
141
12.0
290
     0
  0
SCALE
  5
5C
102
{ACAD_REACTORS
330
47
102
}
330
47
100
AcDbScale
 70
     0
300
1/16" = 1'-0"
140
0.0625
141
12.0
290
     0
  0
SCALE
  5
5D
102
{ACAD_REACTORS
330
47
102
}
330
47
100
AcDbScale
 70
     0
300
3/32" = 1'-0"
140
0.09375
141
12.0
290
     0
  0
SCALE
  5
5E
102
{ACAD_REACTORS
330
47
102
}
330
47
100
AcDbScale
 70
     0
300
1/8" = 1'-0"
140
0.125
141
12.0
290
     0
  0
SCALE
  5
5F
102
{ACAD_REACTORS
330
47
102
}
330
47
100
AcDbScale
 70
     0
300
3/16" = 1'-0"
140
0.1875
141
12.0
290
     0
  0
SCALE
  5
60
102
{ACAD_REACTORS
330
47
102
}
330
47
100
AcDbScale
 70
     0
300
1/4" = 1'-0"
140
0.25
141
12.0
290
     0
  0
SCALE
  5
61
102
{ACAD_REACTORS
330
47
102
}
330
47
100
AcDbScale
 70
     0
300
3/8" = 1'-0"
140
0.375
141
12.0
290
     0
  0
SCALE
  5
62
102
{ACAD_REACTORS
330
47
102
}
330
47
100
AcDbScale
 70
     0
300
1/2" = 1'-0"
140
0.5
141
12.0
290
     0
  0
SCALE
  5
63
102
{ACAD_REACTORS
330
47
102
}
330
47
100
AcDbScale
 70
     0
300
3/4" = 1'-0"
140
0.75
141
12.0
290
     0
  0
SCALE
  5
64
102
{ACAD_REACTORS
330
47
102
}
330
47
100
AcDbScale
 70
     0
300
1" = 1'-0"
140
1.0
141
12.0
290
     0
  0
SCALE
  5
65
102
{ACAD_REACTORS
330
47
102
}
330
47
100
AcDbScale
 70
     0
300
1-1/2" = 1'-0"
140
1.5
141
12.0
290
     0
  0
SCALE
  5
66
102
{ACAD_REACTORS
330
47
102
}
330
47
100
AcDbScale
 70
     0
300
3" = 1'-0"
140
3.0
141
12.0
290
     0
  0
SCALE
  5
67
102
{ACAD_REACTORS
330
47
102
}
330
47
100
AcDbScale
 70
     0
300
6" = 1'-0"
140
6.0
141
12.0
290
     0
  0
SCALE
  5
68
102
{ACAD_REACTORS
330
47
102
}
330
47
100
AcDbScale
 70
     0
300
1'-0" = 1'-0"
140
12.0
141
12.0
290
     0
  0
TABLESTYLE
  5
6A
102
{ACAD_REACTORS
330
69
102
}
102
{ACAD_XDICTIONARY
360
18D
102
}
330
69
100
AcDbTableStyle
  3
Standard
 70
     0
 71
     0
 40
0.06
 41
0.06
280
     0
281
     0
  7
STANDARD
140
4.5
170
     2
 62
     0
 63
   257
283
     0
 90
        4
 91
        0
  1

274
    -2
284
     1
 64
     0
275
    -2
285
     1
 65
     0
276
    -2
286
     1
 66
     0
277
    -2
287
     1
 67
     0
278
    -2
288
     1
 68
     0
279
    -2
289
     1
 69
     0
  7
STANDARD
140
6.0
170
     5
 62
     0
 63
   257
283
     0
 90
        4
 91
        0
  1

274
    -2
284
     1
 64
     0
275
    -2
285
     1
 65
     0
276
    -2
286
     1
 66
     0
277
    -2
287
     1
 67
     0
278
    -2
288
     1
 68
     0
279
    -2
289
     1
 69
     0
  7
STANDARD
140
4.5
170
     5
 62
     0
 63
   257
283
     0
 90
        4
 91
        0
  1

274
    -2
284
     1
 64
     0
275
    -2
285
     1
 65
     0
276
    -2
286
     1
 66
     0
277
    -2
287
     1
 67
     0
278
    -2
288
     1
 68
     0
279
    -2
289
     1
 69
     0
  0
VISUALSTYLE
  5
2F
102
{ACAD_REACTORS
330
2A
102
}
330
2A
100
AcDbVisualStyle
  2
2dWireframe
 70
     4
177
     3
291
     0
 70
    58
 90
        0
176
     1
 90
        2
176
     1
 90
        0
176
     1
 90
        0
176
     1
 40
0.6
176
     1
 40
30.0
176
     1
 62
     7
420
 16777215
176
     1
 90
        1
176
     1
 90
        4
176
     1
 62
     7
176
     1
 62
   257
176
     1
 90
        1
176
     1
 90
        1
176
     1
 40
1.0
176
     1
 90
        0
176
     1
 62
   257
176
     1
 40
1.0
176
     1
 90
        1
176
     1
 90
        6
176
     1
 90
        2
176
     1
 62
     7
176
     1
 90
        5
176
     1
 90
        0
176
     1
 90
        0
176
     1
290
     0
176
     1
 90
        1
176
     1
 40
0.0
176
     1
 90
        0
176
     1
290
     1
176
     1
290
     1
176
     1
290
     0
176
     1
290
     0
176
     1
290
     0
176
     1
290
     0
176
     1
290
     0
176
     1
290
     0
176
     1
290
     0
176
     1
 90
       50
176
     1
 40
0.0
176
     1
 40
1.0
176
     1
 90
        0
176
     1
 62
    18
420
        0
176
     1
 90
       50
176
     1
 90
        3
176
     1
 62
     5
420
      255
176
     1
290
     0
176
     1
 90
       50
176
     1
 90
       50
176
     1
 90
       50
176
     1
290
     0
176
     1
 90
       50
176
     1
 62
   256
176
     0
 40
1.0
176
     0
 90
        2
176
     1
  1
strokes_ogs.tif
176
     1
290
     0
176
     1
 40
1.0
176
     1
 40
1.0
176
     1
  0
VISUALSTYLE
  5
32
102
{ACAD_REACTORS
330
2A
102
}
330
2A
100
AcDbVisualStyle
  2
Basic
 70
     7
177
     3
291
     1
 70
    58
 90
        1
176
     1
 90
        0
176
     1
 90
        1
176
     1
 90
        0
176
     1
 40
0.6
176
     1
 40
30.0
176
     1
 62
     7
420
 16777215
176
     1
 90
        0
176
     1
 90
        4
176
     1
 62
     7
176
     1
 62
   257
176
     1
 90
        1
176
     1
 90
        1
176
     1
 40
1.0
176
     1
 90
        8
176
     1
 62
     7
176
     1
 40
1.0
176
     1
 90
        1
176
     1
 90
        6
176
     1
 90
        2
176
     1
 62
     7
176
     1
 90
        5
176
     1
 90
        0
176
     1
 90
        0
176
     1
290
     0
176
     1
 90
        1
176
     1
 40
0.0
176
     1
 90
        0
176
     1
290
     0
176
     1
290
     1
176
     1
290
     1
176
     1
290
     0
176
     1
290
     0
176
     1
290
     0
176
     1
290
     0
176
     1
290
     0
176
     1
290
     0
176
     1
 90
       50
176
     1
 40
0.0
176
     1
 40
1.0
176
     1
 90
        0
176
     1
 62
    18
420
        0
176
     1
 90
       50
176
     1
 90
        3
176
     1
 62
     5
420
      255
176
     1
290
     0
176
     1
 90
       50
176
     1
 90
       50
176
     1
 90
       50
176
     1
290
     0
176
     1
 90
       50
176
     1
 62
   256
176
     0
 40
1.0
176
     0
 90
        2
176
     1
  1
strokes_ogs.tif
176
     1
290
     0
176
     1
 40
1.0
176
     1
 40
1.0
176
     1
  0
VISUALSTYLE
  5
36
102
{ACAD_REACTORS
330
2A
102
}
330
2A
100
AcDbVisualStyle
  2
Brighten
 70
    12
177
     3
291
     1
 70
    58
 90
        2
176
     1
 90
        2
176
     1
 90
        0
176
     1
 90
        0
176
     1
 40
0.6
176
     1
 40
30.0
176
     1
 62
     7
420
 16777215
176
     1
 90
        1
176
     1
 90
        4
176
     1
 62
     7
176
     1
 62
   257
176
     1
 90
        1
176
     1
 90
        1
176
     1
 40
1.0
176
     1
 90
        8
176
     1
 62
     7
176
     1
 40
1.0
176
     1
 90
        1
176
     1
 90
        6
176
     1
 90
        2
176
     1
 62
     7
176
     1
 90
        5
176
     1
 90
        0
176
     1
 90
        0
176
     1
290
     0
176
     1
 90
        1
176
     1
 40
50.0
176
     1
 90
        0
176
     1
290
     0
176
     1
290
     1
176
     1
290
     1
176
     1
290
     0
176
     1
290
     0
176
     1
290
     0
176
     1
290
     0
176
     1
290
     0
176
     1
290
     0
176
     1
 90
       50
176
     1
 40
0.0
176
     1
 40
1.0
176
     1
 90
        0
176
     1
 62
    18
420
        0
176
     1
 90
       50
176
     1
 90
        3
176
     1
 62
     5
420
      255
176
     1
290
     0
176
     1
 90
       50
176
     1
 90
       50
176
     1
 90
       50
176
     1
290
     0
176
     1
 90
       50
176
     1
 62
   256
176
     0
 40
1.0
176
     0
 90
        2
176
     1
  1
strokes_ogs.tif
176
     1
290
     0
176
     1
 40
1.0
176
     1
 40
1.0
176
     1
  0
VISUALSTYLE
  5
3A
102
{ACAD_REACTORS
330
2A
102
}
330
2A
100
AcDbVisualStyle
  2
ColorChange
 70
    16
177
     3
291
     1
 70
    58
 90
        2
176
     1
 90
        2
176
     1
 90
        3
176
     1
 90
        0
176
     1
 40
0.6
176
     1
 40
30.0
176
     1
 62
     8
420
  8421504
176
     1
 90
        1
176
     1
 90
        4
176
     1
 62
     7
176
     1
 62
   257
176
     1
 90
        1
176
     1
 90
        1
176
     1
 40
1.0
176
     1
 90
        8
176
     1
 62
     8
420
  8421504
176
     1
 40
1.0
176
     1
 90
        1
176
     1
 90
        6
176
     1
 90
        2
176
     1
 62
     7
176
     1
 90
        5
176
     1
 90
        0
176
     1
 90
        0
176
     1
290
     0
176
     1
 90
        1
176
     1
 40
0.0
176
     1
 90
        0
176
     1
290
     0
176
     1
290
     1
176
     1
290
     1
176
     1
290
     0
176
     1
290
     0
176
     1
290
     0
176
     1
290
     0
176
     1
290
     0
176
     1
290
     0
176
     1
 90
       50
176
     1
 40
0.0
176
     1
 40
1.0
176
     1
 90
        0
176
     1
 62
    18
420
        0
176
     1
 90
       50
176
     1
 90
        3
176
     1
 62
     5
420
      255
176
     1
290
     0
176
     1
 90
       50
176
     1
 90
       50
176
     1
 90
       50
176
     1
290
     0
176
     1
 90
       50
176
     1
 62
   256
176
     0
 40
1.0
176
     0
 90
        2
176
     1
  1
strokes_ogs.tif
176
     1
290
     0
176
     1
 40
1.0
176
     1
 40
1.0
176
     1
  0
VISUALSTYLE
  5
34
102
{ACAD_REACTORS
330
2A
102
}
330
2A
100
AcDbVisualStyle
  2
Conceptual
 70
     9
177
     3
291
     0
 70
    58
 90
        3
176
     1
 90
        2
176
     1
 90
        0
176
     1
 90
        0
176
     1
 40
0.6
176
     1
 40
30.0
176
     1
 62
     7
420
 16777215
176
     1
 90
        2
176
     1
 90
        2
176
     1
 62
     7
176
     1
 62
   257
176
     1
 90
        1
176
     1
 90
        1
176
     1
 40
179.0
176
     1
 90
        8
176
     1
 62
     7
176
     1
 40
1.0
176
     1
 90
        1
176
     1
 90
        6
176
     1
 90
        2
176
     1
 62
     7
176
     1
 90
        3
176
     1
 90
        0
176
     1
 90
        0
176
     1
290
     0
176
     1
 90
        1
176
     1
 40
0.0
176
     1
 90
        0
176
     1
290
     0
176
     1
290
     1
176
     1
290
     1
176
     1
290
     0
176
     1
290
     0
176
     1
290
     0
176
     1
290
     0
176
     1
290
     0
176
     1
290
     0
176
     1
 90
       50
176
     1
 40
0.0
176
     1
 40
1.0
176
     1
 90
        0
176
     1
 62
    18
420
        0
176
     1
 90
       50
176
     1
 90
        3
176
     1
 62
     5
420
      255
176
     1
290
     0
176
     1
 90
       50
176
     1
 90
       50
176
     1
 90
       50
176
     1
290
     0
176
     1
 90
       50
176
     1
 62
   256
176
     0
 40
1.0
176
     0
 90
        2
176
     1
  1
strokes_ogs.tif
176
     1
290
     0
176
     1
 40
1.0
176
     1
 40
1.0
176
     1
  0
VISUALSTYLE
  5
35
102
{ACAD_REACTORS
330
2A
102
}
330
2A
100
AcDbVisualStyle
  2
Dim
 70
    11
177
     3
291
     1
 70
    58
 90
        2
176
     1
 90
        2
176
     1
 90
        0
176
     1
 90
        0
176
     1
 40
0.6
176
     1
 40
30.0
176
     1
 62
     7
420
 16777215
176
     1
 90
        1
176
     1
 90
        4
176
     1
 62
     7
176
     1
 62
   257
176
     1
 90
        1
176
     1
 90
        1
176
     1
 40
1.0
176
     1
 90
        8
176
     1
 62
     7
176
     1
 40
1.0
176
     1
 90
        1
176
     1
 90
        6
176
     1
 90
        2
176
     1
 62
     7
176
     1
 90
        5
176
     1
 90
        0
176
     1
 90
        0
176
     1
290
     0
176
     1
 90
        1
176
     1
 40
-50.0
176
     1
 90
        0
176
     1
290
     0
176
     1
290
     1
176
     1
290
     1
176
     1
290
     0
176
     1
290
     0
176
     1
290
     0
176
     1
290
     0
176
     1
290
     0
176
     1
290
     0
176
     1
 90
       50
176
     1
 40
0.0
176
     1
 40
1.0
176
     1
 90
        0
176
     1
 62
    18
420
        0
176
     1
 90
       50
176
     1
 90
        3
176
     1
 62
     5
420
      255
176
     1
290
     0
176
     1
 90
       50
176
     1
 90
       50
176
     1
 90
       50
176
     1
290
     0
176
     1
 90
       50
176
     1
 62
   256
176
     0
 40
1.0
176
     0
 90
        2
176
     1
  1
strokes_ogs.tif
176
     1
290
     0
176
     1
 40
1.0
176
     1
 40
1.0
176
     1
  0
VISUALSTYLE
  5
3D
102
{ACAD_REACTORS
330
2A
102
}
330
2A
100
AcDbVisualStyle
  2
EdgeColorOff
 70
    22
177
     3
291
     1
 70
    58
 90
        2
176
     0
 90
        2
176
     0
 90
        0
176
     0
 90
        0
176
     0
 40
0.6
176
     0
 40
30.0
176
     0
 62
     7
420
 16777215
176
     0
 90
        1
176
     0
 90
        4
176
     0
 62
     7
176
     0
 62
   257
176
     0
 90
        1
176
     0
 90
        1
176
     0
 40
1.0
176
     0
 90
        8
176
     2
 62
     7
176
     0
 40
1.0
176
     0
 90
        1
176
     0
 90
        6
176
     0
 90
        2
176
     0
 62
     7
176
     0
 90
        5
176
     0
 90
        0
176
     0
 90
        0
176
     0
290
     0
176
     0
 90
        1
176
     0
 40
0.0
176
     0
 90
        0
176
     0
290
     0
176
     0
290
     1
176
     0
290
     1
176
     0
290
     0
176
     0
290
     0
176
     0
290
     0
176
     0
290
     0
176
     0
290
     0
176
     0
290
     0
176
     0
 90
       50
176
     0
 40
0.0
176
     0
 40
1.0
176
     0
 90
        0
176
     0
 62
    18
420
        0
176
     0
 90
       50
176
     0
 90
        3
176
     0
 62
     5
420
      255
176
     0
290
     0
176
     0
 90
       50
176
     0
 90
       50
176
     0
 90
       50
176
     0
290
     0
176
     0
 90
       50
176
     0
 62
   256
176
     0
 40
1.0
176
     0
 90
        2
176
     0
  1
strokes_ogs.tif
176
     0
290
     0
176
     0
 40
1.0
176
     0
 40
1.0
176
     0
  0
VISUALSTYLE
  5
39
102
{ACAD_REACTORS
330
2A
102
}
330
2A
100
AcDbVisualStyle
  2
Facepattern
 70
    15
177
     3
291
     1
 70
    58
 90
        2
176
     1
 90
        2
176
     1
 90
        0
176
     1
 90
        0
176
     1
 40
0.6
176
     1
 40
30.0
176
     1
 62
     7
420
 16777215
176
     1
 90
        1
176
     1
 90
        4
176
     1
 62
     7
176
     1
 62
   257
176
     1
 90
        1
176
     1
 90
        1
176
     1
 40
1.0
176
     1
 90
        8
176
     1
 62
     7
176
     1
 40
1.0
176
     1
 90
        1
176
     1
 90
        6
176
     1
 90
        2
176
     1
 62
     7
176
     1
 90
        5
176
     1
 90
        0
176
     1
 90
        0
176
     1
290
     0
176
     1
 90
        1
176
     1
 40
0.0
176
     1
 90
        0
176
     1
290
     0
176
     1
290
     1
176
     1
290
     1
176
     1
290
     0
176
     1
290
     0
176
     1
290
     0
176
     1
290
     0
176
     1
290
     0
176
     1
290
     0
176
     1
 90
       50
176
     1
 40
0.0
176
     1
 40
1.0
176
     1
 90
        0
176
     1
 62
    18
420
        0
176
     1
 90
       50
176
     1
 90
        3
176
     1
 62
     5
420
      255
176
     1
290
     0
176
     1
 90
       50
176
     1
 90
       50
176
     1
 90
       50
176
     1
290
     0
176
     1
 90
       50
176
     1
 62
   256
176
     0
 40
1.0
176
     0
 90
        2
176
     1
  1
strokes_ogs.tif
176
     1
290
     0
176
     1
 40
1.0
176
     1
 40
1.0
176
     1
  0
VISUALSTYLE
  5
2B
102
{ACAD_REACTORS
330
2A
102
}
330
2A
100
AcDbVisualStyle
  2
Flat
 70
     0
177
     3
291
     1
 70
    58
 90
        2
176
     1
 90
        1
176
     1
 90
        1
176
     1
 90
        2
176
     1
 40
0.6
176
     1
 40
30.0
176
     1
 62
     7
420
 16777215
176
     1
 90
        0
176
     1
 90
        0
176
     1
 62
     7
176
     1
 62
   257
176
     1
 90
        1
176
     1
 90
        1
176
     1
 40
1.0
176
     1
 90
        8
176
     1
 62
     7
176
     1
 40
1.0
176
     1
 90
        1
176
     1
 90
        6
176
     1
 90
        2
176
     1
 62
     7
176
     1
 90
        5
176
     1
 90
        0
176
     1
 90
        0
176
     1
290
     0
176
     1
 90
       13
176
     1
 40
0.0
176
     1
 90
        0
176
     1
290
     0
176
     1
290
     1
176
     1
290
     1
176
     1
290
     0
176
     1
290
     0
176
     1
290
     0
176
     1
290
     0
176
     1
290
     0
176
     1
290
     0
176
     1
 90
       50
176
     1
 40
0.0
176
     1
 40
1.0
176
     1
 90
        0
176
     1
 62
    18
420
        0
176
     1
 90
       50
176
     1
 90
        3
176
     1
 62
     5
420
      255
176
     1
290
     0
176
     1
 90
       50
176
     1
 90
       50
176
     1
 90
       50
176
     1
290
     0
176
     1
 90
       50
176
     1
 62
   256
176
     0
 40
1.0
176
     0
 90
        2
176
     1
  1
strokes_ogs.tif
176
     1
290
     0
176
     1
 40
1.0
176
     1
 40
1.0
176
     1
  0
VISUALSTYLE
  5
2C
102
{ACAD_REACTORS
330
2A
102
}
330
2A
100
AcDbVisualStyle
  2
FlatWithEdges
 70
     1
177
     3
291
     1
 70
    58
 90
        2
176
     1
 90
        1
176
     1
 90
        1
176
     1
 90
        2
176
     1
 40
0.6
176
     1
 40
30.0
176
     1
 62
     7
420
 16777215
176
     1
 90
        1
176
     1
 90
        0
176
     1
 62
     7
176
     1
 62
   257
176
     1
 90
        1
176
     1
 90
        1
176
     1
 40
1.0
176
     1
 90
        0
176
     1
 62
   257
176
     1
 40
1.0
176
     1
 90
        1
176
     1
 90
        6
176
     1
 90
        2
176
     1
 62
     7
176
     1
 90
        5
176
     1
 90
        0
176
     1
 90
        0
176
     1
290
     0
176
     1
 90
       13
176
     1
 40
0.0
176
     1
 90
        0
176
     1
290
     0
176
     1
290
     1
176
     1
290
     1
176
     1
290
     0
176
     1
290
     0
176
     1
290
     0
176
     1
290
     0
176
     1
290
     0
176
     1
290
     0
176
     1
 90
       50
176
     1
 40
0.0
176
     1
 40
1.0
176
     1
 90
        0
176
     1
 62
    18
420
        0
176
     1
 90
       50
176
     1
 90
        3
176
     1
 62
     5
420
      255
176
     1
290
     0
176
     1
 90
       50
176
     1
 90
       50
176
     1
 90
       50
176
     1
290
     0
176
     1
 90
       50
176
     1
 62
   256
176
     0
 40
1.0
176
     0
 90
        2
176
     1
  1
strokes_ogs.tif
176
     1
290
     0
176
     1
 40
1.0
176
     1
 40
1.0
176
     1
  0
VISUALSTYLE
  5
2D
102
{ACAD_REACTORS
330
2A
102
}
330
2A
100
AcDbVisualStyle
  2
Gouraud
 70
     2
177
     3
291
     1
 70
    58
 90
        2
176
     1
 90
        2
176
     1
 90
        1
176
     1
 90
        2
176
     1
 40
0.6
176
     1
 40
30.0
176
     1
 62
     7
420
 16777215
176
     1
 90
        0
176
     1
 90
        0
176
     1
 62
     7
176
     1
 62
   257
176
     1
 90
        1
176
     1
 90
        1
176
     1
 40
1.0
176
     1
 90
        0
176
     1
 62
     7
176
     1
 40
1.0
176
     1
 90
        1
176
     1
 90
        6
176
     1
 90
        2
176
     1
 62
     7
176
     1
 90
        5
176
     1
 90
        0
176
     1
 90
        0
176
     1
290
     0
176
     1
 90
       13
176
     1
 40
0.0
176
     1
 90
        0
176
     1
290
     0
176
     1
290
     1
176
     1
290
     1
176
     1
290
     0
176
     1
290
     0
176
     1
290
     0
176
     1
290
     0
176
     1
290
     0
176
     1
290
     0
176
     1
 90
       50
176
     1
 40
0.0
176
     1
 40
1.0
176
     1
 90
        0
176
     1
 62
    18
420
        0
176
     1
 90
       50
176
     1
 90
        3
176
     1
 62
     5
420
      255
176
     1
290
     0
176
     1
 90
       50
176
     1
 90
       50
176
     1
 90
       50
176
     1
290
     0
176
     1
 90
       50
176
     1
 62
   256
176
     0
 40
1.0
176
     0
 90
        2
176
     1
  1
strokes_ogs.tif
176
     1
290
     0
176
     1
 40
1.0
176
     1
 40
1.0
176
     1
  0
VISUALSTYLE
  5
2E
102
{ACAD_REACTORS
330
2A
102
}
330
2A
100
AcDbVisualStyle
  2
GouraudWithEdges
 70
     3
177
     3
291
     1
 70
    58
 90
        2
176
     1
 90
        2
176
     1
 90
        1
176
     1
 90
        2
176
     1
 40
0.6
176
     1
 40
30.0
176
     1
 62
     7
420
 16777215
176
     1
 90
        1
176
     1
 90
        0
176
     1
 62
     7
176
     1
 62
   257
176
     1
 90
        1
176
     1
 90
        1
176
     1
 40
1.0
176
     1
 90
        0
176
     1
 62
   257
176
     1
 40
1.0
176
     1
 90
        1
176
     1
 90
        6
176
     1
 90
        2
176
     1
 62
     7
176
     1
 90
        5
176
     1
 90
        0
176
     1
 90
        0
176
     1
290
     0
176
     1
 90
       13
176
     1
 40
0.0
176
     1
 90
        0
176
     1
290
     0
176
     1
290
     1
176
     1
290
     1
176
     1
290
     0
176
     1
290
     0
176
     1
290
     0
176
     1
290
     0
176
     1
290
     0
176
     1
290
     0
176
     1
 90
       50
176
     1
 40
0.0
176
     1
 40
1.0
176
     1
 90
        0
176
     1
 62
    18
420
        0
176
     1
 90
       50
176
     1
 90
        3
176
     1
 62
     5
420
      255
176
     1
290
     0
176
     1
 90
       50
176
     1
 90
       50
176
     1
 90
       50
176
     1
290
     0
176
     1
 90
       50
176
     1
 62
   256
176
     0
 40
1.0
176
     0
 90
        2
176
     1
  1
strokes_ogs.tif
176
     1
290
     0
176
     1
 40
1.0
176
     1
 40
1.0
176
     1
  0
VISUALSTYLE
  5
31
102
{ACAD_REACTORS
330
2A
102
}
330
2A
100
AcDbVisualStyle
  2
Hidden
 70
     6
177
     3
291
     0
 70
    58
 90
        1
176
     1
 90
        2
176
     1
 90
        2
176
     1
 90
        0
176
     1
 40
0.6
176
     1
 40
30.0
176
     1
 62
     7
420
 16777215
176
     1
 90
        2
176
     1
 90
        2
176
     1
 62
     7
176
     1
 62
   257
176
     1
 90
        2
176
     1
 90
        1
176
     1
 40
40.0
176
     1
 90
        0
176
     1
 62
   257
176
     1
 40
1.0
176
     1
 90
        1
176
     1
 90
        6
176
     1
 90
        2
176
     1
 62
     7
176
     1
 90
        3
176
     1
 90
        0
176
     1
 90
        0
176
     1
290
     0
176
     1
 90
        1
176
     1
 40
0.0
176
     1
 90
        0
176
     1
290
     0
176
     1
290
     1
176
     1
290
     1
176
     1
290
     0
176
     1
290
     0
176
     1
290
     0
176
     1
290
     0
176
     1
290
     0
176
     1
290
     0
176
     1
 90
       50
176
     1
 40
0.0
176
     1
 40
1.0
176
     1
 90
        0
176
     1
 62
    18
420
        0
176
     1
 90
       50
176
     1
 90
        3
176
     1
 62
     5
420
      255
176
     1
290
     0
176
     1
 90
       50
176
     1
 90
       50
176
     1
 90
       50
176
     1
290
     0
176
     1
 90
       50
176
     1
 62
   256
176
     0
 40
1.0
176
     0
 90
        2
176
     1
  1
strokes_ogs.tif
176
     1
290
     0
176
     1
 40
1.0
176
     1
 40
1.0
176
     1
  0
VISUALSTYLE
  5
3B
102
{ACAD_REACTORS
330
2A
102
}
330
2A
100
AcDbVisualStyle
  2
JitterOff
 70
    20
177
     3
291
     1
 70
    58
 90
        2
176
     0
 90
        2
176
     0
 90
        0
176
     0
 90
        0
176
     0
 40
0.6
176
     0
 40
30.0
176
     0
 62
     7
420
 16777215
176
     0
 90
        1
176
     0
 90
        4
176
     0
 62
     7
176
     0
 62
   257
176
     0
 90
        1
176
     0
 90
        1
176
     0
 40
1.0
176
     0
 90
       10
176
     2
 62
     7
176
     0
 40
1.0
176
     0
 90
        1
176
     0
 90
        6
176
     0
 90
        2
176
     0
 62
     7
176
     0
 90
        5
176
     0
 90
        0
176
     0
 90
        0
176
     0
290
     0
176
     0
 90
        1
176
     0
 40
0.0
176
     0
 90
        0
176
     0
290
     0
176
     0
290
     1
176
     0
290
     1
176
     0
290
     0
176
     0
290
     0
176
     0
290
     0
176
     0
290
     0
176
     0
290
     0
176
     0
290
     0
176
     0
 90
       50
176
     0
 40
0.0
176
     0
 40
1.0
176
     0
 90
        0
176
     0
 62
    18
420
        0
176
     0
 90
       50
176
     0
 90
        3
176
     0
 62
     5
420
      255
176
     0
290
     0
176
     0
 90
       50
176
     0
 90
       50
176
     0
 90
       50
176
     0
290
     0
176
     0
 90
       50
176
     0
 62
   256
176
     0
 40
1.0
176
     0
 90
        2
176
     0
  1
strokes_ogs.tif
176
     0
290
     0
176
     0
 40
1.0
176
     0
 40
1.0
176
     0
  0
VISUALSTYLE
  5
38
102
{ACAD_REACTORS
330
2A
102
}
330
2A
100
AcDbVisualStyle
  2
Linepattern
 70
    14
177
     3
291
     1
 70
    58
 90
        2
176
     1
 90
        2
176
     1
 90
        0
176
     1
 90
        0
176
     1
 40
0.6
176
     1
 40
30.0
176
     1
 62
     7
420
 16777215
176
     1
 90
        1
176
     1
 90
        4
176
     1
 62
     7
176
     1
 62
   257
176
     1
 90
        7
176
     1
 90
        7
176
     1
 40
1.0
176
     1
 90
        8
176
     1
 62
     7
176
     1
 40
1.0
176
     1
 90
        1
176
     1
 90
        6
176
     1
 90
        2
176
     1
 62
     7
176
     1
 90
        5
176
     1
 90
        0
176
     1
 90
        0
176
     1
290
     0
176
     1
 90
        1
176
     1
 40
0.0
176
     1
 90
        0
176
     1
290
     0
176
     1
290
     1
176
     1
290
     1
176
     1
290
     0
176
     1
290
     0
176
     1
290
     0
176
     1
290
     0
176
     1
290
     0
176
     1
290
     0
176
     1
 90
       50
176
     1
 40
0.0
176
     1
 40
1.0
176
     1
 90
        0
176
     1
 62
    18
420
        0
176
     1
 90
       50
176
     1
 90
        3
176
     1
 62
     5
420
      255
176
     1
290
     0
176
     1
 90
       50
176
     1
 90
       50
176
     1
 90
       50
176
     1
290
     0
176
     1
 90
       50
176
     1
 62
   256
176
     0
 40
1.0
176
     0
 90
        2
176
     1
  1
strokes_ogs.tif
176
     1
290
     0
176
     1
 40
1.0
176
     1
 40
1.0
176
     1
  0
VISUALSTYLE
  5
3C
102
{ACAD_REACTORS
330
2A
102
}
330
2A
100
AcDbVisualStyle
  2
OverhangOff
 70
    21
177
     3
291
     1
 70
    58
 90
        2
176
     0
 90
        2
176
     0
 90
        0
176
     0
 90
        0
176
     0
 40
0.6
176
     0
 40
30.0
176
     0
 62
     7
420
 16777215
176
     0
 90
        1
176
     0
 90
        4
176
     0
 62
     7
176
     0
 62
   257
176
     0
 90
        1
176
     0
 90
        1
176
     0
 40
1.0
176
     0
 90
        9
176
     2
 62
     7
176
     0
 40
1.0
176
     0
 90
        1
176
     0
 90
        6
176
     0
 90
        2
176
     0
 62
     7
176
     0
 90
        5
176
     0
 90
        0
176
     0
 90
        0
176
     0
290
     0
176
     0
 90
        1
176
     0
 40
0.0
176
     0
 90
        0
176
     0
290
     0
176
     0
290
     1
176
     0
290
     1
176
     0
290
     0
176
     0
290
     0
176
     0
290
     0
176
     0
290
     0
176
     0
290
     0
176
     0
290
     0
176
     0
 90
       50
176
     0
 40
0.0
176
     0
 40
1.0
176
     0
 90
        0
176
     0
 62
    18
420
        0
176
     0
 90
       50
176
     0
 90
        3
176
     0
 62
     5
420
      255
176
     0
290
     0
176
     0
 90
       50
176
     0
 90
       50
176
     0
 90
       50
176
     0
290
     0
176
     0
 90
       50
176
     0
 62
   256
176
     0
 40
1.0
176
     0
 90
        2
176
     0
  1
strokes_ogs.tif
176
     0
290
     0
176
     0
 40
1.0
176
     0
 40
1.0
176
     0
  0
VISUALSTYLE
  5
33
102
{ACAD_REACTORS
330
2A
102
}
330
2A
100
AcDbVisualStyle
  2
Realistic
 70
     8
177
     3
291
     0
 70
    58
 90
        2
176
     1
 90
        3
176
     1
 90
        0
176
     1
 90
        2
176
     1
 40
0.6
176
     1
 40
30.0
176
     1
 62
     7
420
 16777215
176
     1
 90
        0
176
     1
 90
        0
176
     1
 62
     7
176
     1
 62
   257
176
     1
 90
        1
176
     1
 90
        1
176
     1
 40
1.0
176
     1
 90
        8
176
     1
 62
   257
176
     1
 40
1.0
176
     1
 90
        1
176
     1
 90
        6
176
     1
 90
        2
176
     1
 62
     7
176
     1
 90
        3
176
     1
 90
        0
176
     1
 90
        0
176
     1
290
     0
176
     1
 90
       13
176
     1
 40
0.0
176
     1
 90
        0
176
     1
290
     0
176
     1
290
     1
176
     1
290
     1
176
     1
290
     0
176
     1
290
     0
176
     1
290
     0
176
     1
290
     0
176
     1
290
     0
176
     1
290
     0
176
     1
 90
       50
176
     1
 40
0.0
176
     1
 40
1.0
176
     1
 90
        0
176
     1
 62
    18
420
        0
176
     1
 90
       50
176
     1
 90
        3
176
     1
 62
     5
420
      255
176
     1
290
     0
176
     1
 90
       50
176
     1
 90
       50
176
     1
 90
       50
176
     1
290
     0
176
     1
 90
       50
176
     1
 62
   256
176
     0
 40
1.0
176
     0
 90
        2
176
     1
  1
strokes_ogs.tif
176
     1
290
     0
176
     1
 40
1.0
176
     1
 40
1.0
176
     1
  0
VISUALSTYLE
  5
42
102
{ACAD_REACTORS
330
2A
102
}
330
2A
100
AcDbVisualStyle
  2
Shaded
 70
    27
177
     3
291
     0
 70
    58
 90
        2
176
     1
 90
        2
176
     1
 90
        1
176
     1
 90
        2
176
     1
 40
0.6
176
     1
 40
30.0
176
     1
 62
     7
420
 16777215
176
     1
 90
        0
176
     1
 90
        4
176
     1
 62
     7
176
     1
 62
   257
176
     1
 90
        1
176
     1
 90
        1
176
     1
 40
1.0
176
     1
 90
        8
176
     1
 62
   257
176
     1
 40
1.0
176
     1
 90
        1
176
     1
 90
        6
176
     1
 90
        2
176
     1
 62
     8
420
  7895160
176
     1
 90
        3
176
     1
 90
        0
176
     1
 90
        0
176
     1
290
     0
176
     1
 90
        5
176
     1
 40
0.0
176
     1
 90
        0
176
     1
290
     0
176
     1
290
     1
176
     1
290
     1
176
     1
290
     0
176
     1
290
     0
176
     1
290
     0
176
     1
290
     0
176
     1
290
     0
176
     1
290
     0
176
     1
 90
       50
176
     1
 40
0.0
176
     1
 40
1.0
176
     1
 90
        0
176
     1
 62
    18
420
        0
176
     1
 90
       50
176
     1
 90
        3
176
     1
 62
     5
420
      255
176
     1
290
     0
176
     1
 90
       50
176
     1
 90
       50
176
     1
 90
       50
176
     1
290
     0
176
     1
 90
       50
176
     1
 62
   256
176
     0
 40
1.0
176
     0
 90
        2
176
     1
  1
strokes_ogs.tif
176
     1
290
     0
176
     1
 40
1.0
176
     1
 40
1.0
176
     1
  0
VISUALSTYLE
  5
41
102
{ACAD_REACTORS
330
2A
102
}
330
2A
100
AcDbVisualStyle
  2
Shaded with edges
 70
    26
177
     3
291
     0
 70
    58
 90
        2
176
     1
 90
        2
176
     1
 90
        1
176
     1
 90
        2
176
     1
 40
0.6
176
     1
 40
30.0
176
     1
 62
     7
420
 16777215
176
     1
 90
        1
176
     1
 90
       10
176
     1
 62
     7
176
     1
 62
   257
176
     1
 90
        2
176
     1
 90
        1
176
     1
 40
1.0
176
     1
 90
        8
176
     1
 62
   257
176
     1
 40
1.0
176
     1
 90
        1
176
     1
 90
        6
176
     1
 90
        2
176
     1
 62
     7
176
     1
 90
        3
176
     1
 90
        0
176
     1
 90
        0
176
     1
290
     0
176
     1
 90
        5
176
     1
 40
0.0
176
     1
 90
        0
176
     1
290
     0
176
     1
290
     1
176
     1
290
     1
176
     1
290
     0
176
     1
290
     0
176
     1
290
     0
176
     1
290
     0
176
     1
290
     0
176
     1
290
     0
176
     1
 90
       50
176
     1
 40
0.0
176
     1
 40
1.0
176
     1
 90
        0
176
     1
 62
    18
420
        0
176
     1
 90
       50
176
     1
 90
        3
176
     1
 62
     5
420
      255
176
     1
290
     0
176
     1
 90
       50
176
     1
 90
       50
176
     1
 90
       50
176
     1
290
     0
176
     1
 90
       50
176
     1
 62
   256
176
     0
 40
1.0
176
     0
 90
        2
176
     1
  1
strokes_ogs.tif
176
     1
290
     0
176
     1
 40
1.0
176
     1
 40
1.0
176
     1
  0
VISUALSTYLE
  5
3E
102
{ACAD_REACTORS
330
2A
102
}
330
2A
100
AcDbVisualStyle
  2
Shades of Gray
 70
    23
177
     3
291
     0
 70
    58
 90
        2
176
     1
 90
        2
176
     1
 90
        3
176
     1
 90
        0
176
     1
 40
0.6
176
     1
 40
30.0
176
     1
 62
     7
420
 16777215
176
     1
 90
        2
176
     1
 90
        2
176
     1
 62
     7
176
     1
 62
     7
176
     1
 90
        1
176
     1
 90
        1
176
     1
 40
40.0
176
     1
 90
        8
176
     1
 62
     7
176
     1
 40
1.0
176
     1
 90
        1
176
     1
 90
        6
176
     1
 90
        2
176
     1
 62
     7
176
     1
 90
        3
176
     1
 90
        0
176
     1
 90
        0
176
     1
290
     0
176
     1
 90
        1
176
     1
 40
0.0
176
     1
 90
        0
176
     1
290
     0
176
     1
290
     1
176
     1
290
     1
176
     1
290
     0
176
     1
290
     0
176
     1
290
     0
176
     1
290
     0
176
     1
290
     0
176
     1
290
     0
176
     1
 90
       50
176
     1
 40
0.0
176
     1
 40
1.0
176
     1
 90
        0
176
     1
 62
    18
420
        0
176
     1
 90
       50
176
     1
 90
        3
176
     1
 62
     5
420
      255
176
     1
290
     0
176
     1
 90
       50
176
     1
 90
       50
176
     1
 90
       50
176
     1
290
     0
176
     1
 90
       50
176
     1
 62
   256
176
     0
 40
1.0
176
     0
 90
        2
176
     1
  1
strokes_ogs.tif
176
     1
290
     0
176
     1
 40
1.0
176
     1
 40
1.0
176
     1
  0
VISUALSTYLE
  5
3F
102
{ACAD_REACTORS
330
2A
102
}
330
2A
100
AcDbVisualStyle
  2
Sketchy
 70
    24
177
     3
291
     0
 70
    58
 90
        1
176
     1
 90
        2
176
     1
 90
        2
176
     1
 90
        0
176
     1
 40
0.6
176
     1
 40
30.0
176
     1
 62
     7
420
 16777215
176
     1
 90
        2
176
     1
 90
        2
176
     1
 62
     7
176
     1
 62
     7
176
     1
 90
        1
176
     1
 90
        1
176
     1
 40
40.0
176
     1
 90
       11
176
     1
 62
     7
176
     1
 40
1.0
176
     1
 90
        1
176
     1
 90
        6
176
     1
 90
        2
176
     1
 62
     7
176
     1
 90
        6
176
     1
 90
        0
176
     1
 90
        0
176
     1
290
     0
176
     1
 90
        1
176
     1
 40
0.0
176
     1
 90
        0
176
     1
290
     0
176
     1
290
     1
176
     1
290
     1
176
     1
290
     0
176
     1
290
     0
176
     1
290
     0
176
     1
290
     0
176
     1
290
     0
176
     1
290
     0
176
     1
 90
       50
176
     1
 40
0.0
176
     1
 40
1.0
176
     1
 90
        0
176
     1
 62
    18
420
        0
176
     1
 90
       50
176
     1
 90
        3
176
     1
 62
     5
420
      255
176
     1
290
     0
176
     1
 90
       50
176
     1
 90
       50
176
     1
 90
       50
176
     1
290
     0
176
     1
 90
       50
176
     1
 62
   256
176
     0
 40
1.0
176
     0
 90
        2
176
     1
  1
strokes_ogs.tif
176
     1
290
     0
176
     1
 40
1.0
176
     1
 40
1.0
176
     1
  0
VISUALSTYLE
  5
37
102
{ACAD_REACTORS
330
2A
102
}
330
2A
100
AcDbVisualStyle
  2
Thicken
 70
    13
177
     3
291
     1
 70
    58
 90
        2
176
     1
 90
        2
176
     1
 90
        0
176
     1
 90
        0
176
     1
 40
0.6
176
     1
 40
30.0
176
     1
 62
     7
420
 16777215
176
     1
 90
        1
176
     1
 90
        4
176
     1
 62
     7
176
     1
 62
   257
176
     1
 90
        1
176
     1
 90
        1
176
     1
 40
1.0
176
     1
 90
       12
176
     1
 62
     7
176
     1
 40
1.0
176
     1
 90
        1
176
     1
 90
        6
176
     1
 90
        2
176
     1
 62
     7
176
     1
 90
        5
176
     1
 90
        0
176
     1
 90
        0
176
     1
290
     0
176
     1
 90
        1
176
     1
 40
0.0
176
     1
 90
        0
176
     1
290
     0
176
     1
290
     1
176
     1
290
     1
176
     1
290
     0
176
     1
290
     0
176
     1
290
     0
176
     1
290
     0
176
     1
290
     0
176
     1
290
     0
176
     1
 90
       50
176
     1
 40
0.0
176
     1
 40
1.0
176
     1
 90
        0
176
     1
 62
    18
420
        0
176
     1
 90
       50
176
     1
 90
        3
176
     1
 62
     5
420
      255
176
     1
290
     0
176
     1
 90
       50
176
     1
 90
       50
176
     1
 90
       50
176
     1
290
     0
176
     1
 90
       50
176
     1
 62
   256
176
     0
 40
1.0
176
     0
 90
        2
176
     1
  1
strokes_ogs.tif
176
     1
290
     0
176
     1
 40
1.0
176
     1
 40
1.0
176
     1
  0
VISUALSTYLE
  5
30
102
{ACAD_REACTORS
330
2A
102
}
330
2A
100
AcDbVisualStyle
  2
Wireframe
 70
     5
177
     3
291
     0
 70
    58
 90
        0
176
     1
 90
        2
176
     1
 90
        0
176
     1
 90
        0
176
     1
 40
0.6
176
     1
 40
30.0
176
     1
 62
     7
420
 16777215
176
     1
 90
        1
176
     1
 90
        4
176
     1
 62
     7
176
     1
 62
   257
176
     1
 90
        1
176
     1
 90
        1
176
     1
 40
1.0
176
     1
 90
        0
176
     1
 62
   257
176
     1
 40
1.0
176
     1
 90
        1
176
     1
 90
        6
176
     1
 90
        2
176
     1
 62
     7
176
     1
 90
        3
176
     1
 90
        0
176
     1
 90
        0
176
     1
290
     0
176
     1
 90
        1
176
     1
 40
0.0
176
     1
 90
        0
176
     1
290
     0
176
     1
290
     1
176
     1
290
     1
176
     1
290
     0
176
     1
290
     0
176
     1
290
     0
176
     1
290
     0
176
     1
290
     0
176
     1
290
     0
176
     1
 90
       50
176
     1
 40
0.0
176
     1
 40
1.0
176
     1
 90
        0
176
     1
 62
    18
420
        0
176
     1
 90
       50
176
     1
 90
        3
176
     1
 62
     5
420
      255
176
     1
290
     0
176
     1
 90
       50
176
     1
 90
       50
176
     1
 90
       50
176
     1
290
     0
176
     1
 90
       50
176
     1
 62
   256
176
     0
 40
1.0
176
     0
 90
        2
176
     1
  1
strokes_ogs.tif
176
     1
290
     0
176
     1
 40
1.0
176
     1
 40
1.0
176
     1
  0
VISUALSTYLE
  5
40
102
{ACAD_REACTORS
330
2A
102
}
330
2A
100
AcDbVisualStyle
  2
X-Ray
 70
    25
177
     3
291
     0
 70
    58
 90
        2
176
     1
 90
        2
176
     1
 90
        1
176
     1
 90
        1
176
     1
 40
0.5
176
     1
 40
30.0
176
     1
 62
     7
420
 16777215
176
     1
 90
        1
176
     1
 90
        0
176
     1
 62
     7
176
     1
 62
   257
176
     1
 90
        1
176
     1
 90
        1
176
     1
 40
1.0
176
     1
 90
        8
176
     1
 62
     7
176
     1
 40
1.0
176
     1
 90
        1
176
     1
 90
        6
176
     1
 90
        2
176
     1
 62
     7
176
     1
 90
        3
176
     1
 90
        0
176
     1
 90
        0
176
     1
290
     0
176
     1
 90
       13
176
     1
 40
0.0
176
     1
 90
        0
176
     1
290
     0
176
     1
290
     1
176
     1
290
     1
176
     1
290
     0
176
     1
290
     0
176
     1
290
     0
176
     1
290
     0
176
     1
290
     0
176
     1
290
     0
176
     1
 90
       50
176
     1
 40
0.0
176
     1
 40
1.0
176
     1
 90
        0
176
     1
 62
    18
420
        0
176
     1
 90
       50
176
     1
 90
        3
176
     1
 62
     5
420
      255
176
     1
290
     0
176
     1
 90
       50
176
     1
 90
       50
176
     1
 90
       50
176
     1
290
     0
176
     1
 90
       50
176
     1
 62
   256
176
     0
 40
1.0
176
     0
 90
        2
176
     1
  1
strokes_ogs.tif
176
     1
290
     0
176
     1
 40
1.0
176
     1
 40
1.0
176
     1
  0
DICTIONARYVAR
  5
18C
102
{ACAD_REACTORS
330
18B
102
}
330
18B
100
DictionaryVariables
280
     0
  1
1:1
  0
DICTIONARYVAR
  5
191
102
{ACAD_REACTORS
330
18B
102
}
330
18B
100
DictionaryVariables
280
     0
  1
Standard
  0
DICTIONARYVAR
  5
190
102
{ACAD_REACTORS
330
18B
102
}
330
18B
100
DictionaryVariables
280
     0
  1
Standard
  0
DICTIONARYVAR
  5
194
102
{ACAD_REACTORS
330
18B
102
}
330
18B
100
DictionaryVariables
280
     0
  1
6.000000
  0
DICTIONARY
  5
18D
330
6A
100
AcDbDictionary
280
     1
281
     1
  3
ACAD_ROUNDTRIP_2008_TABLESTYLE_CELLSTYLEMAP
360
18E
  0
CELLSTYLEMAP
  5
18E
102
{ACAD_REACTORS
330
18D
102
}
330
18D
100
AcDbCellStyleMap
 90
        3
300
CELLSTYLE
  1
TABLEFORMAT_BEGIN
 90
        5
170
     1
 91
        0
 92
    32768
 62
   257
 93
        1
300
CONTENTFORMAT
  1
CONTENTFORMAT_BEGIN
 90
        0
 91
        0
 92
        4
 93
        0
300

 40
0.0
140
1.0
 94
        5
 62
     0
340
11
144
6.0
309
CONTENTFORMAT_END
171
     1
301
MARGIN
  1
CELLMARGIN_BEGIN
 40
1.5
 40
1.5
 40
1.5
 40
1.5
 40
1.5
 40
1.5
309
CELLMARGIN_END
 94
        6
 95
        1
302
GRIDFORMAT
  1
GRIDFORMAT_BEGIN
 90
        0
 91
        1
 62
     0
 92
       -2
340
14
 93
        0
 40
0.045
309
GRIDFORMAT_END
 95
        2
302
GRIDFORMAT
  1
GRIDFORMAT_BEGIN
 90
        0
 91
        1
 62
     0
 92
       -2
340
14
 93
        0
 40
0.045
309
GRIDFORMAT_END
 95
        4
302
GRIDFORMAT
  1
GRIDFORMAT_BEGIN
 90
        0
 91
        1
 62
     0
 92
       -2
340
14
 93
        0
 40
0.045
309
GRIDFORMAT_END
 95
        8
302
GRIDFORMAT
  1
GRIDFORMAT_BEGIN
 90
        0
 91
        1
 62
     0
 92
       -2
340
14
 93
        0
 40
0.045
309
GRIDFORMAT_END
 95
       16
302
GRIDFORMAT
  1
GRIDFORMAT_BEGIN
 90
        0
 91
        1
 62
     0
 92
       -2
340
14
 93
        0
 40
0.045
309
GRIDFORMAT_END
 95
       32
302
GRIDFORMAT
  1
GRIDFORMAT_BEGIN
 90
        0
 91
        1
 62
     0
 92
       -2
340
14
 93
        0
 40
0.045
309
GRIDFORMAT_END
309
TABLEFORMAT_END
  1
CELLSTYLE_BEGIN
 90
        1
 91
        1
300
_TITLE
309
CELLSTYLE_END
300
CELLSTYLE
  1
TABLEFORMAT_BEGIN
 90
        5
170
     1
 91
        0
 92
        0
 62
   257
 93
        1
300
CONTENTFORMAT
  1
CONTENTFORMAT_BEGIN
 90
        0
 91
        0
 92
        4
 93
        0
300

 40
0.0
140
1.0
 94
        5
 62
     0
340
11
144
4.5
309
CONTENTFORMAT_END
171
     1
301
MARGIN
  1
CELLMARGIN_BEGIN
 40
1.5
 40
1.5
 40
1.5
 40
1.5
 40
1.5
 40
1.5
309
CELLMARGIN_END
 94
        6
 95
        1
302
GRIDFORMAT
  1
GRIDFORMAT_BEGIN
 90
        0
 91
        1
 62
     0
 92
       -2
340
14
 93
        0
 40
0.045
309
GRIDFORMAT_END
 95
        2
302
GRIDFORMAT
  1
GRIDFORMAT_BEGIN
 90
        0
 91
        1
 62
     0
 92
       -2
340
14
 93
        0
 40
0.045
309
GRIDFORMAT_END
 95
        4
302
GRIDFORMAT
  1
GRIDFORMAT_BEGIN
 90
        0
 91
        1
 62
     0
 92
       -2
340
14
 93
        0
 40
0.045
309
GRIDFORMAT_END
 95
        8
302
GRIDFORMAT
  1
GRIDFORMAT_BEGIN
 90
        0
 91
        1
 62
     0
 92
       -2
340
14
 93
        0
 40
0.045
309
GRIDFORMAT_END
 95
       16
302
GRIDFORMAT
  1
GRIDFORMAT_BEGIN
 90
        0
 91
        1
 62
     0
 92
       -2
340
14
 93
        0
 40
0.045
309
GRIDFORMAT_END
 95
       32
302
GRIDFORMAT
  1
GRIDFORMAT_BEGIN
 90
        0
 91
        1
 62
     0
 92
       -2
340
14
 93
        0
 40
0.045
309
GRIDFORMAT_END
309
TABLEFORMAT_END
  1
CELLSTYLE_BEGIN
 90
        2
 91
        1
300
_HEADER
309
CELLSTYLE_END
300
CELLSTYLE
  1
TABLEFORMAT_BEGIN
 90
        5
170
     1
 91
        0
 92
        0
 62
   257
 93
        1
300
CONTENTFORMAT
  1
CONTENTFORMAT_BEGIN
 90
        0
 91
        0
 92
        4
 93
        0
300

 40
0.0
140
1.0
 94
        2
 62
     0
340
11
144
4.5
309
CONTENTFORMAT_END
171
     1
301
MARGIN
  1
CELLMARGIN_BEGIN
 40
1.5
 40
1.5
 40
1.5
 40
1.5
 40
1.5
 40
1.5
309
CELLMARGIN_END
 94
        6
 95
        1
302
GRIDFORMAT
  1
GRIDFORMAT_BEGIN
 90
        0
 91
        1
 62
     0
 92
       -2
340
14
 93
        0
 40
0.045
309
GRIDFORMAT_END
 95
        2
302
GRIDFORMAT
  1
GRIDFORMAT_BEGIN
 90
        0
 91
        1
 62
     0
 92
       -2
340
14
 93
        0
 40
0.045
309
GRIDFORMAT_END
 95
        4
302
GRIDFORMAT
  1
GRIDFORMAT_BEGIN
 90
        0
 91
        1
 62
     0
 92
       -2
340
14
 93
        0
 40
0.045
309
GRIDFORMAT_END
 95
        8
302
GRIDFORMAT
  1
GRIDFORMAT_BEGIN
 90
        0
 91
        1
 62
     0
 92
       -2
340
14
 93
        0
 40
0.045
309
GRIDFORMAT_END
 95
       16
302
GRIDFORMAT
  1
GRIDFORMAT_BEGIN
 90
        0
 91
        1
 62
     0
 92
       -2
340
14
 93
        0
 40
0.045
309
GRIDFORMAT_END
 95
       32
302
GRIDFORMAT
  1
GRIDFORMAT_BEGIN
 90
        0
 91
        1
 62
     0
 92
       -2
340
14
 93
        0
 40
0.045
309
GRIDFORMAT_END
309
TABLEFORMAT_END
  1
CELLSTYLE_BEGIN
 90
        3
 91
        2
300
_DATA
309
CELLSTYLE_END
  0
ENDSEC
  0
EOF
