  0
SECTION
  2
HEADER
  9
$ACADVER
  1
AC1015
  9
$ACADMAINTVER
 70
     6
  9
$DWGCODEPAGE
  3
DOS932
  9
$INSBASE
 10
0.0
 20
0.0
 30
0.0
  9
$EXTMIN
 10
0.0
 20
0.0
 30
0.0
  9
$EXTMAX
 10
210.0
 20
297.0
 30
0.0
  9
$LIMMIN
 10
0.0
 20
0.0
  9
$LIMMAX
 10
210.0
 20
297.0
  9
$ORTHOMODE
 70
     0
  9
$REGENMODE
 70
     1
  9
$FILLMODE
 70
     1
  9
$QTEXTMODE
 70
     0
  9
$MIRRTEXT
 70
     1
  9
$LTSCALE
 40
1.0
  9
$ATTMODE
 70
     1
  9
$TEXTSIZE
 40
3.5
  9
$TRACEWID
 40
1.0
  9
$TEXTSTYLE
  7
Standard
  9
$CLAYER
  8
0
  9
$CELTYPE
  6
ByLayer
  9
$CECOLOR
 62
   256
  9
$CELTSCALE
 40
1.0
  9
$DISPSILH
 70
     0
  9
$DIMSCALE
 40
1.0
  9
$DIMASZ
 40
3.5
  9
$DIMEXO
 40
1.0
  9
$DIMDLI
 40
3.75
  9
$DIMRND
 40
0.0
  9
$DIMDLE
 40
0.0
  9
$DIMEXE
 40
1.0
  9
$DIMTP
 40
0.0
  9
$DIMTM
 40
0.0
  9
$DIMTXT
 40
3.5
  9
$DIMCEN
 40
2.5
  9
$DIMTSZ
 40
0.0
  9
$DIMTOL
 70
     0
  9
$DIMLIM
 70
     0
  9
$DIMTIH
 70
     1
  9
$DIMTOH
 70
     1
  9
$DIMSE1
 70
     0
  9
$DIMSE2
 70
     0
  9
$DIMTAD
 70
     1
  9
$DIMZIN
 70
     1
  9
$DIMBLK
  1

  9
$DIMASO
 70
     1
  9
$DIMSHO
 70
     1
  9
$DIMPOST
  1

  9
$DIMAPOST
  1

  9
$DIMALT
 70
     0
  9
$DIMALTD
 70
     3
  9
$DIMALTF
 40
0.0393700787
  9
$DIMLFAC
 40
5.0
  9
$DIMTOFL
 70
     1
  9
$DIMTVP
 40
0.0
  9
$DIMTIX
 70
     0
  9
$DIMSOXD
 70
     0
  9
$DIMSAH
 70
     0
  9
$DIMBLK1
  1

  9
$DIMBLK2
  1

  9
$DIMSTYLE
  2
ISO-25
  9
$DIMCLRD
 70
     0
  9
$DIMCLRE
 70
     0
  9
$DIMCLRT
 70
     0
  9
$DIMTFAC
 40
1.0
  9
$DIMGAP
 40
1.524
  9
$DIMJUST
 70
     0
  9
$DIMSD1
 70
     0
  9
$DIMSD2
 70
     0
  9
$DIMTOLJ
 70
     0
  9
$DIMTZIN
 70
     1
  9
$DIMALTZ
 70
     0
  9
$DIMALTTZ
 70
     0
  9
$DIMUPT
 70
     0
  9
$DIMDEC
 70
     2
  9
$DIMTDEC
 70
     2
  9
$DIMALTU
 70
     2
  9
$DIMALTTD
 70
     3
  9
$DIMTXSTY
  7
Standard
  9
$DIMAUNIT
 70
     0
  9
$DIMADEC
 70
     2
  9
$DIMALTRND
 40
0.0
  9
$DIMAZIN
 70
     0
  9
$DIMDSEP
 70
    44
  9
$DIMATFIT
 70
     3
  9
$DIMFRAC
 70
     0
  9
$DIMLDRBLK
  1

  9
$DIMLUNIT
 70
     2
  9
$DIMLWD
 70
    -2
  9
$DIMLWE
 70
    -2
  9
$DIMTMOVE
 70
     0
  9
$LUNITS
 70
     2
  9
$LUPREC
 70
     2
  9
$SKETCHINC
 40
1.0
  9
$FILLETRAD
 40
10.0
  9
$AUNITS
 70
     0
  9
$AUPREC
 70
     2
  9
$MENU
  1
.
  9
$ELEVATION
 40
0.0
  9
$PELEVATION
 40
0.0
  9
$THICKNESS
 40
0.0
  9
$LIMCHECK
 70
     0
  9
$CHAMFERA
 40
0.0
  9
$CHAMFERB
 40
0.0
  9
$CHAMFERC
 40
0.0
  9
$CHAMFERD
 40
0.0
  9
$SKPOLY
 70
     0
  9
$TDCREATE
 40
2459286.704797002
  9
$TDUCREATE
 40
2459286.329797002
  9
$TDUPDATE
 40
2459286.704798333
  9
$TDUUPDATE
 40
2459286.329798333
  9
$TDINDWG
 40
0.0000000116
  9
$TDUSRTIMER
 40
0.0000000116
  9
$USRTIMER
 70
     1
  9
$ANGBASE
 50
0.0
  9
$ANGDIR
 70
     0
  9
$PDMODE
 70
     0
  9
$PDSIZE
 40
-1.0
  9
$PLINEWID
 40
0.0
  9
$SPLFRAME
 70
     0
  9
$SPLINETYPE
 70
     6
  9
$SPLINESEGS
 70
     8
  9
$HANDSEED
  5
331
  9
$SURFTAB1
 70
     6
  9
$SURFTAB2
 70
     6
  9
$SURFTYPE
 70
     6
  9
$SURFU
 70
     6
  9
$SURFV
 70
     6
  9
$UCSBASE
  2

  9
$UCSNAME
  2

  9
$UCSORG
 10
0.0
 20
0.0
 30
0.0
  9
$UCSXDIR
 10
1.0
 20
0.0
 30
0.0
  9
$UCSYDIR
 10
0.0
 20
1.0
 30
0.0
  9
$UCSORTHOREF
  2

  9
$UCSORTHOVIEW
 70
     0
  9
$UCSORGTOP
 10
0.0
 20
0.0
 30
0.0
  9
$UCSORGBOTTOM
 10
0.0
 20
0.0
 30
0.0
  9
$UCSORGLEFT
 10
0.0
 20
0.0
 30
0.0
  9
$UCSORGRIGHT
 10
0.0
 20
0.0
 30
0.0
  9
$UCSORGFRONT
 10
0.0
 20
0.0
 30
0.0
  9
$UCSORGBACK
 10
0.0
 20
0.0
 30
0.0
  9
$PUCSBASE
  2

  9
$PUCSNAME
  2

  9
$PUCSORG
 10
0.0
 20
0.0
 30
0.0
  9
$PUCSXDIR
 10
1.0
 20
0.0
 30
0.0
  9
$PUCSYDIR
 10
0.0
 20
1.0
 30
0.0
  9
$PUCSORTHOREF
  2

  9
$PUCSORTHOVIEW
 70
     0
  9
$PUCSORGTOP
 10
0.0
 20
0.0
 30
0.0
  9
$PUCSORGBOTTOM
 10
0.0
 20
0.0
 30
0.0
  9
$PUCSORGLEFT
 10
0.0
 20
0.0
 30
0.0
  9
$PUCSORGRIGHT
 10
0.0
 20
0.0
 30
0.0
  9
$PUCSORGFRONT
 10
0.0
 20
0.0
 30
0.0
  9
$PUCSORGBACK
 10
0.0
 20
0.0
 30
0.0
  9
$USERI1
 70
     0
  9
$USERI2
 70
     0
  9
$USERI3
 70
     0
  9
$USERI4
 70
     0
  9
$USERI5
 70
     0
  9
$USERR1
 40
0.0
  9
$USERR2
 40
0.0
  9
$USERR3
 40
0.0
  9
$USERR4
 40
0.0
  9
$USERR5
 40
0.0
  9
$WORLDVIEW
 70
     1
  9
$SHADEDGE
 70
     3
  9
$SHADEDIF
 70
    70
  9
$TILEMODE
 70
     1
  9
$MAXACTVP
 70
    64
  9
$PINSBASE
 10
0.0
 20
0.0
 30
0.0
  9
$PLIMCHECK
 70
     0
  9
$PEXTMIN
 10
1.0000000000E+20
 20
1.0000000000E+20
 30
1.0000000000E+20
  9
$PEXTMAX
 10
-1.0000000000E+20
 20
-1.0000000000E+20
 30
-1.0000000000E+20
  9
$PLIMMIN
 10
0.0
 20
0.0
  9
$PLIMMAX
 10
420.0
 20
297.0
  9
$UNITMODE
 70
     0
  9
$VISRETAIN
 70
     1
  9
$PLINEGEN
 70
     0
  9
$PSLTSCALE
 70
     1
  9
$TREEDEPTH
 70
  3020
  9
$CMLSTYLE
  2
Standard
  9
$CMLJUST
 70
     0
  9
$CMLSCALE
 40
20.0
  9
$PROXYGRAPHICS
 70
     1
  9
$MEASUREMENT
 70
     1
  9
$CELWEIGHT
370
    -1
  9
$ENDCAPS
280
     0
  9
$JOINSTYLE
280
     0
  9
$LWDISPLAY
290
     1
  9
$INSUNITS
 70
     4
  9
$HYPERLINKBASE
  1

  9
$STYLESHEET
  1

  9
$XEDIT
290
     1
  9
$CEPSNTYPE
380
     0
  9
$PSTYLEMODE
290
     1
  9
$FINGERPRINTGUID
  2
{8825538f-6ca9-4558-8267-69a973b9ad78}
  9
$VERSIONGUID
  2
{FAEB1C32-E019-11D5-929B-00C0DF256EC4}
  9
$EXTNAMES
290
     1
  9
$PSVPSCALE
 40
0.0
  9
$OLESTARTUP
290
     0
  0
ENDSEC
  0
SECTION
  2
CLASSES
  0
CLASS
  1
ACDBDICTIONARYWDFLT
  2
AcDbDictionaryWithDefault
  3
ObjectDBX Classes
 90
        0
280
     0
281
     0
  0
CLASS
  1
VISUALSTYLE
  2
AcDbVisualStyle
  3
ObjectDBX Classes
 90
     4095
280
     0
281
     0
  0
CLASS
  1
MATERIAL
  2
AcDbMaterial
  3
ObjectDBX Classes
 90
     1153
280
     0
281
     0
  0
CLASS
  1
SCALE
  2
AcDbScale
  3
ObjectDBX Classes
 90
     1153
280
     0
281
     0
  0
CLASS
  1
TABLESTYLE
  2
AcDbTableStyle
  3
ObjectDBX Classes
 90
     4095
280
     0
281
     0
  0
CLASS
  1
MLEADERSTYLE
  2
AcDbMLeaderStyle
  3
ACDB_MLEADERSTYLE_CLASS
 90
     4095
280
     0
281
     0
  0
CLASS
  1
SUN
  2
AcDbSun
  3
SCENEOE
 90
     1153
280
     0
281
     0
  0
CLASS
  1
ACDBPLACEHOLDER
  2
AcDbPlaceHolder
  3
ObjectDBX Classes
 90
        0
280
     0
281
     0
  0
CLASS
  1
LAYOUT
  2
AcDbLayout
  3
ObjectDBX Classes
 90
        0
280
     0
281
     0
  0
ENDSEC
  0
SECTION
  2
TABLES
  0
TABLE
  2
VPORT
  5
8
330
0
100
AcDbSymbolTable
 70
     1
  0
VPORT
  5
29
330
8
100
AcDbSymbolTableRecord
100
AcDbViewportTableRecord
  2
*Active
 70
     0
 10
0.0
 20
0.0
 11
1.0
 21
1.0
 12
105.0
 22
148.5
 13
0.0
 23
0.0
 14
10.0
 24
10.0
 15
10.0
 25
10.0
 16
0.0
 26
0.0
 36
1.0
 17
0.0
 27
0.0
 37
0.0
 40
297.0
 41
0.7070707071
 42
50.0
 43
0.0
 44
0.0
 50
0.0
 51
0.0
 71
     0
 72
  2000
 73
     1
 74
     3
 75
     0
 76
     0
 77
     0
 78
     0
281
     0
 65
     1
110
0.0
120
0.0
130
0.0
111
1.0
121
0.0
131
0.0
112
0.0
122
1.0
132
0.0
 79
     0
146
0.0
  0
ENDTAB
  0
TABLE
  2
LTYPE
  5
5
330
0
100
AcDbSymbolTable
 70
     6
  0
LTYPE
  5
14
330
5
100
AcDbSymbolTableRecord
100
AcDbLinetypeTableRecord
  2
ByBlock
 70
     0
  3

 72
    65
 73
     0
 40
0.0
  0
LTYPE
  5
15
330
5
100
AcDbSymbolTableRecord
100
AcDbLinetypeTableRecord
  2
ByLayer
 70
     0
  3

 72
    65
 73
     0
 40
0.0
  0
LTYPE
  5
16
330
5
100
AcDbSymbolTableRecord
100
AcDbLinetypeTableRecord
  2
Continuous
 70
     0
  3
Solid line
 72
    65
 73
     0
 40
0.0
  0
LTYPE
  5
6E
330
5
100
AcDbSymbolTableRecord
100
AcDbLinetypeTableRecord
  2
HIDDEN
 70
     0
  3
Hidden __ __ __ __ __ __ __ __ __ __ __ __ __ __
 72
    65
 73
     2
 40
1.905
 49
1.27
 74
     0
 49
-0.635
 74
     0
  0
LTYPE
  5
6F
330
5
100
AcDbSymbolTableRecord
100
AcDbLinetypeTableRecord
  2
PHANTOM
 70
     0
  3
Phantom ______  __  __  ______  __  __  ______
 72
    65
 73
     6
 40
12.7
 49
6.35
 74
     0
 49
-1.27
 74
     0
 49
1.27
 74
     0
 49
-1.27
 74
     0
 49
1.27
 74
     0
 49
-1.27
 74
     0
  0
LTYPE
  5
70
330
5
100
AcDbSymbolTableRecord
100
AcDbLinetypeTableRecord
  2
CENTER
 70
     0
  3
Center ____ _ ____ _ ____ _ ____ _ ____ _ ____
 72
    65
 73
     4
 40
10.16
 49
6.35
 74
     0
 49
-1.27
 74
     0
 49
1.27
 74
     0
 49
-1.27
 74
     0
  0
LTYPE
  5
71
330
5
100
AcDbSymbolTableRecord
100
AcDbLinetypeTableRecord
  2
CENTERX2
 70
     0
  3
Center (2x) ________  __  ________  __  _____
 72
    65
 73
     4
 40
20.32
 49
12.7
 74
     0
 49
-2.54
 74
     0
 49
2.54
 74
     0
 49
-2.54
 74
     0
  0
LTYPE
  5
72
330
5
100
AcDbSymbolTableRecord
100
AcDbLinetypeTableRecord
  2
DOT2
 70
     0
  3
Dot (.5x) ........................................
 72
    65
 73
     2
 40
0.635
 49
0.0
 74
     0
 49
-0.635
 74
     0
  0
ENDTAB
  0
TABLE
  2
LAYER
  5
2
330
0
100
AcDbSymbolTable
 70
     2
  0
LAYER
  5
10
330
2
100
AcDbSymbolTableRecord
100
AcDbLayerTableRecord
  2
0
 70
     0
 62
     7
  6
Continuous
370
    -3
390
F
  0
LAYER
  5
73
330
2
100
AcDbSymbolTableRecord
100
AcDbLayerTableRecord
  2
FORMAT
 70
     0
 62
     7
  6
Continuous
370
    -3
390
F
  0
ENDTAB
  0
TABLE
  2
STYLE
  5
3
330
0
100
AcDbSymbolTable
 70
     2
  0
STYLE
  5
11
330
3
100
AcDbSymbolTableRecord
100
AcDbTextStyleTableRecord
  2
Standard
 70
     0
 40
0.0
 41
1.0
 50
0.0
 71
     0
 42
3.5
  3
txt
  4
bigfont
  0
STYLE
  5
74
330
3
100
AcDbSymbolTableRecord
100
AcDbTextStyleTableRecord
  2
SLDTEXTSTYLE0
 70
     0
 40
0.0
 41
0.7
 50
0.0
 71
     0
 42
3.5
  3
TXT
  4
bigfont
  0
ENDTAB
  0
TABLE
  2
VIEW
  5
6
330
0
100
AcDbSymbolTable
 70
     0
  0
ENDTAB
  0
TABLE
  2
UCS
  5
7
330
0
100
AcDbSymbolTable
 70
     0
  0
ENDTAB
  0
TABLE
  2
APPID
  5
9
330
0
100
AcDbSymbolTable
 70
     1
  0
APPID
  5
12
330
9
100
AcDbSymbolTableRecord
100
AcDbRegAppTableRecord
  2
ACAD
 70
     0
  0
ENDTAB
  0
TABLE
  2
DIMSTYLE
  5
A
330
0
100
AcDbSymbolTable
 70
     1
100
AcDbDimStyleTable
  0
DIMSTYLE
105
27
330
A
100
AcDbSymbolTableRecord
100
AcDbDimStyleTableRecord
  2
ISO-25
 70
     0
 41
2.5
 42
0.625
 43
3.75
 44
1.25
 73
     0
 74
     0
 77
     1
 78
     8
140
2.5
141
2.5
143
0.0393700787
147
0.625
171
     3
172
     1
178
     0
271
     2
272
     2
274
     3
278
    44
283
     0
284
     8
340
11
  0
ENDTAB
  0
TABLE
  2
BLOCK_RECORD
  5
1
330
0
100
AcDbSymbolTable
 70
     1
  0
BLOCK_RECORD
  5
1F
330
1
100
AcDbSymbolTableRecord
100
AcDbBlockTableRecord
  2
*Model_Space
340
22
  0
BLOCK_RECORD
  5
1B
330
1
100
AcDbSymbolTableRecord
100
AcDbBlockTableRecord
  2
*Paper_Space
340
1E
  0
BLOCK_RECORD
  5
23
330
1
100
AcDbSymbolTableRecord
100
AcDbBlockTableRecord
  2
*Paper_Space0
340
26
  0
ENDTAB
  0
ENDSEC
  0
SECTION
  2
BLOCKS
  0
BLOCK
  5
20
330
1F
100
AcDbEntity
  8
0
100
AcDbBlockBegin
  2
*Model_Space
 70
     0
 10
0.0
 20
0.0
 30
0.0
  3
*Model_Space
  1

  0
ENDBLK
  5
21
330
1F
100
AcDbEntity
  8
0
100
AcDbBlockEnd
  0
BLOCK
  5
1C
330
1B
100
AcDbEntity
 67
     1
  8
0
100
AcDbBlockBegin
  2
*Paper_Space
 70
     0
 10
0.0
 20
0.0
 30
0.0
  3
*Paper_Space
  1

  0
ENDBLK
  5
1D
330
1B
100
AcDbEntity
 67
     1
  8
0
100
AcDbBlockEnd
  0
BLOCK
  5
24
330
23
100
AcDbEntity
  8
0
100
AcDbBlockBegin
  2
*Paper_Space0
 70
     0
 10
0.0
 20
0.0
 30
0.0
  3
*Paper_Space0
  1

  0
ENDBLK
  5
25
330
23
100
AcDbEntity
  8
0
100
AcDbBlockEnd
  0
ENDSEC
  0
SECTION
  2
ENTITIES
  0
MTEXT
  5
75
330
1F
100
AcDbEntity
  8
0
  6
Continuous
 62
     7
370
     0
100
AcDbMText
 10
146.9085531748
 20
114.8280567301
 30
0.0
 40
3.5
 41
0.0
 71
     1
 72
     1
  1
HFE-D75S/C
  7
SLDTEXTSTYLE0
 73
     1
 44
1.0
  0
LINE
  5
76
330
1F
100
AcDbEntity
  8
0
  6
Continuous
 62
     7
370
    25
100
AcDbLine
 10
79.9310871937
 20
180.4391351976
 30
0.0
 11
79.9310871937
 21
179.5176811413
 31
0.0
  0
LINE
  5
77
330
1F
100
AcDbEntity
  8
0
  6
Continuous
 62
     7
370
    25
100
AcDbLine
 10
83.9310871937
 20
179.5176811413
 30
0.0
 11
83.9310871937
 21
180.66771139
 31
0.0
  0
LINE
  5
78
330
1F
100
AcDbEntity
  8
0
  6
Continuous
 62
     7
370
    25
100
AcDbLine
 10
80.0042211057
 20
179.378980433
 30
0.0
 11
80.4859376277
 21
178.9306926969
 31
0.0
  0
LINE
  5
79
330
1F
100
AcDbEntity
  8
0
  6
Continuous
 62
     7
370
    25
100
AcDbLine
 10
83.3762367597
 20
178.9306926969
 30
0.0
 11
83.8579532817
 21
179.378980433
 31
0.0
  0
LINE
  5
7A
330
1F
100
AcDbEntity
  8
0
  6
Continuous
 62
     7
370
    25
100
AcDbLine
 10
70.6615664756
 20
209.8926365386
 30
0.0
 11
70.6579420834
 21
209.8920949484
 31
0.0
  0
LINE
  5
7B
330
1F
100
AcDbEntity
  8
0
  6
Continuous
 62
     7
370
    25
100
AcDbLine
 10
75.0176988246
 20
180.7160341938
 30
0.0
 11
75.0213232167
 21
180.716575784
 31
0.0
  0
LINE
  5
7C
330
1F
100
AcDbEntity
  8
0
  6
Continuous
 62
     7
370
    25
100
AcDbLine
 10
82.2014966704
 20
212.6281425115
 30
0.0
 11
69.2111156136
 21
210.6869996732
 31
0.0
  0
LINE
  5
7D
330
1F
100
AcDbEntity
  8
0
  6
Continuous
 62
     7
370
    25
100
AcDbLine
 10
73.866449083
 20
179.5329009013
 30
0.0
 11
86.8568301398
 21
181.4740437396
 31
0.0
  0
LINE
  5
7E
330
1F
100
AcDbEntity
  8
0
  6
Continuous
 62
     7
370
    25
100
AcDbLine
 10
70.7386038684
 20
208.9188730267
 30
0.0
 11
69.8752382698
 21
208.7722129078
 31
0.0
  0
LINE
  5
7F
330
1F
100
AcDbEntity
  8
0
  6
Continuous
 62
     7
370
    25
100
AcDbLine
 10
73.9418094661
 20
181.5581880593
 30
0.0
 11
74.8103341366
 21
181.6703229964
 31
0.0
  0
LINE
  5
80
330
1F
100
AcDbEntity
  8
0
  6
Continuous
 62
     7
370
    25
100
AcDbLine
 10
129.751646303
 20
153.5584612607
 30
0.0
 11
127.005116047
 21
153.1480493172
 31
0.0
  0
LINE
  5
81
330
1F
100
AcDbEntity
  8
0
  6
Continuous
 62
     7
370
    25
100
AcDbLine
 10
127.005116047
 20
149.8114097064
 30
0.0
 11
130.2393479045
 21
150.2946985322
 31
0.0
  0
LINE
  5
82
330
1F
100
AcDbEntity
  8
0
  6
Continuous
 62
     7
370
    25
100
AcDbLine
 10
123.5276354564
 20
185.5307633149
 30
0.0
 11
121.4891036359
 21
186.4446121297
 31
0.0
  0
LINE
  5
83
330
1F
100
AcDbEntity
  8
0
  6
Continuous
 62
     7
370
    25
100
AcDbLine
 10
115.6950734202
 20
171.5078597019
 30
0.0
 11
116.9825966376
 21
170.9306788337
 31
0.0
  0
LINE
  5
84
330
1F
100
AcDbEntity
  8
0
  6
Continuous
 62
     7
370
    25
100
AcDbLine
 10
116.3415000996
 20
178.5021702045
 30
0.0
 11
116.2248400258
 21
178.72791625
 31
0.0
  0
LINE
  5
85
330
1F
100
AcDbEntity
  8
0
  6
Continuous
 62
     7
370
    25
100
AcDbLine
 10
116.2542036607
 20
178.4208497584
 30
0.0
 11
116.3068697648
 21
178.4344472712
 31
0.0
  0
LINE
  5
86
330
1F
100
AcDbEntity
  8
0
  6
Continuous
 62
     7
370
    25
100
AcDbLine
 10
125.4479409362
 20
163.6879984258
 30
0.0
 11
124.6036584473
 21
164.0322606307
 31
0.0
  0
LINE
  5
87
330
1F
100
AcDbEntity
  8
0
  6
Continuous
 62
     7
370
    25
100
AcDbLine
 10
109.4065736467
 20
164.0322606307
 30
0.0
 11
108.5622911578
 21
163.6879984258
 31
0.0
  0
LINE
  5
88
330
1F
100
AcDbEntity
  8
0
  6
Continuous
 62
     7
370
    25
100
AcDbLine
 10
127.005116047
 20
145.3972893833
 30
0.0
 11
127.005116047
 21
162.3009913434
 31
0.0
  0
LINE
  5
89
330
1F
100
AcDbEntity
  8
0
  6
Continuous
 62
     7
370
    25
100
AcDbLine
 10
107.005116047
 20
162.3009913434
 30
0.0
 11
107.005116047
 21
145.3972893833
 31
0.0
  0
LINE
  5
8A
330
1F
100
AcDbEntity
  8
0
  6
Continuous
 62
     7
370
    25
100
AcDbLine
 10
116.6391037004
 20
176.0902665237
 30
0.0
 11
116.8743967116
 21
176.1510152692
 31
0.0
  0
LINE
  5
8B
330
1F
100
AcDbEntity
  8
0
  6
Continuous
 62
     7
370
    25
100
AcDbLine
 10
116.9891488577
 20
176.5944771001
 30
0.0
 11
116.8779153534
 21
176.8106253885
 31
0.0
  0
LINE
  5
8C
330
1F
100
AcDbEntity
  8
0
  6
Continuous
 62
     7
370
    25
100
AcDbLine
 10
118.453819485
 20
178.8551055127
 30
0.0
 11
118.3933091793
 21
178.9726887812
 31
0.0
  0
LINE
  5
8D
330
1F
100
AcDbEntity
  8
0
  6
Continuous
 62
     7
370
    25
100
AcDbLine
 10
118.1494270985
 20
178.3761993182
 30
0.0
 11
118.3848310908
 21
178.4369767171
 31
0.0
  0
LINE
  5
8E
330
1F
100
AcDbEntity
  8
0
  6
Continuous
 62
     7
370
    25
100
AcDbLine
 10
118.4067205682
 20
177.8236938737
 30
0.0
 11
118.2953606217
 21
178.040087864
 31
0.0
  0
LINE
  5
8F
330
1F
100
AcDbEntity
  8
0
  6
Continuous
 62
     7
370
    25
100
AcDbLine
 10
118.1032500486
 20
177.2996590166
 30
0.0
 11
118.3387521969
 21
177.3604617579
 31
0.0
  0
LINE
  5
90
330
1F
100
AcDbEntity
  8
0
  6
Continuous
 62
     7
370
    25
100
AcDbLine
 10
118.5256064879
 20
176.8113116177
 30
0.0
 11
118.413977275
 21
177.0282288447
 31
0.0
  0
LINE
  5
91
330
1F
100
AcDbEntity
  8
0
  6
Continuous
 62
     7
370
    25
100
AcDbLine
 10
118.1801873258
 20
176.3106062993
 30
0.0
 11
118.4153770412
 21
176.3713283755
 31
0.0
  0
LINE
  5
92
330
1F
100
AcDbEntity
  8
0
  6
Continuous
 62
     7
370
    25
100
AcDbLine
 10
120.9466259723
 20
178.6098689627
 30
0.0
 11
120.8355686088
 21
178.8256749754
 31
0.0
  0
LINE
  5
93
330
1F
100
AcDbEntity
  8
0
  6
Continuous
 62
     7
370
    25
100
AcDbLine
 10
119.7919168709
 20
176.5378111436
 30
0.0
 11
120.0269163696
 21
176.598484109
 31
0.0
  0
LINE
  5
94
330
1F
100
AcDbEntity
  8
0
  6
Continuous
 62
     7
370
    25
100
AcDbLine
 10
122.047514843
 20
179.3548156589
 30
0.0
 11
121.9863077896
 21
179.4732559374
 31
0.0
  0
LINE
  5
95
330
1F
100
AcDbEntity
  8
0
  6
Continuous
 62
     7
370
    25
100
AcDbLine
 10
121.9926975035
 20
179.2819140797
 30
0.0
 11
122.0121621848
 21
179.2869318451
 31
0.0
  0
LINE
  5
96
330
1F
100
AcDbEntity
  8
0
  6
Continuous
 62
     7
370
    25
100
AcDbLine
 10
122.505116047
 20
162.7839542565
 30
0.0
 11
122.505116047
 21
171.2583818083
 31
0.0
  0
LINE
  5
97
330
1F
100
AcDbEntity
  8
0
  6
Continuous
 62
     7
370
    25
100
AcDbLine
 10
111.505116047
 20
173.1753596041
 30
0.0
 11
111.505116047
 21
162.7839542565
 31
0.0
  0
LINE
  5
98
330
1F
100
AcDbEntity
  8
0
  6
Continuous
 62
     7
370
    25
100
AcDbLine
 10
123.0842670742
 20
179.5082776223
 30
0.0
 11
122.9669069748
 21
179.735378262
 31
0.0
  0
LINE
  5
99
330
1F
100
AcDbEntity
  8
0
  6
Continuous
 62
     7
370
    25
100
AcDbLine
 10
122.1069109108
 20
177.0029566183
 30
0.0
 11
121.9957814556
 21
177.2189027191
 31
0.0
  0
LINE
  5
9A
330
1F
100
AcDbEntity
  8
0
  6
Continuous
 62
     7
370
    25
100
AcDbLine
 10
121.8055056796
 20
176.8625564966
 30
0.0
 11
122.0417603906
 21
176.9235462014
 31
0.0
  0
LINE
  5
9B
330
1F
100
AcDbEntity
  8
0
  6
Continuous
 62
     7
370
    25
100
AcDbLine
 10
123.3460415215
 20
177.0510653155
 30
0.0
 11
123.5812155051
 21
177.11178333
 31
0.0
  0
LINE
  5
9C
330
1F
100
AcDbEntity
  8
0
  6
Continuous
 62
     7
370
    25
100
AcDbLine
 10
124.556552836
 20
179.7297392801
 30
0.0
 11
124.4881203527
 21
179.8621613288
 31
0.0
  0
LINE
  5
9D
330
1F
100
AcDbEntity
  8
0
  6
Continuous
 62
     7
370
    25
100
AcDbLine
 10
124.5167996095
 20
179.6607212088
 30
0.0
 11
124.5227351026
 21
179.6622512985
 31
0.0
  0
LINE
  5
9E
330
1F
100
AcDbEntity
  8
0
  6
Continuous
 62
     7
370
    25
100
AcDbLine
 10
124.881162438
 20
177.8846033527
 30
0.0
 11
124.7698220748
 21
178.1009592888
 31
0.0
  0
LINE
  5
9F
330
1F
100
AcDbEntity
  8
0
  6
Continuous
 62
     7
370
    25
100
AcDbLine
 10
125.8572306079
 20
179.9338552666
 30
0.0
 11
125.7461492691
 21
180.1497078678
 31
0.0
  0
LINE
  5
A0
330
1F
100
AcDbEntity
  8
0
  6
Continuous
 62
     7
370
    25
100
AcDbLine
 10
125.088310067
 20
177.3103853528
 30
0.0
 11
125.323412213
 21
177.37108482
 31
0.0
  0
LINE
  5
A1
330
1F
100
AcDbEntity
  8
0
  6
Continuous
 62
     7
370
    25
100
AcDbLine
 10
125.8333554457
 20
178.5086203618
 30
0.0
 11
125.7222495726
 21
178.7245206382
 31
0.0
  0
LINE
  5
A2
330
1F
100
AcDbEntity
  8
0
  6
Continuous
 62
     7
370
    25
100
AcDbLine
 10
125.5760863307
 20
179.4434730298
 30
0.0
 11
125.8111747434
 21
179.5041689513
 31
0.0
  0
LINE
  5
A3
330
1F
100
AcDbEntity
  8
0
  6
Continuous
 62
     7
370
    25
100
AcDbLine
 10
108.0448228102
 20
214.9506483226
 30
0.0
 11
85.6532893118
 21
211.6046983695
 31
0.0
  0
LINE
  5
A4
330
1F
100
AcDbEntity
  8
0
  6
Continuous
 62
     7
370
    25
100
AcDbLine
 10
90.5411311641
 20
184.5297547992
 30
0.0
 11
112.1090028232
 21
187.7526255853
 31
0.0
  0
LINE
  5
A5
330
1F
100
AcDbEntity
  8
0
  6
Continuous
 62
     7
370
    25
100
AcDbLine
 10
121.7164938156
 20
218.2574744442
 30
0.0
 11
108.9426191098
 21
216.3486839866
 31
0.0
  0
LINE
  5
A6
330
1F
100
AcDbEntity
  8
0
  6
Continuous
 62
     7
370
    25
100
AcDbLine
 10
124.0852430659
 20
188.2783474866
 30
0.0
 11
126.1501447389
 21
188.5869041853
 31
0.0
  0
LINE
  5
A7
330
1F
100
AcDbEntity
  8
0
  6
Continuous
 62
     7
370
    25
100
AcDbLine
 10
113.3762700331
 20
186.6781137277
 30
0.0
 11
114.8918144897
 21
186.9045803921
 31
0.0
  0
LINE
  5
A8
330
1F
100
AcDbEntity
  8
0
  6
Continuous
 62
     7
370
    25
100
AcDbLine
 10
109.4825966376
 20
174.2928368543
 30
0.0
 11
111.672540352
 21
173.3111119444
 31
0.0
  0
LINE
  5
A9
330
1F
100
AcDbEntity
  8
0
  6
Continuous
 62
     7
370
    25
100
AcDbLine
 10
122.4526154089
 20
218.3674725384
 30
0.0
 11
122.019602707
 21
218.3027677771
 31
0.0
  0
LINE
  5
AA
330
1F
100
AcDbEntity
  8
0
  6
Continuous
 62
     7
370
    25
100
AcDbLine
 10
126.4532536302
 20
188.6321975182
 30
0.0
 11
126.8862663321
 21
188.6969022795
 31
0.0
  0
LINE
  5
AB
330
1F
100
AcDbEntity
  8
0
  6
Continuous
 62
     7
370
    25
100
AcDbLine
 10
130.4704051889
 20
191.748009521
 30
0.0
 11
131.1893468628
 21
193.1205415936
 31
0.0
  0
LINE
  5
AC
330
1F
100
AcDbEntity
  8
0
  6
Continuous
 62
     7
370
    25
100
AcDbLine
 10
127.8608922448
 20
215.394994027
 30
0.0
 11
126.7721222801
 21
216.4974011136
 31
0.0
  0
ARC
  5
AD
330
1F
100
AcDbEntity
  8
0
  6
Continuous
 62
     7
370
    25
100
AcDbCircle
 10
81.9370803637
 20
187.3003078143
 30
0.0
 40
6.854481874121092
100
AcDbArc
 50
259.7137654576
 51
278.3381827907
  0
LWPOLYLINE
  5
AE
330
1F
100
AcDbEntity
  8
0
  6
Continuous
 62
     7
370
    25
100
AcDbPolyline
 90
       14
 70
   128
 43
0.0
 10
79.9310871937
 20
179.5176811413
 10
79.9312610258
 20
179.5108564706
 10
80.0125341417
 20
179.371464601
 10
80.2360975607
 20
179.2429169433
 10
80.5853706068
 20
179.1347472891
 10
81.0344492958
 20
179.054978087
 10
81.5500275159
 20
179.0095254537
 10
82.0938671891
 20
179.0017604031
 10
82.6256342147
 20
179.0322588334
 10
83.1058898651
 20
179.0987588157
 10
83.4990157757
 20
179.1963283504
 10
83.7758555961
 20
179.3177311515
 10
83.9158773835
 20
179.4539633286
 10
83.9310871937
 20
179.5176811413
  0
ARC
  5
AF
330
1F
100
AcDbEntity
  8
0
  6
Continuous
 62
     7
370
    25
100
AcDbCircle
 10
81.9310871937
 20
181.9269142146
 30
0.0
 40
3.326529821194162
100
AcDbArc
 50
244.2508708199
 51
295.7491291801
  0
LWPOLYLINE
  5
B0
330
1F
100
AcDbEntity
  8
0
  6
Continuous
 62
     7
370
    25
100
AcDbPolyline
 90
       17
 70
   128
 43
0.0
 10
73.237820454
 20
195.1247494767
 10
73.207372267
 20
194.842683977
 10
73.1206631665
 20
194.6308594903
 10
72.9908938269
 20
194.5215243746
 10
72.837820454
 20
194.5313239101
 10
72.684747081
 20
194.6587662063
 10
72.5549777415
 20
194.8844493288
 10
72.468268641
 20
195.1740150682
 10
72.437820454
 20
195.4833796655
 10
72.468268641
 20
195.7654451652
 10
72.5549777415
 20
195.9772696519
 10
72.684747081
 20
196.0866047676
 10
72.837820454
 20
196.0768052321
 10
72.9908938269
 20
195.949362936
 10
73.1206631665
 20
195.7236798134
 10
73.207372267
 20
195.434114074
 10
73.237820454
 20
195.1247494767
  0
LINE
  5
B1
330
1F
100
AcDbEntity
  8
0
  6
Continuous
 62
     7
370
    25
100
AcDbLine
 10
73.7111513108
 20
194.4924412193
 30
0.0
 11
77.5314584445
 21
197.04084332
 31
0.0
  0
ARC
  5
B2
330
1F
100
AcDbEntity
  8
0
  6
Continuous
 62
     7
370
    25
100
AcDbCircle
 10
72.0653399762
 20
194.6577453577
 30
0.0
 40
1.654092019011888
100
AcDbArc
 50
327.6572172012
 51
354.264487119
  0
LINE
  5
B3
330
1F
100
AcDbEntity
  8
0
  6
Continuous
 62
     7
370
    25
100
AcDbLine
 10
73.462820454
 20
184.8528629212
 30
0.0
 11
73.462820454
 21
193.772833655
 31
0.0
  0
ARC
  5
B4
330
1F
100
AcDbEntity
  8
0
  6
Continuous
 62
     7
370
    25
100
AcDbCircle
 10
70.3362248252
 20
183.5284630075
 30
0.0
 40
3.39553167523445
100
AcDbArc
 50
8.9000798813
 51
22.9571118368
  0
ARC
  5
B5
330
1F
100
AcDbEntity
  8
0
  6
Continuous
 62
     7
370
    25
100
AcDbCircle
 10
75.3545221182
 20
184.2922853799
 30
0.0
 40
1.680656792452948
100
AcDbArc
 50
188.1580980316
 51
211.3460479127
  0
LINE
  5
B6
330
1F
100
AcDbEntity
  8
0
  6
Continuous
 62
     7
370
    25
100
AcDbLine
 10
72.212820454
 20
194.3331933251
 30
0.0
 11
72.212820454
 21
185.4132225914
 31
0.0
  0
ARC
  5
B7
330
1F
100
AcDbEntity
  8
0
  6
Continuous
 62
     7
370
    25
100
AcDbCircle
 10
75.3982485801
 20
195.6765626657
 30
0.0
 40
3.457107683060305
100
AcDbArc
 50
186.6628074365
 51
202.8662874543
  0
LINE
  5
B8
330
1F
100
AcDbEntity
  8
0
  6
Continuous
 62
     7
370
    25
100
AcDbLine
 10
67.965776111
 20
201.5280078275
 30
0.0
 11
71.9644895971
 21
195.2754482446
 31
0.0
  0
ARC
  5
B9
330
1F
100
AcDbEntity
  8
0
  6
Continuous
 62
     7
370
    25
100
AcDbCircle
 10
67.9374342701
 20
202.1058264701
 30
0.0
 40
0.5785133047345925
100
AcDbArc
 50
226.5210036046
 51
272.8080912358
  0
ARC
  5
BA
330
1F
100
AcDbEntity
  8
0
  6
Continuous
 62
     7
370
    25
100
AcDbCircle
 10
67.3365980922
 20
201.4937206297
 30
0.0
 40
0.2794676952622083
100
AcDbArc
 50
43.4853883471
 51
122.5882689695
  0
ARC
  5
BB
330
1F
100
AcDbEntity
  8
0
  6
Continuous
 62
     7
370
    25
100
AcDbCircle
 10
71.3441487153
 20
184.8818651528
 30
0.0
 40
0.6437336691423821
100
AcDbArc
 50
309.8300991827
 51
354.3615460588
  0
ARC
  5
BC
330
1F
100
AcDbEntity
  8
0
  6
Continuous
 62
     7
370
    25
100
AcDbCircle
 10
73.499395049
 20
184.5787385851
 30
0.0
 40
1.533505052245136
100
AcDbArc
 50
147.0321905371
 51
171.0005234391
  0
LINE
  5
BD
330
1F
100
AcDbEntity
  8
0
  6
Continuous
 62
     7
370
    25
100
AcDbLine
 10
73.237820454
 20
183.7026765808
 30
0.0
 11
73.2307992473
 21
183.5616754985
 31
0.0
  0
LWPOLYLINE
  5
BE
330
1F
100
AcDbEntity
  8
0
  6
Continuous
 62
     7
370
    25
100
AcDbPolyline
 90
       11
 70
   128
 43
0.0
 10
72.4448416606
 20
183.9140106457
 10
72.437820454
 20
184.0613067697
 10
72.468268641
 20
184.3433722693
 10
72.5549777415
 20
184.555196756
 10
72.684747081
 20
184.6645318717
 10
72.837820454
 20
184.6547323363
 10
72.9908938269
 20
184.5272900401
 10
73.1206631665
 20
184.3016069175
 10
73.207372267
 20
184.0120411781
 10
73.237820454
 20
183.7026765808
 10
73.237820454
 20
183.7026765808
  0
ARC
  5
BF
330
1F
100
AcDbEntity
  8
0
  6
Continuous
 62
     7
370
    25
100
AcDbCircle
 10
71.2008848281
 20
206.326325766
 30
0.0
 40
3.606867988462991
100
AcDbArc
 50
98.6576566387
 51
122.5106718425
  0
LWPOLYLINE
  5
C0
330
1F
100
AcDbEntity
  8
0
  6
Continuous
 62
     7
370
    25
100
AcDbPolyline
 90
        8
 70
   128
 43
0.0
 10
70.4425166339
 20
182.9028357001
 10
70.6323946111
 20
182.6972806068
 10
71.3548707855
 20
182.0124464931
 10
72.0925302623
 20
181.4636997055
 10
72.837820454
 20
181.0566586333
 10
73.5831106457
 20
180.7954908
 10
74.3207701224
 20
180.6828701939
 10
75.0176988246
 20
180.7160341938
  0
LINE
  5
C1
330
1F
100
AcDbEntity
  8
0
  6
Continuous
 62
     7
370
    25
100
AcDbLine
 10
69.2623495047
 20
209.3679663572
 30
0.0
 11
69.44056577
 21
208.6669633041
 31
0.0
  0
LWPOLYLINE
  5
C2
330
1F
100
AcDbEntity
  8
0
  6
Continuous
 62
     7
370
    25
100
AcDbPolyline
 90
        7
 70
   128
 43
0.0
 10
68.1174452541
 20
203.1311873309
 10
68.0869970671
 20
202.8491218312
 10
68.0002879666
 20
202.6372973445
 10
67.870518627
 20
202.5279622288
 10
67.7174452541
 20
202.5377617643
 10
67.5643718812
 20
202.6652040604
 10
67.4563358065
 20
202.8421625547
  0
ARC
  5
C3
330
1F
100
AcDbEntity
  8
0
  6
Continuous
 62
     7
370
    25
100
AcDbCircle
 10
66.8351784084
 20
203.1937491285
 30
0.0
 40
1.283792133505191
100
AcDbArc
 50
357.2067539963
 51
37.8188263462
  0
ARC
  5
C4
330
1F
100
AcDbEntity
  8
0
  6
Continuous
 62
     7
370
    25
100
AcDbCircle
 10
72.605283347
 20
196.4565126082
 30
0.0
 40
0.6302444853166265
100
AcDbArc
 50
40.2718166218
 51
91.4359664756
  0
LINE
  5
C5
330
1F
100
AcDbEntity
  8
0
  6
Continuous
 62
     7
370
    25
100
AcDbLine
 10
74.2938520149
 20
197.6695295045
 30
0.0
 11
73.0861513108
 21
196.8639118137
 31
0.0
  0
ARC
  5
C6
330
1F
100
AcDbEntity
  8
0
  6
Continuous
 62
     7
370
    25
100
AcDbCircle
 10
73.7106593315
 20
198.0850404234
 30
0.0
 40
0.7160747374975736
100
AcDbArc
 50
324.5310315448
 51
31.8935531951
  0
LWPOLYLINE
  5
C7
330
1F
100
AcDbEntity
  8
0
  6
Continuous
 62
     7
370
    25
100
AcDbPolyline
 90
        9
 70
   128
 43
0.0
 10
74.318629083
 20
198.4633733601
 10
73.9831173519
 20
199.0220303559
 10
73.6181303466
 20
199.485002066
 10
73.2330613451
 20
199.8403734856
 10
72.837820454
 20
200.0789988027
 10
72.4425795628
 20
200.1947367742
 10
72.0575105613
 20
200.1846087765
 10
71.6925235561
 20
200.0488754629
 10
71.357011825
 20
199.7910300558
  0
ARC
  5
C8
330
1F
100
AcDbEntity
  8
0
  6
Continuous
 62
     7
370
    25
100
AcDbCircle
 10
72.0294426382
 20
199.4030409982
 30
0.0
 40
0.7763367228932675
100
AcDbArc
 50
150.0152791138
 51
213.4628677995
  0
LINE
  5
C9
330
1F
100
AcDbEntity
  8
0
  6
Continuous
 62
     7
370
    25
100
AcDbLine
 10
72.5894895971
 20
197.0865591689
 30
0.0
 11
71.381788893
 21
198.9749716888
 31
0.0
  0
LINE
  5
CA
330
1F
100
AcDbEntity
  8
0
  6
Continuous
 62
     7
370
    25
100
AcDbLine
 10
74.4039716339
 20
194.5959688373
 30
0.0
 11
73.7111513108
 21
194.4924412193
 31
0.0
  0
LINE
  5
CB
330
1F
100
AcDbEntity
  8
0
  6
Continuous
 62
     7
370
    25
100
AcDbLine
 10
74.4039716339
 20
194.5959688373
 30
0.0
 11
77.5905652117
 21
196.7216413248
 31
0.0
  0
LINE
  5
CC
330
1F
100
AcDbEntity
  8
0
  6
Continuous
 62
     7
370
    25
100
AcDbLine
 10
71.357011825
 20
199.7910300558
 30
0.0
 11
72.049832148
 21
199.8945576738
 31
0.0
  0
LWPOLYLINE
  5
CD
330
1F
100
AcDbEntity
  8
0
  6
Continuous
 62
     7
370
    25
100
AcDbPolyline
 90
        3
 70
   128
 43
0.0
 10
72.4615619395
 20
200.1920214177
 10
72.3853438791
 20
200.152403081
 10
72.049832148
 20
199.8945576738
  0
LINE
  5
CE
330
1F
100
AcDbEntity
  8
0
  6
Continuous
 62
     7
370
    25
100
AcDbLine
 10
74.155640777
 20
193.876361273
 30
0.0
 11
73.462820454
 21
193.772833655
 31
0.0
  0
ARC
  5
CF
330
1F
100
AcDbEntity
  8
0
  6
Continuous
 62
     7
370
    25
100
AcDbCircle
 10
72.7581602992
 20
194.7612729758
 30
0.0
 40
1.65409201901214
100
AcDbArc
 50
327.6572172012
 51
354.264487119
  0
LINE
  5
D0
330
1F
100
AcDbEntity
  8
0
  6
Continuous
 62
     7
370
    25
100
AcDbLine
 10
73.2823099202
 20
197.190086787
 30
0.0
 11
72.5894895971
 21
197.0865591689
 31
0.0
  0
ARC
  5
D1
330
1F
100
AcDbEntity
  8
0
  6
Continuous
 62
     7
370
    25
100
AcDbCircle
 10
73.3260679007
 20
196.7154406447
 30
0.0
 40
0.476658914986859
100
AcDbArc
 50
66.2831133704
 51
95.2672517996
  0
ARC
  5
D2
330
1F
100
AcDbEntity
  8
0
  6
Continuous
 62
     7
370
    25
100
AcDbCircle
 10
73.7355093887
 20
195.4382055512
 30
0.0
 40
1.107141459542413
100
AcDbArc
 50
144.6322853958
 51
232.3652760112
  0
LINE
  5
D3
330
1F
100
AcDbEntity
  8
0
  6
Continuous
 62
     7
370
    25
100
AcDbLine
 10
74.155640777
 20
184.9563905393
 30
0.0
 11
73.462820454
 21
184.8528629212
 31
0.0
  0
LINE
  5
D4
330
1F
100
AcDbEntity
  8
0
  6
Continuous
 62
     7
370
    25
100
AcDbLine
 10
74.155640777
 20
184.9563905393
 30
0.0
 11
74.155640777
 21
193.876361273
 31
0.0
  0
LINE
  5
D5
330
1F
100
AcDbEntity
  8
0
  6
Continuous
 62
     7
370
    25
100
AcDbLine
 10
72.0746092161
 20
199.0784993068
 30
0.0
 11
71.381788893
 21
198.9749716888
 31
0.0
  0
LINE
  5
D6
330
1F
100
AcDbEntity
  8
0
  6
Continuous
 62
     7
370
    25
100
AcDbLine
 10
73.2823099202
 20
197.190086787
 30
0.0
 11
72.0746092161
 21
199.0784993068
 31
0.0
  0
LINE
  5
D7
330
1F
100
AcDbEntity
  8
0
  6
Continuous
 62
     7
370
    25
100
AcDbLine
 10
73.6908731108
 20
184.0537917017
 30
0.0
 11
74.3836934339
 21
184.1573193198
 31
0.0
  0
ARC
  5
D8
330
1F
100
AcDbEntity
  8
0
  6
Continuous
 62
     7
370
    25
100
AcDbCircle
 10
76.088025203
 20
184.4063312744
 30
0.0
 40
1.72242669885183
100
AcDbArc
 50
188.3124040735
 51
209.1127598112
  0
ARC
  5
D9
330
1F
100
AcDbEntity
  8
0
  6
Continuous
 62
     7
370
    25
100
AcDbCircle
 10
71.0290451482
 20
183.6319906256
 30
0.0
 40
3.395531675235235
100
AcDbArc
 50
8.9000798813
 51
22.9571118368
  0
ARC
  5
DA
330
1F
100
AcDbEntity
  8
0
  6
Continuous
 62
     7
370
    25
100
AcDbCircle
 10
72.7222629612
 20
199.5065686163
 30
0.0
 40
0.776336722893241
100
AcDbArc
 50
150.0152791138
 51
213.4628677995
  0
LWPOLYLINE
  5
DB
330
1F
100
AcDbEntity
  8
0
  6
Continuous
 62
     7
370
    25
100
AcDbPolyline
 90
       16
 70
   128
 43
0.0
 10
71.9510031071
 20
184.6834105538
 10
71.4532870473
 20
185.2075851594
 10
70.8450069081
 20
185.9770416387
 10
70.2679480303
 20
186.8561309641
 10
69.7288188885
 20
187.8346334708
 10
69.2338870129
 20
188.9011737876
 10
68.7889061282
 20
190.0433530783
 10
68.3990492643
 20
191.2478931821
 10
68.0688486187
 20
192.5007909761
 10
67.8021428684
 20
193.7874811651
 10
67.6020325438
 20
195.093005608
 10
67.4708439848
 20
196.4021872097
 10
67.4101022959
 20
197.6998063601
 10
67.4205136165
 20
198.9707778654
 10
67.501956912
 20
200.2003263186
 10
67.653485381
 20
201.3741578674
  0
ARC
  5
DC
330
1F
100
AcDbEntity
  8
0
  6
Continuous
 62
     7
370
    25
100
AcDbCircle
 10
73.5802688945
 20
184.0815491887
 30
0.0
 40
0.943392291273356
100
AcDbArc
 50
142.4141954705
 51
198.2926276617
  0
ARC
  5
DD
330
1F
100
AcDbEntity
  8
0
  6
Continuous
 62
     7
370
    25
100
AcDbCircle
 10
68.3586419327
 20
203.2410492933
 30
0.0
 40
0.7932145883890233
100
AcDbArc
 50
182.7454833952
 51
238.0667062367
  0
LWPOLYLINE
  5
DE
330
1F
100
AcDbEntity
  8
0
  6
Continuous
 62
     7
370
    25
100
AcDbPolyline
 90
        3
 70
   128
 43
0.0
 10
67.7049875406
 20
201.5775871484
 10
67.6876989037
 20
201.525155514
 10
67.653485381
 20
201.3741578674
  0
LWPOLYLINE
  5
DF
330
1F
100
AcDbEntity
  8
0
  6
Continuous
 62
     7
370
    25
100
AcDbPolyline
 90
       35
 70
   128
 43
0.0
 10
86.8568301398
 20
181.4740437396
 10
86.9967283647
 20
181.4977182442
 10
87.6999648769
 20
181.7040201895
 10
88.3741892792
 20
182.0507443506
 10
89.0132325719
 20
182.5347182804
 10
89.6112476549
 20
183.1515137281
 10
90.1627628265
 20
183.895487156
 10
90.6627318488
 20
184.7598313768
 10
91.1065801192
 20
185.7366378384
 10
91.4902465274
 20
186.8169689843
 10
91.8102206133
 20
187.9909400311
 10
92.0635746869
 20
189.2478094115
 10
92.2479906164
 20
190.5760770576
 10
92.361781038
 20
191.9635896233
 10
92.4039047953
 20
193.3976516853
 10
92.3739764656
 20
194.865141903
 10
92.2722698863
 20
196.3526330756
 10
92.0997156493
 20
197.8465149982
 10
91.8578925866
 20
199.3331189922
 10
91.549013324
 20
200.7988429702
 10
91.1759040363
 20
202.2302758923
 10
90.7419785883
 20
203.6143204736
 10
90.2512072989
 20
204.9383130222
 10
89.7080806134
 20
206.1901393083
 10
89.1175680171
 20
207.358345407
 10
88.4850725654
 20
208.432242499
 10
87.8163814475
 20
209.4020046709
 10
87.1176130346
 20
210.2587588202
 10
86.3951608981
 20
210.9946658418
 10
85.6556353103
 20
211.6029923544
 10
84.9058027615
 20
212.0781723092
 10
84.1525240486
 20
212.415857918
 10
83.4026914999
 20
212.6129594346
 10
82.6631659121
 20
212.6676734251
 10
82.2014966704
 20
212.6281425115
  0
LWPOLYLINE
  5
E0
330
1F
100
AcDbEntity
  8
0
  6
Continuous
 62
     7
370
    25
100
AcDbPolyline
 90
       67
 70
   128
 43
0.0
 10
79.4137823483
 20
191.5796843656
 10
79.3781237386
 20
193.041788806
 10
79.2714708392
 20
194.522622837
 10
79.0947895155
 20
196.0087757964
 10
78.8496798208
 20
197.4867888528
 10
78.5383615065
 20
198.9432768911
 10
78.1636539193
 20
200.36504973
 10
77.7289504694
 20
201.7392315746
 10
77.2381878984
 20
203.0533776213
 10
76.6958106281
 20
204.29558676
 10
76.1067305112
 20
205.4546093524
 10
75.4762823483
 20
206.5199491103
 10
74.8101755757
 20
207.4819581521
 10
74.1144425594
 20
208.3319243747
 10
73.3953839654
 20
209.0621503526
 10
72.6595116997
 20
209.6660230461
 10
71.9134899354
 20
210.1380736906
 10
71.1640747612
 20
210.4740273225
 10
70.4180529969
 20
210.6708414935
 10
69.6821807312
 20
210.7267338241
 10
68.9631221372
 20
210.6411981447
 10
68.2673891209
 20
210.4150090796
 10
67.6012823483
 20
210.050215032
 10
66.9708341854
 20
209.5501196333
 10
66.3817540685
 20
208.919251825
 10
65.8393767982
 20
208.1633248434
 10
65.3486142272
 20
207.2891844806
 10
64.9139107773
 20
206.3047470869
 10
64.5392031901
 20
205.2189278798
 10
64.2278848758
 20
204.0415602062
 10
63.9827751811
 20
202.7833064901
 10
63.8060938574
 20
201.4555616719
 10
63.699440958
 20
200.0703500145
 10
63.6637823483
 20
198.6402162089
 10
63.699440958
 20
197.1781117685
 10
63.8060938574
 20
195.6972777375
 10
63.9827751811
 20
194.2111247781
 10
64.2278848758
 20
192.7331117218
 10
64.5392031901
 20
191.2766236835
 10
64.9139107773
 20
189.8548508446
 10
65.3486142272
 20
188.480669
 10
65.8393767982
 20
187.1665229533
 10
66.3817540685
 20
185.9243138146
 10
66.9708341854
 20
184.7652912222
 10
67.6012823483
 20
183.6999514642
 10
68.2673891209
 20
182.7379424225
 10
68.9631221372
 20
181.8879761998
 10
69.6821807312
 20
181.157750222
 10
70.4180529969
 20
180.5538775285
 10
71.1640747612
 20
180.0818268839
 10
71.9134899354
 20
179.7458732521
 10
72.6595116997
 20
179.5490590811
 10
73.3953839654
 20
179.4931667505
 10
74.1144425594
 20
179.5787024299
 10
74.8101755757
 20
179.804891495
 10
75.4762823483
 20
180.1696855426
 10
76.1067305112
 20
180.6697809412
 10
76.6958106281
 20
181.3006487496
 10
77.2381878984
 20
182.0565757311
 10
77.7289504694
 20
182.930716094
 10
78.1636539193
 20
183.9151534877
 10
78.5383615065
 20
185.0009726948
 10
78.8496798208
 20
186.1783403684
 10
79.0947895155
 20
187.4365940845
 10
79.2714708392
 20
188.7643389026
 10
79.3781237386
 20
190.1495505601
 10
79.4137823483
 20
191.5796843656
  0
LWPOLYLINE
  5
E1
330
1F
100
AcDbEntity
  8
0
  6
Continuous
 62
     7
370
    25
100
AcDbPolyline
 90
       66
 70
   128
 43
0.0
 10
79.0387823483
 20
191.7477922666
 10
79.0037696087
 20
193.1618673805
 10
78.8990582943
 20
194.5941312197
 10
78.7256260666
 20
196.0312111224
 10
78.4850922155
 20
197.459689461
 10
78.1797025407
 20
198.866228918
 10
77.8123083834
 20
200.2376970135
 10
77.3863400038
 20
201.5612887194
 10
76.9057745539
 20
202.8246460166
 10
76.3750989438
 20
204.0159732784
 10
75.7992679488
 20
205.1241474031
 10
75.1836579476
 20
206.1388216675
 10
74.534016725
 20
207.0505223314
 10
73.8564098061
 20
207.8507370914
 10
73.1571638241
 20
208.5319945578
 10
72.4428074502
 20
209.0879340131
 10
71.7200104376
 20
209.5133648006
 10
70.9955213471
 20
209.8043147876
 10
70.2761045382
 20
209.9580674525
 10
69.5684770118
 20
209.9731872479
 10
68.8792456955
 20
209.8495330045
 10
68.2148457563
 20
209.5882592487
 10
67.5814805175
 20
209.1918054231
 10
66.9850635397
 20
208.6638731102
 10
66.4311634074
 20
208.0093914718
 10
65.924951737
 20
207.2344712267
 10
65.4711548905
 20
206.3463475963
 10
65.0740098467
 20
205.3533127517
 10
64.7372246419
 20
204.2646383917
 10
64.4639437489
 20
203.0904891755
 10
64.2567187176
 20
201.8418278179
 10
64.1174843524
 20
200.5303127336
 10
64.0475406471
 20
199.1681891856
 10
64.0475406471
 20
197.7681749544
 10
64.1174843524
 20
196.3433415957
 10
64.2567187176
 20
194.9069923947
 10
64.4639437489
 20
193.4725381569
 10
64.7372246419
 20
192.053371995
 10
65.0740098467
 20
190.662744281
 10
65.4711548905
 20
189.3136389312
 10
65.924951737
 20
188.0186521789
 10
66.4311634074
 20
186.7898749663
 10
66.9850635397
 20
185.6387800553
 10
67.5814805175
 20
184.5761149089
 10
68.2148457563
 20
183.6118013453
 10
68.8792456955
 20
182.7548429003
 10
69.5684770118
 20
182.013240764
 10
70.2761045382
 20
181.3939190759
 10
70.9955213471
 20
180.9026602756
 10
71.7200104376
 20
180.5440511142
 10
72.4428074502
 20
180.3214398288
 10
73.1571638241
 20
180.236904881
 10
73.8564098061
 20
180.2912355509
 10
74.534016725
 20
180.4839245675
 10
75.1836579476
 20
180.8131728456
 10
75.7992679488
 20
181.2759062825
 10
76.3750989438
 20
181.867804461
 10
76.9057745539
 20
182.5833409871
 10
77.3863400038
 20
183.4158350892
 10
77.8123083834
 20
184.357513994
 10
78.1797025407
 20
185.3995854994
 10
78.4850922155
 20
186.5323200646
 10
78.7256260666
 20
187.745141652
 10
78.8990582943
 20
189.0267264733
 10
79.0037696087
 20
190.3651087163
 10
79.0387823483
 20
191.7477922666
  0
ARC
  5
E2
330
1F
100
AcDbEntity
  8
0
  6
Continuous
 62
     7
370
    25
100
AcDbCircle
 10
88.0312131168
 20
196.4784616732
 30
0.0
 40
23.24407820781651
100
AcDbArc
 50
194.0063107501
 51
211.5724743232
  0
LINE
  5
E3
330
1F
100
AcDbEntity
  8
0
  6
Continuous
 62
     7
370
    25
100
AcDbLine
 10
69.1041354758
 20
184.4384293314
 30
0.0
 11
68.2277567008
 21
184.3084047418
 31
0.0
  0
LINE
  5
E4
330
1F
100
AcDbEntity
  8
0
  6
Continuous
 62
     7
370
    25
100
AcDbLine
 10
74.6401043254
 20
180.6806956701
 30
0.0
 11
74.8782065022
 21
180.6395335969
 31
0.0
  0
LINE
  5
E5
330
1F
100
AcDbEntity
  8
0
  6
Continuous
 62
     7
370
    25
100
AcDbLine
 10
70.5021796802
 20
209.9244758544
 30
0.0
 11
70.2865114234
 21
209.8155072078
 31
0.0
  0
LINE
  5
E6
330
1F
100
AcDbEntity
  8
0
  6
Continuous
 62
     7
370
    25
100
AcDbLine
 10
69.8636952411
 20
209.61734169
 30
0.0
 11
68.2277567008
 21
209.3977183062
 31
0.0
  0
ARC
  5
E7
330
1F
100
AcDbEntity
  8
0
  6
Continuous
 62
     7
370
    25
100
AcDbCircle
 10
73.0440058226
 20
203.1850721662
 30
0.0
 40
7.860866851923264
100
AcDbArc
 50
127.7840285092
 51
164.2518928237
  0
LWPOLYLINE
  5
E8
330
1F
100
AcDbEntity
  8
0
  6
Continuous
 62
     7
370
    25
100
AcDbPolyline
 90
       59
 70
   128
 43
0.0
 10
65.9717950502
 20
197.8643814651
 10
66.0069673073
 20
199.1018336001
 10
66.1120717159
 20
200.2932431572
 10
66.2858760231
 20
201.4246419488
 10
66.5263425322
 20
202.4827653583
 10
66.8306519932
 20
203.4552078563
 10
67.195236656
 20
204.3305684437
 10
67.6158220987
 20
205.0985843178
 10
68.0874773415
 20
205.7502511948
 10
68.604672658
 20
206.2779288763
 10
69.161344406
 20
206.675430824
 10
69.7509661182
 20
206.938096691
 10
70.366625019
 20
207.0628469602
 10
71.0011030709
 20
207.0482190487
 10
71.6469615987
 20
206.8943844554
 10
72.2966285017
 20
206.6031467502
 10
72.9424870295
 20
206.177920429
 10
73.5769650814
 20
205.6236908816
 10
74.1926239822
 20
204.9469559427
 10
74.7822456944
 20
204.1556497107
 10
75.3389174424
 20
203.2590495277
 10
75.8561127589
 20
202.2676672111
 10
76.3277680017
 20
201.193125812
 10
76.7483534444
 20
200.048023346
 10
77.1129381072
 20
198.8457850925
 10
77.4172475682
 20
197.6005061958
 10
77.6577140773
 20
196.3267864123
 10
77.8315183845
 20
195.039558942
 10
77.9366227931
 20
193.7539153501
 10
77.9717950502
 20
192.4849286321
 10
77.9366227931
 20
191.247476497
 10
77.8315183845
 20
190.0560669399
 10
77.6577140773
 20
188.9246681484
 10
77.4172475682
 20
187.8665447388
 10
77.1129381072
 20
186.8941022408
 10
76.7483534444
 20
186.0187416534
 10
76.3277680017
 20
185.2507257793
 10
75.8561127589
 20
184.5990589023
 10
75.3389174424
 20
184.0713812208
 10
74.7822456944
 20
183.6738792731
 10
74.1926239822
 20
183.4112134061
 10
73.5769650814
 20
183.2864631369
 10
72.9424870295
 20
183.3010910484
 10
72.2966285017
 20
183.4549256418
 10
71.6469615987
 20
183.7461633469
 10
71.0011030709
 20
184.1713896681
 10
70.366625019
 20
184.7256192155
 10
69.7509661182
 20
185.4023541544
 10
69.161344406
 20
186.1936603864
 10
68.604672658
 20
187.0902605694
 10
68.0874773415
 20
188.081642886
 10
67.6158220987
 20
189.1561842851
 10
67.195236656
 20
190.3012867511
 10
66.8306519932
 20
191.5035250046
 10
66.5263425322
 20
192.7488039013
 10
66.2858760231
 20
194.0225236848
 10
66.1120717159
 20
195.3097511551
 10
66.0069673073
 20
196.5953947471
 10
65.9717950502
 20
197.8643814651
  0
LINE
  5
E9
330
1F
100
AcDbEntity
  8
0
  6
Continuous
 62
     7
370
    25
100
AcDbLine
 10
68.2277567008
 20
209.3977183062
 30
0.0
 11
68.5358929915
 21
208.2285404624
 31
0.0
  0
LWPOLYLINE
  5
EA
330
1F
100
AcDbEntity
  8
0
  6
Continuous
 62
     7
370
    25
100
AcDbPolyline
 90
       11
 70
   128
 43
0.0
 10
68.5358929915
 20
208.2285404624
 10
69.1768952848
 20
208.5712530051
 10
69.848445003
 20
208.7675447086
 10
70.5432023069
 20
208.8152701627
 10
71.2535737055
 20
208.7139077425
 10
71.9717950502
 20
208.464565309
 10
72.6900163949
 20
208.0699681012
 10
73.4003877935
 20
207.5344289494
 10
74.0951450974
 20
206.8638011374
 10
74.7666948156
 20
206.0654144283
 10
75.4076971089
 20
205.1479949518
  0
LINE
  5
EB
330
1F
100
AcDbEntity
  8
0
  6
Continuous
 62
     7
370
    25
100
AcDbLine
 10
75.4076971089
 20
205.1479949518
 30
0.0
 11
75.5486753574
 21
205.5565185454
 31
0.0
  0
LINE
  5
EC
330
1F
100
AcDbEntity
  8
0
  6
Continuous
 62
     7
370
    25
100
AcDbLine
 10
78.0857605551
 20
199.24334743
 30
0.0
 11
77.9316795181
 21
199.1405650033
 31
0.0
  0
ARC
  5
ED
330
1F
100
AcDbEntity
  8
0
  6
Continuous
 62
     7
370
    25
100
AcDbCircle
 10
54.8088362935
 20
192.5029119331
 30
0.0
 40
24.05668965320177
100
AcDbArc
 50
343.9833226761
 51
16.0166773239
  0
LINE
  5
EE
330
1F
100
AcDbEntity
  8
0
  6
Continuous
 62
     7
370
    25
100
AcDbLine
 10
77.9316795181
 20
185.8652588629
 30
0.0
 11
78.1958644841
 21
185.4521679411
 31
0.0
  0
LINE
  5
EF
330
1F
100
AcDbEntity
  8
0
  6
Continuous
 62
     7
370
    25
100
AcDbLine
 10
75.6613861893
 20
181.1581837236
 30
0.0
 11
75.4076971089
 21
182.1207696347
 31
0.0
  0
LWPOLYLINE
  5
F0
330
1F
100
AcDbEntity
  8
0
  6
Continuous
 62
     7
370
    25
100
AcDbPolyline
 90
       11
 70
   128
 43
0.0
 10
75.4076971089
 20
182.1207696347
 10
74.7666948156
 20
181.778057092
 10
74.0951450974
 20
181.5817653886
 10
73.4003877935
 20
181.5340399344
 10
72.6900163949
 20
181.6354023547
 10
71.9717950502
 20
181.8847447881
 10
71.2535737055
 20
182.2793419959
 10
70.5432023069
 20
182.8148811478
 10
69.848445003
 20
183.4855089597
 10
69.1768952848
 20
184.2838956688
 10
68.5358929915
 20
185.2013151453
  0
LINE
  5
F1
330
1F
100
AcDbEntity
  8
0
  6
Continuous
 62
     7
370
    25
100
AcDbLine
 10
68.5358929915
 20
185.2013151453
 30
0.0
 11
68.2277567008
 21
184.3084047418
 31
0.0
  0
LINE
  5
F2
330
1F
100
AcDbEntity
  8
0
  6
Continuous
 62
     7
370
    25
100
AcDbLine
 10
65.4782028712
 20
190.852726113
 30
0.0
 11
66.0119105823
 21
191.2087450938
 31
0.0
  0
ARC
  5
F3
330
1F
100
AcDbEntity
  8
0
  6
Continuous
 62
     7
370
    25
100
AcDbCircle
 10
89.1347538069
 20
197.846398164
 30
0.0
 40
24.05668965320158
100
AcDbArc
 50
163.9833226761
 51
196.0166773239
  0
LINE
  5
F4
330
1F
100
AcDbEntity
  8
0
  6
Continuous
 62
     7
370
    25
100
AcDbLine
 10
66.0119105823
 20
204.4840512342
 30
0.0
 11
65.4782028712
 21
205.3185794581
 31
0.0
  0
LINE
  5
F5
330
1F
100
AcDbEntity
  8
0
  6
Continuous
 62
     7
370
    25
100
AcDbLine
 10
78.2995930411
 20
185.9198426938
 30
0.0
 11
77.9316795181
 21
185.8652588629
 31
0.0
  0
LINE
  5
F6
330
1F
100
AcDbEntity
  8
0
  6
Continuous
 62
     7
370
    25
100
AcDbLine
 10
78.0734700067
 20
199.1596042815
 30
0.0
 11
77.9316795181
 21
199.1405650033
 31
0.0
  0
LWPOLYLINE
  5
F7
330
1F
100
AcDbEntity
  8
0
  6
Continuous
 62
     7
370
    25
100
AcDbPolyline
 90
       13
 70
   128
 43
0.0
 10
66.837820454
 20
197.9937909876
 10
66.8729927111
 20
199.2312431226
 10
66.9780971197
 20
200.4226526798
 10
67.1519014269
 20
201.5540514713
 10
67.392367936
 20
202.6121748809
 10
67.696677397
 20
203.5846173789
 10
68.0612620597
 20
204.4599779662
 10
68.4818475024
 20
205.2279938404
 10
68.9535027453
 20
205.8796607174
 10
69.4706980618
 20
206.4073383989
 10
70.0273698098
 20
206.8048403466
 10
70.6169915219
 20
207.0675062136
 10
70.6364151234
 20
207.073673932
  0
LWPOLYLINE
  5
F8
330
1F
100
AcDbEntity
  8
0
  6
Continuous
 62
     7
370
    25
100
AcDbPolyline
 90
       18
 70
   128
 43
0.0
 10
74.1732003807
 20
183.4050456877
 10
73.8085124333
 20
183.430500571
 10
73.1626539055
 20
183.5843351643
 10
72.5129870025
 20
183.8755728695
 10
71.8671284747
 20
184.3007991907
 10
71.2326504228
 20
184.8550287381
 10
70.6169915219
 20
185.531763677
 10
70.0273698098
 20
186.323069909
 10
69.4706980618
 20
187.219670092
 10
68.9535027453
 20
188.2110524086
 10
68.4818475024
 20
189.2855938076
 10
68.0612620597
 20
190.4306962736
 10
67.696677397
 20
191.6329345271
 10
67.392367936
 20
192.8782134239
 10
67.1519014269
 20
194.1519332073
 10
66.9780971197
 20
195.4391606776
 10
66.8729927111
 20
196.7248042696
 10
66.837820454
 20
197.9937909876
  0
ARC
  5
F9
330
1F
100
AcDbEntity
  8
0
  6
Continuous
 62
     7
370
    25
100
AcDbCircle
 10
71.2637174714
 20
205.0722780667
 30
0.0
 40
3.882272154594272
100
AcDbArc
 50
56.7815870904
 51
97.7736170283
  0
LWPOLYLINE
  5
FA
330
1F
100
AcDbEntity
  8
0
  6
Continuous
 62
     7
370
    25
100
AcDbPolyline
 90
        3
 70
   128
 43
0.0
 10
75.4837807731
 20
181.8320813589
 10
74.9588859983
 20
181.6930451696
 10
74.8103341366
 20
181.6703229964
  0
ARC
  5
FB
330
1F
100
AcDbEntity
  8
0
  6
Continuous
 62
     7
370
    25
100
AcDbCircle
 10
81.9363754583
 20
187.2588466855
 30
0.0
 40
6.81356454191761
100
AcDbArc
 50
259.6573408477
 51
278.3946074006
  0
LINE
  5
FC
330
1F
100
AcDbEntity
  8
0
  6
Continuous
 62
     7
370
    25
100
AcDbLine
 10
82.9310871937
 20
180.5182821446
 30
0.0
 11
85.5291634051
 21
180.9065107123
 31
0.0
  0
LINE
  5
FD
330
1F
100
AcDbEntity
  8
0
  6
Continuous
 62
     7
370
    25
100
AcDbLine
 10
85.5291634051
 20
181.2756515013
 30
0.0
 11
85.5291634051
 21
180.9065107123
 31
0.0
  0
LINE
  5
FE
330
1F
100
AcDbEntity
  8
0
  6
Continuous
 62
     7
370
    25
100
AcDbLine
 10
118.0296350998
 20
72.8818016525
 30
0.0
 11
116.7305969941
 21
72.6876873687
 31
0.0
  0
LINE
  5
FF
330
1F
100
AcDbEntity
  8
0
  6
Continuous
 62
     7
370
    25
100
AcDbLine
 10
116.7305969941
 20
72.6876873687
 30
0.0
 11
120.5051136777
 21
142.9728025263
 31
0.0
  0
LINE
  5
100
330
1F
100
AcDbEntity
  8
0
  6
Continuous
 62
     7
370
    25
100
AcDbLine
 10
121.8019708773
 20
143.1263062505
 30
0.0
 11
118.0296350998
 21
72.8818016525
 31
0.0
  0
LINE
  5
101
330
1F
100
AcDbEntity
  8
0
  6
Continuous
 62
     7
370
    25
100
AcDbLine
 10
116.5143964149
 20
142.8122170664
 30
0.0
 11
116.7305969941
 21
72.6876873687
 31
0.0
  0
LINE
  5
102
330
1F
100
AcDbEntity
  8
0
  6
Continuous
 62
     7
370
    25
100
AcDbLine
 10
110.2104030084
 20
143.4983286571
 30
0.0
 11
116.7305969941
 21
72.6876873687
 31
0.0
  0
LINE
  5
103
330
1F
100
AcDbEntity
  8
0
  6
Continuous
 62
     7
370
    25
100
AcDbLine
 10
116.7305969941
 20
72.6876873687
 30
0.0
 11
115.9805969941
 21
73.0239031707
 31
0.0
  0
LINE
  5
104
330
1F
100
AcDbEntity
  8
0
  6
Continuous
 62
     7
370
    25
100
AcDbLine
 10
115.9805969941
 20
73.0239031707
 30
0.0
 11
109.4732749621
 21
143.6947524078
 31
0.0
  0
LINE
  5
105
330
1F
100
AcDbEntity
  8
0
  6
Continuous
 62
     7
370
    25
100
AcDbLine
 10
118.0296350998
 20
72.8818016525
 30
0.0
 11
124.3711191588
 21
143.6468229122
 31
0.0
  0
LWPOLYLINE
  5
106
330
1F
100
AcDbEntity
  8
0
  6
Continuous
 62
     7
370
    25
100
AcDbPolyline
 90
       12
 70
   128
 43
0.0
 10
130.2393479045
 20
150.2946985322
 10
130.4602361517
 20
150.401402219
 10
130.6405080768
 20
150.6437252992
 10
130.7634679464
 20
151.0000356401
 10
130.8181902364
 20
151.4386735043
 10
130.7998126313
 20
151.9206639926
 10
130.7099680619
 20
152.4031801348
 10
130.5566396124
 20
152.8433482544
 10
130.3534511885
 20
153.2020574822
 10
130.1184569733
 20
153.4474349291
 10
129.8725372342
 20
153.5576777323
 10
129.751646303
 20
153.5584612607
  0
LWPOLYLINE
  5
107
330
1F
100
AcDbEntity
  8
0
  6
Continuous
 62
     7
370
    25
100
AcDbPolyline
 90
       45
 70
   128
 43
0.0
 10
120.505116047
 20
171.3571683563
 10
119.64237819
 20
171.2970722145
 10
118.7972031879
 20
171.3758437071
 10
117.9867963664
 20
171.5918792737
 10
117.2276552713
 20
171.9407810531
 10
116.5352338262
 20
172.4154464113
 10
115.923627735
 20
173.0062125304
 10
115.4052875338
 20
173.7010531158
 10
114.9907651345
 20
174.485823217
 10
114.6884990177
 20
175.3445471777
 10
114.5046424498
 20
176.2597438546
 10
114.4429382205
 20
177.2127824824
 10
114.5046424498
 20
178.1842619431
 10
114.6884990177
 20
179.1544057163
 10
114.9907651345
 20
180.1034644726
 10
115.4052875338
 20
181.0121181124
 10
115.923627735
 20
181.861869068
 10
116.5352338262
 20
182.6354188604
 10
117.2276552713
 20
183.3170202466
 10
117.9867963664
 20
183.8927977879
 10
118.7972031879
 20
184.3510303141
 10
119.64237819
 20
184.6823895323
 10
120.505116047
 20
184.8801299243
 10
121.3678539039
 20
184.9402260661
 10
122.2130289061
 20
184.8614545735
 10
123.0234357276
 20
184.6454190069
 10
123.7825768227
 20
184.2965172274
 10
124.4749982677
 20
183.8218518692
 10
125.086604359
 20
183.2310857502
 10
125.6049445602
 20
182.5362451648
 10
126.0194669595
 20
181.7514750636
 10
126.3217330763
 20
180.8927511028
 10
126.5055896441
 20
179.977554426
 10
126.5672938735
 20
179.0245157981
 10
126.5055896441
 20
178.0530363374
 10
126.3217330763
 20
177.0828925642
 10
126.0194669595
 20
176.133833808
 10
125.6049445602
 20
175.2251801682
 10
125.086604359
 20
174.3754292126
 10
124.4749982677
 20
173.6018794202
 10
123.7825768227
 20
172.920278034
 10
123.0234357276
 20
172.3445004926
 10
122.2130289061
 20
171.8862679665
 10
121.3678539039
 20
171.5549087483
 10
120.505116047
 20
171.3571683563
  0
LWPOLYLINE
  5
108
330
1F
100
AcDbEntity
  8
0
  6
Continuous
 62
     7
370
    25
100
AcDbPolyline
 90
       48
 70
   128
 43
0.0
 10
120.255116047
 20
185.9581276846
 10
121.1785551618
 20
186.0271686177
 10
122.0855154837
 20
185.9570817596
 10
122.9598122842
 20
185.7491178121
 10
123.7858437164
 20
185.4069878966
 10
124.5488692296
 20
184.9367973297
 10
125.2352726156
 20
184.3469366732
 10
125.8328049897
 20
183.6479320044
 10
126.3308033724
 20
182.8522570782
 10
126.7203809708
 20
181.9741107326
 10
126.9945857636
 20
181.0291635098
 10
127.1485245595
 20
180.0342780154
 10
127.1794503173
 20
179.0072080047
 10
127.086811166
 20
177.9662815664
 10
126.8722602534
 20
176.9300740573
 10
126.5396262457
 20
175.9170766251
 10
126.0948450046
 20
174.9453662328
 10
125.5458536619
 20
174.0322830756
 10
124.9024489812
 20
173.1941211439
 10
124.1761125341
 20
172.4458374572
 10
123.3798058118
 20
171.8007851558
 10
122.5277389267
 20
171.2704752132
 10
121.6351170324
 20
170.8643710228
 10
120.7178689879
 20
170.5897195236
 10
119.7923631061
 20
170.4514218781
 10
118.8751150616
 20
170.4519460111
 10
117.9824931673
 20
170.5912825693
 10
117.1304262821
 20
170.8669450887
 10
116.3341195599
 20
171.274014365
 10
115.6077831128
 20
171.8052262373
 10
114.9643784321
 20
172.4511012172
 10
114.4153870894
 20
173.2001136503
 10
113.9706058483
 20
174.0388973921
 10
113.6379718406
 20
174.9524843269
 10
113.423420928
 20
175.924571474
 10
113.3307817767
 20
176.9378119154
 10
113.3617075344
 20
177.9741243514
 10
113.5156463304
 20
179.015015762
 10
113.7898511231
 20
180.0419114153
 10
114.1794287216
 20
181.036486334
 10
114.6774271043
 20
181.9809923053
 10
115.2749594783
 20
182.8585745975
 10
115.9613628643
 20
183.653572734
 10
116.7243883776
 20
184.3517999542
 10
117.5504198097
 20
184.9407963767
 10
118.4247166103
 20
185.4100513465
 10
119.3316769322
 20
185.7511909975
 10
120.255116047
 20
185.9581276846
  0
SPLINE
  5
109
330
1F
100
AcDbEntity
  8
0
  6
Continuous
 62
     7
370
    25
100
AcDbSpline
210
0.0
220
0.0
230
1.0
 70
     8
 71
     3
 72
    14
 73
    10
 74
     0
 42
0.00000001
 43
0.00000001
 40
0.0
 40
0.0
 40
0.0
 40
0.0
 40
0.1177446912534527
 40
0.2846007929181349
 40
0.4565871522078226
 40
0.693315132345692
 40
0.7507232106639103
 40
0.8732405862956087
 40
0.9999999999999999
 40
0.9999999999999999
 40
0.9999999999999999
 40
0.9999999999999999
 10
115.7065648891446
 20
171.5344439842789
 30
0.0
 10
115.4829699919688
 20
171.6268041693206
 30
0.0
 10
114.9425185766969
 20
171.8500480507825
 30
0.0
 10
114.1665333170379
 20
172.2959088792918
 30
0.0
 10
113.2527741337405
 20
172.8256024286749
 30
0.0
 10
112.6184473749802
 20
173.1882573899752
 30
0.0
 10
112.1688192786823
 20
173.4002487481668
 30
0.0
 10
111.8863326152344
 20
173.5104196899858
 30
0.0
 10
111.7446083649474
 20
173.5323794859197
 30
0.0
 10
111.6725403520292
 20
173.5435462329925
 30
0.0
  0
LWPOLYLINE
  5
10A
330
1F
100
AcDbEntity
  8
0
  6
Continuous
 62
     7
370
    25
100
AcDbPolyline
 90
       15
 70
   128
 43
0.0
 10
112.1354017285
 20
185.6210997233
 10
111.9424610709
 20
185.4271910809
 10
111.2548829484
 20
184.6254749033
 10
110.6574645314
 20
183.7407867615
 10
110.1609779315
 20
182.7890785564
 10
109.7743753486
 20
181.7875106343
 10
109.5046276525
 20
180.754142367
 10
109.3565986912
 20
179.7076065217
 10
109.3329575897
 20
178.6667732913
 10
109.4341306232
 20
177.6504100445
 10
109.6582935304
 20
176.6768429291
 10
110.0014044074
 20
175.7636264317
 10
110.4572765876
 20
174.9272268506
 10
111.0176901938
 20
174.1827253908
 10
111.672540352
 20
173.543546233
  0
ARC
  5
10B
330
1F
100
AcDbEntity
  8
0
  6
Continuous
 62
     7
370
    25
100
AcDbCircle
 10
118.1876332837
 20
178.9842675329
 30
0.0
 40
0.1810893737533329
100
AcDbArc
 50
54.841950276
 51
127.8972435397
  0
ARC
  5
10C
330
1F
100
AcDbEntity
  8
0
  6
Continuous
 62
     7
370
    25
100
AcDbCircle
 10
118.0406758783
 20
179.1772774766
 30
0.0
 40
0.0615400998620576
100
AcDbArc
 50
279.0468336347
 51
305.4854088425
  0
LINE
  5
10D
330
1F
100
AcDbEntity
  8
0
  6
Continuous
 62
     7
370
    25
100
AcDbLine
 10
117.0722003387
 20
178.97033838
 30
0.0
 11
118.0503525513
 21
179.116502927
 31
0.0
  0
SPLINE
  5
10E
330
1F
100
AcDbEntity
  8
0
  6
Continuous
 62
     7
370
    25
100
AcDbSpline
210
0.0
220
0.0
230
1.0
 70
     8
 71
     3
 72
    12
 73
     8
 74
     0
 42
0.00000001
 43
0.00000001
 40
0.0
 40
0.0
 40
0.0
 40
0.0
 40
0.1740157324271898
 40
0.3489898199805808
 40
0.5252898842116833
 40
0.7209781854369472
 40
1.0
 40
1.0
 40
1.0
 40
1.0
 10
116.8279942450811
 20
178.7097668342214
 30
0.0
 10
116.8300563779717
 20
178.7328836546955
 30
0.0
 10
116.8341920005171
 20
178.779244606681
 30
0.0
 10
116.8659513427506
 20
178.8450059486951
 30
0.0
 10
116.9136910233156
 20
178.9006794535236
 30
0.0
 10
116.9834954346251
 20
178.949190372293
 30
0.0
 10
117.0393629302316
 20
178.9625096609949
 30
0.0
 10
117.0722003387485
 20
178.9703383799935
 30
0.0
  0
ARC
  5
10F
330
1F
100
AcDbEntity
  8
0
  6
Continuous
 62
     7
370
    25
100
AcDbCircle
 10
117.0075627011
 20
178.6946436639
 30
0.0
 40
0.1802041639088767
100
AcDbArc
 50
175.1859370771
 51
276.8002904476
  0
LINE
  5
110
330
1F
100
AcDbEntity
  8
0
  6
Continuous
 62
     7
370
    25
100
AcDbLine
 10
117.0667335543
 20
178.5213606506
 30
0.0
 11
117.0289004963
 21
178.5157072529
 31
0.0
  0
ARC
  5
111
330
1F
100
AcDbEntity
  8
0
  6
Continuous
 62
     7
370
    25
100
AcDbCircle
 10
117.0683904863
 20
178.5074653101
 30
0.0
 40
0.013993781158311
100
AcDbArc
 50
355.1858931567
 51
96.8000524818
  0
LINE
  5
112
330
1F
100
AcDbEntity
  8
0
  6
Continuous
 62
     7
370
    25
100
AcDbLine
 10
117.0823349005
 20
176.6108312649
 30
0.0
 11
117.0823349005
 21
178.5062909074
 31
0.0
  0
ARC
  5
113
330
1F
100
AcDbEntity
  8
0
  6
Continuous
 62
     7
370
    25
100
AcDbCircle
 10
117.062531284
 20
176.6104552068
 30
0.0
 40
0.0198071867391653
100
AcDbArc
 50
282.2488974488
 51
1.0878798812
  0
LINE
  5
114
330
1F
100
AcDbEntity
  8
0
  6
Continuous
 62
     7
370
    25
100
AcDbLine
 10
117.0597309308
 20
176.5900525302
 30
0.0
 11
117.0667335543
 21
176.5910989269
 31
0.0
  0
LINE
  5
115
330
1F
100
AcDbEntity
  8
0
  6
Continuous
 62
     7
370
    25
100
AcDbLine
 10
117.0427564964
 20
176.5865975499
 30
0.0
 11
117.0597309308
 21
176.5900525302
 31
0.0
  0
SPLINE
  5
116
330
1F
100
AcDbEntity
  8
0
  6
Continuous
 62
     7
370
    25
100
AcDbSpline
210
0.0
220
0.0
230
1.0
 70
     8
 71
     3
 72
     9
 73
     5
 74
     0
 42
0.00000001
 43
0.00000001
 40
0.0
 40
0.0
 40
0.0
 40
0.0
 40
0.2999303690545896
 40
1.0
 40
1.0
 40
1.0
 40
1.0
 10
116.9873045002108
 20
176.5885341985615
 30
0.0
 10
116.9925006410726
 20
176.5866239262197
 30
0.0
 10
117.0098251316811
 20
176.5802548734697
 30
0.0
 10
117.0291893667175
 20
176.5840633040362
 30
0.0
 10
117.042745679593
 20
176.5867294706175
 30
0.0
  0
LWPOLYLINE
  5
117
330
1F
100
AcDbEntity
  8
0
  6
Continuous
 62
     7
370
    25
100
AcDbPolyline
 90
        8
 70
   128
 43
0.0
 10
116.5065618999
 20
176.7077332909
 10
116.5372867971
 20
176.7848041743
 10
116.5889202615
 20
176.8482970805
 10
116.6548526536
 20
176.8900842338
 10
116.7266439175
 20
176.9048164287
 10
116.7951039984
 20
176.8906077856
 10
116.8514692689
 20
176.8492771639
 10
116.8779153534
 20
176.8106253885
  0
LINE
  5
118
330
1F
100
AcDbEntity
  8
0
  6
Continuous
 62
     7
370
    25
100
AcDbLine
 10
116.4775761229
 20
176.5827468802
 30
0.0
 11
116.5065618999
 21
176.7077332909
 31
0.0
  0
ARC
  5
119
330
1F
100
AcDbEntity
  8
0
  6
Continuous
 62
     7
370
    25
100
AcDbCircle
 10
116.4058885906
 20
176.5971621633
 30
0.0
 40
0.0731225182877815
100
AcDbArc
 50
281.6709198076
 51
348.6303084166
  0
LINE
  5
11A
330
1F
100
AcDbEntity
  8
0
  6
Continuous
 62
     7
370
    25
100
AcDbLine
 10
116.1055640437
 20
176.4784637847
 30
0.0
 11
116.4206805645
 21
176.5255514086
 31
0.0
  0
SPLINE
  5
11B
330
1F
100
AcDbEntity
  8
0
  6
Continuous
 62
     7
370
    25
100
AcDbSpline
210
0.0
220
0.0
230
1.0
 70
     8
 71
     3
 72
    10
 73
     6
 74
     0
 42
0.00000001
 43
0.00000001
 40
0.0
 40
0.0
 40
0.0
 40
0.0
 40
0.4297373976625531
 40
0.73632387986862
 40
1.0
 40
1.0
 40
1.0
 40
1.0
 10
116.0089097411692
 20
178.8114516683991
 30
0.0
 10
116.0446022609415
 20
178.8131270533626
 30
0.0
 10
116.1057588062734
 20
178.8159977040514
 30
0.0
 10
116.1821066294739
 20
178.7829936851174
 30
0.0
 10
116.2103168593734
 20
178.7442544454586
 30
0.0
 10
116.2233606113877
 20
178.7263423250281
 30
0.0
  0
LINE
  5
11C
330
1F
100
AcDbEntity
  8
0
  6
Continuous
 62
     7
370
    25
100
AcDbLine
 10
115.4426145447
 20
178.7268306045
 30
0.0
 11
116.0089097412
 21
178.8114516684
 31
0.0
  0
SPLINE
  5
11D
330
1F
100
AcDbEntity
  8
0
  6
Continuous
 62
     7
370
    25
100
AcDbSpline
210
0.0
220
0.0
230
1.0
 70
     8
 71
     3
 72
    12
 73
     8
 74
     0
 42
0.00000001
 43
0.00000001
 40
0.0
 40
0.0
 40
0.0
 40
0.0
 40
0.1739875436270847
 40
0.3489420715160844
 40
0.5252447975808529
 40
0.7209266861809024
 40
1.0
 40
1.0
 40
1.0
 40
1.0
 10
115.1984084516852
 20
178.4662597503324
 30
0.0
 10
115.2004699661913
 20
178.4893727009917
 30
0.0
 10
115.2046044526448
 20
178.5357270589749
 30
0.0
 10
115.2363568292885
 20
178.601484178611
 30
0.0
 10
115.2840910028078
 20
178.657159069583
 30
0.0
 10
115.3538981282474
 20
178.7056785373961
 30
0.0
 10
115.4097710215265
 20
178.7189999410032
 30
0.0
 10
115.442614544674
 20
178.7268306045334
 30
0.0
  0
ARC
  5
11E
330
1F
100
AcDbEntity
  8
0
  6
Continuous
 62
     7
370
    25
100
AcDbCircle
 10
115.3779769583
 20
178.4511359948
 30
0.0
 40
0.1802042634284622
100
AcDbArc
 50
175.1857530107
 51
276.8002702593
  0
LINE
  5
11F
330
1F
100
AcDbEntity
  8
0
  6
Continuous
 62
     7
370
    25
100
AcDbLine
 10
115.4369329453
 20
178.2778207755
 30
0.0
 11
115.3993147022
 21
178.2721994774
 31
0.0
  0
ARC
  5
120
330
1F
100
AcDbEntity
  8
0
  6
Continuous
 62
     7
370
    25
100
AcDbCircle
 10
115.4385898773
 20
178.263925435
 30
0.0
 40
0.0139937811378431
100
AcDbArc
 50
355.1858931407
 51
96.8000524827
  0
LINE
  5
121
330
1F
100
AcDbEntity
  8
0
  6
Continuous
 62
     7
370
    25
100
AcDbLine
 10
115.4525342915
 20
176.3772345775
 30
0.0
 11
115.4525342915
 21
178.2627510323
 31
0.0
  0
ARC
  5
122
330
1F
100
AcDbEntity
  8
0
  6
Continuous
 62
     7
370
    25
100
AcDbCircle
 10
115.4327306751
 20
176.3768585192
 30
0.0
 40
0.0198071866727707
100
AcDbArc
 50
282.2488972734
 51
1.0878802071
  0
LINE
  5
123
330
1F
100
AcDbEntity
  8
0
  6
Continuous
 62
     7
370
    25
100
AcDbLine
 10
115.43017718
 20
176.3564927304
 30
0.0
 11
115.4369329453
 21
176.3575022394
 31
0.0
  0
ARC
  5
124
330
1F
100
AcDbEntity
  8
0
  6
Continuous
 62
     7
370
    25
100
AcDbCircle
 10
115.4842557027
 20
176.1072287251
 30
0.0
 40
0.255062794800982
100
AcDbArc
 50
102.2407807773
 51
181.1026249059
  0
SPLINE
  5
125
330
1F
100
AcDbEntity
  8
0
  6
Continuous
 62
     7
370
    25
100
AcDbSpline
210
0.0
220
0.0
230
1.0
 70
     8
 71
     3
 72
    12
 73
     8
 74
     0
 42
0.00000001
 43
0.00000001
 40
0.0
 40
0.0
 40
0.0
 40
0.0
 40
0.3048881377518102
 40
0.5224037230171531
 40
0.741399299242148
 40
0.9298043546327733
 40
1.0
 40
1.0
 40
1.0
 40
1.0
 10
115.4734464031575
 20
175.914797586015
 30
0.0
 10
115.4375419998396
 20
175.9129270513184
 30
0.0
 10
115.3760224074268
 20
175.9097220257089
 30
0.0
 10
115.2983724428617
 20
175.9461758669524
 30
0.0
 10
115.2495059083003
 20
176.001842972852
 30
0.0
 10
115.2310032961761
 20
176.0597323840056
 30
0.0
 10
115.2296166132235
 20
176.0932282348938
 30
0.0
 10
115.229240206259
 20
176.1023204874025
 30
0.0
  0
LINE
  5
126
330
1F
100
AcDbEntity
  8
0
  6
Continuous
 62
     7
370
    25
100
AcDbLine
 10
116.6154044456
 20
176.0854395145
 30
0.0
 11
115.4734464032
 21
175.914797586
 31
0.0
  0
LWPOLYLINE
  5
127
330
1F
100
AcDbEntity
  8
0
  6
Continuous
 62
     7
370
    25
100
AcDbPolyline
 90
        3
 70
   128
 43
0.0
 10
116.6391037004
 20
176.0902665237
 10
116.6311947363
 20
176.0883690279
 10
116.6154044456
 20
176.0854395145
  0
SPLINE
  5
128
330
1F
100
AcDbEntity
  8
0
  6
Continuous
 62
     7
370
    25
100
AcDbSpline
210
0.0
220
0.0
230
1.0
 70
     8
 71
     3
 72
     9
 73
     5
 74
     0
 42
0.00000001
 43
0.00000001
 40
0.0
 40
0.0
 40
0.0
 40
0.0
 40
0.6936011878208724
 40
1.0
 40
1.0
 40
1.0
 40
1.0
 10
117.1030321972272
 20
176.1483621738448
 30
0.0
 10
117.0668671617538
 20
176.1459830184465
 30
0.0
 10
117.0147261964435
 20
176.1425528694788
 30
0.0
 10
116.9690293869024
 20
176.1627500503127
 30
0.0
 10
116.9550279387387
 20
176.1689384425295
 30
0.0
  0
LINE
  5
129
330
1F
100
AcDbEntity
  8
0
  6
Continuous
 62
     7
370
    25
100
AcDbLine
 10
118.1564880711
 20
176.3057792901
 30
0.0
 11
117.1030321972
 21
176.1483621738
 31
0.0
  0
LWPOLYLINE
  5
12A
330
1F
100
AcDbEntity
  8
0
  6
Continuous
 62
     7
370
    25
100
AcDbPolyline
 90
        3
 70
   128
 43
0.0
 10
118.1801873258
 20
176.3106062993
 10
118.1746429315
 20
176.3092458832
 10
118.1564880711
 20
176.3057792901
  0
ARC
  5
12B
330
1F
100
AcDbEntity
  8
0
  6
Continuous
 62
     7
370
    25
100
AcDbCircle
 10
118.4452126211
 20
176.2590718114
 30
0.0
 40
0.1757178122017058
100
AcDbArc
 50
54.8723969335
 51
78.0662240049
  0
SPLINE
  5
12C
330
1F
100
AcDbEntity
  8
0
  6
Continuous
 62
     7
370
    25
100
AcDbSpline
210
0.0
220
0.0
230
1.0
 70
     8
 71
     3
 72
     9
 73
     5
 74
     0
 42
0.00000001
 43
0.00000001
 40
0.0
 40
0.0
 40
0.0
 40
0.0
 40
0.599147088053381
 40
1.0
 40
1.0
 40
1.0
 40
1.0
 10
118.7145735401127
 20
176.3698861925254
 30
0.0
 10
118.6782993919201
 20
176.3674392859946
 30
0.0
 10
118.617756415219
 20
176.3633553029802
 30
0.0
 10
118.5667613770413
 20
176.3915016514895
 30
0.0
 10
118.5463198674929
 20
176.4027841972501
 30
0.0
  0
LINE
  5
12D
330
1F
100
AcDbEntity
  8
0
  6
Continuous
 62
     7
370
    25
100
AcDbLine
 10
119.6640173186
 20
176.5117608599
 30
0.0
 11
118.7145735401
 21
176.3698861925
 31
0.0
  0
LINE
  5
12E
330
1F
100
AcDbEntity
  8
0
  6
Continuous
 62
     7
370
    25
100
AcDbLine
 10
119.7919168709
 20
176.5378111436
 30
0.0
 11
119.6640173186
 21
176.5117608599
 31
0.0
  0
ARC
  5
12F
330
1F
100
AcDbEntity
  8
0
  6
Continuous
 62
     7
370
    25
100
AcDbCircle
 10
119.9336239616
 20
178.3812995945
 30
0.0
 40
1.005471842349778
100
AcDbArc
 50
26.2288161752
 51
98.8237290998
  0
LINE
  5
130
330
1F
100
AcDbEntity
  8
0
  6
Continuous
 62
     7
370
    25
100
AcDbLine
 10
118.683634274
 20
179.2111337369
 30
0.0
 11
119.779389509
 21
179.3748716147
 31
0.0
  0
SPLINE
  5
131
330
1F
100
AcDbEntity
  8
0
  6
Continuous
 62
     7
370
    25
100
AcDbSpline
210
0.0
220
0.0
230
1.0
 70
     8
 71
     3
 72
     9
 73
     5
 74
     0
 42
0.00000001
 43
0.00000001
 40
0.0
 40
0.0
 40
0.0
 40
0.0
 40
0.5608873258326206
 40
1.0
 40
1.0
 40
1.0
 40
1.0
 10
118.5379465601333
 20
179.1482073720534
 30
0.0
 10
118.5639699802718
 20
179.1655211833392
 30
0.0
 10
118.6103668570417
 20
179.1963897918607
 30
0.0
 10
118.6612783793112
 20
179.2066349556286
 30
0.0
 10
118.6836342740009
 20
179.211133736888
 30
0.0
  0
ARC
  5
132
330
1F
100
AcDbEntity
  8
0
  6
Continuous
 62
     7
370
    25
100
AcDbCircle
 10
118.4049141035
 20
179.295215639
 30
0.0
 40
0.1982541417839392
100
AcDbArc
 50
235.2502794391
 51
312.143647439
  0
SPLINE
  5
133
330
1F
100
AcDbEntity
  8
0
  6
Continuous
 62
     7
370
    25
100
AcDbSpline
210
0.0
220
0.0
230
1.0
 70
     8
 71
     3
 72
    12
 73
     8
 74
     0
 42
0.00000001
 43
0.00000001
 40
0.0
 40
0.0
 40
0.0
 40
0.0
 40
0.3048368899470533
 40
0.5223159177079879
 40
0.7412746871363856
 40
0.9296481177258475
 40
1.0
 40
1.0
 40
1.0
 40
1.0
 10
121.1998008904029
 20
176.7704824157182
 30
0.0
 10
121.1638965029398
 20
176.7686118833963
 30
0.0
 10
121.1023769372113
 20
176.7654068618305
 30
0.0
 10
121.0247268328425
 20
176.8018606744936
 30
0.0
 10
120.9758607702802
 20
176.8575278621668
 30
0.0
 10
120.9573504009311
 20
176.9154374290815
 30
0.0
 10
120.955969976739
 20
176.9489567221686
 30
0.0
 10
120.9555946155531
 20
176.9580711970341
 30
0.0
  0
LINE
  5
134
330
1F
100
AcDbEntity
  8
0
  6
Continuous
 62
     7
370
    25
100
AcDbLine
 10
121.7751859707
 20
176.8564617741
 30
0.0
 11
121.1998008904
 21
176.7704824157
 31
0.0
  0
LINE
  5
135
330
1F
100
AcDbEntity
  8
0
  6
Continuous
 62
     7
370
    25
100
AcDbLine
 10
121.8064318624
 20
176.866502626
 30
0.0
 11
121.7751859707
 21
176.8564617741
 31
0.0
  0
ARC
  5
136
330
1F
100
AcDbEntity
  8
0
  6
Continuous
 62
     7
370
    25
100
AcDbCircle
 10
121.8443175123
 20
177.1441441779
 30
0.0
 40
0.1689087493729542
100
AcDbArc
 50
26.2697111172
 51
95.5009831143
  0
ARC
  5
137
330
1F
100
AcDbEntity
  8
0
  6
Continuous
 62
     7
370
    25
100
AcDbCircle
 10
122.1223146306
 20
179.4483765512
 30
0.0
 40
0.1696853688920797
100
AcDbArc
 50
246.4424190641
 51
278.9420924937
  0
LINE
  5
138
330
1F
100
AcDbEntity
  8
0
  6
Continuous
 62
     7
370
    25
100
AcDbLine
 10
122.1868465785
 20
179.286455276
 30
0.0
 11
122.1486898714
 21
179.280753548
 31
0.0
  0
ARC
  5
139
330
1F
100
AcDbEntity
  8
0
  6
Continuous
 62
     7
370
    25
100
AcDbCircle
 10
122.1885035105
 20
179.2725599355
 30
0.0
 40
0.0139937811545312
100
AcDbArc
 50
355.1858931474
 51
96.8000525014
  0
LINE
  5
13A
330
1F
100
AcDbEntity
  8
0
  6
Continuous
 62
     7
370
    25
100
AcDbLine
 10
122.2024479247
 20
177.9329949251
 30
0.0
 11
122.2024479248
 21
179.2713855328
 31
0.0
  0
ARC
  5
13B
330
1F
100
AcDbEntity
  8
0
  6
Continuous
 62
     7
370
    25
100
AcDbCircle
 10
123.0581576998
 20
177.8718655644
 30
0.0
 40
0.8578904463227127
100
AcDbArc
 50
175.9139013151
 51
262.2399120985
  0
ARC
  5
13C
330
1F
100
AcDbEntity
  8
0
  6
Continuous
 62
     7
370
    25
100
AcDbCircle
 10
123.0562690248
 20
178.3038011674
 30
0.0
 40
1.287023812648827
100
AcDbArc
 50
264.9205934355
 51
278.6035520471
  0
LINE
  5
13D
330
1F
100
AcDbEntity
  8
0
  6
Continuous
 62
     7
370
    25
100
AcDbLine
 10
123.3460415215
 20
177.0510653155
 30
0.0
 11
123.2488034641
 21
177.0312600938
 31
0.0
  0
SPLINE
  5
13E
330
1F
100
AcDbEntity
  8
0
  6
Continuous
 62
     7
370
    25
100
AcDbSpline
210
0.0
220
0.0
230
1.0
 70
     8
 71
     3
 72
    11
 73
     7
 74
     0
 42
0.00000001
 43
0.00000001
 40
0.0
 40
0.0
 40
0.0
 40
0.0
 40
0.315108628364646
 40
0.6301506765055125
 40
0.9506825479898402
 40
1.0
 40
1.0
 40
1.0
 40
1.0
 10
124.4532161602134
 20
179.4661871287394
 30
0.0
 10
124.4538558253584
 20
179.4826164117197
 30
0.0
 10
124.4551350204916
 20
179.5154715062889
 30
0.0
 10
124.4376471187027
 20
179.5581834636516
 30
0.0
 10
124.4187689660236
 20
179.5853978818974
 30
0.0
 10
124.4038943333142
 20
179.5923759409206
 30
0.0
 10
124.40191087968
 20
179.5933064282005
 30
0.0
  0
LINE
  5
13F
330
1F
100
AcDbEntity
  8
0
  6
Continuous
 62
     7
370
    25
100
AcDbLine
 10
124.453282507
 20
179.4661867571
 30
0.0
 11
124.4469769275
 21
179.3624092902
 31
0.0
  0
ARC
  5
140
330
1F
100
AcDbEntity
  8
0
  6
Continuous
 62
     7
370
    25
100
AcDbCircle
 10
125.3053060038
 20
179.3360703855
 30
0.0
 40
0.8587331024241074
100
AcDbArc
 50
178.2423586688
 51
228.5608401757
  0
LINE
  5
141
330
1F
100
AcDbEntity
  8
0
  6
Continuous
 62
     7
370
    25
100
AcDbLine
 10
125.205508839
 20
178.3044654688
 30
0.0
 11
124.7369754942
 21
178.6923134648
 31
0.0
  0
SPLINE
  5
142
330
1F
100
AcDbEntity
  8
0
  6
Continuous
 62
     7
370
    25
100
AcDbSpline
210
0.0
220
0.0
230
1.0
 70
     8
 71
     3
 72
    15
 73
    11
 74
     0
 42
0.00000001
 43
0.00000001
 40
0.0
 40
0.0
 40
0.0
 40
0.0
 40
0.1250000000000004
 40
0.2499999999999994
 40
0.3750000000000016
 40
0.4999999999999976
 40
0.6249999999999978
 40
0.7500000000000018
 40
0.8749999999999987
 40
1.0
 40
1.0
 40
1.0
 40
1.0
 10
125.0339600657877
 20
177.7700991729116
 30
0.0
 10
125.0602305942229
 20
177.7766055124183
 30
0.0
 10
125.1127716510931
 20
177.7896181914316
 30
0.0
 10
125.1844124807169
 20
177.8408490224357
 30
0.0
 10
125.242372725698
 20
177.9101680513313
 30
0.0
 10
125.281352575816
 20
177.9936350881904
 30
0.0
 10
125.2979081053403
 20
178.0831581261792
 30
0.0
 10
125.2901526385566
 20
178.1702246013361
 30
0.0
 10
125.2602123068396
 20
178.2488888444367
 30
0.0
 10
125.2237433282467
 20
178.2859399273367
 30
0.0
 10
125.2055088389503
 20
178.3044654687867
 30
0.0
  0
ARC
  5
143
330
1F
100
AcDbEntity
  8
0
  6
Continuous
 62
     7
370
    25
100
AcDbCircle
 10
124.618250109
 20
178.026041305
 30
0.0
 40
0.1690762109372875
100
AcDbArc
 50
26.3019602314
 51
98.7505850396
  0
ARC
  5
144
330
1F
100
AcDbEntity
  8
0
  6
Continuous
 62
     7
370
    25
100
AcDbCircle
 10
124.6461404014
 20
177.944519774
 30
0.0
 40
0.2543442857901588
100
AcDbArc
 50
102.1684707827
 51
178.8305698491
  0
LINE
  5
145
330
1F
100
AcDbEntity
  8
0
  6
Continuous
 62
     7
370
    25
100
AcDbLine
 10
124.3754514101
 20
177.5621184209
 30
0.0
 11
124.3918490917
 21
177.9497106839
 31
0.0
  0
ARC
  5
146
330
1F
100
AcDbEntity
  8
0
  6
Continuous
 62
     7
370
    25
100
AcDbCircle
 10
124.6048610147
 20
177.5373763697
 30
0.0
 40
0.230739974385951
100
AcDbArc
 50
173.8443873397
 51
252.4961647965
  0
ARC
  5
147
330
1F
100
AcDbEntity
  8
0
  6
Continuous
 62
     7
370
    25
100
AcDbCircle
 10
124.8288658354
 20
178.4698355022
 30
0.0
 40
1.18927592496621
100
AcDbArc
 50
255.717180717
 51
278.7597232164
  0
LWPOLYLINE
  5
148
330
1F
100
AcDbEntity
  8
0
  6
Continuous
 62
     7
370
    25
100
AcDbPolyline
 90
        3
 70
   128
 43
0.0
 10
125.5168578444
 20
178.9709695925
 10
125.6833418462
 20
178.7916237242
 10
125.7222495726
 20
178.7245206382
  0
LINE
  5
149
330
1F
100
AcDbEntity
  8
0
  6
Continuous
 62
     7
370
    25
100
AcDbLine
 10
125.088310067
 20
177.3103853528
 30
0.0
 11
125.0099819874
 21
177.2944316715
 31
0.0
  0
LINE
  5
14A
330
1F
100
AcDbEntity
  8
0
  6
Continuous
 62
     7
370
    25
100
AcDbLine
 10
125.0272146627
 20
179.3385174643
 30
0.0
 11
125.5168578444
 21
178.9709695925
 31
0.0
  0
LINE
  5
14B
330
1F
100
AcDbEntity
  8
0
  6
Continuous
 62
     7
370
    25
100
AcDbLine
 10
125.3625299606
 20
179.5765879155
 30
0.0
 11
125.3275345209
 21
179.7170292537
 31
0.0
  0
ARC
  5
14C
330
1F
100
AcDbEntity
  8
0
  6
Continuous
 62
     7
370
    25
100
AcDbCircle
 10
125.531812432
 20
179.6103061739
 30
0.0
 40
0.172607867963118
100
AcDbArc
 50
191.2649372705
 51
284.8624787172
  0
ARC
  5
14D
330
1F
100
AcDbEntity
  8
0
  6
Continuous
 62
     7
370
    25
100
AcDbCircle
 10
125.5941985378
 20
180.074377872
 30
0.0
 40
0.1695984464315674
100
AcDbArc
 50
26.3700419014
 51
86.7468959101
  0
ARC
  5
14E
330
1F
100
AcDbEntity
  8
0
  6
Continuous
 62
     7
370
    25
100
AcDbCircle
 10
125.4898823602
 20
177.792815882
 30
0.0
 40
2.4535342270508
100
AcDbArc
 50
87.3382680252
 51
98.5715739193
  0
SPLINE
  5
14F
330
1F
100
AcDbEntity
  8
0
  6
Continuous
 62
     7
370
    25
100
AcDbSpline
210
0.0
220
0.0
230
1.0
 70
     8
 71
     3
 72
     9
 73
     5
 74
     0
 42
0.00000001
 43
0.00000001
 40
0.0
 40
0.0
 40
0.0
 40
0.0
 40
0.4999999999999991
 40
1.0
 40
1.0
 40
1.0
 40
1.0
 10
125.1241959042828
 20
180.2189452312647
 30
0.0
 10
125.0493225854895
 20
180.2006464178756
 30
0.0
 10
124.8995759479027
 20
180.1640487910972
 30
0.0
 10
124.773283673027
 20
180.0543123004689
 30
0.0
 10
124.7101375355891
 20
179.9994440551547
 30
0.0
  0
ARC
  5
150
330
1F
100
AcDbEntity
  8
0
  6
Continuous
 62
     7
370
    25
100
AcDbCircle
 10
124.5568141463
 20
180.1275932587
 30
0.0
 40
0.1998256241113819
100
AcDbArc
 50
226.1887234567
 51
320.1107891538
  0
SPLINE
  5
151
330
1F
100
AcDbEntity
  8
0
  6
Continuous
 62
     7
370
    25
100
AcDbSpline
210
0.0
220
0.0
230
1.0
 70
     8
 71
     3
 72
    10
 73
     6
 74
     0
 42
0.00000001
 43
0.00000001
 40
0.0
 40
0.0
 40
0.0
 40
0.0
 40
0.4998073485941092
 40
0.8550603720231259
 40
1.0
 40
1.0
 40
1.0
 40
1.0
 10
124.2239624461603
 20
180.0390207947084
 30
0.0
 10
124.2597838321017
 20
180.0408338257402
 30
0.0
 10
124.321066339603
 20
180.0439355228098
 30
0.0
 10
124.3856541215699
 20
180.0144694570218
 30
0.0
 10
124.4111069858818
 20
179.9903800155975
 30
0.0
 10
124.418482401482
 20
179.9833996757856
 30
0.0
  0
LINE
  5
152
330
1F
100
AcDbEntity
  8
0
  6
Continuous
 62
     7
370
    25
100
AcDbLine
 10
123.7352213469
 20
179.9659885811
 30
0.0
 11
124.2239624462
 21
180.0390207947
 31
0.0
  0
SPLINE
  5
153
330
1F
100
AcDbEntity
  8
0
  6
Continuous
 62
     7
370
    25
100
AcDbSpline
210
0.0
220
0.0
230
1.0
 70
     8
 71
     3
 72
    12
 73
     8
 74
     0
 42
0.00000001
 43
0.00000001
 40
0.0
 40
0.0
 40
0.0
 40
0.0
 40
0.1740157324301258
 40
0.3489898199855911
 40
0.52528988421539
 40
0.7209781854414727
 40
0.9999999999999999
 40
0.9999999999999999
 40
0.9999999999999999
 40
0.9999999999999999
 10
123.4910152532048
 20
179.7054170352921
 30
0.0
 10
123.4930773860954
 20
179.7285338557666
 30
0.0
 10
123.4972130086409
 20
179.7748948077528
 30
0.0
 10
123.5289723508751
 20
179.8406561497671
 30
0.0
 10
123.5767120314405
 20
179.8963296545955
 30
0.0
 10
123.6465164427496
 20
179.944840573364
 30
0.0
 10
123.7023839383557
 20
179.9581598620658
 30
0.0
 10
123.735221346872
 20
179.9659885810642
 30
0.0
  0
ARC
  5
154
330
1F
100
AcDbEntity
  8
0
  6
Continuous
 62
     7
370
    25
100
AcDbCircle
 10
123.6705837093
 20
179.690293865
 30
0.0
 40
0.1802041639144545
100
AcDbArc
 50
175.1859370824
 51
276.8002904452
  0
LINE
  5
155
330
1F
100
AcDbEntity
  8
0
  6
Continuous
 62
     7
370
    25
100
AcDbLine
 10
123.7239545603
 20
179.5161441617
 30
0.0
 11
123.6919215044
 21
179.511357454
 31
0.0
  0
ARC
  5
156
330
1F
100
AcDbEntity
  8
0
  6
Continuous
 62
     7
370
    25
100
AcDbCircle
 10
123.7256114922
 20
179.5022488212
 30
0.0
 40
0.0139937811580578
100
AcDbArc
 50
355.1858931558
 51
96.8000524839
  0
LINE
  5
157
330
1F
100
AcDbEntity
  8
0
  6
Continuous
 62
     7
370
    25
100
AcDbLine
 10
123.7395559065
 20
178.1162196079
 30
0.0
 11
123.7395559065
 21
179.5010744185
 31
0.0
  0
LWPOLYLINE
  5
158
330
1F
100
AcDbEntity
  8
0
  6
Continuous
 62
     7
370
    25
100
AcDbPolyline
 90
        8
 70
   128
 43
0.0
 10
122.9033281561
 20
177.6297378024
 10
122.9185509972
 20
177.6142371386
 10
123.0745770672
 20
177.5212725642
 10
123.2586223654
 20
177.5079424076
 10
123.4426676637
 20
177.5762760642
 10
123.5986937336
 20
177.7158703544
 10
123.7029470205
 20
177.9054733128
 10
123.7395559065
 20
178.1162196079
  0
SPLINE
  5
159
330
1F
100
AcDbEntity
  8
0
  6
Continuous
 62
     7
370
    25
100
AcDbSpline
210
0.0
220
0.0
230
1.0
 70
     8
 71
     3
 72
    10
 73
     6
 74
     0
 42
0.00000001
 43
0.00000001
 40
0.0
 40
0.0
 40
0.0
 40
0.0
 40
0.4297374416252042
 40
0.7363239609093561
 40
1.0
 40
1.0
 40
1.0
 40
1.0
 10
122.7509767105877
 20
179.8189136478163
 30
0.0
 10
122.7866692285103
 20
179.8205890327161
 30
0.0
 10
122.8478257711477
 20
179.823459683318
 30
0.0
 10
122.9241735846795
 20
179.7904556732097
 30
0.0
 10
122.9523838107879
 20
179.7517164451864
 30
0.0
 10
122.9654275580459
 20
179.7338043342603
 30
0.0
  0
LINE
  5
15A
330
1F
100
AcDbEntity
  8
0
  6
Continuous
 62
     7
370
    25
100
AcDbLine
 10
122.1919911406
 20
179.7353848559
 30
0.0
 11
122.7509767106
 21
179.8189136478
 31
0.0
  0
SPLINE
  5
15B
330
1F
100
AcDbEntity
  8
0
  6
Continuous
 62
     7
370
    25
100
AcDbSpline
210
0.0
220
0.0
230
1.0
 70
     8
 71
     3
 72
     9
 73
     5
 74
     0
 42
0.00000001
 43
0.00000001
 40
0.0
 40
0.0
 40
0.0
 40
0.0
 40
0.6180233563935814
 40
1.0
 40
1.0
 40
1.0
 40
1.0
 10
122.0549593838006
 20
179.6791445459701
 30
0.0
 10
122.0822319279733
 20
179.6958074955155
 30
0.0
 10
122.1263605905725
 20
179.7227691780685
 30
0.0
 10
122.1738509373536
 20
179.7318978980907
 30
0.0
 10
122.1919911406207
 20
179.7353848559252
 30
0.0
  0
ARC
  5
15C
330
1F
100
AcDbEntity
  8
0
  6
Continuous
 62
     7
370
    25
100
AcDbCircle
 10
121.9275492791
 20
179.8372685036
 30
0.0
 40
0.2030612601726784
100
AcDbArc
 50
248.2621737145
 51
308.8608896703
  0
SPLINE
  5
15D
330
1F
100
AcDbEntity
  8
0
  6
Continuous
 62
     7
370
    25
100
AcDbSpline
210
0.0
220
0.0
230
1.0
 70
     8
 71
     3
 72
     9
 73
     5
 74
     0
 42
0.00000001
 43
0.00000001
 40
0.0
 40
0.0
 40
0.0
 40
0.0
 40
0.7528705314191161
 40
1.0
 40
1.0
 40
1.0
 40
1.0
 10
121.7149244716112
 20
179.6640971435899
 30
0.0
 10
121.7510405932253
 20
179.6664490528462
 30
0.0
 10
121.7990118181662
 20
179.6695729754307
 30
0.0
 10
121.8417724796954
 20
179.6527874379997
 30
0.0
 10
121.8523398992552
 20
179.6486392370545
 30
0.0
  0
LINE
  5
15E
330
1F
100
AcDbEntity
  8
0
  6
Continuous
 62
     7
370
    25
100
AcDbLine
 10
121.1999759546
 20
179.5871487753
 30
0.0
 11
121.7149244716
 21
179.6640971436
 31
0.0
  0
SPLINE
  5
15F
330
1F
100
AcDbEntity
  8
0
  6
Continuous
 62
     7
370
    25
100
AcDbSpline
210
0.0
220
0.0
230
1.0
 70
     8
 71
     3
 72
    12
 73
     8
 74
     0
 42
0.00000001
 43
0.00000001
 40
0.0
 40
0.0
 40
0.0
 40
0.0
 40
0.1740153969187721
 40
0.3489891911759309
 40
0.5252888908340747
 40
0.7209767566954299
 40
1.0
 40
1.0
 40
1.0
 40
1.0
 10
120.955769681169
 20
179.3265767672409
 30
0.0
 10
120.9578318360325
 20
179.3496935483862
 30
0.0
 10
120.9619675031666
 20
179.3960544273506
 30
0.0
 10
120.9937266087928
 20
179.4618158247892
 30
0.0
 10
121.0414661559744
 20
179.5174894116569
 30
0.0
 10
121.1112706388855
 20
179.5660006241759
 30
0.0
 10
121.1671383310701
 20
179.5793199882688
 30
0.0
 10
121.1999759545602
 20
179.5871487752852
 30
0.0
  0
ARC
  5
160
330
1F
100
AcDbEntity
  8
0
  6
Continuous
 62
     7
370
    25
100
AcDbCircle
 10
121.1351443864
 20
179.31134052
 30
0.0
 40
0.1800206324284042
100
AcDbArc
 50
175.1448995086
 51
277.9249537273
  0
ARC
  5
161
330
1F
100
AcDbEntity
  8
0
  6
Continuous
 62
     7
370
    25
100
AcDbCircle
 10
121.1606588553
 20
179.1189439776
 30
0.0
 40
0.014053445849558
100
AcDbArc
 50
355.3507440427
 51
92.8134399569
  0
LINE
  5
162
330
1F
100
AcDbEntity
  8
0
  6
Continuous
 62
     7
370
    25
100
AcDbLine
 10
121.1746660592
 20
177.2322884094
 30
0.0
 11
121.1746660592
 21
179.1178048642
 31
0.0
  0
ARC
  5
163
330
1F
100
AcDbEntity
  8
0
  6
Continuous
 62
     7
370
    25
100
AcDbCircle
 10
121.154802543
 20
177.2319403999
 30
0.0
 40
0.019866564556643
100
AcDbArc
 50
283.2467209893
 51
1.0037214489
  0
ARC
  5
164
330
1F
100
AcDbEntity
  8
0
  6
Continuous
 62
     7
370
    25
100
AcDbCircle
 10
121.2100210221
 20
176.9631948941
 30
0.0
 40
0.2544903575053942
100
AcDbArc
 50
101.4842605296
 51
181.1540400375
  0
LINE
  5
165
330
1F
100
AcDbEntity
  8
0
  6
Continuous
 62
     7
370
    25
100
AcDbLine
 10
115.4426145447
 20
178.7268306045
 30
0.0
 11
115.6926145447
 21
178.4389745459
 31
0.0
  0
SPLINE
  5
166
330
1F
100
AcDbEntity
  8
0
  6
Continuous
 62
     7
370
    25
100
AcDbSpline
210
0.0
220
0.0
230
1.0
 70
     8
 71
     3
 72
    13
 73
     9
 74
     0
 42
0.00000001
 43
0.00000001
 40
0.0
 40
0.0
 40
0.0
 40
0.0
 40
0.3245505940747594
 40
0.6090133107801764
 40
0.7289580633042191
 40
0.8297048721637489
 40
0.9171314382234875
 40
0.9999999999999999
 40
0.9999999999999999
 40
0.9999999999999999
 40
0.9999999999999999
 10
115.6926145449294
 20
178.4389745459105
 30
0.0
 10
115.6812555113733
 20
178.4367006426832
 30
0.0
 10
115.659940490666
 20
178.4324337044672
 30
0.0
 10
115.6354862681961
 20
178.4194418897473
 30
0.0
 10
115.6202800351725
 20
178.4070431938062
 30
0.0
 10
115.6122984446455
 20
178.3977201324846
 30
0.0
 10
115.607060030204
 20
178.3877910303667
 30
0.0
 10
115.6063551228651
 20
178.3810283363256
 30
0.0
 10
115.6060121027323
 20
178.3777374921538
 30
0.0
  0
LINE
  5
167
330
1F
100
AcDbEntity
  8
0
  6
Continuous
 62
     7
370
    25
100
AcDbLine
 10
115.6060121953
 20
178.3777374363
 30
0.0
 11
115.1984084517
 21
178.4662597503
 31
0.0
  0
LINE
  5
168
330
1F
100
AcDbEntity
  8
0
  6
Continuous
 62
     7
370
    25
100
AcDbLine
 10
115.3993147022
 20
178.2721994774
 30
0.0
 11
115.649313648
 21
178.3359115547
 31
0.0
  0
SPLINE
  5
169
330
1F
100
AcDbEntity
  8
0
  6
Continuous
 62
     7
370
    25
100
AcDbSpline
210
0.0
220
0.0
230
1.0
 70
     8
 71
     3
 72
    11
 73
     7
 74
     0
 42
0.00000001
 43
0.00000001
 40
0.0
 40
0.0
 40
0.0
 40
0.0
 40
0.249999999999996
 40
0.4999999999999953
 40
0.749999999999998
 40
1.0
 40
1.0
 40
1.0
 40
1.0
 10
115.649313647979
 20
178.3359115546737
 30
0.0
 10
115.6436395479183
 20
178.3357896171757
 30
0.0
 10
115.6322913477968
 20
178.3355457421796
 30
0.0
 10
115.6179782391199
 20
178.3445754411517
 30
0.0
 10
115.6079648051452
 20
178.3590433127812
 30
0.0
 10
115.606663059682
 20
178.3715060630092
 30
0.0
 10
115.6060121869504
 20
178.3777374381231
 30
0.0
  0
LINE
  5
16A
330
1F
100
AcDbEntity
  8
0
  6
Continuous
 62
     7
370
    25
100
AcDbLine
 10
115.4369329453
 20
178.2778207755
 30
0.0
 11
115.6869329454
 21
178.3415329661
 31
0.0
  0
LINE
  5
16B
330
1F
100
AcDbEntity
  8
0
  6
Continuous
 62
     7
370
    25
100
AcDbLine
 10
115.6869329454
 20
178.3415329661
 30
0.0
 11
115.6493135365
 21
178.3359115263
 31
0.0
  0
LINE
  5
16C
330
1F
100
AcDbEntity
  8
0
  6
Continuous
 62
     7
370
    25
100
AcDbLine
 10
116.1055640437
 20
178.21090353
 30
0.0
 11
116.1055640437
 21
176.3947318713
 31
0.0
  0
SPLINE
  5
16D
330
1F
100
AcDbEntity
  8
0
  6
Continuous
 62
     7
370
    25
100
AcDbSpline
210
0.0
220
0.0
230
1.0
 70
     8
 71
     3
 72
    11
 73
     7
 74
     0
 42
0.00000001
 43
0.00000001
 40
0.0
 40
0.0
 40
0.0
 40
0.0
 40
0.249999999999999
 40
0.5000000000000023
 40
0.7500000000000008
 40
1.0
 40
1.0
 40
1.0
 40
1.0
 10
116.1055640437412
 20
176.3947318712759
 30
0.0
 10
116.1088184747146
 20
176.363575162235
 30
0.0
 10
116.1153273366613
 20
176.3012617441533
 30
0.0
 10
116.1653942599568
 20
176.228922733841
 30
0.0
 10
116.236959338116
 20
176.183774252645
 30
0.0
 10
116.2937000425062
 20
176.1849932811003
 30
0.0
 10
116.3220703947013
 20
176.1856027953279
 30
0.0
  0
LINE
  5
16E
330
1F
100
AcDbEntity
  8
0
  6
Continuous
 62
     7
370
    25
100
AcDbLine
 10
116.3220703947
 20
176.1856027953
 30
0.0
 11
116.6706805645
 21
176.2376953499
 31
0.0
  0
SPLINE
  5
16F
330
1F
100
AcDbEntity
  8
0
  6
Continuous
 62
     7
370
    25
100
AcDbSpline
210
0.0
220
0.0
230
1.0
 70
     8
 71
     3
 72
    11
 73
     7
 74
     0
 42
0.00000001
 43
0.00000001
 40
0.0
 40
0.0
 40
0.0
 40
0.0
 40
0.2499999999999996
 40
0.5
 40
0.7500000000000006
 40
1.0
 40
1.0
 40
1.0
 40
1.0
 10
116.6706805645073
 20
176.2376953499311
 30
0.0
 10
116.6943186369574
 20
176.2437317408174
 30
0.0
 10
116.7415947818577
 20
176.25580452259
 30
0.0
 10
116.8045858092239
 20
176.3045469886817
 30
0.0
 10
116.8549496618787
 20
176.3697569293989
 30
0.0
 10
116.8715229809276
 20
176.4218701808092
 30
0.0
 10
116.8798096404521
 20
176.4479268065143
 30
0.0
  0
LINE
  5
170
330
1F
100
AcDbEntity
  8
0
  6
Continuous
 62
     7
370
    25
100
AcDbLine
 10
116.8798096404
 20
176.4479268065
 30
0.0
 11
116.9087954174
 21
176.5729132172
 31
0.0
  0
SPLINE
  5
171
330
1F
100
AcDbEntity
  8
0
  6
Continuous
 62
     7
370
    25
100
AcDbSpline
210
0.0
220
0.0
230
1.0
 70
     8
 71
     3
 72
    11
 73
     7
 74
     0
 42
0.00000001
 43
0.00000001
 40
0.0
 40
0.0
 40
0.0
 40
0.0
 40
0.2500000000000165
 40
0.5000000000000038
 40
0.7500000000000104
 40
1.0
 40
1.0
 40
1.0
 40
1.0
 10
116.908795417424
 20
176.5729132171817
 30
0.0
 10
116.9104527493281
 20
176.5781245423206
 30
0.0
 10
116.9137674131364
 20
176.5885471925983
 30
0.0
 10
116.923840183663
 20
176.6015891807363
 30
0.0
 10
116.9364383891309
 20
176.6113376739507
 30
0.0
 10
116.9458936181069
 20
176.6137522303042
 30
0.0
 10
116.950621232595
 20
176.6149595084809
 30
0.0
  0
SPLINE
  5
172
330
1F
100
AcDbEntity
  8
0
  6
Continuous
 62
     7
370
    25
100
AcDbSpline
210
0.0
220
0.0
230
1.0
 70
     8
 71
     3
 72
    15
 73
    11
 74
     0
 42
0.00000001
 43
0.00000001
 40
0.0
 40
0.0
 40
0.0
 40
0.0
 40
0.1249999999999993
 40
0.2500000000000068
 40
0.3750000000000038
 40
0.5000000000000026
 40
0.6249999999999997
 40
0.749999999999978
 40
0.8749999999999869
 40
1.0
 40
1.0
 40
1.0
 40
1.0
 10
116.950621232595
 20
176.6149595084809
 30
0.0
 10
116.9537202063774
 20
176.6152075268596
 30
0.0
 10
116.9599181539424
 20
176.615703563617
 30
0.0
 10
116.9687879661918
 20
176.6136013509491
 30
0.0
 10
116.9768242600825
 20
176.6095028936219
 30
0.0
 10
116.983654557233
 20
176.6033945523968
 30
0.0
 10
116.9889780559431
 20
176.5956107298443
 30
0.0
 10
116.9925023120693
 20
176.5864951217026
 30
0.0
 10
116.994244556913
 20
176.5764674255875
 30
0.0
 10
116.9937191753597
 20
176.5694874708034
 30
0.0
 10
116.993456484583
 20
176.5659974934113
 30
0.0
  0
LINE
  5
173
330
1F
100
AcDbEntity
  8
0
  6
Continuous
 62
     7
370
    25
100
AcDbLine
 10
116.9934558203
 20
176.5659983651
 30
0.0
 11
116.9510495386
 21
176.244218732
 31
0.0
  0
SPLINE
  5
174
330
1F
100
AcDbEntity
  8
0
  6
Continuous
 62
     7
370
    25
100
AcDbSpline
210
0.0
220
0.0
230
1.0
 70
     8
 71
     3
 72
    11
 73
     7
 74
     0
 42
0.00000001
 43
0.00000001
 40
0.0
 40
0.0
 40
0.0
 40
0.0
 40
0.2500000000000078
 40
0.499999999999995
 40
0.7499999999999934
 40
1.0
 40
1.0
 40
1.0
 40
1.0
 10
116.951049538569
 20
176.2442187320508
 30
0.0
 10
116.9484753996309
 20
176.2326795305548
 30
0.0
 10
116.9433271217546
 20
176.2096011275627
 30
0.0
 10
116.9229919540978
 20
176.1797699402932
 30
0.0
 10
116.8962205688931
 20
176.1573123183077
 30
0.0
 10
116.8756764867324
 20
176.151871909549
 30
0.0
 10
116.865404445652
 20
176.1491517051696
 30
0.0
  0
LINE
  5
175
330
1F
100
AcDbEntity
  8
0
  6
Continuous
 62
     7
370
    25
100
AcDbLine
 10
116.8654044456
 20
176.1491517052
 30
0.0
 11
115.7234464032
 21
175.9785097766
 31
0.0
  0
SPLINE
  5
176
330
1F
100
AcDbEntity
  8
0
  6
Continuous
 62
     7
370
    25
100
AcDbSpline
210
0.0
220
0.0
230
1.0
 70
     8
 71
     3
 72
    13
 73
     9
 74
     0
 42
0.00000001
 43
0.00000001
 40
0.0
 40
0.0
 40
0.0
 40
0.0
 40
0.3223508477000107
 40
0.6087192821617847
 40
0.7282165555304031
 40
0.8287567344185309
 40
0.9163860300243915
 40
1.0
 40
1.0
 40
1.0
 40
1.0
 10
115.7234464031574
 20
175.9785097766941
 30
0.0
 10
115.7121624128359
 20
175.9774145755048
 30
0.0
 10
115.6908540076077
 20
175.9753464249585
 30
0.0
 10
115.6664188728135
 20
175.980985447085
 30
0.0
 10
115.6511051190678
 20
175.9887282484774
 30
0.0
 10
115.6431164090335
 20
175.9956450606668
 30
0.0
 10
115.6378833403422
 20
176.0040526743703
 30
0.0
 10
115.6371848962658
 20
176.0106458316131
 30
0.0
 10
115.6368438628136
 20
176.0138651117983
 30
0.0
  0
SPLINE
  5
177
330
1F
100
AcDbEntity
  8
0
  6
Continuous
 62
     7
370
    25
100
AcDbSpline
210
0.0
220
0.0
230
1.0
 70
     8
 71
     3
 72
    11
 73
     7
 74
     0
 42
0.00000001
 43
0.00000001
 40
0.0
 40
0.0
 40
0.0
 40
0.0
 40
0.2499999999999941
 40
0.5000000000000078
 40
0.7499999999999978
 40
1.0
 40
1.0
 40
1.0
 40
1.0
 10
115.636843862859
 20
176.0138651118189
 30
0.0
 10
115.6374947484436
 20
176.0202909759712
 30
0.0
 10
115.6387965196128
 20
176.0331427042757
 30
0.0
 10
115.6488099016036
 20
176.0506030911291
 30
0.0
 10
115.6631229145258
 20
176.0639103547753
 30
0.0
 10
115.6744710542483
 20
176.0670580393947
 30
0.0
 10
115.6801451241096
 20
176.0686318817044
 30
0.0
  0
LINE
  5
178
330
1F
100
AcDbEntity
  8
0
  6
Continuous
 62
     7
370
    25
100
AcDbLine
 10
115.6801451241
 20
176.0686318818
 30
0.0
 11
115.6869329454
 21
176.0696461808
 31
0.0
  0
SPLINE
  5
179
330
1F
100
AcDbEntity
  8
0
  6
Continuous
 62
     7
370
    25
100
AcDbSpline
210
0.0
220
0.0
230
1.0
 70
     8
 71
     3
 72
    11
 73
     7
 74
     0
 42
0.00000001
 43
0.00000001
 40
0.0
 40
0.0
 40
0.0
 40
0.0
 40
0.2500000000000033
 40
0.4999999999999997
 40
0.75
 40
1.0
 40
1.0
 40
1.0
 40
1.0
 10
115.8601380261389
 20
176.2887132505858
 30
0.0
 10
115.8575344813602
 20
176.2630097918902
 30
0.0
 10
115.8523273918029
 20
176.2116028744991
 30
0.0
 10
115.8122738531668
 20
176.1417613261448
 30
0.0
 10
115.7550217906399
 20
176.0885322761908
 30
0.0
 10
115.7096292271282
 20
176.0759415459339
 30
0.0
 10
115.6869329453723
 20
176.0696461808054
 30
0.0
  0
LINE
  5
17A
330
1F
100
AcDbEntity
  8
0
  6
Continuous
 62
     7
370
    25
100
AcDbLine
 10
115.8601380261
 20
176.2887132506
 30
0.0
 11
115.8601380261
 21
178.1742297054
 31
0.0
  0
SPLINE
  5
17B
330
1F
100
AcDbEntity
  8
0
  6
Continuous
 62
     7
370
    25
100
AcDbSpline
210
0.0
220
0.0
230
1.0
 70
     8
 71
     3
 72
    11
 73
     7
 74
     0
 42
0.00000001
 43
0.00000001
 40
0.0
 40
0.0
 40
0.0
 40
0.0
 40
0.2499999999999996
 40
0.5000000000000049
 40
0.7500000000000041
 40
0.9999999999999999
 40
0.9999999999999999
 40
0.9999999999999999
 40
0.9999999999999999
 10
115.6869329453723
 20
178.3415329661573
 30
0.0
 10
115.7096292271288
 20
178.3420205775394
 30
0.0
 10
115.7550217906419
 20
178.3429958003037
 30
0.0
 10
115.8122738531704
 20
178.3068770153461
 30
0.0
 10
115.8523273918076
 20
178.2490058070951
 30
0.0
 10
115.8575344813651
 20
178.1991550726287
 30
0.0
 10
115.8601380261439
 20
178.1742297053955
 30
0.0
  0
LINE
  5
17C
330
1F
100
AcDbEntity
  8
0
  6
Continuous
 62
     7
370
    25
100
AcDbLine
 10
115.6926145447
 20
178.4389745459
 30
0.0
 11
116.2589097412
 21
178.5235956097
 31
0.0
  0
SPLINE
  5
17D
330
1F
100
AcDbEntity
  8
0
  6
Continuous
 62
     7
370
    25
100
AcDbSpline
210
0.0
220
0.0
230
1.0
 70
     8
 71
     3
 72
    13
 73
     9
 74
     0
 42
0.00000001
 43
0.00000001
 40
0.0
 40
0.0
 40
0.0
 40
0.0
 40
0.3223508477176387
 40
0.608719282185445
 40
0.7282165555515098
 40
0.8287567344366732
 40
0.9163860300363842
 40
1.0
 40
1.0
 40
1.0
 40
1.0
 10
116.2589097411695
 20
178.5235956096785
 30
0.0
 10
116.2701937314912
 20
178.5246908108679
 30
0.0
 10
116.2915021367193
 20
178.5267589614143
 30
0.0
 10
116.3159372715133
 20
178.5211199392877
 30
0.0
 10
116.3312510252582
 20
178.5133771378954
 30
0.0
 10
116.3392397352923
 20
178.5064603257071
 30
0.0
 10
116.3444728039838
 20
178.4980527120053
 30
0.0
 10
116.3451712480608
 20
178.4914595547637
 30
0.0
 10
116.3455122815133
 20
178.4882402745791
 30
0.0
  0
SPLINE
  5
17E
330
1F
100
AcDbEntity
  8
0
  6
Continuous
 62
     7
370
    25
100
AcDbSpline
210
0.0
220
0.0
230
1.0
 70
     8
 71
     3
 72
    11
 73
     7
 74
     0
 42
0.00000001
 43
0.00000001
 40
0.0
 40
0.0
 40
0.0
 40
0.0
 40
0.2500000000000105
 40
0.500000000000004
 40
0.7500000000000077
 40
1.0
 40
1.0
 40
1.0
 40
1.0
 10
116.3455122814214
 20
178.4882402745791
 30
0.0
 10
116.3448613958636
 20
178.481814410415
 30
0.0
 10
116.3435596247479
 20
178.4689626820866
 30
0.0
 10
116.3335462427792
 20
178.4515022952239
 30
0.0
 10
116.3192332298329
 20
178.4381950315891
 30
0.0
 10
116.3078850900558
 20
178.4350473469944
 30
0.0
 10
116.3022110201672
 20
178.433473504697
 30
0.0
  0
LINE
  5
17F
330
1F
100
AcDbEntity
  8
0
  6
Continuous
 62
     7
370
    25
100
AcDbLine
 10
116.3022110202
 20
178.4334735046
 30
0.0
 11
116.2787691245
 21
178.4299705998
 31
0.0
  0
SPLINE
  5
180
330
1F
100
AcDbEntity
  8
0
  6
Continuous
 62
     7
370
    25
100
AcDbSpline
210
0.0
220
0.0
230
1.0
 70
     8
 71
     3
 72
    11
 73
     7
 74
     0
 42
0.00000001
 43
0.00000001
 40
0.0
 40
0.0
 40
0.0
 40
0.0
 40
0.2500000000000016
 40
0.4999999999999998
 40
0.750000000000001
 40
0.9999999999999999
 40
0.9999999999999999
 40
0.9999999999999999
 40
0.9999999999999999
 10
116.1055640437471
 20
178.210903529998
 30
0.0
 10
116.1081675885258
 20
178.2366069886933
 30
0.0
 10
116.1133746780831
 20
178.288013906084
 30
0.0
 10
116.1534282167188
 20
178.3578554544375
 30
0.0
 10
116.2106802792451
 20
178.411084504391
 30
0.0
 10
116.2560728427564
 20
178.4236752346478
 30
0.0
 10
116.278769124512
 20
178.4299705997762
 30
0.0
  0
LINE
  5
181
330
1F
100
AcDbEntity
  8
0
  6
Continuous
 62
     7
370
    25
100
AcDbLine
 10
116.0089097412
 20
178.8114516684
 30
0.0
 11
116.2589097413
 21
178.5235956096
 31
0.0
  0
LINE
  5
182
330
1F
100
AcDbEntity
  8
0
  6
Continuous
 62
     7
370
    25
100
AcDbLine
 10
115.8601380262
 20
178.1742297054
 30
0.0
 11
115.4525342915
 21
178.2627510323
 31
0.0
  0
LINE
  5
183
330
1F
100
AcDbEntity
  8
0
  6
Continuous
 62
     7
370
    25
100
AcDbLine
 10
115.4525342915
 20
176.3772345775
 30
0.0
 11
115.8601380261
 21
176.2887132506
 31
0.0
  0
LINE
  5
184
330
1F
100
AcDbEntity
  8
0
  6
Continuous
 62
     7
370
    25
100
AcDbLine
 10
115.2292664711
 20
176.1023147731
 30
0.0
 11
115.6368438629
 21
176.0138651118
 31
0.0
  0
LINE
  5
185
330
1F
100
AcDbEntity
  8
0
  6
Continuous
 62
     7
370
    25
100
AcDbLine
 10
115.43017718
 20
176.3564927306
 30
0.0
 11
115.6801451241
 21
176.0686318818
 31
0.0
  0
LINE
  5
186
330
1F
100
AcDbEntity
  8
0
  6
Continuous
 62
     7
370
    25
100
AcDbLine
 10
115.4734464032
 20
175.914797586
 30
0.0
 11
115.7234464032
 21
175.9785097767
 31
0.0
  0
LINE
  5
187
330
1F
100
AcDbEntity
  8
0
  6
Continuous
 62
     7
370
    25
100
AcDbLine
 10
115.6869329454
 20
176.0696461808
 30
0.0
 11
115.4369329453
 21
176.3575022394
 31
0.0
  0
LINE
  5
188
330
1F
100
AcDbEntity
  8
0
  6
Continuous
 62
     7
370
    25
100
AcDbLine
 10
116.6154044456
 20
176.0854395145
 30
0.0
 11
116.8654044456
 21
176.1491517052
 31
0.0
  0
LINE
  5
189
330
1F
100
AcDbEntity
  8
0
  6
Continuous
 62
     7
370
    25
100
AcDbLine
 10
116.8279942451
 20
178.7097668342
 30
0.0
 11
117.2355979893
 21
178.621245093
 31
0.0
  0
LINE
  5
18A
330
1F
100
AcDbEntity
  8
0
  6
Continuous
 62
     7
370
    25
100
AcDbLine
 10
117.0722003387
 20
178.97033838
 30
0.0
 11
117.3222003387
 21
178.6824823213
 31
0.0
  0
SPLINE
  5
18B
330
1F
100
AcDbEntity
  8
0
  6
Continuous
 62
     7
370
    25
100
AcDbSpline
210
0.0
220
0.0
230
1.0
 70
     8
 71
     3
 72
    13
 73
     9
 74
     0
 42
0.00000001
 43
0.00000001
 40
0.0
 40
0.0
 40
0.0
 40
0.0
 40
0.0836119816603148
 40
0.171239110770481
 40
0.2717759348188118
 40
0.3912681152243557
 40
0.6776410263567131
 40
1.0
 40
1.0
 40
1.0
 40
1.0
 10
117.235597896802
 20
178.6212452676132
 30
0.0
 10
117.2359389699633
 20
178.6245663758496
 30
0.0
 10
117.2366374950273
 20
178.6313680759155
 30
0.0
 10
117.2418703450324
 20
178.6413393269799
 30
0.0
 10
117.2498586391562
 20
178.6506434022723
 30
0.0
 10
117.265172056282
 20
178.6629629978307
 30
0.0
 10
117.2896073204324
 20
178.6759050209996
 30
0.0
 10
117.3109160997477
 20
178.6802051517712
 30
0.0
 10
117.3222003390022
 20
178.6824823213704
 30
0.0
  0
LINE
  5
18C
330
1F
100
AcDbEntity
  8
0
  6
Continuous
 62
     7
370
    25
100
AcDbLine
 10
117.0289004963
 20
178.5157072529
 30
0.0
 11
117.278899442
 21
178.5794193301
 31
0.0
  0
SPLINE
  5
18D
330
1F
100
AcDbEntity
  8
0
  6
Continuous
 62
     7
370
    25
100
AcDbSpline
210
0.0
220
0.0
230
1.0
 70
     8
 71
     3
 72
    11
 73
     7
 74
     0
 42
0.00000001
 43
0.00000001
 40
0.0
 40
0.0
 40
0.0
 40
0.0
 40
0.2499999999999933
 40
0.5000000000000175
 40
0.7500000000000057
 40
1.0
 40
1.0
 40
1.0
 40
1.0
 10
117.2788994420333
 20
178.5794193301181
 30
0.0
 10
117.2732253419703
 20
178.5792973926201
 30
0.0
 10
117.2618771418443
 20
178.5790535176242
 30
0.0
 10
117.2475640331618
 20
178.5880832166001
 30
0.0
 10
117.2375505991829
 20
178.6025510882353
 30
0.0
 10
117.2362488537189
 20
178.6150138384681
 30
0.0
 10
117.2355979809869
 20
178.6212452135845
 30
0.0
  0
LINE
  5
18E
330
1F
100
AcDbEntity
  8
0
  6
Continuous
 62
     7
370
    25
100
AcDbLine
 10
117.0667335543
 20
178.5213606506
 30
0.0
 11
117.3167335543
 21
178.5850728412
 31
0.0
  0
LINE
  5
18F
330
1F
100
AcDbEntity
  8
0
  6
Continuous
 62
     7
370
    25
100
AcDbLine
 10
117.3167335543
 20
178.5850728412
 30
0.0
 11
117.2788993306
 21
178.5794193017
 31
0.0
  0
LWPOLYLINE
  5
190
330
1F
100
AcDbEntity
  8
0
  6
Continuous
 62
     7
370
    25
100
AcDbPolyline
 90
       38
 70
   128
 43
0.0
 10
124.799344681
 20
163.9486399595
 10
125.3018844113
 20
163.6866219829
 10
125.6735791482
 20
163.4103683971
 10
125.9085670437
 20
163.1242358861
 10
126.0031421983
 20
162.8327369306
 10
125.9558131053
 20
162.5404686431
 10
125.7673261728
 20
162.2520402692
 10
125.4406539524
 20
161.9720004966
 10
124.9809482601
 20
161.7047657198
 10
124.3954589292
 20
161.454550391
 10
123.6934194763
 20
161.2253005552
 10
122.8859014829
 20
161.0206316195
 10
121.9856399902
 20
160.843771335
 10
121.0068326596
 20
160.6975088943
 10
119.9649158676
 20
160.5841509433
 10
118.8763212643
 20
160.5054852046
 10
117.758216637
 20
160.462752284
 10
116.6282351634
 20
160.4566261051
 10
115.5041973265
 20
160.4872032814
 10
114.4038298745
 20
160.5540015926
 10
113.3444862593
 20
160.6559675895
 10
112.3428729626
 20
160.7914932072
 10
111.4147860245
 20
160.958441126
 10
110.5748619303
 20
161.1541784773
 10
109.8363467848
 20
161.3756183663
 10
109.2108874129
 20
161.6192685536
 10
108.7083476827
 20
161.8812865301
 10
108.3366529458
 20
162.1575401159
 10
108.1016650503
 20
162.4436726269
 10
108.0070898957
 20
162.7351715825
 10
108.0544189887
 20
163.02743987
 10
108.2429059211
 20
163.3158682439
 10
108.5695781416
 20
163.5959080164
 10
109.0292838339
 20
163.8631427932
 10
109.6147731648
 20
164.113358122
 10
110.3168126177
 20
164.3426079578
 10
111.1243306111
 20
164.5472768936
 10
111.505116047
 20
164.6277561382
  0
ARC
  5
191
330
1F
100
AcDbEntity
  8
0
  6
Continuous
 62
     7
370
    25
100
AcDbCircle
 10
120.3491633347
 20
153.1295904406
 30
0.0
 40
11.69854463199536
100
AcDbArc
 50
67.6412471224
 51
79.3801201889
  0
LWPOLYLINE
  5
192
330
1F
100
AcDbEntity
  8
0
  6
Continuous
 62
     7
370
    25
100
AcDbPolyline
 90
       38
 70
   128
 43
0.0
 10
125.4479409362
 20
163.6879984258
 10
125.6653700848
 20
163.5950865689
 10
126.1959504478
 20
163.3209013786
 10
126.5975116424
 20
163.0323988871
 10
126.8644166296
 20
162.7336290369
 10
126.9929186485
 20
162.4287859019
 10
126.9812138124
 20
162.1221488114
 10
126.8294664316
 20
161.818022278
 10
126.5398067066
 20
161.5206755716
 10
126.116300825
 20
161.2342827882
 10
125.5648938811
 20
160.9628642546
 10
124.8933264197
 20
160.7102300922
 10
124.1110257758
 20
160.4799267307
 10
123.2289737357
 20
160.2751871246
 10
122.2595523765
 20
160.098885369
 10
121.216370249
 20
159.9534963543
 10
120.1140713438
 20
159.8410610235
 10
118.9681295211
 20
159.7631577221
 10
117.7946312923
 20
159.7208800418
 10
116.61005
 20
159.7148214684
 10
115.431014569
 20
159.7450670512
 10
114.2740760723
 20
159.8111922083
 10
113.1554753903
 20
159.9122686876
 10
112.0909152247
 20
160.0468775969
 10
111.0953396665
 20
160.2131293221
 10
110.1827244143
 20
160.4086900534
 10
109.3658805858
 20
160.6308145468
 10
108.6562748777
 20
160.8763846614
 10
108.0638685988
 20
161.141953131
 10
107.5969778345
 20
161.4237919565
 10
107.2621567079
 20
161.7179447385
 10
107.0641053736
 20
162.0202822168
 10
107.0056040382
 20
162.326560236
 10
107.0874739321
 20
162.6324793239
 10
107.3085657817
 20
162.9337450472
 10
107.6657759418
 20
163.2261282955
 10
108.154089965
 20
163.5055246489
 10
108.5622911578
 20
163.6879984258
  0
SPLINE
  5
193
330
1F
100
AcDbEntity
  8
0
  6
Continuous
 62
     7
370
    25
100
AcDbSpline
210
0.0
220
0.0
230
1.0
 70
     8
 71
     3
 72
    15
 73
    11
 74
     0
 42
0.00000001
 43
0.00000001
 40
0.0
 40
0.0
 40
0.0
 40
0.0
 40
0.1250000000000114
 40
0.25000000000002
 40
0.3750000000000241
 40
0.5000000000000087
 40
0.6249999999999977
 40
0.749999999999999
 40
0.8750000000000007
 40
1.0
 40
1.0
 40
1.0
 40
1.0
 10
118.4582059877387
 20
178.8278031234329
 30
0.0
 10
118.4584000974564
 20
178.831243615182
 30
0.0
 10
118.4587883168918
 20
178.8381245986803
 30
0.0
 10
118.4569067195218
 20
178.8479605717182
 30
0.0
 10
118.4532986217737
 20
178.8568781512565
 30
0.0
 10
118.4479504553516
 20
178.8644728139746
 30
0.0
 10
118.4411484501309
 20
178.8704192733
 30
0.0
 10
118.4331844308743
 20
178.8743985855317
 30
0.0
 10
118.4244181505376
 20
178.876429458146
 30
0.0
 10
118.4183000607447
 20
178.8759342999746
 30
0.0
 10
118.4152410158483
 20
178.875686720889
 30
0.0
  0
LINE
  5
194
330
1F
100
AcDbEntity
  8
0
  6
Continuous
 62
     7
370
    25
100
AcDbLine
 10
118.4582073537
 20
178.8278039984
 30
0.0
 11
118.4232877393
 21
178.4852139201
 31
0.0
  0
SPLINE
  5
195
330
1F
100
AcDbEntity
  8
0
  6
Continuous
 62
     7
370
    25
100
AcDbSpline
210
0.0
220
0.0
230
1.0
 70
     8
 71
     3
 72
    11
 73
     7
 74
     0
 42
0.00000001
 43
0.00000001
 40
0.0
 40
0.0
 40
0.0
 40
0.0
 40
0.2500000000000114
 40
0.5000000000000118
 40
0.7500000000000215
 40
1.0
 40
1.0
 40
1.0
 40
1.0
 10
118.3802721769161
 20
178.43602872616
 30
0.0
 10
118.3855307474176
 20
178.4374362633889
 30
0.0
 10
118.3960478884208
 20
178.4402513378466
 30
0.0
 10
118.4096561204728
 20
178.4519410160277
 30
0.0
 10
118.4198171840528
 20
178.4674298135652
 30
0.0
 10
118.422130887509
 20
178.4792858846049
 30
0.0
 10
118.4232877392371
 20
178.4852139201248
 30
0.0
  0
SPLINE
  5
196
330
1F
100
AcDbEntity
  8
0
  6
Continuous
 62
     7
370
    25
100
AcDbSpline
210
0.0
220
0.0
230
1.0
 70
     8
 71
     3
 72
    11
 73
     7
 74
     0
 42
0.00000001
 43
0.00000001
 40
0.0
 40
0.0
 40
0.0
 40
0.0
 40
0.2499999999999712
 40
0.4999999999999847
 40
0.7499999999999949
 40
1.0
 40
1.0
 40
1.0
 40
1.0
 10
118.3371044964289
 20
178.4740837136926
 30
0.0
 10
118.3381119456904
 20
178.4682923078525
 30
0.0
 10
118.3401268442135
 20
178.4567094961723
 30
0.0
 10
118.3502623878095
 20
178.4436301998804
 30
0.0
 10
118.3641020439436
 20
178.4355738707108
 30
0.0
 10
118.3748821325919
 20
178.4358771076769
 30
0.0
 10
118.3802721769161
 20
178.43602872616
 30
0.0
  0
SPLINE
  5
197
330
1F
100
AcDbEntity
  8
0
  6
Continuous
 62
     7
370
    25
100
AcDbSpline
210
0.0
220
0.0
230
1.0
 70
     8
 71
     3
 72
    11
 73
     7
 74
     0
 42
0.00000001
 43
0.00000001
 40
0.0
 40
0.0
 40
0.0
 40
0.0
 40
0.2500000000000009
 40
0.5000000000000014
 40
0.7500000000000031
 40
0.9999999999999999
 40
0.9999999999999999
 40
0.9999999999999999
 40
0.9999999999999999
 10
118.1212660939213
 20
178.6643586514711
 30
0.0
 10
118.1482163155564
 20
178.6651167438865
 30
0.0
 10
118.2021167588266
 20
178.6666329287172
 30
0.0
 10
118.2713150395306
 20
178.6263512828417
 30
0.0
 10
118.3219927575304
 20
178.5609548013402
 30
0.0
 10
118.3320672501423
 20
178.5030407429051
 30
0.0
 10
118.3371044964483
 20
178.4740837136875
 30
0.0
  0
LINE
  5
198
330
1F
100
AcDbEntity
  8
0
  6
Continuous
 62
     7
370
    25
100
AcDbLine
 10
117.9520858186
 20
178.6390781706
 30
0.0
 11
118.1212660939
 21
178.6643586515
 31
0.0
  0
SPLINE
  5
199
330
1F
100
AcDbEntity
  8
0
  6
Continuous
 62
     7
370
    25
100
AcDbSpline
210
0.0
220
0.0
230
1.0
 70
     8
 71
     3
 72
    11
 73
     7
 74
     0
 42
0.00000001
 43
0.00000001
 40
0.0
 40
0.0
 40
0.0
 40
0.0
 40
0.2499999999999986
 40
0.499999999999997
 40
0.7500000000000002
 40
1.0
 40
1.0
 40
1.0
 40
1.0
 10
117.7355794675987
 20
178.3652443333603
 30
0.0
 10
117.7388338985721
 20
178.3973736567308
 30
0.0
 10
117.745342760519
 20
178.4616323034717
 30
0.0
 10
117.7954096838157
 20
178.5489342389172
 30
0.0
 10
117.8669747619765
 20
178.6154705513619
 30
0.0
 10
117.923715466368
 20
178.6312089641835
 30
0.0
 10
117.9520858185637
 20
178.6390781705944
 30
0.0
  0
LINE
  5
19A
330
1F
100
AcDbEntity
  8
0
  6
Continuous
 62
     7
370
    25
100
AcDbLine
 10
117.7355794676
 20
177.8515944095
 30
0.0
 11
117.7355794676
 21
178.3652443334
 31
0.0
  0
SPLINE
  5
19B
330
1F
100
AcDbEntity
  8
0
  6
Continuous
 62
     7
370
    25
100
AcDbSpline
210
0.0
220
0.0
230
1.0
 70
     8
 71
     3
 72
    11
 73
     7
 74
     0
 42
0.00000001
 43
0.00000001
 40
0.0
 40
0.0
 40
0.0
 40
0.0
 40
0.2500000000000013
 40
0.4999999999999974
 40
0.7500000000000014
 40
1.0
 40
1.0
 40
1.0
 40
1.0
 10
117.9087845483745
 20
177.6842911487356
 30
0.0
 10
117.8860882666185
 20
177.6838035373535
 30
0.0
 10
117.8406957031065
 20
177.6828283145892
 30
0.0
 10
117.7834436405793
 20
177.718947099546
 30
0.0
 10
117.743390101943
 20
177.7768183077957
 30
0.0
 10
117.7381830123856
 20
177.8266690422609
 30
0.0
 10
117.7355794676069
 20
177.8515944094935
 30
0.0
  0
LINE
  5
19C
330
1F
100
AcDbEntity
  8
0
  6
Continuous
 62
     7
370
    25
100
AcDbLine
 10
118.1987275346
 20
177.7276171104
 30
0.0
 11
117.9087845484
 21
177.6842911488
 31
0.0
  0
SPLINE
  5
19D
330
1F
100
AcDbEntity
  8
0
  6
Continuous
 62
     7
370
    25
100
AcDbSpline
210
0.0
220
0.0
230
1.0
 70
     8
 71
     3
 72
    11
 73
     7
 74
     0
 42
0.00000001
 43
0.00000001
 40
0.0
 40
0.0
 40
0.0
 40
0.0
 40
0.2500000000000042
 40
0.5000000000000023
 40
0.7500000000000001
 40
1.0
 40
1.0
 40
1.0
 40
1.0
 10
118.3343409340536
 20
177.8208928432879
 30
0.0
 10
118.325602812421
 20
177.8088277666145
 30
0.0
 10
118.308126569156
 20
177.7846976132677
 30
0.0
 10
118.2745754701092
 20
177.7568758478658
 30
0.0
 10
118.237693365658
 20
177.7362532212886
 30
0.0
 10
118.2117161449923
 20
177.7304958140112
 30
0.0
 10
118.1987275346595
 20
177.7276171103725
 30
0.0
  0
SPLINE
  5
19E
330
1F
100
AcDbEntity
  8
0
  6
Continuous
 62
     7
370
    25
100
AcDbSpline
210
0.0
220
0.0
230
1.0
 70
     8
 71
     3
 72
    11
 73
     7
 74
     0
 42
0.00000001
 43
0.00000001
 40
0.0
 40
0.0
 40
0.0
 40
0.0
 40
0.249999999999993
 40
0.4999999999999874
 40
0.7499999999999569
 40
0.9999999999999999
 40
0.9999999999999999
 40
0.9999999999999999
 40
0.9999999999999999
 10
118.3682055880299
 20
177.8441517052934
 30
0.0
 10
118.3649636241306
 20
177.8434335586635
 30
0.0
 10
118.358479696332
 20
177.8419972654035
 30
0.0
 10
118.3492722651778
 20
177.836855433599
 30
0.0
 10
118.3408936397998
 20
177.8299188266675
 30
0.0
 10
118.3365251813248
 20
177.823901494238
 30
0.0
 10
118.3343409520873
 20
177.8208928280233
 30
0.0
  0
SPLINE
  5
19F
330
1F
100
AcDbEntity
  8
0
  6
Continuous
 62
     7
370
    25
100
AcDbSpline
210
0.0
220
0.0
230
1.0
 70
     8
 71
     3
 72
    15
 73
    11
 74
     0
 42
0.00000001
 43
0.00000001
 40
0.0
 40
0.0
 40
0.0
 40
0.0
 40
0.1250000000029455
 40
0.2500000000019604
 40
0.3750000000009977
 40
0.4999999999999885
 40
0.6249999999990296
 40
0.7499999999980379
 40
0.8749999999970656
 40
1.0
 40
1.0
 40
1.0
 40
1.0
 10
118.4112209734821
 20
177.7967425091344
 30
0.0
 10
118.4113854229468
 20
177.8001607752647
 30
0.0
 10
118.411714321876
 20
177.8069973075253
 30
0.0
 10
118.409772966165
 20
177.8167484818377
 30
0.0
 10
118.4061293197444
 20
177.8255789619807
 30
0.0
 10
118.4007713387838
 20
177.8330907828856
 30
0.0
 10
118.3939824758543
 20
177.8389665463233
 30
0.0
 10
118.386050630011
 20
177.842893938134
 30
0.0
 10
118.3773300299866
 20
177.8448937859765
 30
0.0
 10
118.371247073097
 20
177.8443990604398
 30
0.0
 10
118.3682055946522
 20
177.8441516976715
 30
0.0
  0
LINE
  5
1A0
330
1F
100
AcDbEntity
  8
0
  6
Continuous
 62
     7
370
    25
100
AcDbLine
 10
118.3771359184
 20
177.409430171
 30
0.0
 11
118.4112223447
 21
177.7967425374
 31
0.0
  0
SPLINE
  5
1A1
330
1F
100
AcDbEntity
  8
0
  6
Continuous
 62
     7
370
    25
100
AcDbSpline
210
0.0
220
0.0
230
1.0
 70
     8
 71
     3
 72
    11
 73
     7
 74
     0
 42
0.00000001
 43
0.00000001
 40
0.0
 40
0.0
 40
0.0
 40
0.0
 40
0.2500000000000006
 40
0.4999999999999991
 40
0.7499999999999776
 40
1.0
 40
1.0
 40
1.0
 40
1.0
 10
118.3340473299593
 20
177.3594760841972
 30
0.0
 10
118.339362966232
 20
177.3609059598082
 30
0.0
 10
118.3499942387775
 20
177.3637657110304
 30
0.0
 10
118.3637038591403
 20
177.3756725559582
 30
0.0
 10
118.3738562203424
 20
177.3914297293044
 30
0.0
 10
118.376042685702
 20
177.4034300237442
 30
0.0
 10
118.3771359183819
 20
177.4094301709641
 30
0.0
  0
SPLINE
  5
1A2
330
1F
100
AcDbEntity
  8
0
  6
Continuous
 62
     7
370
    25
100
AcDbSpline
210
0.0
220
0.0
230
1.0
 70
     8
 71
     3
 72
    11
 73
     7
 74
     0
 42
0.00000001
 43
0.00000001
 40
0.0
 40
0.0
 40
0.0
 40
0.0
 40
0.2499999999999887
 40
0.5000000000000094
 40
0.7500000000000043
 40
1.0
 40
1.0
 40
1.0
 40
1.0
 10
118.2907628160193
 20
177.4026478628782
 30
0.0
 10
118.2912765703379
 20
177.3962654316205
 30
0.0
 10
118.2923040789751
 20
177.383500569105
 30
0.0
 10
118.3022517740793
 20
177.3685309932695
 30
0.0
 10
118.3167234422804
 20
177.3591448064502
 30
0.0
 10
118.328272700733
 20
177.3593656582815
 30
0.0
 10
118.3340473299593
 20
177.3594760841972
 30
0.0
  0
SPLINE
  5
1A3
330
1F
100
AcDbEntity
  8
0
  6
Continuous
 62
     7
370
    25
100
AcDbSpline
210
0.0
220
0.0
230
1.0
 70
     8
 71
     3
 72
    11
 73
     7
 74
     0
 42
0.00000001
 43
0.00000001
 40
0.0
 40
0.0
 40
0.0
 40
0.0
 40
0.2500000000000018
 40
0.4999999999999968
 40
0.7499999999999999
 40
1.0
 40
1.0
 40
1.0
 40
1.0
 10
118.1176247601856
 20
177.5753349776414
 30
0.0
 10
118.1407232770992
 20
177.5757766813046
 30
0.0
 10
118.1869203109263
 20
177.5766600886309
 30
0.0
 10
118.2448069837546
 20
177.5391153413458
 30
0.0
 10
118.2845977641929
 20
177.4792370379892
 30
0.0
 10
118.2887077987519
 20
177.4281775879108
 30
0.0
 10
118.2907628160314
 20
177.4026478628716
 30
0.0
  0
LINE
  5
1A4
330
1F
100
AcDbEntity
  8
0
  6
Continuous
 62
     7
370
    25
100
AcDbLine
 10
117.9087845484
 20
177.5441281424
 30
0.0
 11
118.1176247602
 21
177.5753349776
 31
0.0
  0
SPLINE
  5
1A5
330
1F
100
AcDbEntity
  8
0
  6
Continuous
 62
     7
370
    25
100
AcDbSpline
210
0.0
220
0.0
230
1.0
 70
     8
 71
     3
 72
    11
 73
     7
 74
     0
 42
0.00000001
 43
0.00000001
 40
0.0
 40
0.0
 40
0.0
 40
0.0
 40
0.2500000000000001
 40
0.5000000000000034
 40
0.7500000000000019
 40
1.0
 40
1.0
 40
1.0
 40
1.0
 10
117.7355794676023
 20
177.3250610726019
 30
0.0
 10
117.7381830123811
 20
177.3507645312983
 30
0.0
 10
117.7433901019386
 20
177.4021714486911
 30
0.0
 10
117.783443640576
 20
177.4720129970476
 30
0.0
 10
117.8406957031047
 20
177.5252420470034
 30
0.0
 10
117.8860882666179
 20
177.5378327772607
 30
0.0
 10
117.9087845483745
 20
177.5441281423894
 30
0.0
  0
LINE
  5
1A6
330
1F
100
AcDbEntity
  8
0
  6
Continuous
 62
     7
370
    25
100
AcDbLine
 10
117.7355794676
 20
176.6416581744
 30
0.0
 11
117.7355794676
 21
177.3250610726
 31
0.0
  0
SPLINE
  5
1A7
330
1F
100
AcDbEntity
  8
0
  6
Continuous
 62
     7
370
    25
100
AcDbSpline
210
0.0
220
0.0
230
1.0
 70
     8
 71
     3
 72
    11
 73
     7
 74
     0
 42
0.00000001
 43
0.00000001
 40
0.0
 40
0.0
 40
0.0
 40
0.0
 40
0.2500000000000002
 40
0.5000000000000001
 40
0.7500000000000036
 40
1.0
 40
1.0
 40
1.0
 40
1.0
 10
117.9520858185637
 20
176.432529098397
 30
0.0
 10
117.9237154663682
 20
176.4319195841693
 30
0.0
 10
117.8669747619772
 20
176.430700555714
 30
0.0
 10
117.7954096838169
 20
176.4758490369107
 30
0.0
 10
117.7453427605206
 20
176.5481880472241
 30
0.0
 10
117.7388338985737
 20
176.6105014653068
 30
0.0
 10
117.7355794676003
 20
176.6416581743482
 30
0.0
  0
LINE
  5
1A8
330
1F
100
AcDbEntity
  8
0
  6
Continuous
 62
     7
370
    25
100
AcDbLine
 10
118.2110526761
 20
176.4712263205
 30
0.0
 11
117.9520858186
 21
176.4325290984
 31
0.0
  0
SPLINE
  5
1A9
330
1F
100
AcDbEntity
  8
0
  6
Continuous
 62
     7
370
    25
100
AcDbSpline
210
0.0
220
0.0
230
1.0
 70
     8
 71
     3
 72
    11
 73
     7
 74
     0
 42
0.00000001
 43
0.00000001
 40
0.0
 40
0.0
 40
0.0
 40
0.0
 40
0.2500000000000003
 40
0.4999999999999983
 40
0.7500000000000002
 40
1.0
 40
1.0
 40
1.0
 40
1.0
 10
118.420181752106
 20
176.6814577770904
 30
0.0
 10
118.4118950925813
 20
176.6554011513844
 30
0.0
 10
118.3953217735319
 20
176.6032878999725
 30
0.0
 10
118.3449579208755
 20
176.5380779592531
 30
0.0
 10
118.2819668935073
 20
176.4893354931598
 30
0.0
 10
118.2346907486055
 20
176.4772627113869
 30
0.0
 10
118.2110526761546
 20
176.4712263205004
 30
0.0
  0
LINE
  5
1AA
330
1F
100
AcDbEntity
  8
0
  6
Continuous
 62
     7
370
    25
100
AcDbLine
 10
118.4452822643
 20
176.789690961
 30
0.0
 11
118.4201817521
 21
176.6814577771
 31
0.0
  0
SPLINE
  5
1AB
330
1F
100
AcDbEntity
  8
0
  6
Continuous
 62
     7
370
    25
100
AcDbSpline
210
0.0
220
0.0
230
1.0
 70
     8
 71
     3
 72
    11
 73
     7
 74
     0
 42
0.00000001
 43
0.00000001
 40
0.0
 40
0.0
 40
0.0
 40
0.0
 40
0.250000000000006
 40
0.5000000000000004
 40
0.7500000000000235
 40
1.0
 40
1.0
 40
1.0
 40
1.0
 10
118.4871080795005
 20
176.8317372523059
 30
0.0
 10
118.4823804650115
 20
176.8305299741289
 30
0.0
 10
118.4729252360335
 20
176.8281154177749
 30
0.0
 10
118.4603270305629
 20
176.8183669245586
 30
0.0
 10
118.4502542600341
 20
176.805324936418
 30
0.0
 10
118.446939596225
 20
176.7949022861382
 30
0.0
 10
118.4452822643205
 20
176.7896909609982
 30
0.0
  0
SPLINE
  5
1AC
330
1F
100
AcDbEntity
  8
0
  6
Continuous
 62
     7
370
    25
100
AcDbSpline
210
0.0
220
0.0
230
1.0
 70
     8
 71
     3
 72
    15
 73
    11
 74
     0
 42
0.00000001
 43
0.00000001
 40
0.0
 40
0.0
 40
0.0
 40
0.0
 40
0.1249999999999953
 40
0.250000000000016
 40
0.3749999999999872
 40
0.4999999999999893
 40
0.6250000000000019
 40
0.7500000000000027
 40
0.8749999999999997
 40
1.0
 40
1.0
 40
1.0
 40
1.0
 10
118.5300206507981
 20
176.7833966885802
 30
0.0
 10
118.5302436245395
 20
176.7868583265259
 30
0.0
 10
118.5306895720224
 20
176.7937816024173
 30
0.0
 10
118.5288664266668
 20
176.8036989937744
 30
0.0
 10
118.5252933398985
 20
176.8127004794983
 30
0.0
 10
118.5199552252526
 20
176.8203751518274
 30
0.0
 10
118.5131409630525
 20
176.8263900051916
 30
0.0
 10
118.5051461730122
 20
176.8304196119687
 30
0.0
 10
118.4963359717083
 20
176.8324805746525
 30
0.0
 10
118.4901840435698
 20
176.8319850264214
 30
0.0
 10
118.4871080795005
 20
176.8317372523059
 30
0.0
  0
LINE
  5
1AD
330
1F
100
AcDbEntity
  8
0
  6
Continuous
 62
     7
370
    25
100
AcDbLine
 10
118.4923658386
 20
176.4664384869
 30
0.0
 11
118.5300206508
 21
176.7833966886
 31
0.0
  0
SPLINE
  5
1AE
330
1F
100
AcDbEntity
  8
0
  6
Continuous
 62
     7
370
    25
100
AcDbSpline
210
0.0
220
0.0
230
1.0
 70
     8
 71
     3
 72
    11
 73
     7
 74
     0
 42
0.00000001
 43
0.00000001
 40
0.0
 40
0.0
 40
0.0
 40
0.0
 40
0.2500000000000009
 40
0.4999999999999976
 40
0.7499999999999972
 40
1.0
 40
1.0
 40
1.0
 40
1.0
 10
118.4923648892907
 20
176.4664385581031
 30
0.0
 10
118.489936814057
 20
176.4547178458702
 30
0.0
 10
118.4850806635896
 20
176.4312764214046
 30
0.0
 10
118.4647488415229
 20
176.4007938588221
 30
0.0
 10
118.4377225284522
 20
176.3778134960347
 30
0.0
 10
118.4168994462443
 20
176.3722654576322
 30
0.0
 10
118.4064879051404
 20
176.3694914384309
 30
0.0
  0
LINE
  5
1AF
330
1F
100
AcDbEntity
  8
0
  6
Continuous
 62
     7
370
    25
100
AcDbLine
 10
118.4064880711
 20
176.3694914807
 30
0.0
 11
117.3530321972
 21
176.2120743645
 31
0.0
  0
SPLINE
  5
1B0
330
1F
100
AcDbEntity
  8
0
  6
Continuous
 62
     7
370
    25
100
AcDbSpline
210
0.0
220
0.0
230
1.0
 70
     8
 71
     3
 72
    13
 73
     9
 74
     0
 42
0.00000001
 43
0.00000001
 40
0.0
 40
0.0
 40
0.0
 40
0.0
 40
0.3245429668304573
 40
0.6090007701703206
 40
0.7289507047547608
 40
0.8297009184073091
 40
0.9171296144099246
 40
1.0
 40
1.0
 40
1.0
 40
1.0
 10
117.3530321972275
 20
176.2120743645195
 30
0.0
 10
117.3416733956456
 20
176.2109535386713
 30
0.0
 10
117.3203587482227
 20
176.2088503231513
 30
0.0
 10
117.2959046523399
 20
176.2145334797488
 30
0.0
 10
117.2806981064373
 20
176.2223874408819
 30
0.0
 10
117.272716102809
 20
176.2293252480764
 30
0.0
 10
117.2674774675151
 20
176.2376890388549
 30
0.0
 10
117.2667726384685
 20
176.2442412733444
 30
0.0
 10
117.2664296568486
 20
176.247429700396
 30
0.0
  0
SPLINE
  5
1B1
330
1F
100
AcDbEntity
  8
0
  6
Continuous
 62
     7
370
    25
100
AcDbSpline
210
0.0
220
0.0
230
1.0
 70
     8
 71
     3
 72
    11
 73
     7
 74
     0
 42
0.00000001
 43
0.00000001
 40
0.0
 40
0.0
 40
0.0
 40
0.0
 40
0.24703049642493
 40
0.49561554859484
 40
0.7506388444778901
 40
1.0
 40
1.0
 40
1.0
 40
1.0
 10
117.2664296568486
 20
176.247429700396
 30
0.0
 10
117.2670145208544
 20
176.2537893075465
 30
0.0
 10
117.268187929398
 20
176.2665485426707
 30
0.0
 10
117.2785516685898
 20
176.2837449488999
 30
0.0
 10
117.292602702512
 20
176.2974684199155
 30
0.0
 10
117.3040644000622
 20
176.3006322918069
 30
0.0
 10
117.3097309152322
 20
176.302196469189
 30
0.0
  0
LINE
  5
1B2
330
1F
100
AcDbEntity
  8
0
  6
Continuous
 62
     7
370
    25
100
AcDbLine
 10
117.3097309308
 20
176.3021964715
 30
0.0
 11
117.3167335543
 21
176.3032428683
 31
0.0
  0
SPLINE
  5
1B3
330
1F
100
AcDbEntity
  8
0
  6
Continuous
 62
     7
370
    25
100
AcDbSpline
210
0.0
220
0.0
230
1.0
 70
     8
 71
     3
 72
    11
 73
     7
 74
     0
 42
0.00000001
 43
0.00000001
 40
0.0
 40
0.0
 40
0.0
 40
0.0
 40
0.2499999999999963
 40
0.5
 40
0.7500000000000014
 40
1.0
 40
1.0
 40
1.0
 40
1.0
 10
117.4899386350986
 20
176.5223099380379
 30
0.0
 10
117.48733509032
 20
176.4966064793432
 30
0.0
 10
117.4821280007628
 20
176.4451995619537
 30
0.0
 10
117.442074462128
 20
176.3753580136017
 30
0.0
 10
117.384822399603
 20
176.3221289636493
 30
0.0
 10
117.3394298360927
 20
176.3095382333928
 30
0.0
 10
117.3167335543375
 20
176.3032428682645
 30
0.0
  0
LINE
  5
1B4
330
1F
100
AcDbEntity
  8
0
  6
Continuous
 62
     7
370
    25
100
AcDbLine
 10
117.4899386351
 20
176.522309938
 30
0.0
 11
117.4899386351
 21
178.4177695805
 31
0.0
  0
SPLINE
  5
1B5
330
1F
100
AcDbEntity
  8
0
  6
Continuous
 62
     7
370
    25
100
AcDbSpline
210
0.0
220
0.0
230
1.0
 70
     8
 71
     3
 72
    11
 73
     7
 74
     0
 42
0.00000001
 43
0.00000001
 40
0.0
 40
0.0
 40
0.0
 40
0.0
 40
0.2500000000000002
 40
0.4999999999999984
 40
0.7500000000000028
 40
1.0
 40
1.0
 40
1.0
 40
1.0
 10
117.3167335543375
 20
178.585072841237
 30
0.0
 10
117.3394298360932
 20
178.5855604526191
 30
0.0
 10
117.3848223996045
 20
178.5865356753833
 30
0.0
 10
117.4420744621308
 20
178.5504168904271
 30
0.0
 10
117.4821280007665
 20
178.4925456821784
 30
0.0
 10
117.4873350903238
 20
178.4426949477139
 30
0.0
 10
117.4899386351024
 20
178.4177695804817
 30
0.0
  0
LINE
  5
1B6
330
1F
100
AcDbEntity
  8
0
  6
Continuous
 62
     7
370
    25
100
AcDbLine
 10
117.3222003387
 20
178.6824823213
 30
0.0
 11
118.3003525513
 21
178.8286468683
 31
0.0
  0
SPLINE
  5
1B7
330
1F
100
AcDbEntity
  8
0
  6
Continuous
 62
     7
370
    25
100
AcDbSpline
210
0.0
220
0.0
230
1.0
 70
     8
 71
     3
 72
     9
 73
     5
 74
     0
 42
0.00000001
 43
0.00000001
 40
0.0
 40
0.0
 40
0.0
 40
0.0
 40
0.5000000000000033
 40
1.0
 40
1.0
 40
1.0
 40
1.0
 10
118.3960929384505
 20
178.867846745453
 30
0.0
 10
118.3807779715792
 20
178.8583388124559
 30
0.0
 10
118.3501480378367
 20
178.8393229464617
 30
0.0
 10
118.3169510468122
 20
178.8322055610041
 30
0.0
 10
118.3003525512999
 20
178.8286468682754
 30
0.0
  0
SPLINE
  5
1B8
330
1F
100
AcDbEntity
  8
0
  6
Continuous
 62
     7
370
    25
100
AcDbSpline
210
0.0
220
0.0
230
1.0
 70
     8
 71
     3
 72
     9
 73
     5
 74
     0
 42
0.00000001
 43
0.00000001
 40
0.0
 40
0.0
 40
0.0
 40
0.0
 40
0.5000000000000203
 40
0.9999999999999999
 40
0.9999999999999999
 40
0.9999999999999999
 40
0.9999999999999999
 10
118.4152410158483
 20
178.875686720889
 30
0.0
 10
118.4119213167486
 20
178.8749749823439
 30
0.0
 10
118.4052819185492
 20
178.8735515052537
 30
0.0
 10
118.3991559318054
 20
178.869748332059
 30
0.0
 10
118.3960929384335
 20
178.8678467454616
 30
0.0
  0
LINE
  5
1B9
330
1F
100
AcDbEntity
  8
0
  6
Continuous
 62
     7
370
    25
100
AcDbLine
 10
118.3003525513
 20
178.8286468683
 30
0.0
 11
118.0503525513
 21
179.116502927
 31
0.0
  0
LWPOLYLINE
  5
1BA
330
1F
100
AcDbEntity
  8
0
  6
Continuous
 62
     7
370
    25
100
AcDbPolyline
 90
       28
 70
   128
 43
0.0
 10
107.005116047
 20
145.3972893833
 10
107.0139824186
 20
145.2883241617
 10
107.1368323047
 20
144.9785959987
 10
107.4024937772
 20
144.6749270724
 10
107.8071222427
 20
144.3817120113
 10
108.3448620091
 20
144.1031941578
 10
109.0079310272
 20
143.8434041598
 10
109.7867335111
 20
143.6061016398
 10
110.669998806
 20
143.3947207867
 10
111.6449444951
 20
143.2123206565
 10
112.6974613831
 20
143.0615409031
 10
113.8123176822
 20
142.9445635773
 10
114.9733794422
 20
142.8630815484
 10
116.1638440381
 20
142.8182740063
 10
117.3664833336
 20
142.8107893956
 10
118.5638930028
 20
142.8407360319
 10
119.738744402
 20
142.9076805342
 10
120.8740353456
 20
143.0106540967
 10
121.9533361578
 20
143.1481665091
 10
122.9610274397
 20
143.3182277227
 10
123.8825261095
 20
143.5183766497
 10
124.7044964452
 20
143.7457167799
 10
125.4150430767
 20
143.996958098
 10
126.0038831328
 20
144.268464696
 10
126.4624950525
 20
144.5563073913
 10
126.7842419068
 20
144.8563205892
 10
126.9644674478
 20
145.164162566
 10
127.005116047
 20
145.3972893833
  0
LINE
  5
1BB
330
1F
100
AcDbEntity
  8
0
  6
Continuous
 62
     7
370
    25
100
AcDbLine
 10
117.4899386351
 20
178.4177695805
 30
0.0
 11
117.0823349005
 21
178.5062909074
 31
0.0
  0
LINE
  5
1BC
330
1F
100
AcDbEntity
  8
0
  6
Continuous
 62
     7
370
    25
100
AcDbLine
 10
116.6706805645
 20
176.2376953499
 30
0.0
 11
116.4206805645
 21
176.5255514086
 31
0.0
  0
LINE
  5
1BD
330
1F
100
AcDbEntity
  8
0
  6
Continuous
 62
     7
370
    25
100
AcDbLine
 10
117.0823349005
 20
176.6108312649
 30
0.0
 11
117.4899386351
 21
176.522309938
 31
0.0
  0
LINE
  5
1BE
330
1F
100
AcDbEntity
  8
0
  6
Continuous
 62
     7
370
    25
100
AcDbLine
 10
116.5065618999
 20
176.7077332909
 30
0.0
 11
116.9087954175
 21
176.5729132172
 31
0.0
  0
LINE
  5
1BF
330
1F
100
AcDbEntity
  8
0
  6
Continuous
 62
     7
370
    25
100
AcDbLine
 10
116.4775761229
 20
176.5827468802
 30
0.0
 11
116.8798096404
 21
176.4479268065
 31
0.0
  0
LINE
  5
1C0
330
1F
100
AcDbEntity
  8
0
  6
Continuous
 62
     7
370
    25
100
AcDbLine
 10
117.8712660939
 20
178.6006464609
 30
0.0
 11
118.1212660939
 21
178.6643586515
 31
0.0
  0
LINE
  5
1C1
330
1F
100
AcDbEntity
  8
0
  6
Continuous
 62
     7
370
    25
100
AcDbLine
 10
117.0626277892
 20
176.2916903469
 30
0.0
 11
117.2664296542
 21
176.247429697
 31
0.0
  0
SPLINE
  5
1C2
330
1F
100
AcDbEntity
  8
0
  6
Continuous
 62
     7
370
    25
100
AcDbSpline
210
0.0
220
0.0
230
1.0
 70
     8
 71
     3
 72
     9
 73
     5
 74
     0
 42
0.00000001
 43
0.00000001
 40
0.0
 40
0.0
 40
0.0
 40
0.0
 40
0.5020235051163355
 40
1.0
 40
1.0
 40
1.0
 40
1.0
 10
117.0845842368304
 20
176.3727848577653
 30
0.0
 10
117.0781866369602
 20
176.3597613156455
 30
0.0
 10
117.0654430108052
 20
176.3338192193351
 30
0.0
 10
117.0635636612574
 20
176.3056953651489
 30
0.0
 10
117.0626277893569
 20
176.2916903468187
 30
0.0
  0
SPLINE
  5
1C3
330
1F
100
AcDbEntity
  8
0
  6
Continuous
 62
     7
370
    25
100
AcDbSpline
210
0.0
220
0.0
230
1.0
 70
     8
 71
     3
 72
    10
 73
     6
 74
     0
 42
0.00000001
 43
0.00000001
 40
0.0
 40
0.0
 40
0.0
 40
0.0
 40
0.5712849908377612
 40
0.7933920312089462
 40
0.9999999999999999
 40
0.9999999999999999
 40
0.9999999999999999
 40
0.9999999999999999
 10
117.1395233474379
 20
176.4815062373603
 30
0.0
 10
117.1315800810707
 20
176.4645665694794
 30
0.0
 10
117.1205485918165
 20
176.441041012667
 30
0.0
 10
117.0998864246168
 20
176.4006920394068
 30
0.0
 10
117.0895603361223
 20
176.3818604673326
 30
0.0
 10
117.0845839482567
 20
176.3727850844506
 30
0.0
  0
LINE
  5
1C4
330
1F
100
AcDbEntity
  8
0
  6
Continuous
 62
     7
370
    25
100
AcDbLine
 10
117.0427406655
 20
176.586614406
 30
0.0
 11
117.1395233474
 21
176.4815062374
 31
0.0
  0
LINE
  5
1C5
330
1F
100
AcDbEntity
  8
0
  6
Continuous
 62
     7
370
    25
100
AcDbLine
 10
117.0597309308
 20
176.5900525302
 30
0.0
 11
117.3097309308
 21
176.3021964715
 31
0.0
  0
SPLINE
  5
1C6
330
1F
100
AcDbEntity
  8
0
  6
Continuous
 62
     7
370
    25
100
AcDbSpline
210
0.0
220
0.0
230
1.0
 70
     8
 71
     3
 72
    11
 73
     7
 74
     0
 42
0.00000001
 43
0.00000001
 40
0.0
 40
0.0
 40
0.0
 40
0.0
 40
0.2500000000000036
 40
0.5000000000000008
 40
0.7499999999999916
 40
1.0
 40
1.0
 40
1.0
 40
1.0
 10
117.9299869885874
 20
178.5488803504155
 30
0.0
 10
117.9286165577177
 20
178.556758386219
 30
0.0
 10
117.9258756959783
 20
178.572514457826
 30
0.0
 10
117.9120883397612
 20
178.5903061939477
 30
0.0
 10
117.8932622879307
 20
178.6012651996543
 30
0.0
 10
117.8785981585856
 20
178.6008527071197
 30
0.0
 10
117.871266093913
 20
178.6006464608523
 30
0.0
  0
LINE
  5
1C7
330
1F
100
AcDbEntity
  8
0
  6
Continuous
 62
     7
370
    25
100
AcDbLine
 10
118.3371044964
 20
178.4740837137
 30
0.0
 11
117.9299869886
 21
178.5488803504
 31
0.0
  0
LINE
  5
1C8
330
1F
100
AcDbEntity
  8
0
  6
Continuous
 62
     7
370
    25
100
AcDbLine
 10
118.0763996362
 20
179.1271676272
 30
0.0
 11
118.3960929385
 21
178.8678467454
 31
0.0
  0
LINE
  5
1C9
330
1F
100
AcDbEntity
  8
0
  6
Continuous
 62
     7
370
    25
100
AcDbLine
 10
118.3474037398
 20
179.0352941844
 30
0.0
 11
118.2919109499
 21
179.1323199743
 31
0.0
  0
LINE
  5
1CA
330
1F
100
AcDbEntity
  8
0
  6
Continuous
 62
     7
370
    25
100
AcDbLine
 10
118.3924160978
 20
178.9720409327
 30
0.0
 11
118.3474045446
 21
179.0352954533
 31
0.0
  0
LINE
  5
1CB
330
1F
100
AcDbEntity
  8
0
  6
Continuous
 62
     7
370
    25
100
AcDbLine
 10
117.1030321972
 20
176.1483621738
 30
0.0
 11
117.3530321973
 21
176.2120743645
 31
0.0
  0
LINE
  5
1CC
330
1F
100
AcDbEntity
  8
0
  6
Continuous
 62
     7
370
    25
100
AcDbLine
 10
117.0770966681
 20
176.1875835835
 30
0.0
 11
116.9550132363
 21
176.1689255073
 31
0.0
  0
SPLINE
  5
1CD
330
1F
100
AcDbEntity
  8
0
  6
Continuous
 62
     7
370
    25
100
AcDbSpline
210
0.0
220
0.0
230
1.0
 70
     8
 71
     3
 72
    10
 73
     6
 74
     0
 42
0.00000001
 43
0.00000001
 40
0.0
 40
0.0
 40
0.0
 40
0.0
 40
0.2099463914061558
 40
0.427320976558927
 40
1.0
 40
1.0
 40
1.0
 40
1.0
 10
117.0627546802219
 20
176.2862126984598
 30
0.0
 10
117.0632689096803
 20
176.276068898843
 30
0.0
 10
117.0643155627468
 20
176.2554223979469
 30
0.0
 10
117.0678522210166
 20
176.2169144816872
 30
0.0
 10
117.0732117527349
 20
176.1999096919037
 30
0.0
 10
117.0770966680838
 20
176.1875835835218
 30
0.0
  0
LINE
  5
1CE
330
1F
100
AcDbEntity
  8
0
  6
Continuous
 62
     7
370
    25
100
AcDbLine
 10
117.0626277895
 20
176.2916903468
 30
0.0
 11
117.0627585028
 21
176.2862134904
 31
0.0
  0
LINE
  5
1CF
330
1F
100
AcDbEntity
  8
0
  6
Continuous
 62
     7
370
    25
100
AcDbLine
 10
116.9683784001
 20
176.286318509
 30
0.0
 11
117.0627546802
 21
176.2862126985
 31
0.0
  0
ARC
  5
1D0
330
1F
100
AcDbEntity
  8
0
  6
Continuous
 62
     7
370
    25
100
AcDbCircle
 10
116.9715895695
 20
175.9826210164
 30
0.0
 40
0.2305241889663585
100
AcDbArc
 50
62.7622766954
 51
99.0120377527
  0
LINE
  5
1D1
330
1F
100
AcDbEntity
  8
0
  6
Continuous
 62
     7
370
    25
100
AcDbLine
 10
117.7355794676
 20
177.9836226142
 30
0.0
 11
117.9487275347
 21
178.0154731691
 31
0.0
  0
LINE
  5
1D2
330
1F
100
AcDbEntity
  8
0
  6
Continuous
 62
     7
370
    25
100
AcDbLine
 10
118.1987275346
 20
177.7276171104
 30
0.0
 11
117.9487275346
 21
178.0154731691
 31
0.0
  0
SPLINE
  5
1D3
330
1F
100
AcDbEntity
  8
0
  6
Continuous
 62
     7
370
    25
100
AcDbSpline
210
0.0
220
0.0
230
1.0
 70
     8
 71
     3
 72
    11
 73
     7
 74
     0
 42
0.00000001
 43
0.00000001
 40
0.0
 40
0.0
 40
0.0
 40
0.0
 40
0.2500000000000003
 40
0.5000000000000003
 40
0.7500000000000032
 40
0.9999999999999999
 40
0.9999999999999999
 40
0.9999999999999999
 40
0.9999999999999999
 10
118.1302721769078
 20
178.3723165355313
 30
0.0
 10
118.10526397562
 20
178.3716130709001
 30
0.0
 10
118.0552475730443
 20
178.3702061416379
 30
0.0
 10
117.9910356880339
 20
178.407585110978
 30
0.0
 10
117.9440097826531
 20
178.4682691526524
 30
0.0
 10
117.934661253257
 20
178.5220099511632
 30
0.0
 10
117.929986988559
 20
178.5488803504186
 30
0.0
  0
LINE
  5
1D4
330
1F
100
AcDbEntity
  8
0
  6
Continuous
 62
     7
370
    25
100
AcDbLine
 10
117.3167335543
 20
176.3032428683
 30
0.0
 11
117.0667335543
 21
176.5910989269
 31
0.0
  0
LINE
  5
1D5
330
1F
100
AcDbEntity
  8
0
  6
Continuous
 62
     7
370
    25
100
AcDbLine
 10
117.8676247601
 20
177.511622787
 30
0.0
 11
118.1176247602
 21
177.5753349776
 31
0.0
  0
LINE
  5
1D6
330
1F
100
AcDbEntity
  8
0
  6
Continuous
 62
     7
370
    25
100
AcDbLine
 10
118.1564880711
 20
176.3057792901
 30
0.0
 11
118.4064880711
 21
176.3694914807
 31
0.0
  0
SPLINE
  5
1D7
330
1F
100
AcDbEntity
  8
0
  6
Continuous
 62
     7
370
    25
100
AcDbSpline
210
0.0
220
0.0
230
1.0
 70
     8
 71
     3
 72
    11
 73
     7
 74
     0
 42
0.00000001
 43
0.00000001
 40
0.0
 40
0.0
 40
0.0
 40
0.0
 40
0.2500000000000037
 40
0.4999999999999985
 40
0.7499999999999997
 40
1.0
 40
1.0
 40
1.0
 40
1.0
 10
117.9609403088636
 20
178.0238710076426
 30
0.0
 10
117.9710756032456
 20
178.0378584900541
 30
0.0
 10
117.9913461920096
 20
178.065833454877
 30
0.0
 10
118.0302544242744
 20
178.0980870181847
 30
0.0
 10
118.0730226820228
 20
178.1219948005421
 30
0.0
 10
118.1031446237702
 20
178.1286701044138
 30
0.0
 10
118.1182055946439
 20
178.1320077563497
 30
0.0
  0
SPLINE
  5
1D8
330
1F
100
AcDbEntity
  8
0
  6
Continuous
 62
     7
370
    25
100
AcDbSpline
210
0.0
220
0.0
230
1.0
 70
     8
 71
     3
 72
    13
 73
     9
 74
     0
 42
0.00000001
 43
0.00000001
 40
0.0
 40
0.0
 40
0.0
 40
0.0
 40
0.1930922577139182
 40
0.3861845154278397
 40
0.5792767731417628
 40
0.7723690308556772
 40
0.9654612885696073
 40
1.0
 40
1.0
 40
1.0
 40
1.0
 10
118.1182055946439
 20
178.1320077563497
 30
0.0
 10
118.1321873133277
 20
178.1331554918603
 30
0.0
 10
118.1601507506955
 20
178.1354509628816
 30
0.0
 10
118.2002275054401
 20
178.1263767449884
 30
0.0
 10
118.2369324521121
 20
178.1086467611518
 30
0.0
 10
118.2677730696562
 20
178.0815279388238
 30
0.0
 10
118.2873803822856
 20
178.0577153291142
 30
0.0
 10
118.2939229358379
 20
178.0418399233656
 30
0.0
 10
118.2949156450901
 20
178.0394311296059
 30
0.0
  0
LINE
  5
1D9
330
1F
100
AcDbEntity
  8
0
  6
Continuous
 62
     7
370
    25
100
AcDbLine
 10
117.9609403089
 20
178.0238710076
 30
0.0
 11
118.3343409521
 21
177.820892828
 31
0.0
  0
LINE
  5
1DA
330
1F
100
AcDbEntity
  8
0
  6
Continuous
 62
     7
370
    25
100
AcDbLine
 10
118.6432294145
 20
178.9063014828
 30
0.0
 11
118.8470317349
 21
178.8620404962
 31
0.0
  0
LINE
  5
1DB
330
1F
100
AcDbEntity
  8
0
  6
Continuous
 62
     7
370
    25
100
AcDbLine
 10
118.6434468617
 20
178.9134687992
 30
0.0
 11
118.6432289906
 21
178.9063012543
 31
0.0
  0
SPLINE
  5
1DC
330
1F
100
AcDbEntity
  8
0
  6
Continuous
 62
     7
370
    25
100
AcDbSpline
210
0.0
220
0.0
230
1.0
 70
     8
 71
     3
 72
    16
 73
    12
 74
     0
 42
0.00000001
 43
0.00000001
 40
0.0
 40
0.0
 40
0.0
 40
0.0
 40
0.2255379314925214
 40
0.2847766697290366
 40
0.3005790245842919
 40
0.3049911045028486
 40
0.3063223830998396
 40
0.3070700201682609
 40
0.573330990365289
 40
0.8009075268765868
 40
1.0
 40
1.0
 40
1.0
 40
1.0
 10
118.6594282992519
 20
179.055457923966
 30
0.0
 10
118.6576289701027
 20
179.046272644268
 30
0.0
 10
118.6553570375748
 20
179.0346748019645
 30
0.0
 10
118.653798434366
 20
179.0215780576952
 30
0.0
 10
118.6534270429378
 20
179.0180788766677
 30
0.0
 10
118.6533252535187
 20
179.0171259189022
 30
0.0
 10
118.6532939544244
 20
179.0168384127493
 30
0.0
 10
118.6517721404845
 20
179.0049193093512
 30
0.0
 10
118.6482996108186
 20
178.9816763360054
 30
0.0
 10
118.6453359729937
 20
178.9460134540768
 30
0.0
 10
118.644046953221
 20
178.9238236422954
 30
0.0
 10
118.6434454702713
 20
178.9134694229686
 30
0.0
  0
LINE
  5
1DD
330
1F
100
AcDbEntity
  8
0
  6
Continuous
 62
     7
370
    25
100
AcDbLine
 10
118.5379425991
 20
179.1482159149
 30
0.0
 11
118.6594261787
 21
179.0554636043
 31
0.0
  0
LINE
  5
1DE
330
1F
100
AcDbEntity
  8
0
  6
Continuous
 62
     7
370
    25
100
AcDbLine
 10
118.9336342744
 20
178.9232776783
 30
0.0
 11
118.683634274
 21
179.2111337369
 31
0.0
  0
SPLINE
  5
1DF
330
1F
100
AcDbEntity
  8
0
  6
Continuous
 62
     7
370
    25
100
AcDbSpline
210
0.0
220
0.0
230
1.0
 70
     8
 71
     3
 72
    13
 73
     9
 74
     0
 42
0.00000001
 43
0.00000001
 40
0.0
 40
0.0
 40
0.0
 40
0.0
 40
0.0828689679808372
 40
0.1702958522081894
 40
0.2710428905255693
 40
0.390987806158852
 40
0.6754500053205823
 40
0.9999999999999999
 40
0.9999999999999999
 40
0.9999999999999999
 40
0.9999999999999999
 10
118.8470317348041
 20
178.862040432477
 30
0.0
 10
118.8473747595633
 20
178.8653312985645
 30
0.0
 10
118.8480796759525
 20
178.8720940332591
 30
0.0
 10
118.8533181105866
 20
178.8820231908579
 30
0.0
 10
118.8612997296176
 20
178.8913462969323
 30
0.0
 10
118.8765059850424
 20
178.9037450159285
 30
0.0
 10
118.9009602204929
 20
178.9167368367281
 30
0.0
 10
118.9222752410889
 20
178.9210037750421
 30
0.0
 10
118.9336342744399
 20
178.9232776782925
 30
0.0
  0
SPLINE
  5
1E0
330
1F
100
AcDbEntity
  8
0
  6
Continuous
 62
     7
370
    25
100
AcDbSpline
210
0.0
220
0.0
230
1.0
 70
     8
 71
     3
 72
    11
 73
     7
 74
     0
 42
0.00000001
 43
0.00000001
 40
0.0
 40
0.0
 40
0.0
 40
0.0
 40
0.2500000000000282
 40
0.500000000000007
 40
0.7499999999999646
 40
1.0
 40
1.0
 40
1.0
 40
1.0
 10
117.9487275346227
 20
178.0154731690772
 30
0.0
 10
117.9498971376591
 20
178.0157323668425
 30
0.0
 10
117.952236343732
 20
178.0162507623733
 30
0.0
 10
117.9555576237698
 20
178.0181074312376
 30
0.0
 10
117.9585791231148
 20
178.0206122314774
 30
0.0
 10
117.9601532469297
 20
178.0227847489312
 30
0.0
 10
117.9609403088371
 20
178.0238710076581
 30
0.0
  0
SPLINE
  5
1E1
330
1F
100
AcDbEntity
  8
0
  6
Continuous
 62
     7
370
    25
100
AcDbSpline
210
0.0
220
0.0
230
1.0
 70
     8
 71
     3
 72
    11
 73
     7
 74
     0
 42
0.00000001
 43
0.00000001
 40
0.0
 40
0.0
 40
0.0
 40
0.0
 40
0.2500000000000368
 40
0.4999999999999536
 40
0.7500000000000109
 40
1.0
 40
1.0
 40
1.0
 40
1.0
 10
117.8832200691169
 20
177.4960680962959
 30
0.0
 10
117.8830349646393
 20
177.4983676713254
 30
0.0
 10
117.882664755684
 20
177.5029668213843
 30
0.0
 10
117.8790806244427
 20
177.508360324487
 30
0.0
 10
117.8738665162936
 20
177.5117421456079
 30
0.0
 10
117.8697053455304
 20
177.5116625732104
 30
0.0
 10
117.8676247601489
 20
177.5116227870116
 30
0.0
  0
LINE
  5
1E2
330
1F
100
AcDbEntity
  8
0
  6
Continuous
 62
     7
370
    25
100
AcDbLine
 10
118.290762816
 20
177.4026478629
 30
0.0
 11
117.8832200691
 21
177.4960680963
 31
0.0
  0
SPLINE
  5
1E3
330
1F
100
AcDbEntity
  8
0
  6
Continuous
 62
     7
370
    25
100
AcDbSpline
210
0.0
220
0.0
230
1.0
 70
     8
 71
     3
 72
    11
 73
     7
 74
     0
 42
0.00000001
 43
0.00000001
 40
0.0
 40
0.0
 40
0.0
 40
0.0
 40
0.2499999999999997
 40
0.500000000000003
 40
0.7499999999999961
 40
1.0
 40
1.0
 40
1.0
 40
1.0
 10
118.084047329951
 20
177.2957638935684
 30
0.0
 10
118.0572547691943
 20
177.2952515501884
 30
0.0
 10
118.0036696476811
 20
177.2942268634282
 30
0.0
 10
117.9365254148048
 20
177.3377759764091
 30
0.0
 10
117.8903710705065
 20
177.4072303524942
 30
0.0
 10
117.8856037362659
 20
177.4664555150256
 30
0.0
 10
117.8832200691456
 20
177.4960680962913
 30
0.0
  0
SPLINE
  5
1E4
330
1F
100
AcDbEntity
  8
0
  6
Continuous
 62
     7
370
    25
100
AcDbSpline
210
0.0
220
0.0
230
1.0
 70
     8
 71
     3
 72
    10
 73
     6
 74
     0
 42
0.00000001
 43
0.00000001
 40
0.0
 40
0.0
 40
0.0
 40
0.0
 40
0.4316273657357785
 40
0.8660230382979468
 40
1.0
 40
1.0
 40
1.0
 40
1.0
 10
118.5323499295225
 20
178.7755907296591
 30
0.0
 10
118.5227054213587
 20
178.7798103571298
 30
0.0
 10
118.5033545485319
 20
178.7882766752848
 30
0.0
 10
118.4779735826691
 20
178.7906513578615
 30
0.0
 10
118.4636673493036
 20
178.7870869700966
 30
0.0
 10
118.4602950798378
 20
178.7862467715819
 30
0.0
  0
SPLINE
  5
1E5
330
1F
100
AcDbEntity
  8
0
  6
Continuous
 62
     7
370
    25
100
AcDbSpline
210
0.0
220
0.0
230
1.0
 70
     8
 71
     3
 72
     9
 73
     5
 74
     0
 42
0.00000001
 43
0.00000001
 40
0.0
 40
0.0
 40
0.0
 40
0.0
 40
0.5000057774068458
 40
1.0
 40
1.0
 40
1.0
 40
1.0
 10
118.6403330049008
 20
178.7565024293162
 30
0.0
 10
118.6212057623792
 20
178.755198748539
 30
0.0
 10
118.5829517193543
 20
178.752591417112
 30
0.0
 10
118.5492017565292
 20
178.7678722510467
 30
0.0
 10
118.5323269701039
 20
178.7755125797305
 30
0.0
  0
LINE
  5
1E6
330
1F
100
AcDbEntity
  8
0
  6
Continuous
 62
     7
370
    25
100
AcDbLine
 10
118.6722600801
 20
178.7612732678
 30
0.0
 11
118.6403330049
 21
178.7565024291
 31
0.0
  0
SPLINE
  5
1E7
330
1F
100
AcDbEntity
  8
0
  6
Continuous
 62
     7
370
    25
100
AcDbSpline
210
0.0
220
0.0
230
1.0
 70
     8
 71
     3
 72
    11
 73
     7
 74
     0
 42
0.00000001
 43
0.00000001
 40
0.0
 40
0.0
 40
0.0
 40
0.0
 40
0.2499999999999704
 40
0.5000000000000319
 40
0.750000000000014
 40
1.0
 40
1.0
 40
1.0
 40
1.0
 10
118.6878614263223
 20
178.7462035245581
 30
0.0
 10
118.6876269135512
 20
178.7484486624123
 30
0.0
 10
118.6871578880092
 20
178.7529389381207
 30
0.0
 10
118.6835500889762
 20
178.7581516533072
 30
0.0
 10
118.6783931429771
 20
178.7614050317059
 30
0.0
 10
118.6743044344059
 20
178.7613171890856
 30
0.0
 10
118.6722600801203
 20
178.7612732677755
 30
0.0
  0
LINE
  5
1E8
330
1F
100
AcDbEntity
  8
0
  6
Continuous
 62
     7
370
    25
100
AcDbLine
 10
118.6878614264
 20
178.7462035245
 30
0.0
 11
118.6878614264
 21
176.8314564941
 31
0.0
  0
SPLINE
  5
1E9
330
1F
100
AcDbEntity
  8
0
  6
Continuous
 62
     7
370
    25
100
AcDbSpline
210
0.0
220
0.0
230
1.0
 70
     8
 71
     3
 72
    11
 73
     7
 74
     0
 42
0.00000001
 43
0.00000001
 40
0.0
 40
0.0
 40
0.0
 40
0.0
 40
0.2499803220999803
 40
0.4999737627999661
 40
0.7499803220999876
 40
0.9999999999999999
 40
0.9999999999999999
 40
0.9999999999999999
 40
0.9999999999999999
 10
118.6726002010025
 20
176.8117860004047
 30
0.0
 10
118.6746102822112
 20
176.812389553968
 30
0.0
 10
118.6786305501147
 20
176.8135966927682
 30
0.0
 10
118.6836629142961
 20
176.8183882323948
 30
0.0
 10
118.6871759144651
 20
176.8246111683193
 30
0.0
 10
118.6876329183941
 20
176.8291746788966
 30
0.0
 10
118.6878614263536
 20
176.831456494049
 30
0.0
  0
LINE
  5
1EA
330
1F
100
AcDbEntity
  8
0
  6
Continuous
 62
     7
370
    25
100
AcDbLine
 10
118.6381575736
 20
176.8035633591
 30
0.0
 11
118.6725979135
 21
176.8117784551
 31
0.0
  0
LINE
  5
1EB
330
1F
100
AcDbEntity
  8
0
  6
Continuous
 62
     7
370
    25
100
AcDbLine
 10
118.609608591
 20
176.7966549944
 30
0.0
 11
118.6381575736
 21
176.803563359
 31
0.0
  0
SPLINE
  5
1EC
330
1F
100
AcDbEntity
  8
0
  6
Continuous
 62
     7
370
    25
100
AcDbSpline
210
0.0
220
0.0
230
1.0
 70
     8
 71
     3
 72
     9
 73
     5
 74
     0
 42
0.00000001
 43
0.00000001
 40
0.0
 40
0.0
 40
0.0
 40
0.0
 40
0.2881573655273978
 40
0.9999999999999999
 40
0.9999999999999999
 40
0.9999999999999999
 40
0.9999999999999999
 10
118.5251519792647
 20
176.8121948161704
 30
0.0
 10
118.5322890559313
 20
176.807748003149
 30
0.0
 10
118.5570570387091
 20
176.792316112268
 30
0.0
 10
118.5877558606586
 20
176.7948507389962
 30
0.0
 10
118.6096085909504
 20
176.7966549943638
 30
0.0
  0
SPLINE
  5
1ED
330
1F
100
AcDbEntity
  8
0
  6
Continuous
 62
     7
370
    25
100
AcDbSpline
210
0.0
220
0.0
230
1.0
 70
     8
 71
     3
 72
    10
 73
     6
 74
     0
 42
0.00000001
 43
0.00000001
 40
0.0
 40
0.0
 40
0.0
 40
0.0
 40
0.3417296402452494
 40
0.6834592804904993
 40
1.0
 40
1.0
 40
1.0
 40
1.0
 10
118.2371080794922
 20
177.1195933109841
 30
0.0
 10
118.2617439395628
 20
177.1202298581498
 30
0.0
 10
118.3110156597039
 20
177.1215029524811
 30
0.0
 10
118.3752013594808
 20
177.0871312425328
 30
0.0
 10
118.4011611897724
 20
177.0463064237334
 30
0.0
 10
118.4136444244147
 20
177.0266751015494
 30
0.0
  0
SPLINE
  5
1EE
330
1F
100
AcDbEntity
  8
0
  6
Continuous
 62
     7
370
    25
100
AcDbSpline
210
0.0
220
0.0
230
1.0
 70
     8
 71
     3
 72
    11
 73
     7
 74
     0
 42
0.00000001
 43
0.00000001
 40
0.0
 40
0.0
 40
0.0
 40
0.0
 40
0.2500000000000006
 40
0.5000000000000021
 40
0.7500000000000016
 40
1.0
 40
1.0
 40
1.0
 40
1.0
 10
118.0430487467781
 20
176.9245110346572
 30
0.0
 10
118.0507382734991
 20
176.9486900321228
 30
0.0
 10
118.0661173269412
 20
176.9970480270541
 30
0.0
 10
118.1128519839701
 20
177.057558969998
 30
0.0
 10
118.1713039074178
 20
177.1027890768219
 30
0.0
 10
118.2151733554674
 20
177.1139918995967
 30
0.0
 10
118.2371080794922
 20
177.1195933109841
 30
0.0
  0
LINE
  5
1EF
330
1F
100
AcDbEntity
  8
0
  6
Continuous
 62
     7
370
    25
100
AcDbLine
 10
118.0179482346
 20
176.8162778508
 30
0.0
 11
118.0430487468
 21
176.9245110347
 31
0.0
  0
SPLINE
  5
1F0
330
1F
100
AcDbEntity
  8
0
  6
Continuous
 62
     7
370
    25
100
AcDbSpline
210
0.0
220
0.0
230
1.0
 70
     8
 71
     3
 72
    11
 73
     7
 74
     0
 42
0.00000001
 43
0.00000001
 40
0.0
 40
0.0
 40
0.0
 40
0.0
 40
0.2499999999999984
 40
0.4999999999999822
 40
0.7499999999999821
 40
1.0
 40
1.0
 40
1.0
 40
1.0
 10
117.9610526761463
 20
176.7590823791686
 30
0.0
 10
117.9674836390631
 20
176.7607246368452
 30
0.0
 10
117.9803455648967
 20
176.7640091521984
 30
0.0
 10
117.9974828742918
 20
176.7772700046885
 30
0.0
 10
118.0111848404505
 20
176.7950109906106
 30
0.0
 10
118.0156937698665
 20
176.8091888973753
 30
0.0
 10
118.0179482345745
 20
176.8162778507576
 30
0.0
  0
LINE
  5
1F1
330
1F
100
AcDbEntity
  8
0
  6
Continuous
 62
     7
370
    25
100
AcDbLine
 10
117.7355794676
 20
176.7253900878
 30
0.0
 11
117.9610526762
 21
176.7590823792
 31
0.0
  0
LINE
  5
1F2
330
1F
100
AcDbEntity
  8
0
  6
Continuous
 62
     7
370
    25
100
AcDbLine
 10
118.6403330049
 20
178.7565024293
 30
0.0
 11
118.8903330049
 21
178.8202146197
 31
0.0
  0
LINE
  5
1F3
330
1F
100
AcDbEntity
  8
0
  6
Continuous
 62
     7
370
    25
100
AcDbLine
 10
118.6537262189
 20
178.7945948889
 30
0.0
 11
118.5323353014
 21
178.7755137968
 31
0.0
  0
SPLINE
  5
1F4
330
1F
100
AcDbEntity
  8
0
  6
Continuous
 62
     7
370
    25
100
AcDbSpline
210
0.0
220
0.0
230
1.0
 70
     8
 71
     3
 72
    10
 73
     6
 74
     0
 42
0.00000001
 43
0.00000001
 40
0.0
 40
0.0
 40
0.0
 40
0.0
 40
0.2789886178259127
 40
0.5942988267135618
 40
1.0
 40
1.0
 40
1.0
 40
1.0
 10
118.6442532915265
 20
178.8889343122057
 30
0.0
 10
118.6456772364937
 20
178.8763603400282
 30
0.0
 10
118.6487105101446
 20
178.8495753874001
 30
0.0
 10
118.6520306021398
 20
178.8170067452122
 30
0.0
 10
118.6531156694831
 20
178.8026648410144
 30
0.0
 10
118.6537262189213
 20
178.7945948888555
 30
0.0
  0
LINE
  5
1F5
330
1F
100
AcDbEntity
  8
0
  6
Continuous
 62
     7
370
    25
100
AcDbLine
 10
118.6432344801
 20
178.9063003826
 30
0.0
 11
118.6442486945
 21
178.8889350602
 31
0.0
  0
SPLINE
  5
1F6
330
1F
100
AcDbEntity
  8
0
  6
Continuous
 62
     7
370
    25
100
AcDbSpline
210
0.0
220
0.0
230
1.0
 70
     8
 71
     3
 72
    11
 73
     7
 74
     0
 42
0.00000001
 43
0.00000001
 40
0.0
 40
0.0
 40
0.0
 40
0.0
 40
0.2500000000000096
 40
0.5000000000000059
 40
0.750000000000026
 40
1.0
 40
1.0
 40
1.0
 40
1.0
 10
118.8903330049227
 20
178.820214619689
 30
0.0
 10
118.8846589322715
 20
178.8200927170586
 30
0.0
 10
118.8733107869692
 20
178.8198489117977
 30
0.0
 10
118.8589977677741
 20
178.8288786157853
 30
0.0
 10
118.8489843844275
 20
178.8433464288486
 30
0.0
 10
118.8476826179761
 20
178.855809119192
 30
0.0
 10
118.8470317347503
 20
178.8620404643637
 30
0.0
  0
SPLINE
  5
1F7
330
1F
100
AcDbEntity
  8
0
  6
Continuous
 62
     7
370
    25
100
AcDbSpline
210
0.0
220
0.0
230
1.0
 70
     8
 71
     3
 72
    11
 73
     7
 74
     0
 42
0.00000001
 43
0.00000001
 40
0.0
 40
0.0
 40
0.0
 40
0.0
 40
0.2500000000000004
 40
0.5000000000000013
 40
0.7500000000000033
 40
1.0
 40
1.0
 40
1.0
 40
1.0
 10
118.659426177685
 20
179.0554636036888
 30
0.0
 10
118.6342403045492
 20
179.0383769173263
 30
0.0
 10
118.5838685582775
 20
179.0042035446011
 30
0.0
 10
118.499421718918
 20
178.9861928377942
 30
0.0
 10
118.4166760509866
 20
178.9933960339767
 30
0.0
 10
118.3704945322508
 20
179.0213280956868
 30
0.0
 10
118.3474037728829
 20
179.0352941265419
 30
0.0
  0
SPLINE
  5
1F8
330
1F
100
AcDbEntity
  8
0
  6
Continuous
 62
     7
370
    25
100
AcDbSpline
210
0.0
220
0.0
230
1.0
 70
     8
 71
     3
 72
     9
 73
     5
 74
     0
 42
0.00000001
 43
0.00000001
 40
0.0
 40
0.0
 40
0.0
 40
0.0
 40
0.5003017334032434
 40
1.0
 40
1.0
 40
1.0
 40
1.0
 10
118.6434427355698
 20
178.9134684895573
 30
0.0
 10
118.604161159735
 20
178.9000905810935
 30
0.0
 10
118.5256453897265
 20
178.8733509006755
 30
0.0
 10
118.4500746738881
 20
178.890154052438
 30
0.0
 10
118.4123121181782
 20
178.8985505582471
 30
0.0
  0
LINE
  5
1F9
330
1F
100
AcDbEntity
  8
0
  6
Continuous
 62
     7
370
    25
100
AcDbLine
 10
118.9336342744
 20
178.9232776783
 30
0.0
 11
120.029389509
 21
179.0870155561
 31
0.0
  0
SPLINE
  5
1FA
330
1F
100
AcDbEntity
  8
0
  6
Continuous
 62
     7
370
    25
100
AcDbSpline
210
0.0
220
0.0
230
1.0
 70
     8
 71
     3
 72
    11
 73
     7
 74
     0
 42
0.00000001
 43
0.00000001
 40
0.0
 40
0.0
 40
0.0
 40
0.0
 40
0.25
 40
0.4999999999999999
 40
0.7499999999999997
 40
1.0
 40
1.0
 40
1.0
 40
1.0
 10
120.0293895089641
 20
179.0870155560801
 30
0.0
 10
120.1387925011149
 20
179.092199634207
 30
0.0
 10
120.3575984854166
 20
179.1025677904608
 30
0.0
 10
120.65165094091
 20
178.9705813552352
 30
0.0
 10
120.8912393043101
 20
178.7473335275516
 30
0.0
 10
120.9767666296348
 20
178.5343766353986
 30
0.0
 10
121.0195302922971
 20
178.4278981893221
 30
0.0
  0
SPLINE
  5
1FB
330
1F
100
AcDbEntity
  8
0
  6
Continuous
 62
     7
370
    25
100
AcDbSpline
210
0.0
220
0.0
230
1.0
 70
     8
 71
     3
 72
    15
 73
    11
 74
     0
 42
0.00000001
 43
0.00000001
 40
0.0
 40
0.0
 40
0.0
 40
0.0
 40
0.1250000000000001
 40
0.2499999999999999
 40
0.3750000000000007
 40
0.4999999999999995
 40
0.6249999999999999
 40
0.7500000000000001
 40
0.8749999999999998
 40
1.0
 40
1.0
 40
1.0
 40
1.0
 10
121.0195302922824
 20
178.4278981893265
 30
0.0
 10
121.0412279587055
 20
178.3324883109013
 30
0.0
 10
121.0846232915516
 20
178.1416685540509
 30
0.0
 10
121.0691354378791
 20
177.8322842665535
 30
0.0
 10
120.99455097414
 20
177.5271280783953
 30
0.0
 10
120.8594385302604
 20
177.2402963873879
 30
0.0
 10
120.6727019742037
 20
176.9878298588423
 30
0.0
 10
120.4442028634755
 20
176.7851316428595
 30
0.0
 10
120.1866001189123
 20
176.6369185059925
 30
0.0
 10
120.0048782520435
 20
176.5959548689838
 30
0.0
 10
119.9140173186091
 20
176.5754730504795
 30
0.0
  0
LINE
  5
1FC
330
1F
100
AcDbEntity
  8
0
  6
Continuous
 62
     7
370
    25
100
AcDbLine
 10
119.9140173186
 20
176.5754730505
 30
0.0
 11
118.9645735401
 21
176.4335983831
 31
0.0
  0
SPLINE
  5
1FD
330
1F
100
AcDbEntity
  8
0
  6
Continuous
 62
     7
370
    25
100
AcDbSpline
210
0.0
220
0.0
230
1.0
 70
     8
 71
     3
 72
    13
 73
     9
 74
     0
 42
0.00000001
 43
0.00000001
 40
0.0
 40
0.0
 40
0.0
 40
0.0
 40
0.3223515525410793
 40
0.6087206209281426
 40
0.7282172831357494
 40
0.8287571502797932
 40
0.9163862849392949
 40
1.0
 40
1.0
 40
1.0
 40
1.0
 10
118.9645735401128
 20
176.4335983831962
 30
0.0
 10
118.9532895508568
 20
176.4325031822471
 30
0.0
 10
118.9319811473691
 20
176.4304350321279
 30
0.0
 10
118.9075460422064
 20
176.4360740445162
 30
0.0
 10
118.8922323298853
 20
176.4438168172483
 30
0.0
 10
118.8842436541943
 20
176.4507335707669
 30
0.0
 10
118.8790105698212
 20
176.459141098416
 30
0.0
 10
118.8783120634131
 20
176.4657342044606
 30
0.0
 10
118.8779709997373
 20
176.4689534576503
 30
0.0
  0
SPLINE
  5
1FE
330
1F
100
AcDbEntity
  8
0
  6
Continuous
 62
     7
370
    25
100
AcDbSpline
210
0.0
220
0.0
230
1.0
 70
     8
 71
     3
 72
    11
 73
     7
 74
     0
 42
0.00000001
 43
0.00000001
 40
0.0
 40
0.0
 40
0.0
 40
0.0
 40
0.250064681313367
 40
0.5000862417511254
 40
0.7500646813133439
 40
1.0
 40
1.0
 40
1.0
 40
1.0
 10
118.8779709997193
 20
176.4689534576491
 30
0.0
 10
118.8786196608981
 20
176.4753350754544
 30
0.0
 10
118.8799168714011
 20
176.4880972106259
 30
0.0
 10
118.8898229354316
 20
176.5054601730433
 30
0.0
 10
118.9039865539362
 20
176.5187499758544
 30
0.0
 10
118.9152507924347
 20
176.5219821824041
 30
0.0
 10
118.9208824258763
 20
176.5235981462794
 30
0.0
  0
SPLINE
  5
1FF
330
1F
100
AcDbEntity
  8
0
  6
Continuous
 62
     7
370
    25
100
AcDbSpline
210
0.0
220
0.0
230
1.0
 70
     8
 71
     3
 72
    11
 73
     7
 74
     0
 42
0.00000001
 43
0.00000001
 40
0.0
 40
0.0
 40
0.0
 40
0.0
 40
0.2500069763940126
 40
0.5000093018586844
 40
0.7500069763940086
 40
1.0
 40
1.0
 40
1.0
 40
1.0
 10
118.9208570285336
 20
176.5236383670471
 30
0.0
 10
118.9436926588443
 20
176.5297788066839
 30
0.0
 10
118.9893634946501
 20
176.5420595717258
 30
0.0
 10
119.0471312625262
 20
176.5952926460131
 30
0.0
 10
119.0875789876382
 20
176.6654112883495
 30
0.0
 10
119.0928364527825
 20
176.7170940344665
 30
0.0
 10
119.095465160902
 20
176.7429351671477
 30
0.0
  0
LINE
  5
200
330
1F
100
AcDbEntity
  8
0
  6
Continuous
 62
     7
370
    25
100
AcDbLine
 10
119.0954651609
 20
176.7429351671
 30
0.0
 11
119.0954651609
 21
178.6576821976
 31
0.0
  0
SPLINE
  5
201
330
1F
100
AcDbEntity
  8
0
  6
Continuous
 62
     7
370
    25
100
AcDbSpline
210
0.0
220
0.0
230
1.0
 70
     8
 71
     3
 72
    11
 73
     7
 74
     0
 42
0.00000001
 43
0.00000001
 40
0.0
 40
0.0
 40
0.0
 40
0.0
 40
0.2499999999999957
 40
0.4999999999999953
 40
0.7500000000000018
 40
0.9999999999999999
 40
0.9999999999999999
 40
0.9999999999999999
 40
0.9999999999999999
 10
119.0954651609321
 20
178.657682197644
 30
0.0
 10
119.0928616161534
 20
178.6826075648772
 30
0.0
 10
119.0876545265959
 20
178.7324582993436
 30
0.0
 10
119.0476009879586
 20
178.7903295075946
 30
0.0
 10
118.9903489254301
 20
178.8264482925522
 30
0.0
 10
118.9449563619171
 20
178.8254730697879
 30
0.0
 10
118.9222600801605
 20
178.8249854584058
 30
0.0
  0
LINE
  5
202
330
1F
100
AcDbEntity
  8
0
  6
Continuous
 62
     7
370
    25
100
AcDbLine
 10
118.9222600801
 20
178.8249854584
 30
0.0
 11
118.8903330049
 21
178.8202146197
 31
0.0
  0
LINE
  5
203
330
1F
100
AcDbEntity
  8
0
  6
Continuous
 62
     7
370
    25
100
AcDbLine
 10
119.3529208127
 20
178.6815741585
 30
0.0
 11
119.3529208127
 21
176.8923390016
 31
0.0
  0
SPLINE
  5
204
330
1F
100
AcDbEntity
  8
0
  6
Continuous
 62
     7
370
    25
100
AcDbSpline
210
0.0
220
0.0
230
1.0
 70
     8
 71
     3
 72
    11
 73
     7
 74
     0
 42
0.00000001
 43
0.00000001
 40
0.0
 40
0.0
 40
0.0
 40
0.0
 40
0.2500000000000017
 40
0.5000000000000028
 40
0.7500000000000004
 40
1.0
 40
1.0
 40
1.0
 40
1.0
 10
119.3529208126566
 20
176.8923390015845
 30
0.0
 10
119.3568261298246
 20
176.8549509507359
 30
0.0
 10
119.3646367641606
 20
176.7801748490388
 30
0.0
 10
119.4247170721144
 20
176.6933680366652
 30
0.0
 10
119.5105951659043
 20
176.6391898592306
 30
0.0
 10
119.5786840111717
 20
176.640652693377
 30
0.0
 10
119.6127284338053
 20
176.6413841104502
 30
0.0
  0
LINE
  5
205
330
1F
100
AcDbEntity
  8
0
  6
Continuous
 62
     7
370
    25
100
AcDbLine
 10
119.6127284338
 20
176.6413841105
 30
0.0
 11
119.9186163523
 21
176.6870927113
 31
0.0
  0
SPLINE
  5
206
330
1F
100
AcDbEntity
  8
0
  6
Continuous
 62
     7
370
    25
100
AcDbSpline
210
0.0
220
0.0
230
1.0
 70
     8
 71
     3
 72
    11
 73
     7
 74
     0
 42
0.00000001
 43
0.00000001
 40
0.0
 40
0.0
 40
0.0
 40
0.0
 40
0.2499999999999995
 40
0.4999999999999994
 40
0.7500000000000003
 40
1.0
 40
1.0
 40
1.0
 40
1.0
 10
119.9186163522628
 20
176.6870927112996
 30
0.0
 10
119.9958399824236
 20
176.7052815314722
 30
0.0
 10
120.1502872427451
 20
176.7416591718173
 30
0.0
 10
120.3645366364493
 20
176.8797950780989
 30
0.0
 10
120.5509608474969
 20
177.0661797067586
 30
0.0
 10
120.6356617750587
 20
177.223497126287
 30
0.0
 10
120.6780122388395
 20
177.3021558360512
 30
0.0
  0
SPLINE
  5
207
330
1F
100
AcDbEntity
  8
0
  6
Continuous
 62
     7
370
    25
100
AcDbSpline
210
0.0
220
0.0
230
1.0
 70
     8
 71
     3
 72
    15
 73
    11
 74
     0
 42
0.00000001
 43
0.00000001
 40
0.0
 40
0.0
 40
0.0
 40
0.0
 40
0.1250000000000005
 40
0.2500000000000001
 40
0.3749999999999996
 40
0.4999999999999995
 40
0.6249999999999998
 40
0.7500000000000001
 40
0.8749999999999997
 40
1.0
 40
1.0
 40
1.0
 40
1.0
 10
120.678012238861
 20
177.3021558360304
 30
0.0
 10
120.7106042646123
 20
177.3841908050769
 30
0.0
 10
120.7757883161149
 20
177.5482607431698
 30
0.0
 10
120.8155427918549
 20
177.8081813240094
 30
0.0
 10
120.8098898495578
 20
178.0637103764539
 30
0.0
 10
120.7551975505319
 20
178.305143393463
 30
0.0
 10
120.6550535672696
 20
178.5215836261556
 30
0.0
 10
120.5132095195062
 20
178.702224476283
 30
0.0
 10
120.3376927533993
 20
178.8437725961806
 30
0.0
 10
120.1993829197138
 20
178.8959461575457
 30
0.0
 10
120.130228002871
 20
178.9220329382283
 30
0.0
  0
LINE
  5
208
330
1F
100
AcDbEntity
  8
0
  6
Continuous
 62
     7
370
    25
100
AcDbLine
 10
120.1302280029
 20
178.9220329382
 30
0.0
 11
119.8090595051
 21
178.9429197843
 31
0.0
  0
LINE
  5
209
330
1F
100
AcDbEntity
  8
0
  6
Continuous
 62
     7
370
    25
100
AcDbLine
 10
119.8090595051
 20
178.9429197843
 30
0.0
 11
119.5261258934
 21
178.9006412282
 31
0.0
  0
SPLINE
  5
20A
330
1F
100
AcDbEntity
  8
0
  6
Continuous
 62
     7
370
    25
100
AcDbSpline
210
0.0
220
0.0
230
1.0
 70
     8
 71
     3
 72
    11
 73
     7
 74
     0
 42
0.00000001
 43
0.00000001
 40
0.0
 40
0.0
 40
0.0
 40
0.0
 40
0.2499999999999995
 40
0.4999999999999998
 40
0.7500000000000021
 40
1.0
 40
1.0
 40
1.0
 40
1.0
 10
119.5261258934269
 20
178.9006412282352
 30
0.0
 10
119.5034296116711
 20
178.8943458631068
 30
0.0
 10
119.4580370481594
 20
178.8817551328499
 30
0.0
 10
119.4007849856326
 20
178.8285260828959
 30
0.0
 10
119.3607314469966
 20
178.7586845345418
 30
0.0
 10
119.3555243574393
 20
178.7072776171508
 30
0.0
 10
119.3529208126606
 20
178.6815741584552
 30
0.0
  0
SPLINE
  5
20B
330
1F
100
AcDbEntity
  8
0
  6
Continuous
 62
     7
370
    25
100
AcDbSpline
210
0.0
220
0.0
230
1.0
 70
     8
 71
     3
 72
    12
 73
     8
 74
     0
 42
0.00000001
 43
0.00000001
 40
0.0
 40
0.0
 40
0.0
 40
0.0
 40
0.2194371918451957
 40
0.4387852223722822
 40
0.6585301767920982
 40
0.8779934033433744
 40
1.0
 40
1.0
 40
1.0
 40
1.0
 10
118.6537134117981
 20
178.7945457240087
 30
0.0
 10
118.6397588462195
 20
178.8006352043746
 30
0.0
 10
118.6118553850557
 20
178.8128116908399
 30
0.0
 10
118.564565614362
 20
178.8143349473014
 30
0.0
 10
118.517517974234
 20
178.803051622787
 30
0.0
 10
118.4782320461883
 20
178.784211978539
 30
0.0
 10
118.4582852924719
 20
178.7653771475184
 30
0.0
 10
118.4511583507339
 20
178.7586474938997
 30
0.0
  0
LINE
  5
20C
330
1F
100
AcDbEntity
  8
0
  6
Continuous
 62
     7
370
    25
100
AcDbLine
 10
119.779389509
 20
179.3748716147
 30
0.0
 11
120.029389509
 21
179.087015556
 31
0.0
  0
LINE
  5
20D
330
1F
100
AcDbEntity
  8
0
  6
Continuous
 62
     7
370
    25
100
AcDbLine
 10
118.6722600801
 20
178.7612732678
 30
0.0
 11
118.9222600801
 21
178.8249854584
 31
0.0
  0
LINE
  5
20E
330
1F
100
AcDbEntity
  8
0
  6
Continuous
 62
     7
370
    25
100
AcDbLine
 10
119.0954651609
 20
178.6576821977
 30
0.0
 11
118.6878614263
 21
178.7462035246
 31
0.0
  0
LINE
  5
20F
330
1F
100
AcDbEntity
  8
0
  6
Continuous
 62
     7
370
    25
100
AcDbLine
 10
118.2110526761
 20
176.4712263205
 30
0.0
 11
117.9610526761
 21
176.7590823792
 31
0.0
  0
LINE
  5
210
330
1F
100
AcDbEntity
  8
0
  6
Continuous
 62
     7
370
    25
100
AcDbLine
 10
118.6878614264
 20
176.831456494
 30
0.0
 11
119.0954651609
 21
176.7429351672
 31
0.0
  0
LINE
  5
211
330
1F
100
AcDbEntity
  8
0
  6
Continuous
 62
     7
370
    25
100
AcDbLine
 10
118.4452822643
 20
176.789690961
 30
0.0
 11
118.0430487468
 21
176.9245110347
 31
0.0
  0
LINE
  5
212
330
1F
100
AcDbEntity
  8
0
  6
Continuous
 62
     7
370
    25
100
AcDbLine
 10
118.0179482346
 20
176.8162778508
 30
0.0
 11
118.4201817521
 21
176.6814577771
 31
0.0
  0
LWPOLYLINE
  5
213
330
1F
100
AcDbEntity
  8
0
  6
Continuous
 62
     7
370
    25
100
AcDbPolyline
 90
       21
 70
   128
 43
0.0
 10
111.505116047
 20
162.7839542565
 10
111.5452172394
 20
162.6123697199
 10
111.722266433
 20
162.3879103756
 10
112.0361386566
 20
162.1737083599
 10
112.4787047846
 20
161.9753113923
 10
113.0385025866
 20
161.7978578502
 10
113.7010335937
 20
161.645943687
 10
114.4491386007
 20
161.5235033998
 10
115.2634420811
 20
161.4337081277
 10
116.1228540023
 20
161.3788835211
 10
117.005116047
 20
161.3604495084
 10
117.8873780917
 20
161.3788835211
 10
118.7467900129
 20
161.4337081277
 10
119.5610934932
 20
161.5235033998
 10
120.3091985003
 20
161.645943687
 10
120.9717295074
 20
161.7978578502
 10
121.5315273094
 20
161.9753113923
 10
121.9740934373
 20
162.1737083599
 10
122.287965661
 20
162.3879103756
 10
122.4650148545
 20
162.6123697199
 10
122.505116047
 20
162.7839542565
  0
LINE
  5
214
330
1F
100
AcDbEntity
  8
0
  6
Continuous
 62
     7
370
    25
100
AcDbLine
 10
119.5590595051
 20
178.8792075937
 30
0.0
 11
119.8090595051
 21
178.9429197843
 31
0.0
  0
LINE
  5
215
330
1F
100
AcDbEntity
  8
0
  6
Continuous
 62
     7
370
    25
100
AcDbLine
 10
119.4442116004
 20
178.862045958
 30
0.0
 11
119.5590595051
 21
178.8792075937
 31
0.0
  0
LINE
  5
216
330
1F
100
AcDbEntity
  8
0
  6
Continuous
 62
     7
370
    25
100
AcDbLine
 10
119.8217801162
 20
178.8621218427
 30
0.0
 11
119.559059505
 21
178.8792075937
 31
0.0
  0
LINE
  5
217
330
1F
100
AcDbEntity
  8
0
  6
Continuous
 62
     7
370
    25
100
AcDbLine
 10
120.1302280029
 20
178.9220329382
 30
0.0
 11
119.8217801162
 21
178.8621218427
 31
0.0
  0
LINE
  5
218
330
1F
100
AcDbEntity
  8
0
  6
Continuous
 62
     7
370
    25
100
AcDbLine
 10
118.8779709997
 20
176.4689534576
 30
0.0
 11
118.6738159517
 21
176.513289157
 31
0.0
  0
LINE
  5
219
330
1F
100
AcDbEntity
  8
0
  6
Continuous
 62
     7
370
    25
100
AcDbLine
 10
118.6738230963
 20
176.5132867761
 30
0.0
 11
118.6744742587
 21
176.5228856788
 31
0.0
  0
SPLINE
  5
21A
330
1F
100
AcDbEntity
  8
0
  6
Continuous
 62
     7
370
    25
100
AcDbSpline
210
0.0
220
0.0
230
1.0
 70
     8
 71
     3
 72
     9
 73
     5
 74
     0
 42
0.00000001
 43
0.00000001
 40
0.0
 40
0.0
 40
0.0
 40
0.0
 40
0.4999999999999969
 40
1.0
 40
1.0
 40
1.0
 40
1.0
 10
118.6744744954264
 20
176.5228856207489
 30
0.0
 10
118.6756085428457
 20
176.5330023508725
 30
0.0
 10
118.6778766376842
 20
176.5532358111197
 30
0.0
 10
118.6857682612209
 20
176.5724349767172
 30
0.0
 10
118.6897140729892
 20
176.5820345595159
 30
0.0
  0
SPLINE
  5
21B
330
1F
100
AcDbEntity
  8
0
  6
Continuous
 62
     7
370
    25
100
AcDbSpline
210
0.0
220
0.0
230
1.0
 70
     8
 71
     3
 72
     9
 73
     5
 74
     0
 42
0.00000001
 43
0.00000001
 40
0.0
 40
0.0
 40
0.0
 40
0.0
 40
0.5337739602729729
 40
1.0
 40
1.0
 40
1.0
 40
1.0
 10
118.7214502520103
 20
176.6562975610766
 30
0.0
 10
118.7165485333089
 20
176.644127012777
 30
0.0
 10
118.7073653976254
 20
176.621326072294
 30
0.0
 10
118.6953267868268
 20
176.5945283537199
 30
0.0
 10
118.6897140729904
 20
176.5820345595154
 30
0.0
  0
LINE
  5
21C
330
1F
100
AcDbEntity
  8
0
  6
Continuous
 62
     7
370
    25
100
AcDbLine
 10
118.7398287785
 20
176.6998318513
 30
0.0
 11
118.721450252
 21
176.6562975611
 31
0.0
  0
LINE
  5
21D
330
1F
100
AcDbEntity
  8
0
  6
Continuous
 62
     7
370
    25
100
AcDbLine
 10
118.6381575736
 20
176.8035633591
 30
0.0
 11
118.7398286488
 21
176.6998319836
 31
0.0
  0
SPLINE
  5
21E
330
1F
100
AcDbEntity
  8
0
  6
Continuous
 62
     7
370
    25
100
AcDbSpline
210
0.0
220
0.0
230
1.0
 70
     8
 71
     3
 72
     9
 73
     5
 74
     0
 42
0.00000001
 43
0.00000001
 40
0.0
 40
0.0
 40
0.0
 40
0.0
 40
0.3386292240358504
 40
1.0
 40
1.0
 40
1.0
 40
1.0
 10
118.9208824242256
 20
176.5235981481953
 30
0.0
 10
118.8928280043958
 20
176.5561242964692
 30
0.0
 10
118.8099809910891
 20
176.6521766923204
 30
0.0
 10
118.7272860333657
 20
176.7482457255112
 30
0.0
 10
118.6725940050078
 20
176.8117829765388
 30
0.0
  0
LINE
  5
21F
330
1F
100
AcDbEntity
  8
0
  6
Continuous
 62
     7
370
    25
100
AcDbLine
 10
118.7145735401
 20
176.3698861925
 30
0.0
 11
118.9645735402
 21
176.4335983832
 31
0.0
  0
LINE
  5
220
330
1F
100
AcDbEntity
  8
0
  6
Continuous
 62
     7
370
    25
100
AcDbLine
 10
118.6737034157
 20
176.4182029908
 30
0.0
 11
118.5463205344
 21
176.4027865963
 31
0.0
  0
SPLINE
  5
221
330
1F
100
AcDbEntity
  8
0
  6
Continuous
 62
     7
370
    25
100
AcDbSpline
210
0.0
220
0.0
230
1.0
 70
     8
 71
     3
 72
    10
 73
     6
 74
     0
 42
0.00000001
 43
0.00000001
 40
0.0
 40
0.0
 40
0.0
 40
0.0
 40
0.2128845259920707
 40
0.4572249295026051
 40
1.0
 40
1.0
 40
1.0
 40
1.0
 10
118.6738159517472
 20
176.5132891569767
 30
0.0
 10
118.6731556945122
 20
176.5039050708616
 30
0.0
 10
118.6717376202471
 20
176.4837503034241
 30
0.0
 10
118.6704994718473
 20
176.4478968699668
 30
0.0
 10
118.6723940806118
 20
176.4303224530626
 30
0.0
 10
118.6737005552521
 20
176.4182035763678
 30
0.0
  0
SPLINE
  5
222
330
1F
100
AcDbEntity
  8
0
  6
Continuous
 62
     7
370
    25
100
AcDbSpline
210
0.0
220
0.0
230
1.0
 70
     8
 71
     3
 72
     9
 73
     5
 74
     0
 42
0.00000001
 43
0.00000001
 40
0.0
 40
0.0
 40
0.0
 40
0.0
 40
0.5001924773013748
 40
1.0
 40
1.0
 40
1.0
 40
1.0
 10
118.4421873463642
 20
176.5024437170003
 30
0.0
 10
118.4814543661941
 20
176.5168066384202
 30
0.0
 10
118.5599581854474
 20
176.5455214273698
 30
0.0
 10
118.6363122442435
 20
176.5304289568274
 30
0.0
 10
118.6744745772184
 20
176.5228856265142
 30
0.0
  0
SPLINE
  5
223
330
1F
100
AcDbEntity
  8
0
  6
Continuous
 62
     7
370
    25
100
AcDbSpline
210
0.0
220
0.0
230
1.0
 70
     8
 71
     3
 72
    15
 73
    11
 74
     0
 42
0.00000001
 43
0.00000001
 40
0.0
 40
0.0
 40
0.0
 40
0.0
 40
0.1249999999999996
 40
0.25
 40
0.3749999999999994
 40
0.4999999999999997
 40
0.6249999999999997
 40
0.7500000000000003
 40
0.8750000000000002
 40
1.0
 40
1.0
 40
1.0
 40
1.0
 10
120.2898134894892
 20
177.4780795598857
 30
0.0
 10
120.3176605043418
 20
177.5481712141722
 30
0.0
 10
120.3733545340472
 20
177.688354522745
 30
0.0
 10
120.4073212314491
 20
177.9104337617075
 30
0.0
 10
120.4024912902455
 20
178.1287608265226
 30
0.0
 10
120.3557615387753
 20
178.3350440708301
 30
0.0
 10
120.270197327132
 20
178.5199731826461
 30
0.0
 10
120.1490040838851
 20
178.6743148757602
 30
0.0
 10
119.999040469168
 20
178.795255274716
 30
0.0
 10
119.8808669005084
 20
178.839832986741
 30
0.0
 10
119.8217801161786
 20
178.8621218427535
 30
0.0
  0
LINE
  5
224
330
1F
100
AcDbEntity
  8
0
  6
Continuous
 62
     7
370
    25
100
AcDbLine
 10
120.6780122389
 20
177.302155836
 30
0.0
 11
120.2898134895
 21
177.4780795599
 31
0.0
  0
LINE
  5
225
330
1F
100
AcDbEntity
  8
0
  6
Continuous
 62
     7
370
    25
100
AcDbLine
 10
119.6640173186
 20
176.5117608599
 30
0.0
 11
119.9140173186
 21
176.5754730505
 31
0.0
  0
LINE
  5
226
330
1F
100
AcDbEntity
  8
0
  6
Continuous
 62
     7
370
    25
100
AcDbLine
 10
119.3627284338
 20
176.9292401691
 30
0.0
 11
119.6127284338
 21
176.6413841105
 31
0.0
  0
SPLINE
  5
227
330
1F
100
AcDbEntity
  8
0
  6
Continuous
 62
     7
370
    25
100
AcDbSpline
210
0.0
220
0.0
230
1.0
 70
     8
 71
     3
 72
    11
 73
     7
 74
     0
 42
0.00000001
 43
0.00000001
 40
0.0
 40
0.0
 40
0.0
 40
0.0
 40
0.25
 40
0.5000000000000001
 40
0.7500000000000008
 40
0.9999999999999999
 40
0.9999999999999999
 40
0.9999999999999999
 40
0.9999999999999999
 10
119.6686163522545
 20
176.9749487699541
 30
0.0
 10
119.731786431036
 20
176.9898274955573
 30
0.0
 10
119.858126588599
 20
177.0195849467637
 30
0.0
 10
120.0333857812968
 20
177.1325821739624
 30
0.0
 10
120.1858835604625
 20
177.2850475741467
 30
0.0
 10
120.2551701798012
 20
177.4137355646573
 30
0.0
 10
120.2898134894705
 20
177.4780795599127
 30
0.0
  0
LINE
  5
228
330
1F
100
AcDbEntity
  8
0
  6
Continuous
 62
     7
370
    25
100
AcDbLine
 10
119.6686163523
 20
176.97494877
 30
0.0
 11
119.3627284338
 21
176.9292401691
 31
0.0
  0
LINE
  5
229
330
1F
100
AcDbEntity
  8
0
  6
Continuous
 62
     7
370
    25
100
AcDbLine
 10
119.9186163523
 20
176.6870927113
 30
0.0
 11
119.6686163523
 21
176.97494877
 31
0.0
  0
LINE
  5
22A
330
1F
100
AcDbEntity
  8
0
  6
Continuous
 62
     7
370
    25
100
AcDbLine
 10
120.9557696812
 20
179.3265767672
 30
0.0
 11
121.3633734158
 21
179.2380554689
 31
0.0
  0
LINE
  5
22B
330
1F
100
AcDbEntity
  8
0
  6
Continuous
 62
     7
370
    25
100
AcDbLine
 10
121.1999759546
 20
179.5871487753
 30
0.0
 11
121.4499759546
 21
179.2992927166
 31
0.0
  0
SPLINE
  5
22C
330
1F
100
AcDbEntity
  8
0
  6
Continuous
 62
     7
370
    25
100
AcDbSpline
210
0.0
220
0.0
230
1.0
 70
     8
 71
     3
 72
    13
 73
     9
 74
     0
 42
0.00000001
 43
0.00000001
 40
0.0
 40
0.0
 40
0.0
 40
0.0
 40
0.0828689789927135
 40
0.1702958713195831
 40
0.2710429152286139
 40
0.3909878348488802
 40
0.6754500221815298
 40
1.0
 40
1.0
 40
1.0
 40
1.0
 10
121.3633734157561
 20
179.2380554691846
 30
0.0
 10
121.3637164406289
 20
179.2413463357367
 30
0.0
 10
121.364421357237
 20
179.2481090712462
 30
0.0
 10
121.3696597922773
 20
179.2580382298756
 30
0.0
 10
121.3776414118639
 20
179.2673613366008
 30
0.0
 10
121.3928476675645
 20
179.2797600553456
 30
0.0
 10
121.4173019025185
 20
179.2927518753747
 30
0.0
 10
121.4386169223057
 20
179.29701881355
 30
0.0
 10
121.4499759551707
 20
179.2992927167154
 30
0.0
  0
LINE
  5
22D
330
1F
100
AcDbEntity
  8
0
  6
Continuous
 62
     7
370
    25
100
AcDbLine
 10
121.1598994673
 20
179.1330224413
 30
0.0
 11
121.4052197759
 21
179.1960562336
 31
0.0
  0
SPLINE
  5
22E
330
1F
100
AcDbEntity
  8
0
  6
Continuous
 62
     7
370
    25
100
AcDbSpline
210
0.0
220
0.0
230
1.0
 70
     8
 71
     3
 72
    11
 73
     7
 74
     0
 42
0.00000001
 43
0.00000001
 40
0.0
 40
0.0
 40
0.0
 40
0.0
 40
0.2498422547212661
 40
0.4997896729613783
 40
0.7498422547208046
 40
1.0
 40
1.0
 40
1.0
 40
1.0
 10
121.405219891961
 20
179.1960562634133
 30
0.0
 10
121.3997009820084
 20
179.1961456209554
 30
0.0
 10
121.3886608390854
 20
179.1963243736518
 30
0.0
 10
121.3748941402136
 20
179.2055009855591
 30
0.0
 10
121.3652809790872
 20
179.2197855813687
 30
0.0
 10
121.3640093593606
 20
179.2319646557922
 30
0.0
 10
121.3633734158255
 20
179.2380554732598
 30
0.0
  0
LINE
  5
22F
330
1F
100
AcDbEntity
  8
0
  6
Continuous
 62
     7
370
    25
100
AcDbLine
 10
121.4499759546
 20
179.2992927166
 30
0.0
 11
121.9649244716
 21
179.3762410849
 31
0.0
  0
SPLINE
  5
230
330
1F
100
AcDbEntity
  8
0
  6
Continuous
 62
     7
370
    25
100
AcDbSpline
210
0.0
220
0.0
230
1.0
 70
     8
 71
     3
 72
    13
 73
     9
 74
     0
 42
0.00000001
 43
0.00000001
 40
0.0
 40
0.0
 40
0.0
 40
0.0
 40
0.3223508504603673
 40
0.6087192864304717
 40
0.7282165553914673
 40
0.8287567324800027
 40
0.9163860285071646
 40
1.0
 40
1.0
 40
1.0
 40
1.0
 10
121.9649244716195
 20
179.3762410848751
 30
0.0
 10
121.9762084620146
 20
179.3773362860609
 30
0.0
 10
121.9975168673488
 20
179.3794044365972
 30
0.0
 10
122.0219520020992
 20
179.3737654144599
 30
0.0
 10
122.0372657556227
 20
179.3660226130496
 30
0.0
 10
122.0452544654303
 20
179.3591058009063
 30
0.0
 10
122.0504875340973
 20
179.3506981872556
 30
0.0
 10
122.0511859784221
 20
179.3441050300319
 30
0.0
 10
122.0515270119979
 20
179.3408857498341
 30
0.0
  0
SPLINE
  5
231
330
1F
100
AcDbEntity
  8
0
  6
Continuous
 62
     7
370
    25
100
AcDbSpline
210
0.0
220
0.0
230
1.0
 70
     8
 71
     3
 72
    11
 73
     7
 74
     0
 42
0.00000001
 43
0.00000001
 40
0.0
 40
0.0
 40
0.0
 40
0.0
 40
0.2441023413860169
 40
0.4951375578272086
 40
0.7479530677164301
 40
1.0
 40
1.0
 40
1.0
 40
1.0
 10
122.0515270119979
 20
179.3408857498341
 30
0.0
 10
122.0509225981807
 20
179.3346071237556
 30
0.0
 10
122.0496966042812
 20
179.3218715491381
 30
0.0
 10
122.0394892727417
 20
179.3046827049633
 30
0.0
 10
122.0254568331866
 20
179.2907691815467
 30
0.0
 10
122.0139636146155
 20
179.2876674733606
 30
0.0
 10
122.0082257536836
 20
179.2861189802111
 30
0.0
  0
LINE
  5
232
330
1F
100
AcDbEntity
  8
0
  6
Continuous
 62
     7
370
    25
100
AcDbLine
 10
122.0082257696
 20
179.2861189826
 30
0.0
 11
122.001330522
 21
179.2850886309
 31
0.0
  0
SPLINE
  5
233
330
1F
100
AcDbEntity
  8
0
  6
Continuous
 62
     7
370
    25
100
AcDbSpline
210
0.0
220
0.0
230
1.0
 70
     8
 71
     3
 72
    11
 73
     7
 74
     0
 42
0.00000001
 43
0.00000001
 40
0.0
 40
0.0
 40
0.0
 40
0.0
 40
0.2499999999999985
 40
0.5000000000000012
 40
0.7500000000000014
 40
1.0
 40
1.0
 40
1.0
 40
1.0
 10
121.828125441207
 20
179.0660215611544
 30
0.0
 10
121.8307289859858
 20
179.0917250198507
 30
0.0
 10
121.8359360755433
 20
179.1431319372433
 30
0.0
 10
121.8759896141805
 20
179.2129734855995
 30
0.0
 10
121.933241676709
 20
179.2662025355552
 30
0.0
 10
121.9786342402221
 20
179.2787932658124
 30
0.0
 10
122.0013305219786
 20
179.2850886309411
 30
0.0
  0
LINE
  5
234
330
1F
100
AcDbEntity
  8
0
  6
Continuous
 62
     7
370
    25
100
AcDbLine
 10
121.8281254412
 20
179.0660215612
 30
0.0
 11
121.8281254412
 21
177.1805051064
 31
0.0
  0
SPLINE
  5
235
330
1F
100
AcDbEntity
  8
0
  6
Continuous
 62
     7
370
    25
100
AcDbSpline
210
0.0
220
0.0
230
1.0
 70
     8
 71
     3
 72
    11
 73
     7
 74
     0
 42
0.00000001
 43
0.00000001
 40
0.0
 40
0.0
 40
0.0
 40
0.0
 40
0.2500000000000052
 40
0.5000000000000019
 40
0.7499999999999997
 40
1.0
 40
1.0
 40
1.0
 40
1.0
 10
121.828125441212
 20
177.1805051063462
 30
0.0
 10
121.8307289859906
 20
177.1555797391138
 30
0.0
 10
121.8359360755479
 20
177.1057290046493
 30
0.0
 10
121.8759896141834
 20
177.0478577964002
 30
0.0
 10
121.9332416767095
 20
177.0117390114434
 30
0.0
 10
121.9786342402208
 20
177.0127142342071
 30
0.0
 10
122.0013305219765
 20
177.0132018455889
 30
0.0
  0
LINE
  5
236
330
1F
100
AcDbEntity
  8
0
  6
Continuous
 62
     7
370
    25
100
AcDbLine
 10
122.001330522
 20
177.0132018456
 30
0.0
 11
122.0684869789
 21
177.0232369059
 31
0.0
  0
SPLINE
  5
237
330
1F
100
AcDbEntity
  8
0
  6
Continuous
 62
     7
370
    25
100
AcDbSpline
210
0.0
220
0.0
230
1.0
 70
     8
 71
     3
 72
    11
 73
     7
 74
     0
 42
0.00000001
 43
0.00000001
 40
0.0
 40
0.0
 40
0.0
 40
0.0
 40
0.2499999999999976
 40
0.50000000000001
 40
0.7499999999999875
 40
0.9999999999999999
 40
0.9999999999999999
 40
0.9999999999999999
 40
0.9999999999999999
 10
122.0684870903158
 20
177.0232368559803
 30
0.0
 10
122.0741611814859
 20
177.0233587944709
 30
0.0
 10
122.085509363826
 20
177.023602671452
 30
0.0
 10
122.0998224582681
 20
177.0145730037289
 30
0.0
 10
122.1098358975306
 20
177.0001051762424
 30
0.0
 10
122.1111376667498
 20
176.9876424529688
 30
0.0
 10
122.1117885513594
 20
176.981411091332
 30
0.0
  0
SPLINE
  5
238
330
1F
100
AcDbEntity
  8
0
  6
Continuous
 62
     7
370
    25
100
AcDbSpline
210
0.0
220
0.0
230
1.0
 70
     8
 71
     3
 72
    13
 73
     9
 74
     0
 42
0.00000001
 43
0.00000001
 40
0.0
 40
0.0
 40
0.0
 40
0.0
 40
0.0828685663787101
 40
0.1702951362215052
 40
0.271041947680521
 40
0.3909867016620661
 40
0.6754494132620078
 40
1.0
 40
1.0
 40
1.0
 40
1.0
 10
122.1117884126704
 20
176.9814110184007
 30
0.0
 10
122.1114453923954
 20
176.9781201740533
 30
0.0
 10
122.1107404847687
 20
176.9713574796938
 30
0.0
 10
122.1055020700162
 20
176.9614283772853
 30
0.0
 10
122.0975204792169
 20
176.9521053158134
 30
0.0
 10
122.0823142461156
 20
176.9397066201383
 30
0.0
 10
122.0578600239868
 20
176.9267148059172
 30
0.0
 10
122.0365450037506
 20
176.9224478678086
 30
0.0
 10
122.0251859704702
 20
176.9201739646435
 30
0.0
  0
LINE
  5
239
330
1F
100
AcDbEntity
  8
0
  6
Continuous
 62
     7
370
    25
100
AcDbLine
 10
122.0251859705
 20
176.9201739646
 30
0.0
 11
121.4498008904
 21
176.8341946063
 31
0.0
  0
SPLINE
  5
23A
330
1F
100
AcDbEntity
  8
0
  6
Continuous
 62
     7
370
    25
100
AcDbSpline
210
0.0
220
0.0
230
1.0
 70
     8
 71
     3
 72
    13
 73
     9
 74
     0
 42
0.00000001
 43
0.00000001
 40
0.0
 40
0.0
 40
0.0
 40
0.0
 40
0.3223503785406369
 40
0.6087182058068475
 40
0.7282166882607478
 40
0.8287577625211725
 40
0.916387172463025
 40
0.9999999999999999
 40
0.9999999999999999
 40
0.9999999999999999
 40
0.9999999999999999
 10
121.449800890403
 20
176.8341946063368
 30
0.0
 10
121.4385168649865
 20
176.8330993998752
 30
0.0
 10
121.4172084001512
 20
176.8310312400198
 30
0.0
 10
121.3927731699331
 20
176.8366703532559
 30
0.0
 10
121.3774593088622
 20
176.8444132131936
 30
0.0
 10
121.3694704367707
 20
176.8513299907173
 30
0.0
 10
121.3642371530717
 20
176.8597374594436
 30
0.0
 10
121.3635385397403
 20
176.8663305573701
 30
0.0
 10
121.3631974262578
 20
176.8695497839347
 30
0.0
  0
SPLINE
  5
23B
330
1F
100
AcDbEntity
  8
0
  6
Continuous
 62
     7
370
    25
100
AcDbSpline
210
0.0
220
0.0
230
1.0
 70
     8
 71
     3
 72
    11
 73
     7
 74
     0
 42
0.00000001
 43
0.00000001
 40
0.0
 40
0.0
 40
0.0
 40
0.0
 40
0.2501080277493068
 40
0.500144036998977
 40
0.7501080277491899
 40
1.0
 40
1.0
 40
1.0
 40
1.0
 10
121.3631962170416
 20
176.8695494343625
 30
0.0
 10
121.3638290049157
 20
176.875829263188
 30
0.0
 10
121.3650943984529
 20
176.888387112565
 30
0.0
 10
121.3747203291165
 20
176.9055385830542
 30
0.0
 10
121.3885114323124
 20
176.9188098313524
 30
0.0
 10
121.399567689639
 20
176.9222554849122
 30
0.0
 10
121.4050950218178
 20
176.9239780634697
 30
0.0
  0
SPLINE
  5
23C
330
1F
100
AcDbEntity
  8
0
  6
Continuous
 62
     7
370
    25
100
AcDbSpline
210
0.0
220
0.0
230
1.0
 70
     8
 71
     3
 72
    11
 73
     7
 74
     0
 42
0.00000001
 43
0.00000001
 40
0.0
 40
0.0
 40
0.0
 40
0.0
 40
0.2500314940358745
 40
0.5000419920478365
 40
0.750031494035877
 40
1.0
 40
1.0
 40
1.0
 40
1.0
 10
121.405131085637
 20
176.9240443035658
 30
0.0
 10
121.4282181349566
 20
176.9298993405793
 30
0.0
 10
121.4743902948951
 20
176.9416089229381
 30
0.0
 10
121.5330964011932
 20
176.9948503580425
 30
0.0
 10
121.5742580494719
 20
177.065481447715
 30
0.0
 10
121.5795992871261
 20
177.1176726014994
 30
0.0
 10
121.582269793799
 20
177.1437670824929
 30
0.0
  0
LINE
  5
23D
330
1F
100
AcDbEntity
  8
0
  6
Continuous
 62
     7
370
    25
100
AcDbLine
 10
121.5822697938
 20
177.1437670825
 30
0.0
 11
121.5822697938
 21
179.0292835373
 31
0.0
  0
SPLINE
  5
23E
330
1F
100
AcDbEntity
  8
0
  6
Continuous
 62
     7
370
    25
100
AcDbSpline
210
0.0
220
0.0
230
1.0
 70
     8
 71
     3
 72
    11
 73
     7
 74
     0
 42
0.00000001
 43
0.00000001
 40
0.0
 40
0.0
 40
0.0
 40
0.0
 40
0.2500440249767362
 40
0.5000586999689769
 40
0.7500440249767293
 40
1.0
 40
1.0
 40
1.0
 40
1.0
 10
121.405255887192
 20
179.1959813413376
 30
0.0
 10
121.4283338660813
 20
179.197021950713
 30
0.0
 10
121.4744871149837
 20
179.1991030473178
 30
0.0
 10
121.5331531971502
 20
179.1634188876837
 30
0.0
 10
121.5742779303103
 20
179.1051228039682
 30
0.0
 10
121.5796059435748
 20
179.0545623034374
 30
0.0
 10
121.5822697938117
 20
179.0292835372961
 30
0.0
  0
LINE
  5
23F
330
1F
100
AcDbEntity
  8
0
  6
Continuous
 62
     7
370
    25
100
AcDbLine
 10
121.7149244716
 20
179.6640971436
 30
0.0
 11
121.9649244717
 21
179.3762410848
 31
0.0
  0
LINE
  5
240
330
1F
100
AcDbEntity
  8
0
  6
Continuous
 62
     7
370
    25
100
AcDbLine
 10
121.5822697938
 20
179.0292835373
 30
0.0
 11
121.1746660592
 21
179.1178048642
 31
0.0
  0
LINE
  5
241
330
1F
100
AcDbEntity
  8
0
  6
Continuous
 62
     7
370
    25
100
AcDbLine
 10
121.1746660592
 20
177.2322884094
 30
0.0
 11
121.5822697938
 21
177.1437670825
 31
0.0
  0
LINE
  5
242
330
1F
100
AcDbEntity
  8
0
  6
Continuous
 62
     7
370
    25
100
AcDbLine
 10
121.9172732179
 20
179.5460672924
 30
0.0
 11
121.8523434938
 21
179.648647282
 31
0.0
  0
SPLINE
  5
243
330
1F
100
AcDbEntity
  8
0
  6
Continuous
 62
     7
370
    25
100
AcDbSpline
210
0.0
220
0.0
230
1.0
 70
     8
 71
     3
 72
    10
 73
     6
 74
     0
 42
0.00000001
 43
0.00000001
 40
0.0
 40
0.0
 40
0.0
 40
0.0
 40
0.1990870246505815
 40
0.4265431986201638
 40
1.0
 40
1.0
 40
1.0
 40
1.0
 10
122.0045935176553
 20
179.4218412855793
 30
0.0
 10
122.0026436415352
 20
179.43173843231
 30
0.0
 10
121.9984660393103
 20
179.4529430318118
 30
0.0
 10
121.9722263232142
 20
179.499159664634
 30
0.0
 10
121.9402005256278
 20
179.5264923569796
 30
0.0
 10
121.9172699301564
 20
179.5460626708688
 30
0.0
  0
SPLINE
  5
244
330
1F
100
AcDbEntity
  8
0
  6
Continuous
 62
     7
370
    25
100
AcDbSpline
210
0.0
220
0.0
230
1.0
 70
     8
 71
     3
 72
     9
 73
     5
 74
     0
 42
0.00000001
 43
0.00000001
 40
0.0
 40
0.0
 40
0.0
 40
0.0
 40
0.6777029672241052
 40
1.0
 40
1.0
 40
1.0
 40
1.0
 10
111.6725403520294
 20
173.2252790335523
 30
0.0
 10
111.6047062860138
 20
173.2275150993076
 30
0.0
 10
111.5046121897854
 20
173.2308145769009
 30
0.0
 10
111.5200340836082
 20
173.1888499528309
 30
0.0
 10
111.5250045142271
 20
173.1753248790116
 30
0.0
  0
LINE
  5
245
330
1F
100
AcDbEntity
  8
0
  6
Continuous
 62
     7
370
    25
100
AcDbLine
 10
111.672540352
 20
173.543546233
 30
0.0
 11
111.672540352
 21
173.2252790336
 31
0.0
  0
LINE
  5
246
330
1F
100
AcDbEntity
  8
0
  6
Continuous
 62
     7
370
    25
100
AcDbLine
 10
122.3553886013
 20
179.3862915536
 30
0.0
 11
122.1515867319
 21
179.4305522171
 31
0.0
  0
LINE
  5
247
330
1F
100
AcDbEntity
  8
0
  6
Continuous
 62
     7
370
    25
100
AcDbLine
 10
122.1523200095
 20
179.4439141201
 30
0.0
 11
122.1515853508
 21
179.430551664
 31
0.0
  0
SPLINE
  5
248
330
1F
100
AcDbEntity
  8
0
  6
Continuous
 62
     7
370
    25
100
AcDbSpline
210
0.0
220
0.0
230
1.0
 70
     8
 71
     3
 72
    16
 73
    12
 74
     0
 42
0.00000001
 43
0.00000001
 40
0.0
 40
0.0
 40
0.0
 40
0.0
 40
0.2257944382613592
 40
0.2846618444102631
 40
0.3001929840830411
 40
0.304450084892348
 40
0.3056992098085483
 40
0.306361620637982
 40
0.5726111778301635
 40
0.8006416108959282
 40
1.0
 40
1.0
 40
1.0
 40
1.0
 10
122.1742985539366
 20
179.5847389379818
 30
0.0
 10
122.1721252627045
 20
179.5757146807049
 30
0.0
 10
122.1693853675354
 20
179.5643376878051
 30
0.0
 10
122.1673083775171
 20
179.5514424723371
 30
0.0
 10
122.1668007272273
 20
179.5480266027189
 30
0.0
 10
122.1666642274617
 20
179.547109143793
 30
0.0
 10
122.1666238549295
 20
179.5468397935938
 30
0.0
 10
122.1646494670066
 20
179.5351064107108
 30
0.0
 10
122.1602356032482
 20
179.5121525174603
 30
0.0
 10
122.1557016820285
 20
179.4766938585211
 30
0.0
 10
122.153394170391
 20
179.4543415076888
 30
0.0
 10
122.152317816076
 20
179.4439151033856
 30
0.0
  0
LINE
  5
249
330
1F
100
AcDbEntity
  8
0
  6
Continuous
 62
     7
370
    25
100
AcDbLine
 10
122.0549568154
 20
179.6791500969
 30
0.0
 11
122.1742976596
 21
179.5847417754
 31
0.0
  0
LINE
  5
24A
330
1F
100
AcDbEntity
  8
0
  6
Continuous
 62
     7
370
    25
100
AcDbLine
 10
122.1919911406
 20
179.7353848559
 30
0.0
 11
122.4419911406
 21
179.4475287973
 31
0.0
  0
SPLINE
  5
24B
330
1F
100
AcDbEntity
  8
0
  6
Continuous
 62
     7
370
    25
100
AcDbSpline
210
0.0
220
0.0
230
1.0
 70
     8
 71
     3
 72
    13
 73
     9
 74
     0
 42
0.00000001
 43
0.00000001
 40
0.0
 40
0.0
 40
0.0
 40
0.0
 40
0.0828689679819284
 40
0.1702958522093869
 40
0.2710428905258726
 40
0.3909878061574365
 40
0.6754500053202674
 40
1.0
 40
1.0
 40
1.0
 40
1.0
 10
122.3553886012399
 20
179.3862915514868
 30
0.0
 10
122.3557316259991
 20
179.3895824175743
 30
0.0
 10
122.3564365423883
 20
179.396345152269
 30
0.0
 10
122.3616749770222
 20
179.4062743098678
 30
0.0
 10
122.3696565960531
 20
179.4155974159421
 30
0.0
 10
122.3848628514778
 20
179.4279961349383
 30
0.0
 10
122.4093170869283
 20
179.4409879557379
 30
0.0
 10
122.4306321075243
 20
179.4452548940518
 30
0.0
 10
122.4419911408753
 20
179.4475287973022
 30
0.0
  0
LINE
  5
24C
330
1F
100
AcDbEntity
  8
0
  6
Continuous
 62
     7
370
    25
100
AcDbLine
 10
120.955586659
 20
176.95806848
 30
0.0
 11
121.3631964436
 21
176.8695493852
 31
0.0
  0
LINE
  5
24D
330
1F
100
AcDbEntity
  8
0
  6
Continuous
 62
     7
370
    25
100
AcDbLine
 10
121.4051557869
 20
176.9239411483
 30
0.0
 11
121.1592934307
 21
177.2126610112
 31
0.0
  0
LINE
  5
24E
330
1F
100
AcDbEntity
  8
0
  6
Continuous
 62
     7
370
    25
100
AcDbLine
 10
122.1487117862
 20
179.2807591333
 30
0.0
 11
122.3986898714
 21
179.3444657387
 31
0.0
  0
LINE
  5
24F
330
1F
100
AcDbEntity
  8
0
  6
Continuous
 62
     7
370
    25
100
AcDbLine
 10
122.1738102521
 20
179.3128248572
 30
0.0
 11
122.0545338379
 21
179.2928392211
 31
0.0
  0
SPLINE
  5
250
330
1F
100
AcDbEntity
  8
0
  6
Continuous
 62
     7
370
    25
100
AcDbSpline
210
0.0
220
0.0
230
1.0
 70
     8
 71
     3
 72
    10
 73
     6
 74
     0
 42
0.00000001
 43
0.00000001
 40
0.0
 40
0.0
 40
0.0
 40
0.0
 40
0.2049129128290402
 40
0.4327392548947638
 40
1.0
 40
1.0
 40
1.0
 40
1.0
 10
122.1533859896568
 20
179.4075585634556
 30
0.0
 10
122.1548949319912
 20
179.3979785453624
 30
0.0
 10
122.1580815470877
 20
179.3777472684053
 30
0.0
 10
122.1643854002179
 20
179.3403047393993
 30
0.0
 10
122.1698859181878
 20
179.3242670431858
 30
0.0
 10
122.1738103032928
 20
179.3128248305646
 30
0.0
  0
LINE
  5
251
330
1F
100
AcDbEntity
  8
0
  6
Continuous
 62
     7
370
    25
100
AcDbLine
 10
122.1515867319
 20
179.4305522171
 30
0.0
 11
122.1533859897
 21
179.4075585635
 31
0.0
  0
SPLINE
  5
252
330
1F
100
AcDbEntity
  8
0
  6
Continuous
 62
     7
370
    25
100
AcDbSpline
210
0.0
220
0.0
230
1.0
 70
     8
 71
     3
 72
    11
 73
     7
 74
     0
 42
0.00000001
 43
0.00000001
 40
0.0
 40
0.0
 40
0.0
 40
0.0
 40
0.250000000000008
 40
0.5000000000000019
 40
0.7500000000000016
 40
0.9999999999999999
 40
0.9999999999999999
 40
0.9999999999999999
 40
0.9999999999999999
 10
122.3986898713728
 20
179.3444657387003
 30
0.0
 10
122.3930158011092
 20
179.3443438358034
 30
0.0
 10
122.3816676605822
 20
179.3441000300097
 30
0.0
 10
122.3673546452113
 20
179.3531297256077
 30
0.0
 10
122.357341260448
 20
179.3675975268195
 30
0.0
 10
122.3560394876209
 20
179.3800602099253
 30
0.0
 10
122.3553886012074
 20
179.3862915514782
 30
0.0
  0
LINE
  5
253
330
1F
100
AcDbEntity
  8
0
  6
Continuous
 62
     7
370
    25
100
AcDbLine
 10
123.9852213469
 20
179.6781325224
 30
0.0
 11
124.4739624461
 21
179.751164736
 31
0.0
  0
SPLINE
  5
254
330
1F
100
AcDbEntity
  8
0
  6
Continuous
 62
     7
370
    25
100
AcDbSpline
210
0.0
220
0.0
230
1.0
 70
     8
 71
     3
 72
    13
 73
     9
 74
     0
 42
0.00000001
 43
0.00000001
 40
0.0
 40
0.0
 40
0.0
 40
0.0
 40
0.3223512368632178
 40
0.6087200073187435
 40
0.7282164963624244
 40
0.8287563885443503
 40
0.9163857885304665
 40
1.0
 40
1.0
 40
1.0
 40
1.0
 10
124.4739624461462
 20
179.7511647359916
 30
0.0
 10
124.4852464359419
 20
179.7522599365913
 30
0.0
 10
124.5065548398366
 20
179.7543280859912
 30
0.0
 10
124.5309899459197
 20
179.7486890778658
 30
0.0
 10
124.5463036569772
 20
179.740946294782
 30
0.0
 10
124.5542923310243
 20
179.7340295100828
 30
0.0
 10
124.5595254112874
 20
179.7256219312539
 30
0.0
 10
124.5602239208161
 20
179.7190287897613
 30
0.0
 10
124.5605649865233
 20
179.7158095144708
 30
0.0
  0
SPLINE
  5
255
330
1F
100
AcDbEntity
  8
0
  6
Continuous
 62
     7
370
    25
100
AcDbSpline
210
0.0
220
0.0
230
1.0
 70
     8
 71
     3
 72
    12
 73
     8
 74
     0
 42
0.00000001
 43
0.00000001
 40
0.0
 40
0.0
 40
0.0
 40
0.0
 40
0.2414845236575855
 40
0.4887181585303236
 40
0.6183330980172116
 40
0.7433555503374472
 40
1.0
 40
1.0
 40
1.0
 40
1.0
 10
124.5605649865233
 20
179.7158095144708
 30
0.0
 10
124.5599961365324
 20
179.7096642222301
 30
0.0
 10
124.5588448937287
 20
179.6972273345074
 30
0.0
 10
124.5506132987092
 20
179.682881872364
 30
0.0
 10
124.5422722377167
 20
179.6733161797616
 30
0.0
 10
124.5322900442673
 20
179.665268189719
 30
0.0
 10
124.523700688723
 20
179.6628694206195
 30
0.0
 10
124.5179249444414
 20
179.6612564152155
 30
0.0
  0
SPLINE
  5
256
330
1F
100
AcDbEntity
  8
0
  6
Continuous
 62
     7
370
    25
100
AcDbSpline
210
0.0
220
0.0
230
1.0
 70
     8
 71
     3
 72
    11
 73
     7
 74
     0
 42
0.00000001
 43
0.00000001
 40
0.0
 40
0.0
 40
0.0
 40
0.0
 40
0.2499838797983947
 40
0.4999785063978591
 40
0.7499838797983954
 40
1.0
 40
1.0
 40
1.0
 40
1.0
 10
124.343178232803
 20
179.4418440018471
 30
0.0
 10
124.3458135458466
 20
179.467694151082
 30
0.0
 10
124.3510842852259
 20
179.5193955608492
 30
0.0
 10
124.391580131096
 20
179.5895336440388
 30
0.0
 10
124.4494088455534
 20
179.6427653345272
 30
0.0
 10
124.4951169397601
 20
179.6550188414909
 30
0.0
 10
124.5179714780582
 20
179.6611457266531
 30
0.0
  0
LINE
  5
257
330
1F
100
AcDbEntity
  8
0
  6
Continuous
 62
     7
370
    25
100
AcDbLine
 10
124.3431782328
 20
179.4418440019
 30
0.0
 11
124.3431782328
 21
178.1629242495
 31
0.0
  0
SPLINE
  5
258
330
1F
100
AcDbEntity
  8
0
  6
Continuous
 62
     7
370
    25
100
AcDbSpline
210
0.0
220
0.0
230
1.0
 70
     8
 71
     3
 72
    11
 73
     7
 74
     0
 42
0.00000001
 43
0.00000001
 40
0.0
 40
0.0
 40
0.0
 40
0.0
 40
0.2499999999999995
 40
0.5000000000000001
 40
0.7499999999999999
 40
1.0
 40
1.0
 40
1.0
 40
1.0
 10
124.3431782328064
 20
178.162924249519
 30
0.0
 10
124.3304859520109
 20
178.0376198883836
 30
0.0
 10
124.3051013904199
 20
177.787011166113
 30
0.0
 10
124.1098403895777
 20
177.4465336179013
 30
0.0
 10
123.8307365847716
 20
177.1870419993867
 30
0.0
 10
123.6094478376616
 20
177.125662189387
 30
0.0
 10
123.4988034641066
 20
177.0949722843871
 30
0.0
  0
LINE
  5
259
330
1F
100
AcDbEntity
  8
0
  6
Continuous
 62
     7
370
    25
100
AcDbLine
 10
123.4988034641
 20
177.0949722844
 30
0.0
 11
123.2254811106
 21
177.0865638856
 31
0.0
  0
SPLINE
  5
25A
330
1F
100
AcDbEntity
  8
0
  6
Continuous
 62
     7
370
    25
100
AcDbSpline
210
0.0
220
0.0
230
1.0
 70
     8
 71
     3
 72
    11
 73
     7
 74
     0
 42
0.00000001
 43
0.00000001
 40
0.0
 40
0.0
 40
0.0
 40
0.0
 40
0.2499999999999998
 40
0.4999999999999992
 40
0.7499999999999999
 40
1.0
 40
1.0
 40
1.0
 40
1.0
 10
123.2254811106025
 20
177.0865638855961
 30
0.0
 10
123.1409546435927
 20
177.1041720485896
 30
0.0
 10
122.9719017095733
 20
177.1393883745765
 30
0.0
 10
122.7726588061711
 20
177.3131158297093
 30
0.0
 10
122.6362112660998
 20
177.5527957066626
 30
0.0
 10
122.6187715282312
 20
177.7472476343833
 30
0.0
 10
122.6100516592968
 20
177.8444735982437
 30
0.0
  0
LINE
  5
25B
330
1F
100
AcDbEntity
  8
0
  6
Continuous
 62
     7
370
    25
100
AcDbLine
 10
122.6100516593
 20
177.8444735982
 30
0.0
 11
122.6100516593
 21
179.1828642059
 31
0.0
  0
SPLINE
  5
25C
330
1F
100
AcDbEntity
  8
0
  6
Continuous
 62
     7
370
    25
100
AcDbSpline
210
0.0
220
0.0
230
1.0
 70
     8
 71
     3
 72
    11
 73
     7
 74
     0
 42
0.00000001
 43
0.00000001
 40
0.0
 40
0.0
 40
0.0
 40
0.0
 40
0.2500000000000019
 40
0.5000000000000001
 40
0.7500000000000011
 40
1.0
 40
1.0
 40
1.0
 40
1.0
 10
122.6100516593186
 20
179.1828642058551
 30
0.0
 10
122.6074481145398
 20
179.2077895730876
 30
0.0
 10
122.6022410249824
 20
179.2576403075527
 30
0.0
 10
122.5621874863457
 20
179.3155115158018
 30
0.0
 10
122.5049354238182
 20
179.3516303007576
 30
0.0
 10
122.4595428603062
 20
179.3506550779925
 30
0.0
 10
122.4368465785502
 20
179.3501674666098
 30
0.0
  0
LINE
  5
25D
330
1F
100
AcDbEntity
  8
0
  6
Continuous
 62
     7
370
    25
100
AcDbLine
 10
122.4368465785
 20
179.3501674666
 30
0.0
 11
122.3986898714
 21
179.3444657387
 31
0.0
  0
LINE
  5
25E
330
1F
100
AcDbEntity
  8
0
  6
Continuous
 62
     7
370
    25
100
AcDbLine
 10
122.4419911406
 20
179.4475287973
 30
0.0
 11
123.0009767106
 21
179.5310575892
 31
0.0
  0
SPLINE
  5
25F
330
1F
100
AcDbEntity
  8
0
  6
Continuous
 62
     7
370
    25
100
AcDbSpline
210
0.0
220
0.0
230
1.0
 70
     8
 71
     3
 72
    13
 73
     9
 74
     0
 42
0.00000001
 43
0.00000001
 40
0.0
 40
0.0
 40
0.0
 40
0.0
 40
0.3223503784768638
 40
0.6087182057683944
 40
0.7282166882203728
 40
0.8287577624834417
 40
0.9163871724373512
 40
1.0
 40
1.0
 40
1.0
 40
1.0
 10
123.0009767105872
 20
179.5310575891521
 30
0.0
 10
123.0122607360015
 20
179.5321527956132
 30
0.0
 10
123.0335692008357
 20
179.5342209554679
 30
0.0
 10
123.0580044310529
 20
179.528581842234
 30
0.0
 10
123.0733182921266
 20
179.5208389822995
 30
0.0
 10
123.081307164219
 20
179.513922204776
 30
0.0
 10
123.0865404479185
 20
179.505514736048
 30
0.0
 10
123.0872390612498
 20
179.4989216381199
 30
0.0
 10
123.0875801747324
 20
179.4957024115543
 30
0.0
  0
SPLINE
  5
260
330
1F
100
AcDbEntity
  8
0
  6
Continuous
 62
     7
370
    25
100
AcDbSpline
210
0.0
220
0.0
230
1.0
 70
     8
 71
     3
 72
    11
 73
     7
 74
     0
 42
0.00000001
 43
0.00000001
 40
0.0
 40
0.0
 40
0.0
 40
0.0
 40
0.2500693473989198
 40
0.5000924631985775
 40
0.7500693473989165
 40
1.0
 40
1.0
 40
1.0
 40
1.0
 10
123.0875821221849
 20
179.4957023569736
 30
0.0
 10
123.0869473326254
 20
179.4893461563312
 30
0.0
 10
123.0856778708633
 20
179.4766349301499
 30
0.0
 10
123.0758808685502
 20
179.4593197134371
 30
0.0
 10
123.0618523803309
 20
179.4460204331107
 30
0.0
 10
123.0506652850399
 20
179.4427158672156
 30
0.0
 10
123.0450722546873
 20
179.4410637370717
 30
0.0
  0
SPLINE
  5
261
330
1F
100
AcDbEntity
  8
0
  6
Continuous
 62
     7
370
    25
100
AcDbSpline
210
0.0
220
0.0
230
1.0
 70
     8
 71
     3
 72
    11
 73
     7
 74
     0
 42
0.00000001
 43
0.00000001
 40
0.0
 40
0.0
 40
0.0
 40
0.0
 40
0.2499816932470162
 40
0.4999755909960155
 40
0.7499816932470132
 40
1.0
 40
1.0
 40
1.0
 40
1.0
 10
122.870085089789
 20
179.2217208051479
 30
0.0
 10
122.8727243040143
 20
179.2475887929228
 30
0.0
 10
122.8780028613153
 20
179.2993260313889
 30
0.0
 10
122.9185528011866
 20
179.3695001279405
 30
0.0
 10
122.9764519889973
 20
179.4227318774809
 30
0.0
 10
123.0221985075055
 20
179.4349440059664
 30
0.0
 10
123.0450723250458
 20
179.4410502192448
 30
0.0
  0
LINE
  5
262
330
1F
100
AcDbEntity
  8
0
  6
Continuous
 62
     7
370
    25
100
AcDbLine
 10
122.8700850898
 20
179.2217208051
 30
0.0
 11
122.8700850898
 21
177.8368659945
 31
0.0
  0
SPLINE
  5
263
330
1F
100
AcDbEntity
  8
0
  6
Continuous
 62
     7
370
    25
100
AcDbSpline
210
0.0
220
0.0
230
1.0
 70
     8
 71
     3
 72
    11
 73
     7
 74
     0
 42
0.00000001
 43
0.00000001
 40
0.0
 40
0.0
 40
0.0
 40
0.0
 40
0.2499999999999996
 40
0.5000000000000008
 40
0.7499999999999991
 40
1.0
 40
1.0
 40
1.0
 40
1.0
 10
123.5086223654132
 20
177.2200863489079
 30
0.0
 10
123.4249503284538
 20
177.2182887224057
 30
0.0
 10
123.2576062545349
 20
177.2146934694012
 30
0.0
 10
123.0465409909257
 20
177.3478488620914
 30
0.0
 10
122.8988797483856
 20
177.5611966662652
 30
0.0
 10
122.8796833093133
 20
177.7449762184171
 30
0.0
 10
122.8700850897772
 20
177.8368659944931
 30
0.0
  0
SPLINE
  5
264
330
1F
100
AcDbEntity
  8
0
  6
Continuous
 62
     7
370
    25
100
AcDbSpline
210
0.0
220
0.0
230
1.0
 70
     8
 71
     3
 72
    11
 73
     7
 74
     0
 42
0.00000001
 43
0.00000001
 40
0.0
 40
0.0
 40
0.0
 40
0.0
 40
0.2500000000000001
 40
0.5000000000000001
 40
0.7500000000000008
 40
1.0
 40
1.0
 40
1.0
 40
1.0
 10
124.1471596410493
 20
178.0276982809598
 30
0.0
 10
124.1375614215132
 20
177.9329399954797
 30
0.0
 10
124.1183649824409
 20
177.7434234245194
 30
0.0
 10
123.9707037399007
 20
177.4859458042618
 30
0.0
 10
123.7596384762916
 20
177.2897117654454
 30
0.0
 10
123.5922944023727
 20
177.2432948210871
 30
0.0
 10
123.5086223654132
 20
177.2200863489079
 30
0.0
  0
LINE
  5
265
330
1F
100
AcDbEntity
  8
0
  6
Continuous
 62
     7
370
    25
100
AcDbLine
 10
124.147159641
 20
178.027698281
 30
0.0
 11
124.147159641
 21
179.4125530916
 31
0.0
  0
SPLINE
  5
266
330
1F
100
AcDbEntity
  8
0
  6
Continuous
 62
     7
370
    25
100
AcDbSpline
210
0.0
220
0.0
230
1.0
 70
     8
 71
     3
 72
    11
 73
     7
 74
     0
 42
0.00000001
 43
0.00000001
 40
0.0
 40
0.0
 40
0.0
 40
0.0
 40
0.2500000000000002
 40
0.5000000000000031
 40
0.7499999999999948
 40
0.9999999999999999
 40
0.9999999999999999
 40
0.9999999999999999
 40
0.9999999999999999
 10
123.9739545602939
 20
179.5798563523607
 30
0.0
 10
123.9966508420496
 20
179.5803439637428
 30
0.0
 10
124.0420434055608
 20
179.581319186507
 30
0.0
 10
124.0992954680872
 20
179.5452004015509
 30
0.0
 10
124.1393490067229
 20
179.4873291933021
 30
0.0
 10
124.1445560962802
 20
179.4374784588376
 30
0.0
 10
124.1471596410588
 20
179.4125530916054
 30
0.0
  0
LINE
  5
267
330
1F
100
AcDbEntity
  8
0
  6
Continuous
 62
     7
370
    25
100
AcDbLine
 10
123.9739545603
 20
179.5798563524
 30
0.0
 11
123.9419203387
 21
179.5750695028
 31
0.0
  0
SPLINE
  5
268
330
1F
100
AcDbEntity
  8
0
  6
Continuous
 62
     7
370
    25
100
AcDbSpline
210
0.0
220
0.0
230
1.0
 70
     8
 71
     3
 72
    11
 73
     7
 74
     0
 42
0.00000001
 43
0.00000001
 40
0.0
 40
0.0
 40
0.0
 40
0.0
 40
0.2499999999999934
 40
0.5000000000000009
 40
0.7499999999999867
 40
1.0
 40
1.0
 40
1.0
 40
1.0
 10
123.9419204501426
 20
179.5750695312042
 30
0.0
 10
123.9362463500807
 20
179.5749475937064
 30
0.0
 10
123.9248981499569
 20
179.5747037187106
 30
0.0
 10
123.9105850412772
 20
179.5837334176849
 30
0.0
 10
123.9005716073004
 20
179.5982012893172
 30
0.0
 10
123.8992698618367
 20
179.6106640395476
 30
0.0
 10
123.8986189891048
 20
179.6168954146628
 30
0.0
  0
SPLINE
  5
269
330
1F
100
AcDbEntity
  8
0
  6
Continuous
 62
     7
370
    25
100
AcDbSpline
210
0.0
220
0.0
230
1.0
 70
     8
 71
     3
 72
    13
 73
     9
 74
     0
 42
0.00000001
 43
0.00000001
 40
0.0
 40
0.0
 40
0.0
 40
0.0
 40
0.0828685663719463
 40
0.1702951362117258
 40
0.2710419476754516
 40
0.3909867016708266
 40
0.6754494132747408
 40
0.9999999999999999
 40
0.9999999999999999
 40
0.9999999999999999
 40
0.9999999999999999
 10
123.898618904926
 20
179.6168954686839
 30
0.0
 10
123.8989619252005
 20
179.6201863130311
 30
0.0
 10
123.8996668328264
 20
179.6269490073902
 30
0.0
 10
123.9049052475788
 20
179.6368781097987
 30
0.0
 10
123.9128868383787
 20
179.6462011712708
 30
0.0
 10
123.928093071481
 20
179.6585998669459
 30
0.0
 10
123.9525472936099
 20
179.6715916811673
 30
0.0
 10
123.9738623138458
 20
179.6758586192759
 30
0.0
 10
123.9852213471257
 20
179.678132522441
 30
0.0
  0
LINE
  5
26A
330
1F
100
AcDbEntity
  8
0
  6
Continuous
 62
     7
370
    25
100
AcDbLine
 10
122.7509767106
 20
179.8189136478
 30
0.0
 11
123.0009767106
 21
179.5310575891
 31
0.0
  0
LINE
  5
26B
330
1F
100
AcDbEntity
  8
0
  6
Continuous
 62
     7
370
    25
100
AcDbLine
 10
121.1998008904
 20
176.7704824157
 30
0.0
 11
121.4498008904
 21
176.8341946063
 31
0.0
  0
SPLINE
  5
26C
330
1F
100
AcDbEntity
  8
0
  6
Continuous
 62
     7
370
    25
100
AcDbSpline
210
0.0
220
0.0
230
1.0
 70
     8
 71
     3
 72
    11
 73
     7
 74
     0
 42
0.00000001
 43
0.00000001
 40
0.0
 40
0.0
 40
0.0
 40
0.0
 40
0.249999999999999
 40
0.4999999999999996
 40
0.7499999999999997
 40
1.0
 40
1.0
 40
1.0
 40
1.0
 10
122.1742976568412
 20
179.5847417734379
 30
0.0
 10
122.153864332232
 20
179.5715675159476
 30
0.0
 10
122.1129976830134
 20
179.5452190009671
 30
0.0
 10
122.0458174589712
 20
179.5271356160537
 30
0.0
 10
121.9786238907543
 20
179.5249997694569
 30
0.0
 10
121.9377234420668
 20
179.5390447849627
 30
0.0
 10
121.917273217723
 20
179.5460672927155
 30
0.0
  0
SPLINE
  5
26D
330
1F
100
AcDbEntity
  8
0
  6
Continuous
 62
     7
370
    25
100
AcDbSpline
210
0.0
220
0.0
230
1.0
 70
     8
 71
     3
 72
     9
 73
     5
 74
     0
 42
0.00000001
 43
0.00000001
 40
0.0
 40
0.0
 40
0.0
 40
0.0
 40
0.5004030079097156
 40
1.0
 40
1.0
 40
1.0
 40
1.0
 10
122.1523131606174
 20
179.4439140259458
 30
0.0
 10
122.127674535716
 20
179.4358823376204
 30
0.0
 10
122.0784369721682
 20
179.419831897878
 30
0.0
 10
122.0292007846757
 20
179.4211724999734
 30
0.0
 10
122.0046025335024
 20
179.4218422607479
 30
0.0
  0
SPLINE
  5
26E
330
1F
100
AcDbEntity
  8
0
  6
Continuous
 62
     7
370
    25
100
AcDbSpline
210
0.0
220
0.0
230
1.0
 70
     8
 71
     3
 72
     9
 73
     5
 74
     0
 42
0.00000001
 43
0.00000001
 40
0.0
 40
0.0
 40
0.0
 40
0.0
 40
0.5007432949273277
 40
1.0
 40
1.0
 40
1.0
 40
1.0
 10
122.003483473505
 20
179.385171396212
 30
0.0
 10
122.0285047524483
 20
179.3934017612203
 30
0.0
 10
122.0784730280033
 20
179.4098380572061
 30
0.0
 10
122.1284376937005
 20
179.4083185686988
 30
0.0
 10
122.1533828880666
 20
179.4075599538732
 30
0.0
  0
LINE
  5
26F
330
1F
100
AcDbEntity
  8
0
  6
Continuous
 62
     7
370
    25
100
AcDbLine
 10
122.1868465785
 20
179.286455276
 30
0.0
 11
122.4368465785
 21
179.3501674666
 31
0.0
  0
LINE
  5
270
330
1F
100
AcDbEntity
  8
0
  6
Continuous
 62
     7
370
    25
100
AcDbLine
 10
122.6100516593
 20
179.1828642059
 30
0.0
 11
122.2024479248
 21
179.2713855328
 31
0.0
  0
LINE
  5
271
330
1F
100
AcDbEntity
  8
0
  6
Continuous
 62
     7
370
    25
100
AcDbLine
 10
122.2024479247
 20
177.9329949251
 30
0.0
 11
122.6100516593
 21
177.8444735982
 31
0.0
  0
LINE
  5
272
330
1F
100
AcDbEntity
  8
0
  6
Continuous
 62
     7
370
    25
100
AcDbLine
 10
121.7751859707
 20
176.8564617741
 30
0.0
 11
122.0251859707
 21
176.9201739647
 31
0.0
  0
LINE
  5
273
330
1F
100
AcDbEntity
  8
0
  6
Continuous
 62
     7
370
    25
100
AcDbLine
 10
122.9423207102
 20
177.0218315594
 30
0.0
 11
123.2254811106
 21
177.0865638856
 31
0.0
  0
LINE
  5
274
330
1F
100
AcDbEntity
  8
0
  6
Continuous
 62
     7
370
    25
100
AcDbLine
 10
123.4910152532
 20
179.7054170353
 30
0.0
 11
123.8986189975
 21
179.616895294
 31
0.0
  0
LINE
  5
275
330
1F
100
AcDbEntity
  8
0
  6
Continuous
 62
     7
370
    25
100
AcDbLine
 10
123.7352213469
 20
179.9659885811
 30
0.0
 11
123.9852213469
 21
179.6781325224
 31
0.0
  0
LINE
  5
276
330
1F
100
AcDbEntity
  8
0
  6
Continuous
 62
     7
370
    25
100
AcDbLine
 10
123.6919215044
 20
179.511357454
 30
0.0
 11
123.9419204501
 21
179.5750695312
 31
0.0
  0
LINE
  5
277
330
1F
100
AcDbEntity
  8
0
  6
Continuous
 62
     7
370
    25
100
AcDbLine
 10
123.7239545603
 20
179.5161441617
 30
0.0
 11
123.9739545603
 21
179.5798563524
 31
0.0
  0
LINE
  5
278
330
1F
100
AcDbEntity
  8
0
  6
Continuous
 62
     7
370
    25
100
AcDbLine
 10
123.7395559065
 20
178.1162196079
 30
0.0
 11
124.147159641
 21
178.027698281
 31
0.0
  0
LINE
  5
279
330
1F
100
AcDbEntity
  8
0
  6
Continuous
 62
     7
370
    25
100
AcDbLine
 10
124.2239624462
 20
180.0390207947
 30
0.0
 11
124.4739624462
 21
179.751164736
 31
0.0
  0
LINE
  5
27A
330
1F
100
AcDbEntity
  8
0
  6
Continuous
 62
     7
370
    25
100
AcDbLine
 10
124.147159641
 20
179.4125530916
 30
0.0
 11
123.7395559065
 21
179.5010744185
 31
0.0
  0
LINE
  5
27B
330
1F
100
AcDbEntity
  8
0
  6
Continuous
 62
     7
370
    25
100
AcDbLine
 10
123.2488034641
 20
177.0312600938
 30
0.0
 11
123.4988034641
 21
177.0949722844
 31
0.0
  0
LINE
  5
27C
330
1F
100
AcDbEntity
  8
0
  6
Continuous
 62
     7
370
    25
100
AcDbLine
 10
124.4678982004
 20
179.8918207764
 30
0.0
 11
124.4184778217
 21
179.9833942942
 31
0.0
  0
SPLINE
  5
27D
330
1F
100
AcDbEntity
  8
0
  6
Continuous
 62
     7
370
    25
100
AcDbSpline
210
0.0
220
0.0
230
1.0
 70
     8
 71
     3
 72
     9
 73
     5
 74
     0
 42
0.00000001
 43
0.00000001
 40
0.0
 40
0.0
 40
0.0
 40
0.0
 40
0.4648394586759587
 40
1.0
 40
1.0
 40
1.0
 40
1.0
 10
124.5134999626961
 20
179.7848958362634
 30
0.0
 10
124.5102467678079
 20
179.8032397350857
 30
0.0
 10
124.5032482335236
 20
179.8427026044267
 30
0.0
 10
124.4802212075396
 20
179.8747013448931
 30
0.0
 10
124.467898051849
 20
179.8918258081627
 30
0.0
  0
LINE
  5
27E
330
1F
100
AcDbEntity
  8
0
  6
Continuous
 62
     7
370
    25
100
AcDbLine
 10
124.4469769275
 20
179.3624092902
 30
0.0
 11
124.854580662
 21
179.2738879633
 31
0.0
  0
LINE
  5
27F
330
1F
100
AcDbEntity
  8
0
  6
Continuous
 62
     7
370
    25
100
AcDbLine
 10
124.6029047455
 20
179.4246776673
 30
0.0
 11
124.453282507
 21
179.4661867571
 31
0.0
  0
SPLINE
  5
280
330
1F
100
AcDbEntity
  8
0
  6
Continuous
 62
     7
370
    25
100
AcDbSpline
210
0.0
220
0.0
230
1.0
 70
     8
 71
     3
 72
     9
 73
     5
 74
     0
 42
0.00000001
 43
0.00000001
 40
0.0
 40
0.0
 40
0.0
 40
0.0
 40
0.4597240136547598
 40
1.0
 40
1.0
 40
1.0
 40
1.0
 10
124.6939519779538
 20
179.5735206760042
 30
0.0
 10
124.6824659723635
 20
179.5471079132203
 30
0.0
 10
124.6574814049944
 20
179.4896543932836
 30
0.0
 10
124.6220483657349
 20
179.4474692741191
 30
0.0
 10
124.6029047454998
 20
179.4246776672533
 30
0.0
  0
LINE
  5
281
330
1F
100
AcDbEntity
  8
0
  6
Continuous
 62
     7
370
    25
100
AcDbLine
 10
124.7693410203
 20
179.7346609487
 30
0.0
 11
124.6939523053
 21
179.5735205473
 31
0.0
  0
SPLINE
  5
282
330
1F
100
AcDbEntity
  8
0
  6
Continuous
 62
     7
370
    25
100
AcDbSpline
210
0.0
220
0.0
230
1.0
 70
     8
 71
     3
 72
     9
 73
     5
 74
     0
 42
0.00000001
 43
0.00000001
 40
0.0
 40
0.0
 40
0.0
 40
0.0
 40
0.5351738703111706
 40
0.9999999999999999
 40
0.9999999999999999
 40
0.9999999999999999
 40
0.9999999999999999
 10
124.8377389921097
 20
179.9122151514978
 30
0.0
 10
124.8296718465854
 20
179.8812450199666
 30
0.0
 10
124.8145979687826
 20
179.8233757306584
 30
0.0
 10
124.783702186991
 20
179.7628123776551
 30
0.0
 10
124.7693410203171
 20
179.7346609486775
 30
0.0
  0
LINE
  5
283
330
1F
100
AcDbEntity
  8
0
  6
Continuous
 62
     7
370
    25
100
AcDbLine
 10
124.7101375356
 20
179.9994440552
 30
0.0
 11
124.8377388294
 21
179.9122152628
 31
0.0
  0
LINE
  5
284
330
1F
100
AcDbEntity
  8
0
  6
Continuous
 62
     7
370
    25
100
AcDbLine
 10
125.3741959043
 20
179.9310891726
 30
0.0
 11
125.1241959043
 21
180.2189452312
 31
0.0
  0
SPLINE
  5
285
330
1F
100
AcDbEntity
  8
0
  6
Continuous
 62
     7
370
    25
100
AcDbSpline
210
0.0
220
0.0
230
1.0
 70
     8
 71
     3
 72
    11
 73
     7
 74
     0
 42
0.00000001
 43
0.00000001
 40
0.0
 40
0.0
 40
0.0
 40
0.0
 40
0.2499999999999997
 40
0.4999999999999998
 40
0.7499999999999988
 40
1.0
 40
1.0
 40
1.0
 40
1.0
 10
125.3741959042627
 20
179.9310891726367
 30
0.0
 10
125.3061070589973
 20
179.912203077252
 30
0.0
 10
125.1699293684666
 20
179.8744308864825
 30
0.0
 10
124.9981731808917
 20
179.7147437366256
 30
0.0
 10
124.8780125649874
 20
179.5052190915699
 30
0.0
 10
124.8623912963158
 20
179.3509983394015
 30
0.0
 10
124.8545806619801
 20
179.2738879633174
 30
0.0
  0
LINE
  5
286
330
1F
100
AcDbEntity
  8
0
  6
Continuous
 62
     7
370
    25
100
AcDbLine
 10
125.3741959043
 20
179.9310891726
 30
0.0
 11
125.8263917487
 21
179.9544310126
 31
0.0
  0
SPLINE
  5
287
330
1F
100
AcDbEntity
  8
0
  6
Continuous
 62
     7
370
    25
100
AcDbSpline
210
0.0
220
0.0
230
1.0
 70
     8
 71
     3
 72
    11
 73
     7
 74
     0
 42
0.00000001
 43
0.00000001
 40
0.0
 40
0.0
 40
0.0
 40
0.0
 40
0.2500000000000079
 40
0.5000000000000002
 40
0.7500000000000147
 40
1.0
 40
1.0
 40
1.0
 40
1.0
 10
125.8263917486959
 20
179.9544310125753
 30
0.0
 10
125.8314004109515
 20
179.9535792551374
 30
0.0
 10
125.8414177354628
 20
179.9518757402614
 30
0.0
 10
125.8532169999613
 20
179.9417795501531
 30
0.0
 10
125.8611049822369
 20
179.927581759004
 30
0.0
 10
125.8617842130513
 20
179.9160857687597
 30
0.0
 10
125.8621238284584
 20
179.9103377736376
 30
0.0
  0
LINE
  5
288
330
1F
100
AcDbEntity
  8
0
  6
Continuous
 62
     7
370
    25
100
AcDbLine
 10
125.8621238285
 20
179.9103377736
 30
0.0
 11
125.8498579705
 21
179.5561024834
 31
0.0
  0
SPLINE
  5
289
330
1F
100
AcDbEntity
  8
0
  6
Continuous
 62
     7
370
    25
100
AcDbSpline
210
0.0
220
0.0
230
1.0
 70
     8
 71
     3
 72
    11
 73
     7
 74
     0
 42
0.00000001
 43
0.00000001
 40
0.0
 40
0.0
 40
0.0
 40
0.0
 40
0.2499999999999996
 40
0.4999999999999887
 40
0.7500000000000016
 40
1.0
 40
1.0
 40
1.0
 40
1.0
 10
125.8498579704801
 20
179.5561024834158
 30
0.0
 10
125.8490252746369
 20
179.5498372976662
 30
0.0
 10
125.8473598829506
 20
179.5373069261671
 30
0.0
 10
125.8372745858196
 20
179.5205162378143
 30
0.0
 10
125.8231907227835
 20
179.5077643638768
 30
0.0
 10
125.8121231031414
 20
179.5047308606812
 30
0.0
 10
125.8065892933203
 20
179.5032141090835
 30
0.0
  0
SPLINE
  5
28A
330
1F
100
AcDbEntity
  8
0
  6
Continuous
 62
     7
370
    25
100
AcDbSpline
210
0.0
220
0.0
230
1.0
 70
     8
 71
     3
 72
    11
 73
     7
 74
     0
 42
0.00000001
 43
0.00000001
 40
0.0
 40
0.0
 40
0.0
 40
0.0
 40
0.2500000000000107
 40
0.5000000000000181
 40
0.7500000000000102
 40
1.0
 40
1.0
 40
1.0
 40
1.0
 10
125.8065892933203
 20
179.5032141090835
 30
0.0
 10
125.8018616788325
 20
179.5030084995296
 30
0.0
 10
125.7924064498567
 20
179.5025972804219
 30
0.0
 10
125.7798082443893
 20
179.5085806929639
 30
0.0
 10
125.7697354738629
 20
179.5186123481045
 30
0.0
 10
125.7664208100547
 20
179.5280443829588
 30
0.0
 10
125.7647634781506
 20
179.532760400386
 30
0.0
  0
LINE
  5
28B
330
1F
100
AcDbEntity
  8
0
  6
Continuous
 62
     7
370
    25
100
AcDbLine
 10
125.7647634781
 20
179.5327604004
 30
0.0
 11
125.7297680384
 21
179.6732017386
 31
0.0
  0
SPLINE
  5
28C
330
1F
100
AcDbEntity
  8
0
  6
Continuous
 62
     7
370
    25
100
AcDbSpline
210
0.0
220
0.0
230
1.0
 70
     8
 71
     3
 72
    11
 73
     7
 74
     0
 42
0.00000001
 43
0.00000001
 40
0.0
 40
0.0
 40
0.0
 40
0.0
 40
0.2500000000000014
 40
0.4999999999999937
 40
0.7499999999999996
 40
1.0
 40
1.0
 40
1.0
 40
1.0
 10
125.5789913514104
 20
179.8207168028526
 30
0.0
 10
125.5966278777659
 20
179.8162272408798
 30
0.0
 10
125.631900930477
 20
179.8072481169342
 30
0.0
 10
125.6760950808878
 20
179.7741573475177
 30
0.0
 10
125.7111919108781
 20
179.7296723703299
 30
0.0
 10
125.723575995932
 20
179.6920252825115
 30
0.0
 10
125.729768038459
 20
179.6732017386023
 30
0.0
  0
LINE
  5
28D
330
1F
100
AcDbEntity
  8
0
  6
Continuous
 62
     7
370
    25
100
AcDbLine
 10
125.4039341847
 20
179.8213659798
 30
0.0
 11
125.5789913514
 21
179.8207168028
 31
0.0
  0
SPLINE
  5
28E
330
1F
100
AcDbEntity
  8
0
  6
Continuous
 62
     7
370
    25
100
AcDbSpline
210
0.0
220
0.0
230
1.0
 70
     8
 71
     3
 72
    15
 73
    11
 74
     0
 42
0.00000001
 43
0.00000001
 40
0.0
 40
0.0
 40
0.0
 40
0.0
 40
0.1249999999999997
 40
0.2500000000000006
 40
0.3749999999999995
 40
0.5000000000000009
 40
0.6250000000000003
 40
0.7500000000000008
 40
0.8750000000000002
 40
1.0
 40
1.0
 40
1.0
 40
1.0
 10
125.1782389811516
 20
179.0748586010441
 30
0.0
 10
125.1516172855137
 20
179.0995759297946
 30
0.0
 10
125.0983738942378
 20
179.1490105872957
 30
0.0
 10
125.0529201172392
 20
179.2573916727809
 30
0.0
 10
125.0389421344253
 20
179.3787897035835
 30
0.0
 10
125.0596855851448
 20
179.504684319898
 30
0.0
 10
125.1126828025153
 20
179.6226936589032
 30
0.0
 10
125.1930901337383
 20
179.7210167297121
 30
0.0
 10
125.2933113017098
 20
179.793783762719
 30
0.0
 10
125.3670598903794
 20
179.8121719074584
 30
0.0
 10
125.4039341847142
 20
179.8213659798281
 30
0.0
  0
LINE
  5
28F
330
1F
100
AcDbEntity
  8
0
  6
Continuous
 62
     7
370
    25
100
AcDbLine
 10
125.1782389812
 20
179.0748586011
 30
0.0
 11
125.6678821628
 21
178.7073107293
 31
0.0
  0
SPLINE
  5
290
330
1F
100
AcDbEntity
  8
0
  6
Continuous
 62
     7
370
    25
100
AcDbSpline
210
0.0
220
0.0
230
1.0
 70
     8
 71
     3
 72
    15
 73
    11
 74
     0
 42
0.00000001
 43
0.00000001
 40
0.0
 40
0.0
 40
0.0
 40
0.0
 40
0.1250000000000004
 40
0.2499999999999998
 40
0.374999999999999
 40
0.4999999999999991
 40
0.6249999999999999
 40
0.7499999999999994
 40
0.875
 40
1.0
 40
1.0
 40
1.0
 40
1.0
 10
125.6678821627973
 20
178.7073107292785
 30
0.0
 10
125.7159956988785
 20
178.6626389658874
 30
0.0
 10
125.8122227710411
 20
178.573295439105
 30
0.0
 10
125.8943716307321
 20
178.3774177107378
 30
0.0
 10
125.9196341154994
 20
178.158014385927
 30
0.0
 10
125.8821443636022
 20
177.9304843575343
 30
0.0
 10
125.7863622028887
 20
177.7172054339349
 30
0.0
 10
125.6410415935443
 20
177.5395056104809
 30
0.0
 10
125.4599113287118
 20
177.4079933538737
 30
0.0
 10
125.3266251011897
 20
177.3747603593492
 30
0.0
 10
125.2599819874287
 20
177.3581438620869
 30
0.0
  0
LINE
  5
291
330
1F
100
AcDbEntity
  8
0
  6
Continuous
 62
     7
370
    25
100
AcDbLine
 10
124.839621884
 20
177.3784201262
 30
0.0
 11
125.2599819874
 21
177.3581438621
 31
0.0
  0
SPLINE
  5
292
330
1F
100
AcDbEntity
  8
0
  6
Continuous
 62
     7
370
    25
100
AcDbSpline
210
0.0
220
0.0
230
1.0
 70
     8
 71
     3
 72
    11
 73
     7
 74
     0
 42
0.00000001
 43
0.00000001
 40
0.0
 40
0.0
 40
0.0
 40
0.0
 40
0.2499999999999912
 40
0.4999999999999968
 40
0.7500000000000028
 40
1.0
 40
1.0
 40
1.0
 40
1.0
 10
124.7828777452094
 20
177.4652325202261
 30
0.0
 10
124.7832837024035
 20
177.4550493260324
 30
0.0
 10
124.7840956167916
 20
177.434682937645
 30
0.0
 10
124.7961649529192
 20
177.4083975547907
 30
0.0
 10
124.8146973132777
 20
177.3878656523144
 30
0.0
 10
124.8313136937279
 20
177.381568634879
 30
0.0
 10
124.839621883953
 20
177.3784201261613
 30
0.0
  0
LINE
  5
293
330
1F
100
AcDbEntity
  8
0
  6
Continuous
 62
     7
370
    25
100
AcDbLine
 10
124.7992754269
 20
177.8528247832
 30
0.0
 11
124.7828777452
 21
177.4652325202
 31
0.0
  0
SPLINE
  5
294
330
1F
100
AcDbEntity
  8
0
  6
Continuous
 62
     7
370
    25
100
AcDbSpline
210
0.0
220
0.0
230
1.0
 70
     8
 71
     3
 72
    11
 73
     7
 74
     0
 42
0.00000001
 43
0.00000001
 40
0.0
 40
0.0
 40
0.0
 40
0.0
 40
0.250000000000007
 40
0.4999999999999971
 40
0.7499999999999771
 40
1.0
 40
1.0
 40
1.0
 40
1.0
 10
124.842527956949
 20
177.9052934028961
 30
0.0
 10
124.837025413868
 20
177.9037892452712
 30
0.0
 10
124.8260203277058
 20
177.9007809300211
 30
0.0
 10
124.81198877909
 20
177.888151579303
 30
0.0
 10
124.8018905473149
 20
177.8715096650158
 30
0.0
 10
124.8001471336833
 20
177.8590530771527
 30
0.0
 10
124.7992754268675
 20
177.8528247832211
 30
0.0
  0
SPLINE
  5
295
330
1F
100
AcDbEntity
  8
0
  6
Continuous
 62
     7
370
    25
100
AcDbSpline
210
0.0
220
0.0
230
1.0
 70
     8
 71
     3
 72
    11
 73
     7
 74
     0
 42
0.00000001
 43
0.00000001
 40
0.0
 40
0.0
 40
0.0
 40
0.0
 40
0.2500000000000128
 40
0.500000000000014
 40
0.7500000000000026
 40
1.0
 40
1.0
 40
1.0
 40
1.0
 10
124.8858282237692
 20
177.8637962167809
 30
0.0
 10
124.8851446398207
 20
177.8699901823657
 30
0.0
 10
124.8837774719236
 20
177.8823781135353
 30
0.0
 10
124.8737498183432
 20
177.8967239068075
 30
0.0
 10
124.859476346627
 20
177.9056673076511
 30
0.0
 10
124.848177420175
 20
177.9054180378145
 30
0.0
 10
124.842527956949
 20
177.9052934028961
 30
0.0
  0
SPLINE
  5
296
330
1F
100
AcDbEntity
  8
0
  6
Continuous
 62
     7
370
    25
100
AcDbSpline
210
0.0
220
0.0
230
1.0
 70
     8
 71
     3
 72
    11
 73
     7
 74
     0
 42
0.00000001
 43
0.00000001
 40
0.0
 40
0.0
 40
0.0
 40
0.0
 40
0.2500000000000002
 40
0.5
 40
0.7500000000000003
 40
0.9999999999999999
 40
0.9999999999999999
 40
0.9999999999999999
 40
0.9999999999999999
 10
125.283960065796
 20
177.4822431142094
 30
0.0
 10
125.2320150925694
 20
177.4810971367533
 30
0.0
 10
125.128125146116
 20
177.4788051818411
 30
0.0
 10
124.9968852253486
 20
177.5610368379811
 30
0.0
 10
124.9046842186458
 20
177.6929417318845
 30
0.0
 10
124.8921135553848
 20
177.8068447218139
 30
0.0
 10
124.8858282237544
 20
177.8637962167786
 30
0.0
  0
SPLINE
  5
297
330
1F
100
AcDbEntity
  8
0
  6
Continuous
 62
     7
370
    25
100
AcDbSpline
210
0.0
220
0.0
230
1.0
 70
     8
 71
     3
 72
    15
 73
    11
 74
     0
 42
0.00000001
 43
0.00000001
 40
0.0
 40
0.0
 40
0.0
 40
0.0
 40
0.1250000000000002
 40
0.2499999999999988
 40
0.3749999999999989
 40
0.4999999999999987
 40
0.6249999999999988
 40
0.7499999999999993
 40
0.875
 40
1.0
 40
1.0
 40
1.0
 40
1.0
 10
125.5593689655868
 20
178.3401287808817
 30
0.0
 10
125.5886430929524
 20
178.3103873907531
 30
0.0
 10
125.6471913476836
 20
178.2509046104959
 30
0.0
 10
125.6952583414873
 20
178.1246149714326
 30
0.0
 10
125.7077091712677
 20
177.9848361686553
 30
0.0
 10
125.6811304899525
 20
177.8411135354785
 30
0.0
 10
125.618551216217
 20
177.7071133653511
 30
0.0
 10
125.5255003187552
 20
177.5958267782794
 30
0.0
 10
125.4104862518976
 20
177.5135794585156
 30
0.0
 10
125.3261354611632
 20
177.4926885623341
 30
0.0
 10
125.283960065796
 20
177.4822431142434
 30
0.0
  0
LINE
  5
298
330
1F
100
AcDbEntity
  8
0
  6
Continuous
 62
     7
370
    25
100
AcDbLine
 10
125.0908356208
 20
178.7279767769
 30
0.0
 11
125.5593689656
 21
178.3401287809
 31
0.0
  0
SPLINE
  5
299
330
1F
100
AcDbEntity
  8
0
  6
Continuous
 62
     7
370
    25
100
AcDbSpline
210
0.0
220
0.0
230
1.0
 70
     8
 71
     3
 72
    11
 73
     7
 74
     0
 42
0.00000001
 43
0.00000001
 40
0.0
 40
0.0
 40
0.0
 40
0.0
 40
0.2499999999999971
 40
0.5000000000000016
 40
0.7499999999999977
 40
0.9999999999999999
 40
0.9999999999999999
 40
0.9999999999999999
 40
0.9999999999999999
 10
124.8545806620273
 20
179.2738879633075
 30
0.0
 10
124.8575913765919
 20
179.2194918473321
 30
0.0
 10
124.8636128057211
 20
179.1106996153812
 30
0.0
 10
124.9122431765301
 20
178.9613215686178
 30
0.0
 10
124.9858304702511
 20
178.8282928858402
 30
0.0
 10
125.0558339039462
 20
178.7614154798826
 30
0.0
 10
125.0908356207937
 20
178.7279767769038
 30
0.0
  0
SPLINE
  5
29A
330
1F
100
AcDbEntity
  8
0
  6
Continuous
 62
     7
370
    25
100
AcDbSpline
210
0.0
220
0.0
230
1.0
 70
     8
 71
     3
 72
    11
 73
     7
 74
     0
 42
0.00000001
 43
0.00000001
 40
0.0
 40
0.0
 40
0.0
 40
0.0
 40
0.250000000000001
 40
0.5000000000000018
 40
0.7500000000000021
 40
1.0
 40
1.0
 40
1.0
 40
1.0
 10
124.83773951088
 20
179.9122142503156
 30
0.0
 10
124.8085885686775
 20
179.8879194828342
 30
0.0
 10
124.7502866842724
 20
179.8393299478713
 30
0.0
 10
124.6462551868445
 20
179.8144423099313
 30
0.0
 10
124.5451062575524
 20
179.8280165134434
 30
0.0
 10
124.4936339364523
 20
179.8705532133688
 30
0.0
 10
124.4678977759022
 20
179.8918215633314
 30
0.0
  0
SPLINE
  5
29B
330
1F
100
AcDbEntity
  8
0
  6
Continuous
 62
     7
370
    25
100
AcDbSpline
210
0.0
220
0.0
230
1.0
 70
     8
 71
     3
 72
     9
 73
     5
 74
     0
 42
0.00000001
 43
0.00000001
 40
0.0
 40
0.0
 40
0.0
 40
0.0
 40
0.4982485121566297
 40
1.0
 40
1.0
 40
1.0
 40
1.0
 10
124.5109738817346
 20
179.7516042493504
 30
0.0
 10
124.5515109539464
 20
179.7347530991789
 30
0.0
 10
124.6328700974717
 20
179.7009323254879
 30
0.0
 10
124.7237446342823
 20
179.7233918248425
 30
0.0
 10
124.7693410683341
 20
179.7346609120599
 30
0.0
  0
SPLINE
  5
29C
330
1F
100
AcDbEntity
  8
0
  6
Continuous
 62
     7
370
    25
100
AcDbSpline
210
0.0
220
0.0
230
1.0
 70
     8
 71
     3
 72
    15
 73
    11
 74
     0
 42
0.00000001
 43
0.00000001
 40
0.0
 40
0.0
 40
0.0
 40
0.0
 40
0.1249586911153418
 40
0.2498996428205606
 40
0.3750172215244676
 40
0.5000017102359291
 40
0.6249859812743603
 40
0.7501029184753253
 40
0.8750428056749495
 40
1.0
 40
1.0
 40
1.0
 40
1.0
 10
124.6028395240477
 20
179.4246702518212
 30
0.0
 10
124.6038970190931
 20
179.4411794996555
 30
0.0
 10
124.6060118590596
 20
179.4741956516352
 30
0.0
 10
124.5958470589428
 20
179.5210237514076
 30
0.0
 10
124.5767735865548
 20
179.5626390250713
 30
0.0
 10
124.5489182285847
 20
179.5969604640283
 30
0.0
 10
124.5136184337743
 20
179.6216208645394
 30
0.0
 10
124.4732137609704
 20
179.635553534231
 30
0.0
 10
124.4295898744396
 20
179.6389600508078
 30
0.0
 10
124.4003460179148
 20
179.631280578322
 30
0.0
 10
124.3857230769813
 20
179.6274405761504
 30
0.0
  0
SPLINE
  5
29D
330
1F
100
AcDbEntity
  8
0
  6
Continuous
 62
     7
370
    25
100
AcDbSpline
210
0.0
220
0.0
230
1.0
 70
     8
 71
     3
 72
    11
 73
     7
 74
     0
 42
0.00000001
 43
0.00000001
 40
0.0
 40
0.0
 40
0.0
 40
0.0
 40
0.2536962844958841
 40
0.5032673404841622
 40
0.7498534346653147
 40
1.0
 40
1.0
 40
1.0
 40
1.0
 10
124.4980625977125
 20
179.7133894195755
 30
0.0
 10
124.5191925759723
 20
179.7104386347837
 30
0.0
 10
124.5611089484744
 20
179.704585046437
 30
0.0
 10
124.6162761187188
 20
179.6745801609275
 30
0.0
 10
124.6630338317444
 20
179.6317468966793
 30
0.0
 10
124.6835963683047
 20
179.5930220500735
 30
0.0
 10
124.6939513304691
 20
179.5735208411516
 30
0.0
  0
LINE
  5
29E
330
1F
100
AcDbEntity
  8
0
  6
Continuous
 62
     7
370
    25
100
AcDbLine
 10
124.7369754942
 20
178.6923134648
 30
0.0
 11
125.0908356208
 21
178.7279767769
 31
0.0
  0
LINE
  5
29F
330
1F
100
AcDbEntity
  8
0
  6
Continuous
 62
     7
370
    25
100
AcDbLine
 10
125.0272146627
 20
179.3385174642
 30
0.0
 11
125.1782389812
 21
179.074858601
 31
0.0
  0
LINE
  5
2A0
330
1F
100
AcDbEntity
  8
0
  6
Continuous
 62
     7
370
    25
100
AcDbLine
 10
125.6038227199
 20
180.2437030271
 30
0.0
 11
125.8263917487
 21
179.9544310126
 31
0.0
  0
LINE
  5
2A1
330
1F
100
AcDbEntity
  8
0
  6
Continuous
 62
     7
370
    25
100
AcDbLine
 10
125.5789913514
 20
179.8207168028
 30
0.0
 11
125.2860044659
 21
179.7572447664
 31
0.0
  0
LINE
  5
2A2
330
1F
100
AcDbEntity
  8
0
  6
Continuous
 62
     7
370
    25
100
AcDbLine
 10
124.592527957
 20
178.1931494616
 30
0.0
 11
124.842527957
 21
177.9052934028
 31
0.0
  0
LINE
  5
2A3
330
1F
100
AcDbEntity
  8
0
  6
Continuous
 62
     7
370
    25
100
AcDbLine
 10
124.3918490917
 20
177.9497106839
 30
0.0
 11
124.7992754269
 21
177.8528247832
 31
0.0
  0
LINE
  5
2A4
330
1F
100
AcDbEntity
  8
0
  6
Continuous
 62
     7
370
    25
100
AcDbLine
 10
125.5168578444
 20
178.9709695925
 30
0.0
 11
125.6678821628
 21
178.7073107293
 31
0.0
  0
LINE
  5
2A5
330
1F
100
AcDbEntity
  8
0
  6
Continuous
 62
     7
370
    25
100
AcDbLine
 10
125.205508839
 20
178.3044654688
 30
0.0
 11
125.5593689656
 21
178.3401287809
 31
0.0
  0
LINE
  5
2A6
330
1F
100
AcDbEntity
  8
0
  6
Continuous
 62
     7
370
    25
100
AcDbLine
 10
124.3754514101
 20
177.5621184209
 30
0.0
 11
124.7828777452
 21
177.4652325202
 31
0.0
  0
LINE
  5
2A7
330
1F
100
AcDbEntity
  8
0
  6
Continuous
 62
     7
370
    25
100
AcDbLine
 10
125.7297680385
 20
179.6732017386
 30
0.0
 11
125.3275345209
 21
179.7170292537
 31
0.0
  0
LINE
  5
2A8
330
1F
100
AcDbEntity
  8
0
  6
Continuous
 62
     7
370
    25
100
AcDbLine
 10
125.3625299606
 20
179.5765879155
 30
0.0
 11
125.7647634781
 21
179.5327604004
 31
0.0
  0
LINE
  5
2A9
330
1F
100
AcDbEntity
  8
0
  6
Continuous
 62
     7
370
    25
100
AcDbLine
 10
124.5354614362
 20
177.3173203898
 30
0.0
 11
124.839621884
 21
177.3784201262
 31
0.0
  0
LINE
  5
2AA
330
1F
100
AcDbEntity
  8
0
  6
Continuous
 62
     7
370
    25
100
AcDbLine
 10
125.0099819874
 20
177.2944316715
 30
0.0
 11
125.2599819874
 21
177.3581438621
 31
0.0
  0
LINE
  5
2AB
330
1F
100
AcDbEntity
  8
0
  6
Continuous
 62
     7
370
    25
100
AcDbLine
 10
125.2839600658
 20
177.4822431142
 30
0.0
 11
125.0339600658
 21
177.7700991729
 31
0.0
  0
LINE
  5
2AC
330
1F
100
AcDbEntity
  8
0
  6
Continuous
 62
     7
370
    25
100
AcDbLine
 10
109.942616047
 20
183.1224209749
 30
0.0
 11
110.1038973248
 21
182.5297807623
 31
0.0
  0
LINE
  5
2AD
330
1F
100
AcDbEntity
  8
0
  6
Continuous
 62
     7
370
    25
100
AcDbLine
 10
110.4710760842
 20
183.3648238528
 30
0.0
 11
109.942616047
 21
183.1224209749
 31
0.0
  0
LINE
  5
2AE
330
1F
100
AcDbEntity
  8
0
  6
Continuous
 62
     7
370
    25
100
AcDbLine
 10
110.6136579487
 20
184.2915916189
 30
0.0
 11
110.7140009559
 21
183.7355475387
 31
0.0
  0
LINE
  5
2AF
330
1F
100
AcDbEntity
  8
0
  6
Continuous
 62
     7
370
    25
100
AcDbLine
 10
111.2183807845
 20
184.5052733714
 30
0.0
 11
110.6136579487
 21
184.2915916189
 31
0.0
  0
LINE
  5
2B0
330
1F
100
AcDbEntity
  8
0
  6
Continuous
 62
     7
370
    25
100
AcDbLine
 10
109.4481840165
 20
181.8659129868
 30
0.0
 11
109.6509527082
 21
181.3192649541
 31
0.0
  0
LINE
  5
2B1
330
1F
100
AcDbEntity
  8
0
  6
Continuous
 62
     7
370
    25
100
AcDbLine
 10
109.9659065627
 20
182.1609939554
 30
0.0
 11
109.4481840165
 21
181.8659129868
 31
0.0
  0
LINE
  5
2B2
330
1F
100
AcDbEntity
  8
0
  6
Continuous
 62
     7
370
    25
100
AcDbLine
 10
111.440920453
 20
185.3379002604
 30
0.0
 11
111.481296103
 21
184.9065041521
 31
0.0
  0
LINE
  5
2B3
330
1F
100
AcDbEntity
  8
0
  6
Continuous
 62
     7
370
    25
100
AcDbLine
 10
112.0988856285
 20
185.5035499313
 30
0.0
 11
111.440920453
 21
185.3379002604
 31
0.0
  0
LINE
  5
2B4
330
1F
100
AcDbEntity
  8
0
  6
Continuous
 62
     7
370
    25
100
AcDbLine
 10
109.1453849244
 20
180.5602460141
 30
0.0
 11
109.437446964
 21
179.9513741396
 31
0.0
  0
LINE
  5
2B5
330
1F
100
AcDbEntity
  8
0
  6
Continuous
 62
     7
370
    25
100
AcDbLine
 10
109.5572554761
 20
180.844392312
 30
0.0
 11
109.1453849244
 21
180.5602460141
 31
0.0
  0
LINE
  5
2B6
330
1F
100
AcDbEntity
  8
0
  6
Continuous
 62
     7
370
    25
100
AcDbLine
 10
109.0434191677
 20
179.2450920869
 30
0.0
 11
109.3737688814
 21
178.6964775047
 31
0.0
  0
LINE
  5
2B7
330
1F
100
AcDbEntity
  8
0
  6
Continuous
 62
     7
370
    25
100
AcDbLine
 10
109.3797975409
 20
179.5216719298
 30
0.0
 11
109.0434191677
 21
179.2450920869
 31
0.0
  0
LINE
  5
2B8
330
1F
100
AcDbEntity
  8
0
  6
Continuous
 62
     7
370
    25
100
AcDbLine
 10
109.1453849244
 20
177.9604114919
 30
0.0
 11
109.4991623112
 21
177.4846723896
 31
0.0
  0
LINE
  5
2B9
330
1F
100
AcDbEntity
  8
0
  6
Continuous
 62
     7
370
    25
100
AcDbLine
 10
109.4220902962
 20
178.2294981924
 30
0.0
 11
109.1453849244
 21
177.9604114919
 31
0.0
  0
LINE
  5
2BA
330
1F
100
AcDbEntity
  8
0
  6
Continuous
 62
     7
370
    25
100
AcDbLine
 10
109.4481840165
 20
176.7452385988
 30
0.0
 11
109.8486740393
 21
176.3060618112
 31
0.0
  0
LINE
  5
2BB
330
1F
100
AcDbEntity
  8
0
  6
Continuous
 62
     7
370
    25
100
AcDbLine
 10
109.6125666704
 20
176.9342092004
 30
0.0
 11
109.4481840165
 21
176.7452385988
 31
0.0
  0
LINE
  5
2BC
330
1F
100
AcDbEntity
  8
0
  6
Continuous
 62
     7
370
    25
100
AcDbLine
 10
109.942616047
 20
175.6364958211
 30
0.0
 11
110.1801250143
 21
175.4242593265
 31
0.0
  0
LINE
  5
2BD
330
1F
100
AcDbEntity
  8
0
  6
Continuous
 62
     7
370
    25
100
AcDbLine
 10
110.0467195515
 20
175.7791753696
 30
0.0
 11
109.942616047
 21
175.6364958211
 31
0.0
  0
ARC
  5
2BE
330
1F
100
AcDbEntity
  8
0
  6
Continuous
 62
     7
370
    25
100
AcDbCircle
 10
111.7439144451
 20
181.8711999004
 30
0.0
 40
6.21849404311589
100
AcDbArc
 50
168.7663762602
 51
188.8040346744
  0
LINE
  5
2BF
330
1F
100
AcDbEntity
  8
0
  6
Continuous
 62
     7
370
    25
100
AcDbLine
 10
106.1581914248
 20
182.7650849093
 30
0.0
 11
105.6445605232
 21
183.08262464
 31
0.0
  0
LINE
  5
2C0
330
1F
100
AcDbEntity
  8
0
  6
Continuous
 62
     7
370
    25
100
AcDbLine
 10
105.6445605232
 20
183.08262464
 30
0.0
 11
106.2157224338
 21
183.1679729333
 31
0.0
  0
LWPOLYLINE
  5
2C1
330
1F
100
AcDbEntity
  8
0
  6
Continuous
 62
     7
370
    25
100
AcDbPolyline
 90
       33
 70
   128
 43
0.0
 10
112.1090028232
 20
187.7526255853
 10
112.1350342872
 20
187.7566247819
 10
112.7881093206
 20
187.9311209128
 10
113.4133638091
 20
188.2433296992
 10
114.0043817955
 20
188.6900474563
 10
114.5550986354
 20
189.2666902556
 10
115.0598632289
 20
189.9673409615
 10
115.5134960082
 20
190.7848099497
 10
115.911342087
 20
191.7107088822
 10
116.2493190263
 20
192.735536783
 10
116.5239587252
 20
193.8487775309
 10
116.7324430089
 20
195.0390077696
 10
116.8726325465
 20
196.294014126
 10
116.9430888035
 20
197.6009185367
 10
116.9430888035
 20
198.9463103939
 10
116.8726325465
 20
200.3163841565
 10
116.7324430089
 20
201.6970810137
 10
116.5239587252
 20
203.0742331475
 10
116.2493190263
 20
204.4337091132
 10
115.911342087
 20
205.7615588479
 10
115.5134960082
 20
207.0441568164
 10
115.0598632289
 20
208.2683418278
 10
114.5550986354
 20
209.4215520875
 10
114.0043817955
 20
210.4919540975
 10
113.4133638091
 20
211.4685640849
 10
112.7881093206
 20
212.3413607095
 10
112.1350342872
 20
213.1013878968
 10
111.4608401423
 20
213.7408467396
 10
110.7724450304
 20
214.2531755247
 10
110.0769128167
 20
214.6331170654
 10
109.381380603
 20
214.8767726475
 10
108.6929854911
 20
214.981642035
 10
108.0448228102
 20
214.9506483226
  0
LWPOLYLINE
  5
2C2
330
1F
100
AcDbEntity
  8
0
  6
Continuous
 62
     7
370
    25
100
AcDbPolyline
 90
       41
 70
   128
 43
0.0
 10
111.1594445714
 20
187.0245114628
 10
111.8832989783
 20
186.7676558284
 10
112.6003949516
 20
186.6484772236
 10
113.3040371594
 20
186.668088387
 10
113.9876558841
 20
186.8263062144
 10
114.6448683618
 20
187.1216534686
 10
115.2695383766
 20
187.5513725718
 10
115.855833553
 20
188.1114513526
 10
116.3982798108
 20
188.7966605062
 10
116.8918124755
 20
189.6006024196
 10
117.3318235656
 20
190.5157709035
 10
117.7142048161
 20
191.5336212765
 10
118.0353860363
 20
192.6446501438
 10
118.2923684437
 20
193.8384841284
 10
118.4827526627
 20
195.1039767238
 10
118.6047611272
 20
196.4293123668
 10
118.657254677
 20
197.8021167556
 10
118.6397431941
 20
199.2095723853
 10
118.5523901784
 20
200.6385382221
 10
118.3960112215
 20
202.0756723969
 10
118.1720663916
 20
203.5075567752
 10
117.8826466012
 20
204.9208222383
 10
117.5304540849
 20
206.3022735074
 10
117.1187771693
 20
207.6390123441
 10
116.6514595709
 20
208.9185579782
 10
116.1328645082
 20
210.1289636368
 10
115.5678339636
 20
211.2589280883
 10
114.961643475
 20
212.2979011593
 10
114.3199528797
 20
213.2361822379
 10
113.6487534699
 20
214.0650108467
 10
112.9543120536
 20
214.7766484361
 10
112.2431124432
 20
215.3644506379
 10
111.5217949179
 20
215.8229293011
 10
110.797094225
 20
216.147803734
 10
110.0757766997
 20
216.3360406717
 10
109.3645770893
 20
216.3858825964
 10
108.670135673
 20
216.2968641477
 10
107.9989362631
 20
216.0698164667
 10
107.3572456678
 20
215.7068594365
 10
106.7510551792
 20
215.2113818891
 10
106.2638864462
 20
214.6845243457
  0
LWPOLYLINE
  5
2C3
330
1F
100
AcDbEntity
  8
0
  6
Continuous
 62
     7
370
    25
100
AcDbPolyline
 90
        3
 70
   128
 43
0.0
 10
110.3280664592
 20
187.4865016084
 10
110.4355901646
 20
187.416645935
 10
111.1594445714
 20
187.0245114628
  0
LINE
  5
2C4
330
1F
100
AcDbEntity
  8
0
  6
Continuous
 62
     7
370
    25
100
AcDbLine
 10
114.8918144897
 20
186.9045803921
 30
0.0
 11
115.4249890281
 21
187.0273033408
 31
0.0
  0
LINE
  5
2C5
330
1F
100
AcDbEntity
  8
0
  6
Continuous
 62
     7
370
    25
100
AcDbLine
 10
115.4249890281
 20
187.0273033408
 30
0.0
 11
124.0852430659
 21
188.3213985663
 31
0.0
  0
LWPOLYLINE
  5
2C6
330
1F
100
AcDbEntity
  8
0
  6
Continuous
 62
     7
370
    25
100
AcDbPolyline
 90
       34
 70
   128
 43
0.0
 10
126.1501447389
 20
188.5869041853
 10
126.7615305899
 20
188.735096672
 10
127.4187430676
 20
189.0304439262
 10
128.0434130824
 20
189.4601630294
 10
128.6297082588
 20
190.0202418102
 10
129.1721545166
 20
190.7054509639
 10
129.6656871814
 20
191.5093928772
 10
130.1056982715
 20
192.4245613611
 10
130.488079522
 20
193.4424117341
 10
130.8092607421
 20
194.5534406015
 10
131.0662431495
 20
195.747274586
 10
131.2566273685
 20
197.0127671815
 10
131.378635833
 20
198.3381028245
 10
131.4311293829
 20
199.7109072132
 10
131.4136178999
 20
201.118362843
 10
131.3262648842
 20
202.5473286797
 10
131.1698859273
 20
203.9844628546
 10
130.9459410974
 20
205.4163472329
 10
130.656521307
 20
206.8296126959
 10
130.3043287907
 20
208.211063965
 10
129.8926518751
 20
209.5478028018
 10
129.4253342767
 20
210.8273484358
 10
128.9067392141
 20
212.0377540944
 10
128.3417086695
 20
213.167718546
 10
127.7355181809
 20
214.2066916169
 10
127.0938275856
 20
215.1449726955
 10
126.4226281757
 20
215.9738013043
 10
125.7281867594
 20
216.6854388938
 10
125.016987149
 20
217.2732410955
 10
124.2956696237
 20
217.7317197587
 10
123.5709689308
 20
218.0565941917
 10
122.8496514055
 20
218.2448311293
 10
122.1384517951
 20
218.2946730541
 10
121.7164938156
 20
218.2574744442
  0
LINE
  5
2C7
330
1F
100
AcDbEntity
  8
0
  6
Continuous
 62
     7
370
    25
100
AcDbLine
 10
108.9249890281
 20
186.7538924659
 30
0.0
 11
108.9249890281
 21
187.2768408066
 31
0.0
  0
LINE
  5
2C8
330
1F
100
AcDbEntity
  8
0
  6
Continuous
 62
     7
370
    25
100
AcDbLine
 10
115.4249890281
 20
187.0273033408
 30
0.0
 11
115.4249890281
 21
184.1464180802
 31
0.0
  0
LINE
  5
2C9
330
1F
100
AcDbEntity
  8
0
  6
Continuous
 62
     7
370
    25
100
AcDbLine
 10
115.4249890281
 20
184.1464180802
 30
0.0
 11
111.4249890281
 21
185.9395690245
 31
0.0
  0
LINE
  5
2CA
330
1F
100
AcDbEntity
  8
0
  6
Continuous
 62
     7
370
    25
100
AcDbLine
 10
111.4249890281
 20
185.6331731257
 30
0.0
 11
111.4249890281
 21
185.9395690245
 31
0.0
  0
LINE
  5
2CB
330
1F
100
AcDbEntity
  8
0
  6
Continuous
 62
     7
370
    25
100
AcDbLine
 10
111.4249890281
 20
185.6331731257
 30
0.0
 11
108.9249890281
 21
186.7538924659
 31
0.0
  0
LINE
  5
2CC
330
1F
100
AcDbEntity
  8
0
  6
Continuous
 62
     7
370
    25
100
AcDbLine
 10
124.0852430659
 20
185.4405133057
 30
0.0
 11
124.0852430659
 21
188.3213985663
 31
0.0
  0
LWPOLYLINE
  5
2CD
330
1F
100
AcDbEntity
  8
0
  6
Continuous
 62
     7
370
    25
100
AcDbPolyline
 90
       10
 70
   128
 43
0.0
 10
124.0852430659
 20
185.4405133057
 10
123.2205928712
 20
185.9414328588
 10
122.2835201475
 20
186.2858959673
 10
121.2936081093
 20
186.4667039423
 10
120.2715442225
 20
186.4800782068
 10
119.2386878715
 20
186.3257392617
 10
118.2166239847
 20
186.0069125265
 10
117.2267119465
 20
185.5302609339
 10
116.2896392227
 20
184.9057456854
 10
115.4249890281
 20
184.1464180802
  0
LINE
  5
2CE
330
1F
100
AcDbEntity
  8
0
  6
Continuous
 62
     7
370
    25
100
AcDbLine
 10
122.0892654505
 20
186.3352855922
 30
0.0
 11
124.0852430659
 21
185.4405133057
 31
0.0
  0
LWPOLYLINE
  5
2CF
330
1F
100
AcDbEntity
  8
0
  6
Continuous
 62
     7
370
    25
100
AcDbPolyline
 90
       15
 70
   128
 43
0.0
 10
111.672540352
 20
173.3947029345
 10
111.1180388723
 20
173.8137284806
 10
110.4749347829
 20
174.4560802487
 10
109.9255460013
 20
175.201230198
 10
109.4796233553
 20
176.0359530332
 10
109.1450813039
 20
176.9454336744
 10
108.9278574673
 20
177.9135302026
 10
108.8318072433
 20
178.9230603546
 10
108.8586353794
 20
179.9561064825
 10
109.0078657165
 20
180.9943335651
 10
109.2768496395
 20
182.0193146269
 10
109.6608130868
 20
183.0128577894
 10
110.1529412824
 20
183.9573291499
 10
110.744499688
 20
184.8359657565
 10
111.4249890281
 20
185.6331731257
  0
ARC
  5
2D0
330
1F
100
AcDbEntity
  8
0
  6
Continuous
 62
     7
370
    25
100
AcDbCircle
 10
117.7490923332
 20
179.5276330972
 30
0.0
 40
8.576260081090119
100
AcDbArc
 50
133.4842526213
 51
137.3527619667
  0
ARC
  5
2D1
330
1F
100
AcDbEntity
  8
0
  6
Continuous
 62
     7
370
    25
100
AcDbCircle
 10
117.9988799525
 20
179.3026671939
 30
0.0
 40
8.91239984308568
100
AcDbArc
 50
137.3769060216
 51
145.9598712223
  0
ARC
  5
2D2
330
1F
100
AcDbEntity
  8
0
  6
Continuous
 62
     7
370
    25
100
AcDbCircle
 10
118.2357934795
 20
179.1397337896
 30
0.0
 40
9.199923322694975
100
AcDbArc
 50
145.9449481861
 51
154.3479783217
  0
ARC
  5
2D3
330
1F
100
AcDbEntity
  8
0
  6
Continuous
 62
     7
370
    25
100
AcDbCircle
 10
118.2758939615
 20
179.1177689983
 30
0.0
 40
9.245580471429214
100
AcDbArc
 50
154.3328557668
 51
162.7081738598
  0
ARC
  5
2D4
330
1F
100
AcDbEntity
  8
0
  6
Continuous
 62
     7
370
    25
100
AcDbCircle
 10
118.0814580959
 20
179.1758132953
 30
0.0
 40
9.0426797841954
100
AcDbArc
 50
162.6931383289
 51
171.1933909027
  0
ARC
  5
2D5
330
1F
100
AcDbEntity
  8
0
  6
Continuous
 62
     7
370
    25
100
AcDbCircle
 10
117.6642097586
 20
179.2382396555
 30
0.0
 40
8.620793314352097
100
AcDbArc
 50
171.1788339979
 51
179.9544571565
  0
ARC
  5
2D6
330
1F
100
AcDbEntity
  8
0
  6
Continuous
 62
     7
370
    25
100
AcDbCircle
 10
117.0834053763
 20
179.2368430748
 30
0.0
 40
8.039990440404758
100
AcDbArc
 50
179.9412146488
 51
189.1349490143
  0
ARC
  5
2D7
330
1F
100
AcDbEntity
  8
0
  6
Continuous
 62
     7
370
    25
100
AcDbCircle
 10
116.4315527659
 20
179.1306801761
 30
0.0
 40
7.379550840537333
100
AcDbArc
 50
189.1246373883
 51
198.8595999375
  0
ARC
  5
2D8
330
1F
100
AcDbEntity
  8
0
  6
Continuous
 62
     7
370
    25
100
AcDbCircle
 10
115.8115415555
 20
178.9182953683
 30
0.0
 40
6.724172431778512
100
AcDbArc
 50
198.8547955038
 51
209.2131500821
  0
ARC
  5
2D9
330
1F
100
AcDbEntity
  8
0
  6
Continuous
 62
     7
370
    25
100
AcDbCircle
 10
115.3112548013
 20
178.6390194233
 30
0.0
 40
6.151213705883741
100
AcDbArc
 50
209.2170164432
 51
220.2097506732
  0
LWPOLYLINE
  5
2DA
330
1F
100
AcDbEntity
  8
0
  6
Continuous
 62
     7
370
    25
100
AcDbPolyline
 90
        3
 70
   128
 43
0.0
 10
110.6136579487
 20
174.6678717471
 10
110.7089951574
 20
174.5581644279
 10
110.7359126396
 20
174.5281611164
  0
LINE
  5
2DB
330
1F
100
AcDbEntity
  8
0
  6
Continuous
 62
     7
370
    25
100
AcDbLine
 10
109.4802063009
 20
174.2939090847
 30
0.0
 11
109.2302063009
 21
174.4059810187
 31
0.0
  0
ARC
  5
2DC
330
1F
100
AcDbEntity
  8
0
  6
Continuous
 62
     7
370
    25
100
AcDbCircle
 10
111.5243942716
 20
179.5170678727
 30
0.0
 40
5.602366220968062
100
AcDbArc
 50
241.5468896934
 51
245.8263575176
  0
LINE
  5
2DD
330
1F
100
AcDbEntity
  8
0
  6
Continuous
 62
     7
370
    25
100
AcDbLine
 10
108.8552063009
 20
174.5914265083
 30
0.0
 11
109.1052063009
 21
174.4793545743
 31
0.0
  0
ARC
  5
2DE
330
1F
100
AcDbEntity
  8
0
  6
Continuous
 62
     7
370
    25
100
AcDbCircle
 10
111.7983015165
 20
179.4473308856
 30
0.0
 40
5.650977833142401
100
AcDbArc
 50
233.9127407939
 51
241.5382776694
  0
LINE
  5
2DF
330
1F
100
AcDbEntity
  8
0
  6
Continuous
 62
     7
370
    25
100
AcDbLine
 10
108.4697813651
 20
174.8806576904
 30
0.0
 11
108.2947813651
 21
174.9591080442
 31
0.0
  0
ARC
  5
2E0
330
1F
100
AcDbEntity
  8
0
  6
Continuous
 62
     7
370
    25
100
AcDbCircle
 10
111.6813311042
 20
179.6064719655
 30
0.0
 40
5.750366123340748
100
AcDbArc
 50
229.7133417263
 51
233.9190505134
  0
LINE
  5
2E1
330
1F
100
AcDbEntity
  8
0
  6
Continuous
 62
     7
370
    25
100
AcDbLine
 10
107.963074391
 20
175.2199838979
 30
0.0
 11
108.138074391
 21
175.1415335441
 31
0.0
  0
ARC
  5
2E2
330
1F
100
AcDbEntity
  8
0
  6
Continuous
 62
     7
370
    25
100
AcDbCircle
 10
111.9570038156
 20
179.6440201043
 30
0.0
 40
5.903948439386569
100
AcDbArc
 50
222.289965625
 51
229.6959799838
  0
LINE
  5
2E3
330
1F
100
AcDbEntity
  8
0
  6
Continuous
 62
     7
370
    25
100
AcDbLine
 10
107.5895641552
 20
175.6713537469
 30
0.0
 11
107.4145641552
 21
175.7498041007
 31
0.0
  0
ARC
  5
2E4
330
1F
100
AcDbEntity
  8
0
  6
Continuous
 62
     7
370
    25
100
AcDbCircle
 10
111.9283393563
 20
179.8578370121
 30
0.0
 40
6.103286079431745
100
AcDbArc
 50
218.2636981073
 51
222.3056484531
  0
LINE
  5
2E5
330
1F
100
AcDbEntity
  8
0
  6
Continuous
 62
     7
370
    25
100
AcDbLine
 10
107.1362289556
 20
176.0781837377
 30
0.0
 11
107.3112289556
 21
175.9997333839
 31
0.0
  0
ARC
  5
2E6
330
1F
100
AcDbEntity
  8
0
  6
Continuous
 62
     7
370
    25
100
AcDbCircle
 10
112.29705007
 20
179.9290411104
 30
0.0
 40
6.348060443538284
100
AcDbArc
 50
211.1852494826
 51
218.2415176335
  0
LINE
  5
2E7
330
1F
100
AcDbEntity
  8
0
  6
Continuous
 62
     7
370
    25
100
AcDbLine
 10
106.8662996256
 20
176.6419723546
 30
0.0
 11
106.6162996256
 21
176.7540442886
 31
0.0
  0
ARC
  5
2E8
330
1F
100
AcDbEntity
  8
0
  6
Continuous
 62
     7
370
    25
100
AcDbCircle
 10
112.2859256244
 20
180.1885852237
 30
0.0
 40
6.628780461086258
100
AcDbArc
 50
207.3812294705
 51
211.2066050548
  0
LINE
  5
2E9
330
1F
100
AcDbEntity
  8
0
  6
Continuous
 62
     7
370
    25
100
AcDbLine
 10
106.3997932746
 20
177.1399500599
 30
0.0
 11
106.6497932746
 21
177.0278781258
 31
0.0
  0
ARC
  5
2EA
330
1F
100
AcDbEntity
  8
0
  6
Continuous
 62
     7
370
    25
100
AcDbCircle
 10
112.8141140409
 20
180.2174591507
 30
0.0
 40
6.940625160853113
100
AcDbArc
 50
200.7097164274
 51
207.3582291585
  0
LINE
  5
2EB
330
1F
100
AcDbEntity
  8
0
  6
Continuous
 62
     7
370
    25
100
AcDbLine
 10
106.321963803
 20
177.7630217584
 30
0.0
 11
106.146963803
 21
177.8414721122
 31
0.0
  0
ARC
  5
2EC
330
1F
100
AcDbEntity
  8
0
  6
Continuous
 62
     7
370
    25
100
AcDbCircle
 10
112.9495387682
 20
180.4163863935
 30
0.0
 40
7.273596752101797
100
AcDbArc
 50
197.1369025589
 51
200.732683182
  0
LINE
  5
2ED
330
1F
100
AcDbEntity
  8
0
  6
Continuous
 62
     7
370
    25
100
AcDbLine
 10
105.9988647367
 20
178.2731784661
 30
0.0
 11
106.1738647367
 21
178.1947281123
 31
0.0
  0
ARC
  5
2EE
330
1F
100
AcDbEntity
  8
0
  6
Continuous
 62
     7
370
    25
100
AcDbCircle
 10
113.4547884891
 20
180.436872162
 30
0.0
 40
7.618337130131709
100
AcDbArc
 50
190.8681396175
 51
197.1160977082
  0
LINE
  5
2EF
330
1F
100
AcDbEntity
  8
0
  6
Continuous
 62
     7
370
    25
100
AcDbLine
 10
105.9730960561
 20
179.0004394393
 30
0.0
 11
105.7980960561
 21
179.0788897931
 31
0.0
  0
ARC
  5
2F0
330
1F
100
AcDbEntity
  8
0
  6
Continuous
 62
     7
370
    25
100
AcDbCircle
 10
113.6198641153
 20
180.5836369609
 30
0.0
 40
7.965194260713472
100
AcDbArc
 50
187.5050129837
 51
190.8894898847
  0
LINE
  5
2F1
330
1F
100
AcDbEntity
  8
0
  6
Continuous
 62
     7
370
    25
100
AcDbLine
 10
105.7229041895
 20
179.5432795505
 30
0.0
 11
105.8979041895
 21
179.4648291967
 31
0.0
  0
ARC
  5
2F2
330
1F
100
AcDbEntity
  8
0
  6
Continuous
 62
     7
370
    25
100
AcDbCircle
 10
114.128308671
 20
180.5466625867
 30
0.0
 40
8.301199998298815
100
AcDbArc
 50
181.5879331517
 51
187.4882305114
  0
LINE
  5
2F3
330
1F
100
AcDbEntity
  8
0
  6
Continuous
 62
     7
370
    25
100
AcDbLine
 10
105.8302965548
 20
180.3166270874
 30
0.0
 11
105.5802965548
 21
180.4286990214
 31
0.0
  0
ARC
  5
2F4
330
1F
100
AcDbEntity
  8
0
  6
Continuous
 62
     7
370
    25
100
AcDbCircle
 10
114.195201833
 20
180.670180478
 30
0.0
 40
8.618289055619085
100
AcDbArc
 50
178.3943820788
 51
181.6056179212
  0
LINE
  5
2F5
330
1F
100
AcDbEntity
  8
0
  6
Continuous
 62
     7
370
    25
100
AcDbLine
 10
105.5802965548
 20
180.9116619345
 30
0.0
 11
105.8302965548
 21
180.7995900005
 31
0.0
  0
ARC
  5
2F6
330
1F
100
AcDbEntity
  8
0
  6
Continuous
 62
     7
370
    25
100
AcDbCircle
 10
115.2077339963
 20
180.4938605912
 30
0.0
 40
9.382419913943174
100
AcDbArc
 50
134.0130872399
 51
178.1326665816
  0
LINE
  5
2F7
330
1F
100
AcDbEntity
  8
0
  6
Continuous
 62
     7
370
    25
100
AcDbLine
 10
110.7140009559
 20
183.7355475387
 30
0.0
 11
110.6136579487
 21
184.2915916189
 31
0.0
  0
LINE
  5
2F8
330
1F
100
AcDbEntity
  8
0
  6
Continuous
 62
     7
370
    25
100
AcDbLine
 10
109.942616047
 20
183.1224209749
 30
0.0
 11
110.4710760842
 21
183.3648238528
 31
0.0
  0
LINE
  5
2F9
330
1F
100
AcDbEntity
  8
0
  6
Continuous
 62
     7
370
    25
100
AcDbLine
 10
110.1038973248
 20
182.5297807623
 30
0.0
 11
109.942616047
 21
183.1224209749
 31
0.0
  0
LINE
  5
2FA
330
1F
100
AcDbEntity
  8
0
  6
Continuous
 62
     7
370
    25
100
AcDbLine
 10
109.4481840165
 20
181.8659129868
 30
0.0
 11
109.9659065627
 21
182.1609939554
 31
0.0
  0
LINE
  5
2FB
330
1F
100
AcDbEntity
  8
0
  6
Continuous
 62
     7
370
    25
100
AcDbLine
 10
111.481296103
 20
184.9065041521
 30
0.0
 11
111.440920453
 21
185.3379002603
 31
0.0
  0
LINE
  5
2FC
330
1F
100
AcDbEntity
  8
0
  6
Continuous
 62
     7
370
    25
100
AcDbLine
 10
110.6136579487
 20
184.2915916189
 30
0.0
 11
111.2183807845
 21
184.5052733714
 31
0.0
  0
LINE
  5
2FD
330
1F
100
AcDbEntity
  8
0
  6
Continuous
 62
     7
370
    25
100
AcDbLine
 10
109.6509527082
 20
181.3192649541
 30
0.0
 11
109.4481840165
 21
181.8659129868
 31
0.0
  0
LINE
  5
2FE
330
1F
100
AcDbEntity
  8
0
  6
Continuous
 62
     7
370
    25
100
AcDbLine
 10
109.1453849244
 20
180.5602460141
 30
0.0
 11
109.5572554761
 21
180.844392312
 31
0.0
  0
LINE
  5
2FF
330
1F
100
AcDbEntity
  8
0
  6
Continuous
 62
     7
370
    25
100
AcDbLine
 10
111.440920453
 20
185.3379002603
 30
0.0
 11
112.0988856285
 21
185.5035499313
 31
0.0
  0
LINE
  5
300
330
1F
100
AcDbEntity
  8
0
  6
Continuous
 62
     7
370
    25
100
AcDbLine
 10
109.437446964
 20
179.9513741396
 30
0.0
 11
109.1453849244
 21
180.5602460141
 31
0.0
  0
LINE
  5
301
330
1F
100
AcDbEntity
  8
0
  6
Continuous
 62
     7
370
    25
100
AcDbLine
 10
109.0434191677
 20
179.2450920869
 30
0.0
 11
109.3797975409
 21
179.5216719298
 31
0.0
  0
LINE
  5
302
330
1F
100
AcDbEntity
  8
0
  6
Continuous
 62
     7
370
    25
100
AcDbLine
 10
109.3737688814
 20
178.6964775047
 30
0.0
 11
109.0434191677
 21
179.2450920869
 31
0.0
  0
LINE
  5
303
330
1F
100
AcDbEntity
  8
0
  6
Continuous
 62
     7
370
    25
100
AcDbLine
 10
109.1453849244
 20
177.9604114919
 30
0.0
 11
109.4220902962
 21
178.2294981924
 31
0.0
  0
LINE
  5
304
330
1F
100
AcDbEntity
  8
0
  6
Continuous
 62
     7
370
    25
100
AcDbLine
 10
109.4991623112
 20
177.4846723896
 30
0.0
 11
109.1453849244
 21
177.9604114919
 31
0.0
  0
LINE
  5
305
330
1F
100
AcDbEntity
  8
0
  6
Continuous
 62
     7
370
    25
100
AcDbLine
 10
109.4481840165
 20
176.7452385988
 30
0.0
 11
109.6125666704
 21
176.9342092004
 31
0.0
  0
LINE
  5
306
330
1F
100
AcDbEntity
  8
0
  6
Continuous
 62
     7
370
    25
100
AcDbLine
 10
109.8486740393
 20
176.3060618112
 30
0.0
 11
109.4481840165
 21
176.7452385988
 31
0.0
  0
LINE
  5
307
330
1F
100
AcDbEntity
  8
0
  6
Continuous
 62
     7
370
    25
100
AcDbLine
 10
109.942616047
 20
175.6364958211
 30
0.0
 11
110.0467195515
 21
175.7791753696
 31
0.0
  0
LINE
  5
308
330
1F
100
AcDbEntity
  8
0
  6
Continuous
 62
     7
370
    25
100
AcDbLine
 10
109.942616047
 20
175.6364958211
 30
0.0
 11
110.0286315744
 21
175.7047388028
 31
0.0
  0
LINE
  5
309
330
1F
100
AcDbEntity
  8
0
  6
Continuous
 62
     7
370
    25
100
AcDbLine
 10
110.1801250143
 20
175.4242593265
 30
0.0
 11
109.942616047
 21
175.6364958211
 31
0.0
  0
LINE
  5
30A
330
1F
100
AcDbEntity
  8
0
  6
Continuous
 62
     7
370
    25
100
AcDbLine
 10
110.8345768986
 20
174.5083880971
 30
0.0
 11
110.6136579487
 21
174.6678717471
 31
0.0
  0
LINE
  5
30B
330
1F
100
AcDbEntity
  8
0
  6
Continuous
 62
     7
370
    25
100
AcDbLine
 10
105.8885349607
 20
181.0324363896
 30
0.0
 11
105.5802965548
 21
180.9116619345
 31
0.0
  0
LINE
  5
30C
330
1F
100
AcDbEntity
  8
0
  6
Continuous
 62
     7
370
    25
100
AcDbLine
 10
105.9038956244
 20
179.6654991774
 30
0.0
 11
105.7229041895
 21
179.5432795505
 31
0.0
  0
LINE
  5
30D
330
1F
100
AcDbEntity
  8
0
  6
Continuous
 62
     7
370
    25
100
AcDbLine
 10
106.1681307375
 20
178.4424630148
 30
0.0
 11
105.9988647367
 21
178.2731784661
 31
0.0
  0
LINE
  5
30E
330
1F
100
AcDbEntity
  8
0
  6
Continuous
 62
     7
370
    25
100
AcDbLine
 10
106.5224736924
 20
177.3133868684
 30
0.0
 11
106.3997932746
 21
177.1399500599
 31
0.0
  0
LWPOLYLINE
  5
30F
330
1F
100
AcDbEntity
  8
0
  6
Continuous
 62
     7
370
    25
100
AcDbPolyline
 90
       10
 70
   128
 43
0.0
 10
131.5864281686
 20
200.1725677875
 10
131.5510359096
 20
198.7966775803
 10
131.4451999795
 20
197.4657697793
 10
131.2699396362
 20
196.1926617541
 10
131.0269427325
 20
194.9896142309
 10
130.7185494615
 20
193.8682132151
 10
130.347729819
 20
192.8392584113
 10
129.9180550008
 20
191.912659217
 10
129.4336630103
 20
191.0973392888
 10
129.3717485517
 20
191.0068934586
  0
LWPOLYLINE
  5
310
330
1F
100
AcDbEntity
  8
0
  6
Continuous
 62
     7
370
    25
100
AcDbPolyline
 90
       16
 70
   128
 43
0.0
 10
125.5048068405
 20
216.8849717542
 10
125.6703420354
 20
216.7509543826
 10
126.3700205464
 20
216.0987201031
 10
127.0491513965
 20
215.3248401018
 10
127.7011941843
 20
214.4367672665
 10
128.3198693813
 20
213.4430542238
 10
128.8992188072
 20
212.3532709736
 10
129.4336630103
 20
211.1779127244
 10
129.9180550008
 20
209.9282988186
 10
130.347729819
 20
208.6164637212
 10
130.7185494615
 20
207.2550411214
 10
131.0269427325
 20
205.857142263
 10
131.2699396362
 20
204.4362296761
 10
131.4451999795
 20
203.0059875259
 10
131.5510359096
 20
201.5801898259
 10
131.5864281686
 20
200.1725677875
  0
LWPOLYLINE
  5
311
330
1F
100
AcDbEntity
  8
0
  6
Continuous
 62
     7
370
    25
100
AcDbPolyline
 90
       35
 70
   128
 43
0.0
 10
121.8685442456
 20
218.2768019178
 10
121.9188007108
 20
218.2861973841
 10
122.6180466928
 20
218.3405280539
 10
123.3324030667
 20
218.2559931061
 10
124.0552000793
 20
218.0333818207
 10
124.7796891698
 20
217.6747726593
 10
125.4991059787
 20
217.1835138591
 10
126.2067335051
 20
216.5641921709
 10
126.8959648214
 20
215.8225900347
 10
127.5603647606
 20
214.9656315897
 10
128.1937299994
 20
214.001318026
 10
128.7901469772
 20
212.9386528796
 10
129.3440471095
 20
211.7875579686
 10
129.8502587799
 20
210.5587807561
 10
130.3040556264
 20
209.2637940037
 10
130.7012006702
 20
207.914688654
 10
131.037985875
 20
206.52406094
 10
131.311266768
 20
205.104894778
 10
131.5184917993
 20
203.6704405402
 10
131.6577261645
 20
202.2340913392
 10
131.7276698698
 20
200.8092579805
 10
131.7276698698
 20
199.4092437494
 10
131.6577261645
 20
198.0471202014
 10
131.5184917993
 20
196.7356051171
 10
131.311266768
 20
195.4869437595
 10
131.037985875
 20
194.3127945433
 10
130.7012006702
 20
193.2241201833
 10
130.3040556264
 20
192.2310853387
 10
129.8502587799
 20
191.3429617083
 10
129.3440471095
 20
190.5680414631
 10
128.7901469772
 20
189.9135598248
 10
128.1937299994
 20
189.3856275119
 10
127.5603647606
 20
188.9891736862
 10
126.8959648214
 20
188.7278999304
 10
126.3012032
 20
188.6128700446
  0
LWPOLYLINE
  5
312
330
1F
100
AcDbEntity
  8
0
  6
Continuous
 62
     7
370
    25
100
AcDbPolyline
 90
       15
 70
   128
 43
0.0
 10
132.1694408705
 20
200.1700293883
 10
132.1344281309
 20
198.787345838
 10
132.0297168165
 20
197.448963595
 10
131.8562845888
 20
196.1673787737
 10
131.6157507377
 20
194.9545571862
 10
131.3103610629
 20
193.8218226211
 10
130.9429669056
 20
192.7797511157
 10
130.516998526
 20
191.8380722108
 10
130.0364330761
 20
191.0055781088
 10
129.505757466
 20
190.2900415826
 10
128.929926471
 20
189.6981434042
 10
128.3143164698
 20
189.2354099672
 10
127.6646752472
 20
188.9061616892
 10
126.9870683283
 20
188.7134726725
 10
126.8862663321
 20
188.6969022795
  0
LWPOLYLINE
  5
313
330
1F
100
AcDbEntity
  8
0
  6
Continuous
 62
     7
370
    25
100
AcDbPolyline
 90
       21
 70
   128
 43
0.0
 10
122.4526154089
 20
218.3674725384
 10
122.699135534
 20
218.3954243696
 10
123.4067630604
 20
218.3803045741
 10
124.1261798693
 20
218.2265519093
 10
124.8506689597
 20
217.9356019223
 10
125.5734659724
 20
217.5101711348
 10
126.2878223462
 20
216.9542316794
 10
126.9870683283
 20
216.272974213
 10
127.6646752472
 20
215.4727594531
 10
128.3143164698
 20
214.5610587892
 10
128.929926471
 20
213.5463845248
 10
129.505757466
 20
212.4382104001
 10
130.0364330761
 20
211.2468831383
 10
130.516998526
 20
209.9835258411
 10
130.9429669056
 20
208.6599341352
 10
131.3103610629
 20
207.2884660397
 10
131.6157507377
 20
205.8819265827
 10
131.8562845888
 20
204.4534482441
 10
132.0297168165
 20
203.0163683413
 10
132.1344281309
 20
201.5841045022
 10
132.1694408705
 20
200.1700293883
  0
LWPOLYLINE
  5
314
330
1F
100
AcDbEntity
  8
0
  6
Continuous
 62
     7
370
    25
100
AcDbPolyline
 90
        3
 70
   128
 43
0.0
 10
129.0692271992
 20
213.9189873439
 10
128.4170740491
 20
214.7804006827
 10
127.8608922448
 20
215.394994027
  0
LINE
  5
315
330
1F
100
AcDbEntity
  8
0
  6
Continuous
 62
     7
370
    25
100
AcDbLine
 10
129.0692271992
 20
213.9189873439
 30
0.0
 11
129.8388892255
 21
213.1741223943
 31
0.0
  0
ARC
  5
316
330
1F
100
AcDbEntity
  8
0
  6
Continuous
 62
     7
370
    25
100
AcDbCircle
 10
119.030440927
 20
205.6655194161
 30
0.0
 40
13.16061067366753
100
AcDbArc
 50
30.4128373918
 51
34.7876154026
  0
LINE
  5
317
330
1F
100
AcDbEntity
  8
0
  6
Continuous
 62
     7
370
    25
100
AcDbLine
 10
129.6104930765
 20
213.0726408477
 30
0.0
 11
130.3801551028
 21
212.3277758981
 31
0.0
  0
ARC
  5
318
330
1F
100
AcDbEntity
  8
0
  6
Continuous
 62
     7
370
    25
100
AcDbCircle
 10
107.7673218167
 20
201.0246159858
 30
0.0
 40
24.94552131663004
100
AcDbArc
 50
0.649310444
 51
28.8797844469
  0
LINE
  5
319
330
1F
100
AcDbEntity
  8
0
  6
Continuous
 62
     7
370
    25
100
AcDbLine
 10
132.7112412996
 20
201.3073076773
 30
0.0
 11
133.1680335974
 21
201.749580905
 31
0.0
  0
ARC
  5
31A
330
1F
100
AcDbEntity
  8
0
  6
Continuous
 62
     7
370
    25
100
AcDbCircle
 10
110.3305808957
 20
201.1458772635
 30
0.0
 40
22.84543070263871
100
AcDbArc
 50
358.4857498127
 51
1.5142501873
  0
LINE
  5
31B
330
1F
100
AcDbEntity
  8
0
  6
Continuous
 62
     7
370
    25
100
AcDbLine
 10
132.7112412996
 20
200.0999003944
 30
0.0
 11
133.1680335974
 21
200.5421736221
 31
0.0
  0
ARC
  5
31C
330
1F
100
AcDbEntity
  8
0
  6
Continuous
 62
     7
370
    25
100
AcDbCircle
 10
116.4506092106
 20
199.9900277714
 30
0.0
 40
16.26100328782666
100
AcDbArc
 50
335.0105383586
 51
0.3871400414
  0
LINE
  5
31D
330
1F
100
AcDbEntity
  8
0
  6
Continuous
 62
     7
370
    25
100
AcDbLine
 10
133.1680335974
 20
201.749580905
 30
0.0
 11
132.6873573045
 21
201.9650621921
 31
0.0
  0
LINE
  5
31E
330
1F
100
AcDbEntity
  8
0
  6
Continuous
 62
     7
370
    25
100
AcDbLine
 10
130.3801551028
 20
212.3277758981
 30
0.0
 11
130.237293469
 21
211.9137946728
 31
0.0
  0
LINE
  5
31F
330
1F
100
AcDbEntity
  8
0
  6
Continuous
 62
     8
370
    25
100
AcDbLine
 10
71.6330968261
 20
184.4890719841
 30
0.0
 11
71.8825929756
 21
184.5263540054
 31
0.0
  0
LINE
  5
320
330
1F
100
AcDbEntity
  8
0
  6
Continuous
 62
     8
370
    25
100
AcDbLine
 10
67.653485381
 20
201.3741578674
 30
0.0
 11
67.1046082733
 21
201.2921395754
 31
0.0
  0
LINE
  5
321
330
1F
100
AcDbEntity
  8
0
  6
Continuous
 62
     8
370
    25
100
AcDbLine
 10
82.9310871937
 20
180.8874229337
 30
0.0
 11
82.9310871937
 21
180.5182821446
 31
0.0
  0
LINE
  5
322
330
1F
100
AcDbEntity
  8
0
  6
Continuous
 62
     8
370
    25
100
AcDbLine
 10
116.3274128969
 20
178.5148201145
 30
0.0
 11
116.3455122814
 21
178.4882402746
 31
0.0
  0
LINE
  5
323
330
1F
100
AcDbEntity
  8
0
  6
Continuous
 62
     8
370
    25
100
AcDbLine
 10
116.2575507834
 20
178.4220925021
 30
0.0
 11
116.3022110202
 21
178.4334735046
 31
0.0
  0
LINE
  5
324
330
1F
100
AcDbEntity
  8
0
  6
Continuous
 62
     8
370
    25
100
AcDbLine
 10
116.1055640437
 20
176.4348934548
 30
0.0
 11
116.3220703947
 21
176.1856027953
 31
0.0
  0
LINE
  5
325
330
1F
100
AcDbEntity
  8
0
  6
Continuous
 62
     8
370
    25
100
AcDbLine
 10
117.7355794676
 20
177.8837236763
 30
0.0
 11
117.9087845484
 21
177.6842911487
 31
0.0
  0
SPLINE
  5
326
330
1F
100
AcDbEntity
  8
0
  6
Continuous
 62
     8
370
    25
100
AcDbSpline
210
0.0
220
0.0
230
1.0
 70
     8
 71
     3
 72
    11
 73
     7
 74
     0
 42
0.00000001
 43
0.00000001
 40
0.0
 40
0.0
 40
0.0
 40
0.0
 40
0.2499769328861963
 40
0.5001520547884973
 40
0.7501000353189524
 40
0.9999999999999999
 40
0.9999999999999999
 40
0.9999999999999999
 40
0.9999999999999999
 10
116.9965030839994
 20
176.5140193046744
 30
0.0
 10
117.0066000617443
 20
176.5064415428689
 30
0.0
 10
117.026802022413
 20
176.4912800113871
 30
0.0
 10
117.0626063338576
 20
176.4790350697815
 30
0.0
 10
117.1006375909933
 20
176.4743945067309
 30
0.0
 10
117.1265717889476
 20
176.4792030608988
 30
0.0
 10
117.1395376422934
 20
176.4816071070257
 30
0.0
  0
LINE
  5
327
330
1F
100
AcDbEntity
  8
0
  6
Continuous
 62
     8
370
    25
100
AcDbLine
 10
117.0845842368
 20
176.3727848578
 30
0.0
 11
116.9985509094
 21
176.4067564156
 31
0.0
  0
LINE
  5
328
330
1F
100
AcDbEntity
  8
0
  6
Continuous
 62
     8
370
    25
100
AcDbLine
 10
117.7355794676
 20
176.6818197578
 30
0.0
 11
117.9520858186
 21
176.4325290984
 31
0.0
  0
SPLINE
  5
329
330
1F
100
AcDbEntity
  8
0
  6
Continuous
 62
     8
370
    25
100
AcDbSpline
210
0.0
220
0.0
230
1.0
 70
     8
 71
     3
 72
    10
 73
     6
 74
     0
 42
0.00000001
 43
0.00000001
 40
0.0
 40
0.0
 40
0.0
 40
0.0
 40
0.2607062781824216
 40
0.624774181039173
 40
1.0
 40
1.0
 40
1.0
 40
1.0
 10
118.4700275237288
 20
178.836816108446
 30
0.0
 10
118.484110675768
 20
178.846409342393
 30
0.0
 10
118.5178604950784
 20
178.8693992179132
 30
0.0
 10
118.5781404436334
 20
178.8886217387856
 30
0.0
 10
118.6220031088939
 20
178.8888342347214
 30
0.0
 10
118.644265443888
 20
178.8889420862548
 30
0.0
  0
ARC
  5
32A
330
1F
100
AcDbEntity
  8
0
  6
Continuous
 62
     8
370
    25
100
AcDbCircle
 10
118.6727821381
 20
176.8829233898
 30
0.0
 40
0.1949814438479508
100
AcDbArc
 50
221.4005931974
 51
290.1123219396
  0
SPLINE
  5
32B
330
1F
100
AcDbEntity
  8
0
  6
Continuous
 62
     8
370
    25
100
AcDbSpline
210
0.0
220
0.0
230
1.0
 70
     8
 71
     3
 72
    10
 73
     6
 74
     0
 42
0.00000001
 43
0.00000001
 40
0.0
 40
0.0
 40
0.0
 40
0.0
 40
0.3428808355961257
 40
0.687796057194252
 40
1.0
 40
1.0
 40
1.0
 40
1.0
 10
118.6897140729778
 20
176.582034559521
 30
0.0
 10
118.667405792519
 20
176.583967454043
 30
0.0
 10
118.6226568717588
 20
176.5878447113675
 30
0.0
 10
118.562603084356
 20
176.6130593524337
 30
0.0
 10
118.5300854337341
 20
176.6407435689685
 30
0.0
 10
118.514635969946
 20
176.6538966194711
 30
0.0
  0
SPLINE
  5
32C
330
1F
100
AcDbEntity
  8
0
  6
Continuous
 62
     8
370
    25
100
AcDbSpline
210
0.0
220
0.0
230
1.0
 70
     8
 71
     3
 72
     9
 73
     5
 74
     0
 42
0.00000001
 43
0.00000001
 40
0.0
 40
0.0
 40
0.0
 40
0.0
 40
0.5000000000000012
 40
0.9999999999999999
 40
0.9999999999999999
 40
0.9999999999999999
 40
0.9999999999999999
 10
118.5148234222169
 20
176.4572980861644
 30
0.0
 10
118.5435187011542
 20
176.4580813368374
 30
0.0
 10
118.6009092590287
 20
176.4596478381834
 30
0.0
 10
118.649438699116
 20
176.4320179401894
 30
0.0
 10
118.6737034191597
 20
176.4182029911924
 30
0.0
  0
SPLINE
  5
32D
330
1F
100
AcDbEntity
  8
0
  6
Continuous
 62
     8
370
    25
100
AcDbSpline
210
0.0
220
0.0
230
1.0
 70
     8
 71
     3
 72
     9
 73
     5
 74
     0
 42
0.00000001
 43
0.00000001
 40
0.0
 40
0.0
 40
0.0
 40
0.0
 40
0.4999999999999983
 40
1.0
 40
1.0
 40
1.0
 40
1.0
 10
122.0455548843708
 20
179.3292595343129
 30
0.0
 10
122.0679068185862
 20
179.3310540331406
 30
0.0
 10
122.1126106870172
 20
179.3346430307961
 30
0.0
 10
122.153427314683
 20
179.320172490086
 30
0.0
 10
122.1738356285159
 20
179.3129372197309
 30
0.0
  0
LINE
  5
32E
330
1F
100
AcDbEntity
  8
0
  6
Continuous
 62
     8
370
    25
100
AcDbLine
 10
121.8281254412
 20
177.2126343731
 30
0.0
 11
122.001330522
 21
177.0132018456
 31
0.0
  0
LINE
  5
32F
330
1F
100
AcDbEntity
  8
0
  6
Continuous
 62
     8
370
    25
100
AcDbLine
 10
121.8281254412
 20
177.2999929121
 30
0.0
 11
122.0684870903
 21
177.023236856
 31
0.0
  0
ENDSEC
  0
SECTION
  2
OBJECTS
  0
DICTIONARY
  5
C
330
0
100
AcDbDictionary
281
     1
  3
ACAD_GROUP
350
D
  3
ACAD_LAYOUT
350
1A
  3
ACAD_MLINESTYLE
350
17
  3
ACAD_PLOTSETTINGS
350
19
  3
ACAD_PLOTSTYLENAME
350
E
  3
ACAD_SCALELIST
350
47
  3
DWGPROPS
350
330
  0
DICTIONARY
  5
D
102
{ACAD_REACTORS
330
C
102
}
330
C
100
AcDbDictionary
281
     1
  0
DICTIONARY
  5
1A
102
{ACAD_REACTORS
330
C
102
}
330
C
100
AcDbDictionary
281
     1
  3
Layout1
350
1E
  3
Layout2
350
26
  3
Model
350
22
  0
DICTIONARY
  5
17
102
{ACAD_REACTORS
330
C
102
}
330
C
100
AcDbDictionary
281
     1
  3
Standard
350
18
  0
DICTIONARY
  5
19
102
{ACAD_REACTORS
330
C
102
}
330
C
100
AcDbDictionary
281
     1
  0
ACDBDICTIONARYWDFLT
  5
E
102
{ACAD_REACTORS
330
C
102
}
330
C
100
AcDbDictionary
281
     1
  3
Normal
350
F
100
AcDbDictionaryWithDefault
340
F
  0
DICTIONARY
  5
47
102
{ACAD_REACTORS
330
C
102
}
330
C
100
AcDbDictionary
281
     1
  3
A0
350
48
  3
A1
350
49
  3
A2
350
4A
  3
A3
350
4B
  3
A4
350
4C
  3
A5
350
4D
  3
A6
350
4E
  3
A7
350
4F
  3
A8
350
50
  3
A9
350
51
  3
B0
350
52
  3
B1
350
53
  3
B2
350
54
  3
B3
350
55
  3
B4
350
56
  3
B5
350
57
  3
B6
350
58
  3
B7
350
59
  3
B8
350
5A
  3
B9
350
5B
  3
C0
350
5C
  3
C1
350
5D
  3
C2
350
5E
  3
C3
350
5F
  3
C4
350
60
  3
C5
350
61
  3
C6
350
62
  3
C7
350
63
  3
C8
350
64
  3
C9
350
65
  3
D0
350
66
  3
D1
350
67
  3
D2
350
68
  0
XRECORD
  5
330
102
{ACAD_REACTORS
330
C
102
}
330
C
100
AcDbXrecord
280
     1
  1
DWGPROPS COOKIE
  2

  3

  4

  6

  7

  8
9128
  9

300
=
301
=
302
=
303
=
304
=
305
=
306
=
307
=
308
=
309
=
 40
0.0
 41
2459286.329797002
 42
2459286.329798333
  1

 90
        0
  0
LAYOUT
  5
1E
102
{ACAD_REACTORS
330
1A
102
}
330
1A
100
AcDbPlotSettings
  1

  2
none_device
  4

  6

 40
0.0
 41
0.0
 42
0.0
 43
0.0
 44
0.0
 45
0.0
 46
0.0
 47
0.0
 48
0.0
 49
0.0
140
0.0
141
0.0
142
1.0
143
1.0
 70
   688
 72
     1
 73
     0
 74
     5
  7

 75
    16
147
1.0
148
0.0
149
0.0
100
AcDbLayout
  1
Layout1
 70
     1
 71
     1
 10
0.0
 20
0.0
 11
420.0
 21
297.0
 12
0.0
 22
0.0
 32
0.0
 14
1.0000000000E+20
 24
1.0000000000E+20
 34
1.0000000000E+20
 15
-1.0000000000E+20
 25
-1.0000000000E+20
 35
-1.0000000000E+20
146
0.0
 13
0.0
 23
0.0
 33
0.0
 16
1.0
 26
0.0
 36
0.0
 17
0.0
 27
1.0
 37
0.0
 76
     0
330
1B
  0
LAYOUT
  5
26
102
{ACAD_REACTORS
330
1A
102
}
330
1A
100
AcDbPlotSettings
  1

  2
none_device
  4

  6

 40
0.0
 41
0.0
 42
0.0
 43
0.0
 44
0.0
 45
0.0
 46
0.0
 47
0.0
 48
0.0
 49
0.0
140
0.0
141
0.0
142
1.0
143
1.0
 70
   688
 72
     1
 73
     0
 74
     5
  7

 75
    16
147
1.0
148
0.0
149
0.0
100
AcDbLayout
  1
Layout2
 70
     1
 71
     2
 10
0.0
 20
0.0
 11
0.0
 21
0.0
 12
0.0
 22
0.0
 32
0.0
 14
0.0
 24
0.0
 34
0.0
 15
0.0
 25
0.0
 35
0.0
146
0.0
 13
0.0
 23
0.0
 33
0.0
 16
1.0
 26
0.0
 36
0.0
 17
0.0
 27
1.0
 37
0.0
 76
     0
330
23
  0
LAYOUT
  5
22
102
{ACAD_REACTORS
330
1A
102
}
330
1A
100
AcDbPlotSettings
  1

  2
none_device
  4
Letter_(8.50_x_11.00_Inches)
  6

 40
6.35
 41
6.35
 42
6.35000508
 43
6.35000508
 44
215.9
 45
279.4
 46
0.0
 47
0.0
 48
0.0
 49
0.0
140
0.0
141
0.0
142
1.0
143
1.0
 70
  1712
 72
     1
 73
     0
 74
     0
  7

 75
     0
147
1.0
148
0.0
149
0.0
100
AcDbLayout
  1
Model
 70
     1
 71
     0
 10
0.0
 20
0.0
 11
210.0
 21
297.0
 12
0.0
 22
0.0
 32
0.0
 14
0.0
 24
0.0
 34
0.0
 15
210.0
 25
297.0
 35
0.0
146
0.0
 13
0.0
 23
0.0
 33
0.0
 16
1.0
 26
0.0
 36
0.0
 17
0.0
 27
1.0
 37
0.0
 76
     0
330
1F
331
29
  0
MLINESTYLE
  5
18
102
{ACAD_REACTORS
330
17
102
}
330
17
100
AcDbMlineStyle
  2
Standard
 70
     0
  3

 62
   256
 51
90.0
 52
90.0
 71
     2
 49
0.5
 62
   256
  6
BYLAYER
 49
-0.5
 62
   256
  6
BYLAYER
  0
ACDBPLACEHOLDER
  5
F
102
{ACAD_REACTORS
330
E
102
}
330
E
  0
SCALE
  5
48
102
{ACAD_REACTORS
330
47
102
}
330
47
100
AcDbScale
 70
     0
300
1:1
140
1.0
141
1.0
290
     1
  0
SCALE
  5
49
102
{ACAD_REACTORS
330
47
102
}
330
47
100
AcDbScale
 70
     0
300
1:2
140
1.0
141
2.0
290
     0
  0
SCALE
  5
4A
102
{ACAD_REACTORS
330
47
102
}
330
47
100
AcDbScale
 70
     0
300
1:4
140
1.0
141
4.0
290
     0
  0
SCALE
  5
4B
102
{ACAD_REACTORS
330
47
102
}
330
47
100
AcDbScale
 70
     0
300
1:5
140
1.0
141
5.0
290
     0
  0
SCALE
  5
4C
102
{ACAD_REACTORS
330
47
102
}
330
47
100
AcDbScale
 70
     0
300
1:8
140
1.0
141
8.0
290
     0
  0
SCALE
  5
4D
102
{ACAD_REACTORS
330
47
102
}
330
47
100
AcDbScale
 70
     0
300
1:10
140
1.0
141
10.0
290
     0
  0
SCALE
  5
4E
102
{ACAD_REACTORS
330
47
102
}
330
47
100
AcDbScale
 70
     0
300
1:16
140
1.0
141
16.0
290
     0
  0
SCALE
  5
4F
102
{ACAD_REACTORS
330
47
102
}
330
47
100
AcDbScale
 70
     0
300
1:20
140
1.0
141
20.0
290
     0
  0
SCALE
  5
50
102
{ACAD_REACTORS
330
47
102
}
330
47
100
AcDbScale
 70
     0
300
1:30
140
1.0
141
30.0
290
     0
  0
SCALE
  5
51
102
{ACAD_REACTORS
330
47
102
}
330
47
100
AcDbScale
 70
     0
300
1:40
140
1.0
141
40.0
290
     0
  0
SCALE
  5
52
102
{ACAD_REACTORS
330
47
102
}
330
47
100
AcDbScale
 70
     0
300
1:50
140
1.0
141
50.0
290
     0
  0
SCALE
  5
53
102
{ACAD_REACTORS
330
47
102
}
330
47
100
AcDbScale
 70
     0
300
1:100
140
1.0
141
100.0
290
     0
  0
SCALE
  5
54
102
{ACAD_REACTORS
330
47
102
}
330
47
100
AcDbScale
 70
     0
300
2:1
140
2.0
141
1.0
290
     0
  0
SCALE
  5
55
102
{ACAD_REACTORS
330
47
102
}
330
47
100
AcDbScale
 70
     0
300
4:1
140
4.0
141
1.0
290
     0
  0
SCALE
  5
56
102
{ACAD_REACTORS
330
47
102
}
330
47
100
AcDbScale
 70
     0
300
8:1
140
8.0
141
1.0
290
     0
  0
SCALE
  5
57
102
{ACAD_REACTORS
330
47
102
}
330
47
100
AcDbScale
 70
     0
300
10:1
140
10.0
141
1.0
290
     0
  0
SCALE
  5
58
102
{ACAD_REACTORS
330
47
102
}
330
47
100
AcDbScale
 70
     0
300
100:1
140
100.0
141
1.0
290
     0
  0
SCALE
  5
59
102
{ACAD_REACTORS
330
47
102
}
330
47
100
AcDbScale
 70
     0
300
1/128" = 1'-0"
140
0.0078125
141
12.0
290
     0
  0
SCALE
  5
5A
102
{ACAD_REACTORS
330
47
102
}
330
47
100
AcDbScale
 70
     0
300
1/64" = 1'-0"
140
0.015625
141
12.0
290
     0
  0
SCALE
  5
5B
102
{ACAD_REACTORS
330
47
102
}
330
47
100
AcDbScale
 70
     0
300
1/32" = 1'-0"
140
0.03125
141
12.0
290
     0
  0
SCALE
  5
5C
102
{ACAD_REACTORS
330
47
102
}
330
47
100
AcDbScale
 70
     0
300
1/16" = 1'-0"
140
0.0625
141
12.0
290
     0
  0
SCALE
  5
5D
102
{ACAD_REACTORS
330
47
102
}
330
47
100
AcDbScale
 70
     0
300
3/32" = 1'-0"
140
0.09375
141
12.0
290
     0
  0
SCALE
  5
5E
102
{ACAD_REACTORS
330
47
102
}
330
47
100
AcDbScale
 70
     0
300
1/8" = 1'-0"
140
0.125
141
12.0
290
     0
  0
SCALE
  5
5F
102
{ACAD_REACTORS
330
47
102
}
330
47
100
AcDbScale
 70
     0
300
3/16" = 1'-0"
140
0.1875
141
12.0
290
     0
  0
SCALE
  5
60
102
{ACAD_REACTORS
330
47
102
}
330
47
100
AcDbScale
 70
     0
300
1/4" = 1'-0"
140
0.25
141
12.0
290
     0
  0
SCALE
  5
61
102
{ACAD_REACTORS
330
47
102
}
330
47
100
AcDbScale
 70
     0
300
3/8" = 1'-0"
140
0.375
141
12.0
290
     0
  0
SCALE
  5
62
102
{ACAD_REACTORS
330
47
102
}
330
47
100
AcDbScale
 70
     0
300
1/2" = 1'-0"
140
0.5
141
12.0
290
     0
  0
SCALE
  5
63
102
{ACAD_REACTORS
330
47
102
}
330
47
100
AcDbScale
 70
     0
300
3/4" = 1'-0"
140
0.75
141
12.0
290
     0
  0
SCALE
  5
64
102
{ACAD_REACTORS
330
47
102
}
330
47
100
AcDbScale
 70
     0
300
1" = 1'-0"
140
1.0
141
12.0
290
     0
  0
SCALE
  5
65
102
{ACAD_REACTORS
330
47
102
}
330
47
100
AcDbScale
 70
     0
300
1-1/2" = 1'-0"
140
1.5
141
12.0
290
     0
  0
SCALE
  5
66
102
{ACAD_REACTORS
330
47
102
}
330
47
100
AcDbScale
 70
     0
300
3" = 1'-0"
140
3.0
141
12.0
290
     0
  0
SCALE
  5
67
102
{ACAD_REACTORS
330
47
102
}
330
47
100
AcDbScale
 70
     0
300
6" = 1'-0"
140
6.0
141
12.0
290
     0
  0
SCALE
  5
68
102
{ACAD_REACTORS
330
47
102
}
330
47
100
AcDbScale
 70
     0
300
1'-0" = 1'-0"
140
12.0
141
12.0
290
     0
  0
ENDSEC
  0
EOF
