  0
SECTION
  2
HEADER
  9
$ACADVER
  1
AC1015
  9
$ACADMAINTVER
 70
     6
  9
$DWGCODEPAGE
  3
DOS932
  9
$INSBASE
 10
0.0
 20
0.0
 30
0.0
  9
$EXTMIN
 10
0.0
 20
0.0
 30
0.0
  9
$EXTMAX
 10
210.0
 20
297.0
 30
0.0
  9
$LIMMIN
 10
0.0
 20
0.0
  9
$LIMMAX
 10
210.0
 20
297.0
  9
$ORTHOMODE
 70
     0
  9
$REGENMODE
 70
     1
  9
$FILLMODE
 70
     1
  9
$QTEXTMODE
 70
     0
  9
$MIRRTEXT
 70
     1
  9
$LTSCALE
 40
1.0
  9
$ATTMODE
 70
     1
  9
$TEXTSIZE
 40
3.5
  9
$TRACEWID
 40
1.0
  9
$TEXTSTYLE
  7
Standard
  9
$CLAYER
  8
0
  9
$CELTYPE
  6
ByLayer
  9
$CECOLOR
 62
   256
  9
$CELTSCALE
 40
1.0
  9
$DISPSILH
 70
     0
  9
$DIMSCALE
 40
1.0
  9
$DIMASZ
 40
1.5
  9
$DIMEXO
 40
1.0
  9
$DIMDLI
 40
3.75
  9
$DIMRND
 40
0.0
  9
$DIMDLE
 40
0.0
  9
$DIMEXE
 40
1.0
  9
$DIMTP
 40
0.0
  9
$DIMTM
 40
0.0
  9
$DIMTXT
 40
3.5
  9
$DIMCEN
 40
2.5
  9
$DIMTSZ
 40
0.0
  9
$DIMTOL
 70
     0
  9
$DIMLIM
 70
     0
  9
$DIMTIH
 70
     1
  9
$DIMTOH
 70
     1
  9
$DIMSE1
 70
     0
  9
$DIMSE2
 70
     0
  9
$DIMTAD
 70
     1
  9
$DIMZIN
 70
     0
  9
$DIMBLK
  1

  9
$DIMASO
 70
     1
  9
$DIMSHO
 70
     1
  9
$DIMPOST
  1

  9
$DIMAPOST
  1

  9
$DIMALT
 70
     0
  9
$DIMALTD
 70
     3
  9
$DIMALTF
 40
0.0393700787
  9
$DIMLFAC
 40
5.0
  9
$DIMTOFL
 70
     1
  9
$DIMTVP
 40
0.0
  9
$DIMTIX
 70
     0
  9
$DIMSOXD
 70
     0
  9
$DIMSAH
 70
     0
  9
$DIMBLK1
  1

  9
$DIMBLK2
  1

  9
$DIMSTYLE
  2
ISO-25
  9
$DIMCLRD
 70
     0
  9
$DIMCLRE
 70
     0
  9
$DIMCLRT
 70
     0
  9
$DIMTFAC
 40
1.0
  9
$DIMGAP
 40
1.5
  9
$DIMJUST
 70
     0
  9
$DIMSD1
 70
     0
  9
$DIMSD2
 70
     0
  9
$DIMTOLJ
 70
     0
  9
$DIMTZIN
 70
     0
  9
$DIMALTZ
 70
     0
  9
$DIMALTTZ
 70
     0
  9
$DIMUPT
 70
     0
  9
$DIMDEC
 70
     1
  9
$DIMTDEC
 70
     1
  9
$DIMALTU
 70
     2
  9
$DIMALTTD
 70
     3
  9
$DIMTXSTY
  7
Standard
  9
$DIMAUNIT
 70
     0
  9
$DIMADEC
 70
     2
  9
$DIMALTRND
 40
0.0
  9
$DIMAZIN
 70
     0
  9
$DIMDSEP
 70
    44
  9
$DIMATFIT
 70
     3
  9
$DIMFRAC
 70
     0
  9
$DIMLDRBLK
  1

  9
$DIMLUNIT
 70
     2
  9
$DIMLWD
 70
    -2
  9
$DIMLWE
 70
    -2
  9
$DIMTMOVE
 70
     0
  9
$LUNITS
 70
     2
  9
$LUPREC
 70
     4
  9
$SKETCHINC
 40
1.0
  9
$FILLETRAD
 40
10.0
  9
$AUNITS
 70
     0
  9
$AUPREC
 70
     2
  9
$MENU
  1
.
  9
$ELEVATION
 40
0.0
  9
$PELEVATION
 40
0.0
  9
$THICKNESS
 40
0.0
  9
$LIMCHECK
 70
     0
  9
$CHAMFERA
 40
0.0
  9
$CHAMFERB
 40
0.0
  9
$CHAMFERC
 40
0.0
  9
$CHAMFERD
 40
0.0
  9
$SKPOLY
 70
     0
  9
$TDCREATE
 40
2460018.601634977
  9
$TDUCREATE
 40
2460018.226634977
  9
$TDUPDATE
 40
2460018.601635197
  9
$TDUUPDATE
 40
2460018.226635197
  9
$TDINDWG
 40
0.0000000116
  9
$TDUSRTIMER
 40
0.0000000116
  9
$USRTIMER
 70
     1
  9
$ANGBASE
 50
0.0
  9
$ANGDIR
 70
     0
  9
$PDMODE
 70
     0
  9
$PDSIZE
 40
-1.0
  9
$PLINEWID
 40
0.0
  9
$SPLFRAME
 70
     0
  9
$SPLINETYPE
 70
     6
  9
$SPLINESEGS
 70
     8
  9
$HANDSEED
  5
12B
  9
$SURFTAB1
 70
     6
  9
$SURFTAB2
 70
     6
  9
$SURFTYPE
 70
     6
  9
$SURFU
 70
     6
  9
$SURFV
 70
     6
  9
$UCSBASE
  2

  9
$UCSNAME
  2

  9
$UCSORG
 10
0.0
 20
0.0
 30
0.0
  9
$UCSXDIR
 10
1.0
 20
0.0
 30
0.0
  9
$UCSYDIR
 10
0.0
 20
1.0
 30
0.0
  9
$UCSORTHOREF
  2

  9
$UCSORTHOVIEW
 70
     0
  9
$UCSORGTOP
 10
0.0
 20
0.0
 30
0.0
  9
$UCSORGBOTTOM
 10
0.0
 20
0.0
 30
0.0
  9
$UCSORGLEFT
 10
0.0
 20
0.0
 30
0.0
  9
$UCSORGRIGHT
 10
0.0
 20
0.0
 30
0.0
  9
$UCSORGFRONT
 10
0.0
 20
0.0
 30
0.0
  9
$UCSORGBACK
 10
0.0
 20
0.0
 30
0.0
  9
$PUCSBASE
  2

  9
$PUCSNAME
  2

  9
$PUCSORG
 10
0.0
 20
0.0
 30
0.0
  9
$PUCSXDIR
 10
1.0
 20
0.0
 30
0.0
  9
$PUCSYDIR
 10
0.0
 20
1.0
 30
0.0
  9
$PUCSORTHOREF
  2

  9
$PUCSORTHOVIEW
 70
     0
  9
$PUCSORGTOP
 10
0.0
 20
0.0
 30
0.0
  9
$PUCSORGBOTTOM
 10
0.0
 20
0.0
 30
0.0
  9
$PUCSORGLEFT
 10
0.0
 20
0.0
 30
0.0
  9
$PUCSORGRIGHT
 10
0.0
 20
0.0
 30
0.0
  9
$PUCSORGFRONT
 10
0.0
 20
0.0
 30
0.0
  9
$PUCSORGBACK
 10
0.0
 20
0.0
 30
0.0
  9
$USERI1
 70
     0
  9
$USERI2
 70
     0
  9
$USERI3
 70
     0
  9
$USERI4
 70
     0
  9
$USERI5
 70
     0
  9
$USERR1
 40
0.0
  9
$USERR2
 40
0.0
  9
$USERR3
 40
0.0
  9
$USERR4
 40
0.0
  9
$USERR5
 40
0.0
  9
$WORLDVIEW
 70
     1
  9
$SHADEDGE
 70
     3
  9
$SHADEDIF
 70
    70
  9
$TILEMODE
 70
     1
  9
$MAXACTVP
 70
    64
  9
$PINSBASE
 10
0.0
 20
0.0
 30
0.0
  9
$PLIMCHECK
 70
     0
  9
$PEXTMIN
 10
1.0000000000E+20
 20
1.0000000000E+20
 30
1.0000000000E+20
  9
$PEXTMAX
 10
-1.0000000000E+20
 20
-1.0000000000E+20
 30
-1.0000000000E+20
  9
$PLIMMIN
 10
0.0
 20
0.0
  9
$PLIMMAX
 10
420.0
 20
297.0
  9
$UNITMODE
 70
     0
  9
$VISRETAIN
 70
     1
  9
$PLINEGEN
 70
     0
  9
$PSLTSCALE
 70
     1
  9
$TREEDEPTH
 70
  3020
  9
$CMLSTYLE
  2
Standard
  9
$CMLJUST
 70
     0
  9
$CMLSCALE
 40
20.0
  9
$PROXYGRAPHICS
 70
     1
  9
$MEASUREMENT
 70
     1
  9
$CELWEIGHT
370
    -1
  9
$ENDCAPS
280
     0
  9
$JOINSTYLE
280
     0
  9
$LWDISPLAY
290
     1
  9
$INSUNITS
 70
     4
  9
$HYPERLINKBASE
  1

  9
$STYLESHEET
  1

  9
$XEDIT
290
     1
  9
$CEPSNTYPE
380
     0
  9
$PSTYLEMODE
290
     1
  9
$FINGERPRINTGUID
  2
{3b8720aa-2e39-4740-bffb-1ae679c43ac7}
  9
$VERSIONGUID
  2
{FAEB1C32-E019-11D5-929B-00C0DF256EC4}
  9
$EXTNAMES
290
     1
  9
$PSVPSCALE
 40
0.0
  9
$OLESTARTUP
290
     0
  0
ENDSEC
  0
SECTION
  2
CLASSES
  0
CLASS
  1
ACDBDICTIONARYWDFLT
  2
AcDbDictionaryWithDefault
  3
ObjectDBX Classes
 90
        0
280
     0
281
     0
  0
CLASS
  1
VISUALSTYLE
  2
AcDbVisualStyle
  3
ObjectDBX Classes
 90
     4095
280
     0
281
     0
  0
CLASS
  1
MATERIAL
  2
AcDbMaterial
  3
ObjectDBX Classes
 90
     1153
280
     0
281
     0
  0
CLASS
  1
SCALE
  2
AcDbScale
  3
ObjectDBX Classes
 90
     1153
280
     0
281
     0
  0
CLASS
  1
TABLESTYLE
  2
AcDbTableStyle
  3
ObjectDBX Classes
 90
     4095
280
     0
281
     0
  0
CLASS
  1
MLEADERSTYLE
  2
AcDbMLeaderStyle
  3
ACDB_MLEADERSTYLE_CLASS
 90
     4095
280
     0
281
     0
  0
CLASS
  1
SUN
  2
AcDbSun
  3
SCENEOE
 90
     1153
280
     0
281
     0
  0
CLASS
  1
ACDBPLACEHOLDER
  2
AcDbPlaceHolder
  3
ObjectDBX Classes
 90
        0
280
     0
281
     0
  0
CLASS
  1
LAYOUT
  2
AcDbLayout
  3
ObjectDBX Classes
 90
        0
280
     0
281
     0
  0
ENDSEC
  0
SECTION
  2
TABLES
  0
TABLE
  2
VPORT
  5
8
330
0
100
AcDbSymbolTable
 70
     1
  0
VPORT
  5
29
330
8
100
AcDbSymbolTableRecord
100
AcDbViewportTableRecord
  2
*Active
 70
     0
 10
0.0
 20
0.0
 11
1.0
 21
1.0
 12
105.0
 22
148.5
 13
0.0
 23
0.0
 14
10.0
 24
10.0
 15
10.0
 25
10.0
 16
0.0
 26
0.0
 36
1.0
 17
0.0
 27
0.0
 37
0.0
 40
297.0
 41
0.7070707071
 42
50.0
 43
0.0
 44
0.0
 50
0.0
 51
0.0
 71
     0
 72
  2000
 73
     1
 74
     3
 75
     0
 76
     0
 77
     0
 78
     0
281
     0
 65
     1
110
0.0
120
0.0
130
0.0
111
1.0
121
0.0
131
0.0
112
0.0
122
1.0
132
0.0
 79
     0
146
0.0
  0
ENDTAB
  0
TABLE
  2
LTYPE
  5
5
330
0
100
AcDbSymbolTable
 70
     6
  0
LTYPE
  5
14
330
5
100
AcDbSymbolTableRecord
100
AcDbLinetypeTableRecord
  2
ByBlock
 70
     0
  3

 72
    65
 73
     0
 40
0.0
  0
LTYPE
  5
15
330
5
100
AcDbSymbolTableRecord
100
AcDbLinetypeTableRecord
  2
ByLayer
 70
     0
  3

 72
    65
 73
     0
 40
0.0
  0
LTYPE
  5
16
330
5
100
AcDbSymbolTableRecord
100
AcDbLinetypeTableRecord
  2
Continuous
 70
     0
  3
Solid line
 72
    65
 73
     0
 40
0.0
  0
LTYPE
  5
6E
330
5
100
AcDbSymbolTableRecord
100
AcDbLinetypeTableRecord
  2
HIDDEN
 70
     0
  3
Hidden __ __ __ __ __ __ __ __ __ __ __ __ __ __
 72
    65
 73
     2
 40
1.905
 49
1.27
 74
     0
 49
-0.635
 74
     0
  0
LTYPE
  5
6F
330
5
100
AcDbSymbolTableRecord
100
AcDbLinetypeTableRecord
  2
PHANTOM
 70
     0
  3
Phantom ______  __  __  ______  __  __  ______
 72
    65
 73
     6
 40
12.7
 49
6.35
 74
     0
 49
-1.27
 74
     0
 49
1.27
 74
     0
 49
-1.27
 74
     0
 49
1.27
 74
     0
 49
-1.27
 74
     0
  0
LTYPE
  5
70
330
5
100
AcDbSymbolTableRecord
100
AcDbLinetypeTableRecord
  2
CENTER
 70
     0
  3
Center ____ _ ____ _ ____ _ ____ _ ____ _ ____
 72
    65
 73
     4
 40
10.16
 49
6.35
 74
     0
 49
-1.27
 74
     0
 49
1.27
 74
     0
 49
-1.27
 74
     0
  0
LTYPE
  5
71
330
5
100
AcDbSymbolTableRecord
100
AcDbLinetypeTableRecord
  2
CENTERX2
 70
     0
  3
Center (2x) ________  __  ________  __  _____
 72
    65
 73
     4
 40
20.32
 49
12.7
 74
     0
 49
-2.54
 74
     0
 49
2.54
 74
     0
 49
-2.54
 74
     0
  0
LTYPE
  5
72
330
5
100
AcDbSymbolTableRecord
100
AcDbLinetypeTableRecord
  2
DOT2
 70
     0
  3
Dot (.5x) ........................................
 72
    65
 73
     2
 40
0.635
 49
0.0
 74
     0
 49
-0.635
 74
     0
  0
ENDTAB
  0
TABLE
  2
LAYER
  5
2
330
0
100
AcDbSymbolTable
 70
     1
  0
LAYER
  5
10
330
2
100
AcDbSymbolTableRecord
100
AcDbLayerTableRecord
  2
0
 70
     0
 62
     7
  6
Continuous
370
    -3
390
F
  0
ENDTAB
  0
TABLE
  2
STYLE
  5
3
330
0
100
AcDbSymbolTable
 70
     2
  0
STYLE
  5
11
330
3
100
AcDbSymbolTableRecord
100
AcDbTextStyleTableRecord
  2
Standard
 70
     0
 40
0.0
 41
1.0
 50
0.0
 71
     0
 42
3.5
  3
txt
  4
bigfont
  0
STYLE
  5
76
330
3
100
AcDbSymbolTableRecord
100
AcDbTextStyleTableRecord
  2
SLDTEXTSTYLE0
 70
     0
 40
0.0
 41
0.7
 50
0.0
 71
     0
 42
3.5
  3
TXT
  4
bigfont
  0
ENDTAB
  0
TABLE
  2
VIEW
  5
6
330
0
100
AcDbSymbolTable
 70
     0
  0
ENDTAB
  0
TABLE
  2
UCS
  5
7
330
0
100
AcDbSymbolTable
 70
     0
  0
ENDTAB
  0
TABLE
  2
APPID
  5
9
330
0
100
AcDbSymbolTable
 70
     1
  0
APPID
  5
12
330
9
100
AcDbSymbolTableRecord
100
AcDbRegAppTableRecord
  2
ACAD
 70
     0
  0
ENDTAB
  0
TABLE
  2
DIMSTYLE
  5
A
330
0
100
AcDbSymbolTable
 70
     1
100
AcDbDimStyleTable
  0
DIMSTYLE
105
27
330
A
100
AcDbSymbolTableRecord
100
AcDbDimStyleTableRecord
  2
ISO-25
 70
     0
 41
2.5
 42
0.625
 43
3.75
 44
1.25
 73
     0
 74
     0
 77
     1
 78
     8
140
2.5
141
2.5
143
0.0393700787
147
0.625
171
     3
172
     1
178
     0
271
     2
272
     2
274
     3
278
    44
283
     0
284
     8
340
11
  0
ENDTAB
  0
TABLE
  2
BLOCK_RECORD
  5
1
330
0
100
AcDbSymbolTable
 70
     2
  0
BLOCK_RECORD
  5
1F
330
1
100
AcDbSymbolTableRecord
100
AcDbBlockTableRecord
  2
*Model_Space
340
22
  0
BLOCK_RECORD
  5
1B
330
1
100
AcDbSymbolTableRecord
100
AcDbBlockTableRecord
  2
*Paper_Space
340
1E
  0
BLOCK_RECORD
  5
23
330
1
100
AcDbSymbolTableRecord
100
AcDbBlockTableRecord
  2
*Paper_Space0
340
26
  0
BLOCK_RECORD
  5
73
330
1
100
AcDbSymbolTableRecord
100
AcDbBlockTableRecord
  2
SW_NOTE_0
340
0
102
{BLKREFS
331
7B
102
}
  0
ENDTAB
  0
ENDSEC
  0
SECTION
  2
BLOCKS
  0
BLOCK
  5
20
330
1F
100
AcDbEntity
  8
0
100
AcDbBlockBegin
  2
*Model_Space
 70
     0
 10
0.0
 20
0.0
 30
0.0
  3
*Model_Space
  1

  0
ENDBLK
  5
21
330
1F
100
AcDbEntity
  8
0
100
AcDbBlockEnd
  0
BLOCK
  5
1C
330
1B
100
AcDbEntity
 67
     1
  8
0
100
AcDbBlockBegin
  2
*Paper_Space
 70
     0
 10
0.0
 20
0.0
 30
0.0
  3
*Paper_Space
  1

  0
ENDBLK
  5
1D
330
1B
100
AcDbEntity
 67
     1
  8
0
100
AcDbBlockEnd
  0
BLOCK
  5
24
330
23
100
AcDbEntity
  8
0
100
AcDbBlockBegin
  2
*Paper_Space0
 70
     0
 10
0.0
 20
0.0
 30
0.0
  3
*Paper_Space0
  1

  0
ENDBLK
  5
25
330
23
100
AcDbEntity
  8
0
100
AcDbBlockEnd
  0
BLOCK
  5
74
330
73
100
AcDbEntity
  8
0
100
AcDbBlockBegin
  2
SW_NOTE_0
 70
     0
 10
0.0
 20
0.0
 30
0.0
  3
SW_NOTE_0
  1

  0
MTEXT
  5
77
330
73
100
AcDbEntity
  8
0
  6
Continuous
 62
     0
370
     0
100
AcDbMText
 10
0.0
 20
4.5117370892
 30
0.0
 40
3.5
 41
0.0
 71
     1
 72
     1
  1
HBB-D73S/C/K
  7
SLDTEXTSTYLE0
 73
     1
 44
1.0
  0
MTEXT
  5
78
330
73
100
AcDbEntity
  8
0
  6
Continuous
 62
     0
370
     0
100
AcDbMText
 10
0.0
 20
0.0117372829
 30
0.0
 40
3.5
 41
0.0
 71
     1
 72
     1
  1
HBB-D74S/C/K
  7
SLDTEXTSTYLE0
 73
     1
 44
1.0
  0
MTEXT
  5
79
330
73
100
AcDbEntity
  8
0
  6
Continuous
 62
     0
370
     0
100
AcDbMText
 10
0.0
 20
-8.9882623297
 30
0.0
 40
3.5
 41
0.0
 71
     1
 72
     1
  1
HFE-D83S/C/K
  7
SLDTEXTSTYLE0
 73
     1
 44
1.0
  0
MTEXT
  5
7A
330
73
100
AcDbEntity
  8
0
  6
Continuous
 62
     0
370
     0
100
AcDbMText
 10
0.0
 20
-13.4882621359
 30
0.0
 40
3.5
 41
0.0
 71
     1
 72
     1
  1
HFE-D84S/C/K
  7
SLDTEXTSTYLE0
 73
     1
 44
1.0
  0
ENDBLK
  5
75
330
73
100
AcDbEntity
  8
0
100
AcDbBlockEnd
  0
ENDSEC
  0
SECTION
  2
ENTITIES
  0
INSERT
  5
7B
330
1F
100
AcDbEntity
  8
0
  6
Continuous
 62
     7
370
     0
100
AcDbBlockReference
  2
SW_NOTE_0
 10
141.0036734694
 20
110.7238775119
 30
0.0
  0
LINE
  5
7C
330
1F
100
AcDbEntity
  8
0
  6
Continuous
 62
     7
370
    25
100
AcDbLine
 10
102.1025685554
 20
175.8576377628
 30
0.0
 11
102.0979754657
 21
175.3794000725
 31
0.0
  0
LINE
  5
7D
330
1F
100
AcDbEntity
  8
0
  6
Continuous
 62
     7
370
    25
100
AcDbLine
 10
116.0973298259
 20
175.2449474939
 30
0.0
 11
116.1019229157
 21
175.7231851842
 31
0.0
  0
LINE
  5
7E
330
1F
100
AcDbEntity
  8
0
  6
Continuous
 62
     7
370
    25
100
AcDbLine
 10
119.8376788362
 20
148.1946405533
 30
0.0
 11
119.8407762796
 21
154.6401400025
 31
0.0
  0
LINE
  5
7F
330
1F
100
AcDbEntity
  8
0
  6
Continuous
 62
     7
370
    25
100
AcDbLine
 10
97.9594707245
 20
154.8502924052
 30
0.0
 11
97.8387713029
 21
148.4059224287
 31
0.0
  0
SPLINE
  5
80
330
1F
100
AcDbEntity
  8
0
  6
Continuous
 62
     7
370
    25
100
AcDbSpline
210
0.0
220
0.0
230
1.0
 70
     8
 71
     3
 72
    17
 73
    13
 74
     0
 42
0.00000001
 43
0.00000001
 40
0.0
 40
0.0
 40
0.0
 40
0.0
 40
0.0428774520916024
 40
0.1525819556724263
 40
0.2619025155221916
 40
0.3706457197332186
 40
0.4787729910566423
 40
0.5864249256434013
 40
0.6937573517061807
 40
0.8002119348498549
 40
0.9060075814043188
 40
0.9999999999999999
 40
0.9999999999999999
 40
0.9999999999999999
 40
0.9999999999999999
 10
101.1728200799072
 20
177.8478247636074
 30
0.0
 10
101.0664353948694
 20
177.8213093180038
 30
0.0
 10
100.6878591851174
 20
177.7269525325986
 30
0.0
 10
100.1061833657219
 20
177.5410336946161
 30
0.0
 10
99.4343242164074
 20
177.2922277916004
 30
0.0
 10
98.84411523642358
 20
177.0222436122653
 30
0.0
 10
98.33211576443838
 20
176.732872697242
 30
0.0
 10
97.9003690058261
 20
176.4215080481997
 30
0.0
 10
97.5488171494948
 20
176.0839354289957
 30
0.0
 10
97.28661148375878
 20
175.7129803503136
 30
0.0
 10
97.11695425449646
 20
175.3185026235292
 30
0.0
 10
97.10661884899183
 20
175.0438439312383
 30
0.0
 10
97.10175644762755
 20
174.9146278303799
 30
0.0
  0
SPLINE
  5
81
330
1F
100
AcDbEntity
  8
0
  6
Continuous
 62
     7
370
    25
100
AcDbSpline
210
0.0
220
0.0
230
1.0
 70
     8
 71
     3
 72
    19
 73
    15
 74
     0
 42
0.00000001
 43
0.00000001
 40
0.0
 40
0.0
 40
0.0
 40
0.0
 40
0.0117534231569744
 40
0.1073509214342954
 40
0.1990918821465683
 40
0.2938881715071176
 40
0.3876164703941581
 40
0.4803357885149477
 40
0.5738724812852373
 40
0.668222236880264
 40
0.7630510552460363
 40
0.8579467948447403
 40
0.952381626833194
 40
1.0
 40
1.0
 40
1.0
 40
1.0
 10
121.0843625579474
 20
174.7532432432963
 30
0.0
 10
121.0866630782085
 20
174.773853343731
 30
0.0
 10
121.1076750818186
 20
174.9620975040046
 30
0.0
 10
120.9959601000124
 20
175.3109640635914
 30
0.0
 10
120.7520223443688
 20
175.7540164477758
 30
0.0
 10
120.3840527011766
 20
176.1488295740225
 30
0.0
 10
119.9168437899132
 20
176.509901482556
 30
0.0
 10
119.3537440130106
 20
176.8423516786147
 30
0.0
 10
118.6952990203866
 20
177.1514060197064
 30
0.0
 10
117.9395986653333
 20
177.4384940594819
 30
0.0
 10
117.0936424691069
 20
177.7019234473244
 30
0.0
 10
116.1641084954856
 20
177.9366296714161
 30
0.0
 10
115.3382556717318
 20
178.1131924866646
 30
0.0
 10
114.8047487872137
 20
178.1990809579508
 30
0.0
 10
114.6259092468719
 20
178.2278720666904
 30
0.0
  0
LINE
  5
82
330
1F
100
AcDbEntity
  8
0
  6
Continuous
 62
     7
370
    25
100
AcDbLine
 10
120.9133756514
 20
156.0674211031
 30
0.0
 11
121.0925061506
 21
174.7186910255
 31
0.0
  0
LINE
  5
83
330
1F
100
AcDbEntity
  8
0
  6
Continuous
 62
     7
370
    25
100
AcDbLine
 10
97.0936129616
 20
174.9491811602
 30
0.0
 11
96.9144824624
 21
156.2979112378
 31
0.0
  0
LINE
  5
84
330
1F
100
AcDbEntity
  8
0
  6
Continuous
 62
     7
370
    25
100
AcDbLine
 10
121.0185404434
 20
167.0172980369
 30
0.0
 11
121.0331722248
 21
167.0187030186
 31
0.0
  0
SPLINE
  5
85
330
1F
100
AcDbEntity
  8
0
  6
Continuous
 62
     7
370
    25
100
AcDbSpline
210
0.0
220
0.0
230
1.0
 70
     8
 71
     3
 72
    14
 73
    10
 74
     0
 42
0.00000001
 43
0.00000001
 40
0.0
 40
0.0
 40
0.0
 40
0.0
 40
0.2257386023527624
 40
0.3182996820073541
 40
0.4717387065854136
 40
0.6313242550364878
 40
0.8027365653295034
 40
0.9819500845158585
 40
1.0
 40
1.0
 40
1.0
 40
1.0
 10
116.9427370237116
 20
186.2268181933375
 30
0.0
 10
117.1711980328729
 20
186.5264153316815
 30
0.0
 10
117.4933364080078
 20
186.948858249602
 30
0.0
 10
117.8872059485716
 20
187.6276596266714
 30
0.0
 10
118.1851535866085
 20
188.2309785823317
 30
0.0
 10
118.4730933005662
 20
188.978436053909
 30
0.0
 10
118.6866300396288
 20
189.7858333100298
 30
0.0
 10
118.8042028516849
 20
190.3786708700084
 30
0.0
 10
118.8180499349171
 20
190.6954949747774
 30
0.0
 10
118.8193169648787
 20
190.7244848802
 30
0.0
  0
SPLINE
  5
86
330
1F
100
AcDbEntity
  8
0
  6
Continuous
 62
     7
370
    25
100
AcDbSpline
210
0.0
220
0.0
230
1.0
 70
     8
 71
     3
 72
    13
 73
     9
 74
     0
 42
0.00000001
 43
0.00000001
 40
0.0
 40
0.0
 40
0.0
 40
0.0
 40
0.1186838360455702
 40
0.328712438686415
 40
0.5252196346911316
 40
0.6642510817528191
 40
0.8099311328491233
 40
1.0
 40
1.0
 40
1.0
 40
1.0
 10
113.2326500189484
 20
183.6282357549822
 30
0.0
 10
113.4017318978222
 20
183.6848208265182
 30
0.0
 10
113.8700291705944
 20
183.8415415517458
 30
0.0
 10
114.5818680521778
 20
184.2116934984591
 30
0.0
 10
115.2852765703077
 20
184.6622023163134
 30
0.0
 10
115.8666086664601
 20
185.1207317164626
 30
0.0
 10
116.4092009016286
 20
185.6135634875937
 30
0.0
 10
116.7498781872011
 20
186.0051432511188
 30
0.0
 10
116.9427370237116
 20
186.2268181933375
 30
0.0
  0
LINE
  5
87
330
1F
100
AcDbEntity
  8
0
  6
Continuous
 62
     7
370
    25
100
AcDbLine
 10
105.3262927036
 20
185.5049593059
 30
0.0
 11
106.7988944109
 21
184.4373667386
 31
0.0
  0
LINE
  5
88
330
1F
100
AcDbEntity
  8
0
  6
Continuous
 62
     7
370
    25
100
AcDbLine
 10
116.7177466949
 20
196.5248305653
 30
0.0
 11
114.7803224319
 21
198.3190887516
 31
0.0
  0
LINE
  5
89
330
1F
100
AcDbEntity
  8
0
  6
Continuous
 62
     7
370
    25
100
AcDbLine
 10
114.6157713605
 20
177.1723038886
 30
0.0
 11
114.6841631453
 21
184.2933337793
 31
0.0
  0
LINE
  5
8A
330
1F
100
AcDbEntity
  8
0
  6
Continuous
 62
     7
370
    25
100
AcDbLine
 10
103.7039900688
 20
186.4105573173
 30
0.0
 11
103.6162786489
 21
177.2779452004
 31
0.0
  0
LINE
  5
8B
330
1F
100
AcDbEntity
  8
0
  6
Continuous
 62
     7
370
    25
100
AcDbLine
 10
103.4152942353
 20
187.0443493342
 30
0.0
 11
103.8961454671
 21
186.5990306316
 31
0.0
  0
LINE
  5
8C
330
1F
100
AcDbEntity
  8
0
  6
Continuous
 62
     7
370
    25
100
AcDbLine
 10
115.7837339901
 20
177.3053960097
 30
0.0
 11
115.3117340749
 21
177.7437401894
 31
0.0
  0
LINE
  5
8D
330
1F
100
AcDbEntity
  8
0
  6
Continuous
 62
     7
370
    25
100
AcDbLine
 10
102.9314196777
 20
177.8626431867
 30
0.0
 11
102.4510877172
 21
177.4334453914
 31
0.0
  0
LINE
  5
8E
330
1F
100
AcDbEntity
  8
0
  6
Continuous
 62
     7
370
    25
100
AcDbLine
 10
116.1019229157
 20
175.7231851842
 30
0.0
 11
116.1111090951
 21
176.6796605649
 31
0.0
  0
LINE
  5
8F
330
1F
100
AcDbEntity
  8
0
  6
Continuous
 62
     7
370
    25
100
AcDbLine
 10
102.1117547349
 20
176.8141131435
 30
0.0
 11
102.1025685554
 21
175.8576377628
 31
0.0
  0
LINE
  5
90
330
1F
100
AcDbEntity
  8
0
  6
Continuous
 62
     7
370
    25
100
AcDbLine
 10
118.8941043519
 20
195.811660328
 30
0.0
 11
119.7875227539
 21
195.3907966851
 31
0.0
  0
LINE
  5
91
330
1F
100
AcDbEntity
  8
0
  6
Continuous
 62
     7
370
    25
100
AcDbLine
 10
108.5371454011
 20
200.6905249938
 30
0.0
 11
109.3553546631
 21
200.3050902077
 31
0.0
  0
LINE
  5
92
330
1F
100
AcDbEntity
  8
0
  6
Continuous
 62
     7
370
    25
100
AcDbLine
 10
135.7683230147
 20
229.3151835333
 30
0.0
 11
124.5179456618
 21
234.614911842
 31
0.0
  0
LINE
  5
93
330
1F
100
AcDbEntity
  8
0
  6
Continuous
 62
     7
370
    25
100
AcDbLine
 10
138.3203673477
 20
225.6073944681
 30
0.0
 11
138.3095455436
 21
225.655009999
 31
0.0
  0
LINE
  5
94
330
1F
100
AcDbEntity
  8
0
  6
Continuous
 62
     7
370
    25
100
AcDbLine
 10
124.2029077718
 20
195.7432552376
 30
0.0
 11
124.3575216992
 21
195.8247237614
 31
0.0
  0
LINE
  5
95
330
1F
100
AcDbEntity
  8
0
  6
Continuous
 62
     7
370
    25
100
AcDbLine
 10
101.3985759631
 20
188.6335036927
 30
0.0
 11
103.4273829902
 21
186.968684877
 31
0.0
  0
SPLINE
  5
96
330
1F
100
AcDbEntity
  8
0
  6
Continuous
 62
     7
370
    25
100
AcDbSpline
210
0.0
220
0.0
230
1.0
 70
     8
 71
     3
 72
    14
 73
    10
 74
     0
 42
0.00000001
 43
0.00000001
 40
0.0
 40
0.0
 40
0.0
 40
0.0
 40
0.2057602134366263
 40
0.2901037902921733
 40
0.42992614055382
 40
0.5753444702061813
 40
0.7315347364520256
 40
0.8948249527131527
 40
1.0
 40
1.0
 40
1.0
 40
1.0
 10
100.873092247778
 20
199.4134084552705
 30
0.0
 10
100.6419761825867
 20
199.1105777598256
 30
0.0
 10
100.3161228730981
 20
198.6836131338755
 30
0.0
 10
99.91679246439129
 20
197.9980311141034
 30
0.0
 10
99.61383517920085
 20
197.388873387522
 30
0.0
 10
99.32125429266344
 20
196.6342486379785
 30
0.0
 10
99.09685937726837
 20
195.8189213322674
 30
0.0
 10
98.95856616365617
 20
195.0620920625635
 30
0.0
 10
98.94104789985971
 20
194.5836874249109
 30
0.0
 10
98.93418487334064
 20
194.3962656716368
 30
0.0
  0
SPLINE
  5
97
330
1F
100
AcDbEntity
  8
0
  6
Continuous
 62
     7
370
    25
100
AcDbSpline
210
0.0
220
0.0
230
1.0
 70
     8
 71
     3
 72
    13
 73
     9
 74
     0
 42
0.00000001
 43
0.00000001
 40
0.0
 40
0.0
 40
0.0
 40
0.0
 40
0.1746977643485082
 40
0.3614035969950777
 40
0.5341240740727528
 40
0.6705513883160036
 40
0.7936304970678
 40
1.0
 40
1.0
 40
1.0
 40
1.0
 10
105.2220209976205
 20
202.2521844916531
 30
0.0
 10
104.9329143486536
 20
202.1662171211622
 30
0.0
 10
104.3348289453201
 20
201.9883733059567
 30
0.0
 10
103.4886146759902
 20
201.586499115449
 30
0.0
 10
102.7411677110357
 20
201.1337257864884
 30
0.0
 10
102.1290009948415
 20
200.673974624788
 30
0.0
 10
101.5042392082372
 20
200.1301847194409
 30
0.0
 10
101.1161775055439
 20
199.6894737044948
 30
0.0
 10
100.873092247778
 20
199.4134084552705
 30
0.0
  0
LINE
  5
98
330
1F
100
AcDbEntity
  8
0
  6
Continuous
 62
     7
370
    25
100
AcDbLine
 10
85.7639465417
 20
251.3508788554
 30
0.0
 11
84.6579384083
 21
251.8718873897
 31
0.0
  0
LINE
  5
99
330
1F
100
AcDbEntity
  8
0
  6
Continuous
 62
     7
370
    25
100
AcDbLine
 10
69.8490635
 20
220.4352889103
 30
0.0
 11
70.9912840431
 21
219.8972217543
 31
0.0
  0
SPLINE
  5
9A
330
1F
100
AcDbEntity
  8
0
  6
Continuous
 62
     7
370
    25
100
AcDbSpline
210
0.0
220
0.0
230
1.0
 70
     8
 71
     3
 72
     9
 73
     5
 74
     0
 42
0.00000001
 43
0.00000001
 40
0.0
 40
0.0
 40
0.0
 40
0.0
 40
0.976145775056278
 40
0.9999999999999999
 40
0.9999999999999999
 40
0.9999999999999999
 40
0.9999999999999999
 10
66.84046848868849
 20
223.1141439603554
 30
0.0
 10
66.89711430465218
 20
222.8163945941067
 30
0.0
 10
66.95514438316216
 20
222.5113690806463
 30
0.0
 10
67.05205608590808
 20
222.2547702789409
 30
0.0
 10
67.05436783946506
 20
222.2486493134047
 30
0.0
  0
LINE
  5
9B
330
1F
100
AcDbEntity
  8
0
  6
Continuous
 62
     7
370
    25
100
AcDbLine
 10
69.4676531393
 20
219.0950360294
 30
0.0
 11
73.3541471339
 21
217.2642207955
 31
0.0
  0
LINE
  5
9C
330
1F
100
AcDbEntity
  8
0
  6
Continuous
 62
     7
370
    25
100
AcDbLine
 10
89.3349473947
 20
251.1886076437
 30
0.0
 11
85.4484534
 21
253.0194228776
 31
0.0
  0
SPLINE
  5
9D
330
1F
100
AcDbEntity
  8
0
  6
Continuous
 62
     7
370
    25
100
AcDbSpline
210
0.0
220
0.0
230
1.0
 70
     8
 71
     3
 72
    11
 73
     7
 74
     0
 42
0.00000001
 43
0.00000001
 40
0.0
 40
0.0
 40
0.0
 40
0.0
 40
0.2032299724325906
 40
0.6005632084633566
 40
0.9937409685797378
 40
1.0
 40
1.0
 40
1.0
 40
1.0
 10
85.57405980878501
 20
251.5248811214611
 30
0.0
 10
85.66470827187372
 20
251.4457842989347
 30
0.0
 10
85.9325827944316
 20
251.2120459337363
 30
0.0
 10
86.31706908388405
 20
250.7070906495221
 30
0.0
 10
86.60301359007599
 20
250.2540033520904
 30
0.0
 10
86.70907039441546
 20
249.9665619992675
 30
0.0
 10
86.71073226654332
 20
249.9620578962482
 30
0.0
  0
LINE
  5
9E
330
1F
100
AcDbEntity
  8
0
  6
Continuous
 62
     7
370
    25
100
AcDbLine
 10
74.1723563959
 20
216.8787860094
 30
0.0
 11
108.5371454011
 21
200.6905249938
 31
0.0
  0
LINE
  5
9F
330
1F
100
AcDbEntity
  8
0
  6
Continuous
 62
     7
370
    25
100
AcDbLine
 10
124.5179456618
 20
234.614911842
 30
0.0
 11
90.1531566567
 21
250.8031728576
 31
0.0
  0
LWPOLYLINE
  5
A0
330
1F
100
AcDbEntity
  8
0
  6
Continuous
 62
     7
370
    25
100
AcDbPolyline
 90
       21
 70
   128
 43
0.0
 10
116.1019229157
 20
175.7231851842
 10
116.0719683459
 20
175.5403922433
 10
115.8778985507
 20
175.2184228926
 10
115.5083429068
 20
174.9112677457
 10
114.9728727111
 20
174.6268819595
 10
114.2853563604
 20
174.3726309766
 10
113.4636001671
 20
174.1550997638
 10
112.528887185
 20
173.9799222653
 10
111.5054259892
 20
173.8516354863
 10
110.4197236872
 20
173.773561987
 10
109.2998993983
 20
173.74772383
 10
108.1749559833
 20
173.77479021
 10
107.0740288859
 20
173.8540601219
 10
106.0256315394
 20
173.9834805167
 10
105.0569168846
 20
174.1596994742
 10
104.1929741221
 20
174.3781530159
 10
103.4561789157
 20
174.6331833098
 10
102.8656138742
 20
174.9181852053
 10
102.4365743219
 20
175.225777303
 10
102.1801721579
 20
175.5479931291
 10
102.1025685554
 20
175.8576377628
  0
LWPOLYLINE
  5
A1
330
1F
100
AcDbEntity
  8
0
  6
Continuous
 62
     7
370
    25
100
AcDbPolyline
 90
       21
 70
   128
 43
0.0
 10
116.0973298259
 20
175.2449474939
 10
116.0673752561
 20
175.062154553
 10
115.873305461
 20
174.7401852023
 10
115.5037498171
 20
174.4330300553
 10
114.9682796214
 20
174.1486442692
 10
114.2807632707
 20
173.8943932863
 10
113.4590070774
 20
173.6768620735
 10
112.5242940952
 20
173.501684575
 10
111.5008328995
 20
173.373397796
 10
110.4151305975
 20
173.2953242967
 10
109.2953063085
 20
173.2694861397
 10
108.1703628936
 20
173.2965525197
 10
107.0694357961
 20
173.3758224316
 10
106.0210384497
 20
173.5052428264
 10
105.0523237949
 20
173.6814617839
 10
104.1883810324
 20
173.8999153256
 10
103.451585826
 20
174.1549456195
 10
102.8610207844
 20
174.439947515
 10
102.4319812322
 20
174.7475396126
 10
102.1755790682
 20
175.0697554387
 10
102.0979754657
 20
175.3794000725
  0
LWPOLYLINE
  5
A2
330
1F
100
AcDbEntity
  8
0
  6
Continuous
 62
     7
370
    25
100
AcDbPolyline
 90
        9
 70
   128
 43
0.0
 10
119.8376788362
 20
148.1946405533
 10
119.7454247636
 20
147.7812251262
 10
119.456921757
 20
147.3615602476
 10
118.9772439356
 20
146.9586419051
 10
118.3150271626
 20
146.579724025
 10
117.4821936348
 20
146.2316284424
 10
116.4937372417
 20
145.9206220841
 10
115.3674536238
 20
145.6523041422
 10
114.1236197893
 20
145.4315052695
  0
LWPOLYLINE
  5
A3
330
1F
100
AcDbEntity
  8
0
  6
Continuous
 62
     7
370
    25
100
AcDbPolyline
 90
        3
 70
   128
 43
0.0
 10
114.1113232574
 20
152.9992628306
 10
114.1167894318
 20
149.6456483329
 10
114.1236197893
 20
145.4315052695
  0
LWPOLYLINE
  5
A4
330
1F
100
AcDbEntity
  8
0
  6
Continuous
 62
     7
370
    25
100
AcDbPolyline
 90
        3
 70
   128
 43
0.0
 10
111.018761516
 20
152.7234520137
 10
110.9663879428
 20
149.3431385866
 10
110.9009487786
 20
145.1220560157
  0
LWPOLYLINE
  5
A5
330
1F
100
AcDbEntity
  8
0
  6
Continuous
 62
     7
370
    25
100
AcDbPolyline
 90
       15
 70
   128
 43
0.0
 10
110.9009487786
 20
145.1220560157
 10
109.4994743747
 20
145.0832495701
 10
108.0870961263
 20
145.0973438832
 10
106.6871009288
 20
145.164106572
 10
105.3225715095
 20
145.282436872
 10
104.0160058458
 20
145.4503837865
 10
102.7889462251
 20
145.665178254
 10
101.6616240614
 20
145.9232788038
 10
100.6526263256
 20
146.2204299464
 10
99.7785890888
 20
146.5517323375
 10
99.053923231
 20
146.9117235562
 10
98.4905768394
 20
147.2944681687
 10
98.0978382107
 20
147.6936555893
 10
97.8821827092
 20
148.1027041281
 10
97.8387713029
 20
148.4059224287
  0
ARC
  5
A6
330
1F
100
AcDbEntity
  8
0
  6
Continuous
 62
     7
370
    25
100
AcDbCircle
 10
111.7364621041
 20
142.3967568523
 30
0.0
 40
3.989030647176881
100
AcDbArc
 50
65.2239501426
 51
102.0685872526
  0
LINE
  5
A7
330
1F
100
AcDbEntity
  8
0
  6
Continuous
 62
     7
370
    25
100
AcDbLine
 10
113.4081554962
 20
146.018608134
 30
0.0
 11
114.1236197893
 21
145.4315052695
 31
0.0
  0
LINE
  5
A8
330
1F
100
AcDbEntity
  8
0
  6
Continuous
 62
     7
370
    25
100
AcDbLine
 10
108.1845349373
 20
75.3109514159
 30
0.0
 11
105.8963818147
 21
145.2259803509
 31
0.0
  0
LINE
  5
A9
330
1F
100
AcDbEntity
  8
0
  6
Continuous
 62
     7
370
    25
100
AcDbLine
 10
108.3604763531
 20
75.4135385784
 30
0.0
 11
109.2078012491
 21
145.0818205519
 31
0.0
  0
LINE
  5
AA
330
1F
100
AcDbEntity
  8
0
  6
Continuous
 62
     7
370
    25
100
AcDbLine
 10
108.3604763531
 20
75.4135385784
 30
0.0
 11
108.1845349373
 21
75.3109514159
 31
0.0
  0
LINE
  5
AB
330
1F
100
AcDbEntity
  8
0
  6
Continuous
 62
     7
370
    25
100
AcDbLine
 10
107.3493784169
 20
75.4331102167
 30
0.0
 11
108.1845349373
 21
75.3109514159
 31
0.0
  0
LINE
  5
AC
330
1F
100
AcDbEntity
  8
0
  6
Continuous
 62
     7
370
    25
100
AcDbLine
 10
104.5890344286
 20
145.3696569277
 30
0.0
 11
107.3493784169
 21
75.4331102167
 31
0.0
  0
LINE
  5
AD
330
1F
100
AcDbEntity
  8
0
  6
Continuous
 62
     7
370
    25
100
AcDbLine
 10
116.0355666745
 20
145.8022365592
 30
0.0
 11
108.7280718804
 21
75.3597701797
 31
0.0
  0
LINE
  5
AE
330
1F
100
AcDbEntity
  8
0
  6
Continuous
 62
     7
370
    25
100
AcDbLine
 10
108.3604763531
 20
75.4135385784
 30
0.0
 11
108.7280718804
 21
75.3597701797
 31
0.0
  0
LINE
  5
AF
330
1F
100
AcDbEntity
  8
0
  6
Continuous
 62
     7
370
    25
100
AcDbLine
 10
109.1348287235
 20
75.6079268672
 30
0.0
 11
116.7479568355
 21
145.9926549176
 31
0.0
  0
LINE
  5
B0
330
1F
100
AcDbEntity
  8
0
  6
Continuous
 62
     7
370
    25
100
AcDbLine
 10
108.7280718804
 20
75.3597701797
 30
0.0
 11
109.1348287235
 21
75.6079268672
 31
0.0
  0
LINE
  5
B1
330
1F
100
AcDbEntity
  8
0
  6
Continuous
 62
     7
370
    25
100
AcDbLine
 10
107.1451581536
 20
75.5913038358
 30
0.0
 11
101.0442799123
 21
146.0961677932
 31
0.0
  0
LINE
  5
B2
330
1F
100
AcDbEntity
  8
0
  6
Continuous
 62
     7
370
    25
100
AcDbLine
 10
107.344284224
 20
75.5621775566
 30
0.0
 11
107.1451581536
 21
75.5913038358
 31
0.0
  0
SPLINE
  5
B3
330
1F
100
AcDbEntity
  8
0
  6
Continuous
 62
     7
370
    25
100
AcDbSpline
210
0.0
220
0.0
230
1.0
 70
     8
 71
     3
 72
    10
 73
     6
 74
     0
 42
0.00000001
 43
0.00000001
 40
0.0
 40
0.0
 40
0.0
 40
0.0
 40
0.3957138491031554
 40
0.7913380035333538
 40
1.0
 40
1.0
 40
1.0
 40
1.0
 10
101.2306738446112
 20
177.8278652305532
 30
0.0
 10
101.5222168740597
 20
177.8994527489192
 30
0.0
 10
102.1052368502136
 20
178.0426115592315
 30
0.0
 10
102.9000040541778
 20
178.2057584692226
 30
0.0
 10
103.4396908989603
 20
178.2720861457273
 30
0.0
 10
103.6260465424447
 20
178.294989310693
 30
0.0
  0
SPLINE
  5
B4
330
1F
100
AcDbEntity
  8
0
  6
Continuous
 62
     7
370
    25
100
AcDbSpline
210
0.0
220
0.0
230
1.0
 70
     8
 71
     3
 72
    17
 73
    13
 74
     0
 42
0.00000001
 43
0.00000001
 40
0.0
 40
0.0
 40
0.0
 40
0.0
 40
0.0716508089180155
 40
0.132635682011391
 40
0.1936067319329891
 40
0.3179910374307752
 40
0.4423753429285612
 40
0.564174887340794
 40
0.681112858927202
 40
0.7914421490765084
 40
0.9017714392258147
 40
1.0
 40
1.0
 40
1.0
 40
1.0
 10
117.864874631997
 20
173.08771898558
 30
0.0
 10
117.5765555358306
 20
172.987168582655
 30
0.0
 10
117.0428365097037
 20
172.8010357047452
 30
0.0
 10
116.0872751771633
 20
172.5814327685637
 30
0.0
 10
114.8012911052705
 20
172.3328494964632
 30
0.0
 10
113.0130642829003
 20
172.098652370244
 30
0.0
 10
110.7135824849803
 20
171.9532342801689
 30
0.0
 10
108.3943921368045
 20
171.9483937698072
 30
0.0
 10
106.1913487766523
 20
172.0711784778751
 30
0.0
 10
104.1722077475797
 20
172.3057189835471
 30
0.0
 10
102.3960484368249
 20
172.6159582233975
 30
0.0
 10
101.4320282564432
 20
172.8907749294104
 30
0.0
 10
100.9779848605371
 20
173.0202107161181
 30
0.0
  0
ARC
  5
B5
330
1F
100
AcDbEntity
  8
0
  6
Continuous
 62
     7
370
    25
100
AcDbCircle
 10
119.0364060431
 20
156.3457043853
 30
0.0
 40
1.897486889457927
100
AcDbArc
 50
292.6848435323
 51
351.5666475268
  0
LWPOLYLINE
  5
B6
330
1F
100
AcDbEntity
  8
0
  6
Continuous
 62
     7
370
    25
100
AcDbPolyline
 90
       23
 70
   128
 43
0.0
 10
96.9144824624
 20
156.2979112378
 10
96.9922549544
 20
155.8894426989
 10
97.2502815949
 20
155.4628516417
 10
97.6851172416
 20
155.0471722391
 10
98.2901702294
 20
154.648705767
 10
99.0562685718
 20
154.273492571
 10
99.9717989988
 20
153.9272205006
 10
101.0228830024
 20
153.6151386875
 10
102.1935872205
 20
153.3419779739
 10
103.4661649705
 20
153.1118791977
 10
104.8213252709
 20
152.9283304218
 10
106.2385252729
 20
152.7941140585
 10
107.6962816691
 20
152.7112646912
 10
109.1724963585
 20
152.6810382318
 10
110.6447914312
 20
152.7038928825
 10
112.0908483946
 20
152.7794821902
 10
113.4887464993
 20
152.9066602981
 10
114.8172950348
 20
153.0834993156
 10
116.0563545597
 20
153.3073185435
 10
117.1871421945
 20
153.5747251104
 10
118.1925163515
 20
153.8816654055
 10
119.0572365831
 20
154.2234865266
 10
119.7681946121
 20
154.595006814
  0
ARC
  5
B7
330
1F
100
AcDbEntity
  8
0
  6
Continuous
 62
     7
370
    25
100
AcDbCircle
 10
113.6970923485
 20
172.6492818784
 30
0.0
 40
7.508878258825137
100
AcDbArc
 50
359.5804815527
 51
10.2772596798
  0
LINE
  5
B8
330
1F
100
AcDbEntity
  8
0
  6
Continuous
 62
     7
370
    25
100
AcDbLine
 10
121.1690246098
 20
168.7684010043
 30
0.0
 11
121.2057693276
 21
172.5943025269
 31
0.0
  0
LWPOLYLINE
  5
B9
330
1F
100
AcDbEntity
  8
0
  6
Continuous
 62
     7
370
    25
100
AcDbPolyline
 90
       11
 70
   128
 43
0.0
 10
121.0331722248
 20
167.0187030186
 10
121.0556612624
 20
167.0218358023
 10
121.2629415352
 20
167.1536992761
 10
121.4354584924
 20
167.4601153362
 10
121.5604173405
 20
167.9183585053
 10
121.6285504534
 20
168.4944429838
 10
121.6348047098
 20
169.1456432215
 10
121.57871626
 20
169.8236626756
 10
121.4644449279
 20
170.478215745
 10
121.3004656954
 20
171.060757223
 10
121.1936634559
 20
171.33382549
  0
SPLINE
  5
BA
330
1F
100
AcDbEntity
  8
0
  6
Continuous
 62
     7
370
    25
100
AcDbSpline
210
0.0
220
0.0
230
1.0
 70
    11
 71
     3
 72
    39
 73
    35
 74
     0
 42
0.00000001
 43
0.00000001
 40
0.0
 40
0.0
 40
0.0
 40
0.0
 40
0.029129008105451
 40
0.0600028324322984
 40
0.0921602034406938
 40
0.125
 40
0.1578397965593062
 40
0.1899971675677016
 40
0.2208709918945491
 40
0.2500000000000001
 40
0.2791290081054509
 40
0.3100028324322984
 40
0.3421602034406938
 40
0.3749999999999999
 40
0.4078397965593061
 40
0.4399971675677017
 40
0.4708709918945491
 40
0.5
 40
0.5291290081054509
 40
0.5600028324322983
 40
0.5921602034406938
 40
0.625
 40
0.6578397965593061
 40
0.6899971675677017
 40
0.7208709918945491
 40
0.7499999999999999
 40
0.7791290081054508
 40
0.8100028324322982
 40
0.8421602034406936
 40
0.875
 40
0.9078397965593061
 40
0.9399971675677017
 40
0.9708709918945491
 40
1.0
 40
1.0
 40
1.0
 40
1.0
 10
111.6972766129915
 20
197.5970432043666
 30
0.0
 10
112.1177515998514
 20
197.6146951164481
 30
0.0
 10
112.9838878612439
 20
197.6510562832583
 30
0.0
 10
114.2656739765986
 20
197.3844506077039
 30
0.0
 10
115.4956252792392
 20
196.8563814383228
 30
0.0
 10
116.5899505591138
 20
196.0504271067699
 30
0.0
 10
117.4752367563049
 20
195.0156134783369
 30
0.0
 10
118.1035533231582
 20
193.8206032529336
 30
0.0
 10
118.4605826681881
 20
192.5495111509201
 30
0.0
 10
118.5660950471833
 20
191.2524681085013
 30
0.0
 10
118.4354508231577
 20
189.9327550573259
 30
0.0
 10
118.0533239744899
 20
188.5906667303329
 30
0.0
 10
117.4008727933505
 20
187.2727536537088
 30
0.0
 10
116.4940538315293
 20
186.0655515053654
 30
0.0
 10
115.3822238313389
 20
185.0488945842363
 30
0.0
 10
114.1398096602914
 20
184.279315816977
 30
0.0
 10
112.8506697960784
 20
183.7802408545958
 30
0.0
 10
111.5622375118984
 20
183.5366194578692
 30
0.0
 10
110.276110493833
 20
183.5330249730289
 30
0.0
 10
108.9941859723371
 20
183.7852196448208
 30
0.0
 10
107.7642741470274
 20
184.3173992384907
 30
0.0
 10
106.6699379257613
 20
185.1222143399947
 30
0.0
 10
105.7846546694047
 20
186.1573341714389
 30
0.0
 10
105.156337335432
 20
187.3522645234972
 30
0.0
 10
104.7993081877049
 20
188.6233771689028
 30
0.0
 10
104.6937957475456
 20
189.9204138428538
 30
0.0
 10
104.8244400327353
 20
191.240133262497
 30
0.0
 10
105.2065666841002
 20
192.5822010460979
 30
0.0
 10
105.8590186323591
 20
193.900193996067
 30
0.0
 10
106.7658346533457
 20
195.1070899413993
 30
0.0
 10
107.8776755949277
 20
196.1248860925772
 30
0.0
 10
109.1200502886444
 20
196.8903544355477
 30
0.0
 10
110.4093285589985
 20
197.4038404016915
 30
0.0
 10
111.2763647471777
 20
197.5339029621012
 30
0.0
 10
111.6972766129915
 20
197.5970432043666
 30
0.0
  0
ARC
  5
BB
330
1F
100
AcDbEntity
  8
0
  6
Continuous
 62
     7
370
    25
100
AcDbCircle
 10
112.2203150158
 20
191.6134314092
 30
0.0
 40
6.63206099205336
100
AcDbArc
 50
352.706952817
 51
95.9118302724
  0
ARC
  5
BC
330
1F
100
AcDbEntity
  8
0
  6
Continuous
 62
     7
370
    25
100
AcDbCircle
 10
110.7559639699
 20
189.8212899442
 30
0.0
 40
6.651809616300786
100
AcDbArc
 50
184.7983071307
 51
291.4346571219
  0
LWPOLYLINE
  5
BD
330
1F
100
AcDbEntity
  8
0
  6
Continuous
 62
     7
370
    25
100
AcDbPolyline
 90
       41
 70
   128
 43
0.0
 10
111.5633456064
 20
183.6519955067
 10
110.4968704683
 20
183.6348855991
 10
109.4582953956
 20
183.7889460814
 10
108.4731935536
 20
184.1103834732
 10
107.5658214188
 20
184.5912829192
 10
106.7585215047
 20
185.2198030789
 10
106.0711722145
 20
185.9804677001
 10
105.5206983687
 20
186.8545466953
 10
105.1206544604
 20
187.8205173388
 10
104.8808908984
 20
188.8545942274
 10
104.8073114572
 20
189.9313149563
 10
104.9017279069
 20
191.0241670876
 10
105.1618154011
 20
192.1062409749
 10
105.5811697225
 20
193.150892368
 10
106.1494649761
 20
194.1323984824
 10
106.8527078465
 20
195.0265913804
 10
107.6735821605
 20
195.8114530649
 10
108.591875268
 20
196.4676576366
 10
109.5849757451
 20
196.9790471612
 10
110.6284301621
 20
197.3330295312
 10
111.6965452083
 20
197.5208885259
 10
112.7630203464
 20
197.5379984335
 10
113.8015954191
 20
197.3839379512
 10
114.7866972611
 20
197.0625005594
 10
115.6940693959
 20
196.5816011135
 10
116.50136931
 20
195.9530809537
 10
117.1887186003
 20
195.1924163325
 10
117.739192446
 20
194.3183373373
 10
118.1392363543
 20
193.3523666938
 10
118.3789999163
 20
192.3182898052
 10
118.4525793575
 20
191.2415690764
 10
118.3581629078
 20
190.148716945
 10
118.0980754136
 20
189.0666430577
 10
117.6787210922
 20
188.0219916647
 10
117.1104258386
 20
187.0404855502
 10
116.4071829682
 20
186.1462926523
 10
115.5863086542
 20
185.3614309677
 10
114.6680155468
 20
184.705226396
 10
113.6749150697
 20
184.1938368715
 10
112.6314606526
 20
183.8398545014
 10
111.5633456064
 20
183.6519955067
  0
SPLINE
  5
BE
330
1F
100
AcDbEntity
  8
0
  6
Continuous
 62
     7
370
    25
100
AcDbSpline
210
0.0
220
0.0
230
1.0
 70
     8
 71
     3
 72
    10
 73
     6
 74
     0
 42
0.00000001
 43
0.00000001
 40
0.0
 40
0.0
 40
0.0
 40
0.0
 40
0.0293904055451649
 40
0.6462902581999513
 40
0.9999999999999999
 40
0.9999999999999999
 40
0.9999999999999999
 40
0.9999999999999999
 10
105.327078082029
 20
185.5061092810241
 30
0.0
 10
105.3097584621149
 20
185.5181092606484
 30
0.0
 10
104.9289028250934
 20
185.7819868692056
 30
0.0
 10
104.4563797509518
 20
186.1663955283284
 30
0.0
 10
104.1466994721809
 20
186.3926618457271
 30
0.0
 10
104.033845723289
 20
186.4751178621959
 30
0.0
  0
LWPOLYLINE
  5
BF
330
1F
100
AcDbEntity
  8
0
  6
Continuous
 62
     7
370
    25
100
AcDbPolyline
 90
       17
 70
   128
 43
0.0
 10
104.0338457233
 20
186.4751178622
 10
103.28783745
 20
187.2450403009
 10
102.6741889256
 20
188.1320051576
 10
102.2064934726
 20
189.116364704
 10
101.8951113135
 20
190.1763137596
 10
101.7469400743
 20
191.2883727122
 10
101.7652619914
 20
192.4279076297
 10
101.9496712042
 20
193.5696759423
 10
102.2960827458
 20
194.688385607
 10
102.7968230317
 20
195.7592553673
 10
103.4407998422
 20
196.7585636996
 10
104.2137480335
 20
197.6641742832
 10
105.0985455336
 20
198.4560263564
 10
106.075592625
 20
199.1165790954
 10
107.12324611
 20
199.6312001723
 10
108.2182987436
 20
199.988489885
 10
108.5979166264
 20
200.0727712755
  0
LWPOLYLINE
  5
C0
330
1F
100
AcDbEntity
  8
0
  6
Continuous
 62
     7
370
    25
100
AcDbPolyline
 90
       36
 70
   128
 43
0.0
 10
111.4080576226
 20
185.2254434789
 10
112.3750875616
 20
185.4066016796
 10
113.3127340582
 20
185.7587032647
 10
114.1908603822
 20
186.2704313994
 10
114.9812428312
 20
186.9253387205
 10
115.658477863
 20
187.7023759677
 10
116.2007985863
 20
188.5765685247
 10
116.5907743669
 20
189.5198191233
 10
116.8158710623
 20
190.5018109132
 10
116.8688538796
 20
191.4909818704
 10
116.7480199074
 20
192.4555392262
 10
116.457252849
 20
193.3644813137
 10
116.0058981968
 20
194.1885939863
 10
115.4084628608
 20
194.9013895847
 10
114.6841489043
 20
195.4799582717
 10
113.8562363738
 20
195.9057043738
 10
112.9513350591
 20
196.1649440609
 10
111.9985292332
 20
196.2493451562
 10
111.0284428593
 20
196.1561949391
 10
110.0722553115
 20
195.888487334
 10
109.1606992445
 20
195.4548266839
 10
108.3230728203
 20
194.8691511987
 10
107.5862980412
 20
194.1502849704
 10
106.9740554551
 20
193.3213329512
 10
106.5060230422
 20
192.4089383409
 10
106.1972437495
 20
191.4424262531
 10
106.0576419975
 20
190.4528611815
 10
106.0917047015
 20
189.4720485618
 10
106.2983370579
 20
188.5315125185
 10
106.6708977329
 20
187.661482654
 10
107.19741232
 20
186.889922444
 10
107.8609582069
 20
186.2416304684
 10
108.6402084829
 20
185.7374433648
 10
109.5101174031
 20
185.3935661215
 10
110.4427253788
 20
185.221051236
 10
111.4080576226
 20
185.2254434789
  0
LWPOLYLINE
  5
C1
330
1F
100
AcDbEntity
  8
0
  6
Continuous
 62
     7
370
    25
100
AcDbPolyline
 90
       19
 70
   128
 43
0.0
 10
103.6162786489
 20
177.2779452004
 10
103.6407943582
 20
177.1218653147
 10
103.8253387595
 20
176.8334833926
 10
104.1848878332
 20
176.5580561286
 10
104.7075484592
 20
176.304694072
 10
105.3760321331
 20
176.081777902
 10
106.1682268337
 20
175.8966812125
 10
107.0579284416
 20
175.7555266089
 10
108.015707516
 20
175.6629831861
 10
109.0098827576
 20
175.6221120841
 10
110.0075689595
 20
175.6342652322
 10
110.9757647795
 20
175.69904063
 10
111.8824443547
 20
175.8142956449
 10
112.697616649
 20
175.9762178855
 10
113.3943174931
 20
176.1794513079
 10
113.9495015015
 20
176.4172733816
 10
114.3448043655
 20
176.6818174573
 10
114.5671503055
 20
176.9643329784
 10
114.6157713605
 20
177.1723038886
  0
LINE
  5
C2
330
1F
100
AcDbEntity
  8
0
  6
Continuous
 62
     7
370
    25
100
AcDbLine
 10
103.718074049
 20
186.4127770964
 30
0.0
 11
103.7235733113
 21
186.4102889091
 31
0.0
  0
LINE
  5
C3
330
1F
100
AcDbEntity
  8
0
  6
Continuous
 62
     7
370
    25
100
AcDbLine
 10
103.7214169867
 20
186.760847541
 30
0.0
 11
103.718074049
 21
186.4127770964
 31
0.0
  0
LWPOLYLINE
  5
C4
330
1F
100
AcDbEntity
  8
0
  6
Continuous
 62
     7
370
    25
100
AcDbPolyline
 90
       17
 70
   128
 43
0.0
 10
108.1057808741
 20
200.4542389344
 10
107.7018780563
 20
200.3644925649
 10
106.5987805326
 20
200.0011733106
 10
105.5447110001
 20
199.4774693968
 10
104.563627917
 20
198.805284344
 10
103.6778307971
 20
197.9998965727
 10
102.9074533534
 20
197.0796121328
 10
102.270005869
 20
196.0653486161
 10
101.7799771971
 20
194.9801597106
 10
101.4485054375
 20
193.8487112021
 10
101.2831247728
 20
192.696720333
 10
101.2875942205
 20
191.5503712634
 10
101.4618121922
 20
190.4357199178
 10
101.801818803
 20
189.3781017481
 10
102.2998858777
 20
188.4015558712
 10
102.9446926078
 20
187.5282786726
 10
103.4152942353
 20
187.0443493342
  0
LWPOLYLINE
  5
C5
330
1F
100
AcDbEntity
  8
0
  6
Continuous
 62
     7
370
    25
100
AcDbPolyline
 90
       25
 70
   128
 43
0.0
 10
115.7837339901
 20
177.3053960097
 10
115.9931820277
 20
177.0596671397
 10
116.1093277167
 20
176.7318101083
 10
116.0442315804
 20
176.4043435568
 10
115.7995795743
 20
176.0857486967
 10
115.381708057
 20
175.7842769676
 10
114.8014396812
 20
175.5077363289
 10
114.0738030931
 20
175.263289038
 10
113.2176436981
 20
175.0572661512
 10
112.2551355749
 20
174.8950035531
 10
111.2112071781
 20
174.7807037597
 10
110.112895705
 20
174.7173270757
 10
108.9886468457
 20
174.7065149238
 10
107.8675780553
 20
174.7485473333
 10
106.7787244265
 20
174.8423356866
 10
105.7502866963
 20
174.9854509147
 10
104.8089008617
 20
175.1741864085
 10
103.9789483214
 20
175.4036540176
 10
103.2819244102
 20
175.6679106517
 10
102.7358816813
 20
175.9601122027
 10
102.3549623545
 20
176.2726908038
 10
102.1490320403
 20
176.5975508336
 10
102.1234242257
 20
176.9262785879
 10
102.2788021396
 20
177.2503601905
 10
102.4510877172
 20
177.4334453914
  0
LWPOLYLINE
  5
C6
330
1F
100
AcDbEntity
  8
0
  6
Continuous
 62
     7
370
    25
100
AcDbPolyline
 90
       28
 70
   128
 43
0.0
 10
114.6254746975
 20
178.1826262979
 10
115.0304780926
 20
177.9594100095
 10
115.3934761315
 20
177.6615374386
 10
115.5852416677
 20
177.3517606615
 10
115.6005438373
 20
177.0385295813
 10
115.4389652371
 20
176.7303883252
 10
115.10491331
 20
176.4357421836
 10
114.6075001218
 20
176.162628335
 10
113.9602938076
 20
175.9184966133
 10
113.1809484685
 20
175.7100062954
 10
112.2907226138
 20
175.5428444538
 10
111.3138992841
 20
175.4215708277
 10
110.2771236736
 20
175.3494934455
 10
109.2086763181
 20
175.3285783902
 10
108.1377016763
 20
175.3593961702
 10
107.0934131446
 20
175.4411061566
 10
106.1042961919
 20
175.571479514
 10
105.1973313502
 20
175.7469599972
 10
104.3972582561
 20
175.9627609559
 10
103.725900818
 20
176.2129959026
 10
103.2015719168
 20
176.4908390803
 10
102.8385738779
 20
176.7887116513
 10
102.6468083417
 20
177.0984884283
 10
102.6315061721
 20
177.4117195086
 10
102.7930847723
 20
177.7198607646
 10
103.1271366995
 20
178.0145069062
 10
103.6245498877
 20
178.2876207548
 10
103.6259819859
 20
178.2882676096
  0
LWPOLYLINE
  5
C7
330
1F
100
AcDbEntity
  8
0
  6
Continuous
 62
     7
370
    25
100
AcDbPolyline
 90
       22
 70
   128
 43
0.0
 10
102.1025685554
 20
175.8576377628
 10
102.1164323899
 20
175.7232273497
 10
102.2776010997
 20
175.396603927
 10
102.6155245207
 20
175.0801799128
 10
103.1214506138
 20
174.782150523
 10
103.782276159
 20
174.5102345622
 10
104.5808861219
 20
174.2714745109
 10
105.4965969237
 20
174.0720541292
 10
106.5056921358
 20
173.9171383
 10
107.5820367222
 20
173.810739262
 10
108.6977539236
 20
173.7556126945
 10
109.8239472504
 20
173.7531863465
 10
110.9314488871
 20
173.8035230592
 10
111.9915751229
 20
173.9053191381
 10
112.9768692454
 20
174.0559381183
 10
113.8618126542
 20
174.2514790474
 10
114.6234857798
 20
174.4868775179
 10
115.2421616885
 20
174.7560368332
 10
115.7018169992
 20
175.0519859083
 10
115.9905468807
 20
175.3670598177
 10
116.1008733809
 20
175.6930983126
 10
116.1019229157
 20
175.7231851842
  0
LWPOLYLINE
  5
C8
330
1F
100
AcDbEntity
  8
0
  6
Continuous
 62
     7
370
    25
100
AcDbPolyline
 90
        3
 70
   128
 43
0.0
 10
125.2457644749
 20
234.1532567717
 10
124.5931642663
 20
234.5783455798
 10
124.5179456618
 20
234.614911842
  0
LWPOLYLINE
  5
C9
330
1F
100
AcDbEntity
  8
0
  6
Continuous
 62
     7
370
    25
100
AcDbPolyline
 90
       33
 70
   128
 43
0.0
 10
108.5371454011
 20
200.6905249938
 10
108.8168758422
 20
200.5736173461
 10
109.5799287525
 20
200.3866019051
 10
110.4078496888
 20
200.3607955418
 10
111.2929085763
 20
200.4964392033
 10
112.2268418586
 20
200.7922664213
 10
113.2009296524
 20
201.2455151369
 10
114.2060771624
 20
201.8519534888
 10
115.232899597
 20
202.6059193256
 10
116.2718097918
 20
203.5003730713
 10
117.3131077224
 20
204.5269634524
 10
118.3470710705
 20
205.6761054711
 10
119.3640459988
 20
206.9370698979
 10
120.3545372865
 20
208.2980834478
 10
121.3092969834
 20
209.746438704
 10
122.2194107553
 20
211.2686127636
 10
123.0763811152
 20
212.8503934976
 10
123.8722067617
 20
214.4770122454
 10
124.5994572852
 20
216.1332817062
 10
125.2513425436
 20
217.8037377381
 10
125.8217760598
 20
219.4727837433
 10
126.3054318497
 20
221.124836289
 10
126.6977941495
 20
222.7444706056
 10
126.9951995782
 20
224.3165646039
 10
127.1948713415
 20
225.8264400659
 10
127.2949451578
 20
227.2599996912
 10
127.2944866649
 20
228.6038587197
 10
127.1935001437
 20
229.8454699019
 10
126.992928478
 20
230.9732406486
 10
126.6946443515
 20
231.9766412682
 10
126.3014327627
 20
232.8463032796
 10
125.8169650223
 20
233.5741068828
 10
125.2457644749
 20
234.1532567717
  0
ARC
  5
CA
330
1F
100
AcDbEntity
  8
0
  6
Continuous
 62
     7
370
    25
100
AcDbCircle
 10
110.8823949858
 20
203.5792424643
 30
0.0
 40
3.612744821688295
100
AcDbArc
 50
244.99600344
 51
269.8159218845
  0
LINE
  5
CB
330
1F
100
AcDbEntity
  8
0
  6
Continuous
 62
     7
370
    25
100
AcDbLine
 10
116.8246832696
 20
197.16180798
 30
0.0
 11
119.0528807108
 21
196.1121684269
 31
0.0
  0
SPLINE
  5
CC
330
1F
100
AcDbEntity
  8
0
  6
Continuous
 62
     7
370
    25
100
AcDbSpline
210
0.0
220
0.0
230
1.0
 70
     8
 71
     3
 72
     9
 73
     5
 74
     0
 42
0.00000001
 43
0.00000001
 40
0.0
 40
0.0
 40
0.0
 40
0.0
 40
0.7640940040455921
 40
1.0
 40
1.0
 40
1.0
 40
1.0
 10
116.1221360782825
 20
197.6869990408979
 30
0.0
 10
116.3451716065649
 20
197.5389391873333
 30
0.0
 10
116.6370670109281
 20
197.3451674095407
 30
0.0
 10
116.7888716459629
 20
197.1968070729325
 30
0.0
 10
116.8246832695813
 20
197.1618079799648
 30
0.0
  0
LINE
  5
CD
330
1F
100
AcDbEntity
  8
0
  6
Continuous
 62
     7
370
    25
100
AcDbLine
 10
114.5790375397
 20
198.4139082593
 30
0.0
 11
116.1221360783
 21
197.6869990409
 31
0.0
  0
SPLINE
  5
CE
330
1F
100
AcDbEntity
  8
0
  6
Continuous
 62
     7
370
    25
100
AcDbSpline
210
0.0
220
0.0
230
1.0
 70
     8
 71
     3
 72
     9
 73
     5
 74
     0
 42
0.00000001
 43
0.00000001
 40
0.0
 40
0.0
 40
0.0
 40
0.0
 40
0.7643143614262677
 40
0.9999999999999999
 40
0.9999999999999999
 40
0.9999999999999999
 40
0.9999999999999999
 10
113.0989855317341
 20
198.916876734688
 30
0.0
 10
113.4764377895762
 20
198.7976767012458
 30
0.0
 10
113.9702820464572
 20
198.6417198862781
 30
0.0
 10
114.4629279705076
 20
198.4573593823633
 30
0.0
 10
114.5790375397082
 20
198.4139082592704
 30
0.0
  0
LINE
  5
CF
330
1F
100
AcDbEntity
  8
0
  6
Continuous
 62
     7
370
    25
100
AcDbLine
 10
110.8707880905
 20
199.9665162878
 30
0.0
 11
113.0989855317
 21
198.9168767347
 31
0.0
  0
LWPOLYLINE
  5
D0
330
1F
100
AcDbEntity
  8
0
  6
Continuous
 62
     7
370
    25
100
AcDbPolyline
 90
        3
 70
   128
 43
0.0
 10
136.4961418278
 20
228.853528463
 10
135.8435416192
 20
229.2786172711
 10
135.7683230147
 20
229.3151835333
  0
ARC
  5
D1
330
1F
100
AcDbEntity
  8
0
  6
Continuous
 62
     7
370
    25
100
AcDbCircle
 10
121.5485925375
 20
200.0494127581
 30
0.0
 40
4.980368510247762
100
AcDbArc
 50
249.2921928392
 51
300.0827999473
  0
ARC
  5
D2
330
1F
100
AcDbEntity
  8
0
  6
Continuous
 62
     7
370
    25
100
AcDbCircle
 10
132.6852819847
 20
224.7005500293
 30
0.0
 40
5.636477855456984
100
AcDbArc
 50
11.1041110294
 51
47.45985738
  0
LWPOLYLINE
  5
D3
330
1F
100
AcDbEntity
  8
0
  6
Continuous
 62
     7
370
    25
100
AcDbPolyline
 90
       24
 70
   128
 43
0.0
 10
138.3125303905
 20
225.3814795498
 10
138.3235365343
 20
225.3334936601
 10
138.5175575586
 20
224.1950084002
 10
138.6101199807
 20
222.9415500438
 10
138.6003323739
 20
221.58519008
 10
138.4882889982
 20
220.1389909966
 10
138.2750688926
 20
218.6168804816
 10
137.9627254833
 20
217.0335172912
 10
137.5542668079
 20
215.4041500784
 10
137.0536265469
 20
213.7444705403
 10
136.4656261396
 20
212.070462298
 10
135.7959283514
 20
210.3982469661
 10
135.0509827381
 20
208.7439288923
 10
134.2379635331
 20
207.123440064
 10
133.3647005559
 20
205.5523866745
 10
132.4396038063
 20
204.0458988268
 10
131.4715824717
 20
202.6184848222
 10
130.4699591267
 20
201.2838914381
 10
129.4443799517
 20
200.0549715383
 10
128.4047218348
 20
198.9435602931
 10
127.360997252
 20
197.9603612005
 10
126.3232578416
 20
197.1148430052
 10
125.3014976013
 20
196.4151485096
 10
124.5218502897
 20
195.9749502851
  0
LINE
  5
D4
330
1F
100
AcDbEntity
  8
0
  6
Continuous
 62
     7
370
    25
100
AcDbLine
 10
117.4273712122
 20
195.6788117116
 30
0.0
 11
118.4307997818
 21
194.9347868659
 31
0.0
  0
LWPOLYLINE
  5
D5
330
1F
100
AcDbEntity
  8
0
  6
Continuous
 62
     7
370
    25
100
AcDbPolyline
 90
        3
 70
   128
 43
0.0
 10
115.0737138193
 20
198.0473775376
 10
115.0567098968
 20
198.072892083
 10
114.9375831922
 20
198.2450077429
  0
LINE
  5
D6
330
1F
100
AcDbEntity
  8
0
  6
Continuous
 62
     7
370
    25
100
AcDbLine
 10
107.4623931732
 20
200.8551381257
 30
0.0
 11
110.2487071615
 21
198.7891347268
 31
0.0
  0
ARC
  5
D7
330
1F
100
AcDbEntity
  8
0
  6
Continuous
 62
     7
370
    25
100
AcDbCircle
 10
112.015326479
 20
191.2336372011
 30
0.0
 40
7.759283902065365
100
AcDbArc
 50
81.971846522
 51
103.1604125118
  0
ARC
  5
D8
330
1F
100
AcDbEntity
  8
0
  6
Continuous
 62
     7
370
    25
100
AcDbCircle
 10
112.1203966027
 20
192.0764277522
 30
0.0
 40
6.92758291938718
100
AcDbArc
 50
24.3686163829
 51
47.2292927099
  0
LINE
  5
D9
330
1F
100
AcDbEntity
  8
0
  6
Continuous
 62
     7
370
    25
100
AcDbLine
 10
110.8707880905
 20
199.9665162878
 30
0.0
 11
110.2487071615
 21
198.7891347268
 31
0.0
  0
LINE
  5
DA
330
1F
100
AcDbEntity
  8
0
  6
Continuous
 62
     7
370
    25
100
AcDbLine
 10
107.4623931732
 20
200.8551381257
 30
0.0
 11
107.3149021227
 21
200.5759891673
 31
0.0
  0
LINE
  5
DB
330
1F
100
AcDbEntity
  8
0
  6
Continuous
 62
     7
370
    25
100
AcDbLine
 10
107.3149021227
 20
200.5759891673
 30
0.0
 11
105.6242296002
 21
201.9633381805
 31
0.0
  0
LINE
  5
DC
330
1F
100
AcDbEntity
  8
0
  6
Continuous
 62
     7
370
    25
100
AcDbLine
 10
105.6242296002
 20
201.9633381805
 30
0.0
 11
105.6662723901
 21
202.0429104729
 31
0.0
  0
LINE
  5
DD
330
1F
100
AcDbEntity
  8
0
  6
Continuous
 62
     7
370
    25
100
AcDbLine
 10
118.4307997818
 20
194.9347868659
 30
0.0
 11
119.0528807108
 21
196.1121684269
 31
0.0
  0
ARC
  5
DE
330
1F
100
AcDbEntity
  8
0
  6
Continuous
 62
     7
370
    25
100
AcDbCircle
 10
109.7711291396
 20
192.1117625011
 30
0.0
 40
8.610773659330105
100
AcDbArc
 50
134.1260021007
 51
143.122876312
  0
LINE
  5
DF
330
1F
100
AcDbEntity
  8
0
  6
Continuous
 62
     7
370
    25
100
AcDbLine
 10
103.756510251
 20
198.1711708198
 30
0.0
 11
103.7759759128
 21
198.2926654125
 31
0.0
  0
SPLINE
  5
E0
330
1F
100
AcDbEntity
  8
0
  6
Continuous
 62
     7
370
    25
100
AcDbSpline
210
0.0
220
0.0
230
1.0
 70
     8
 71
     3
 72
     9
 73
     5
 74
     0
 42
0.00000001
 43
0.00000001
 40
0.0
 40
0.0
 40
0.0
 40
0.0
 40
0.9874164700850051
 40
1.0
 40
1.0
 40
1.0
 40
1.0
 10
102.8831618521869
 20
197.2790954359763
 30
0.0
 10
102.9644670237671
 20
197.3060839310448
 30
0.0
 10
103.0468083397604
 20
197.3334163646088
 30
0.0
 10
103.1307012238723
 20
197.3574149745409
 30
0.0
 10
103.1317568924892
 20
197.357716961767
 30
0.0
  0
ARC
  5
E1
330
1F
100
AcDbEntity
  8
0
  6
Continuous
 62
     7
370
    25
100
AcDbCircle
 10
109.697931682
 20
192.1894015473
 30
0.0
 40
8.504080781615201
100
AcDbArc
 50
125.0641579709
 51
134.1361985936
  0
LINE
  5
E2
330
1F
100
AcDbEntity
  8
0
  6
Continuous
 62
     7
370
    25
100
AcDbLine
 10
104.7476358433
 20
198.9187920355
 30
0.0
 11
104.8123939384
 21
199.1500704014
 31
0.0
  0
SPLINE
  5
E3
330
1F
100
AcDbEntity
  8
0
  6
Continuous
 62
     7
370
    25
100
AcDbSpline
210
0.0
220
0.0
230
1.0
 70
     8
 71
     3
 72
     9
 73
     5
 74
     0
 42
0.00000001
 43
0.00000001
 40
0.0
 40
0.0
 40
0.0
 40
0.0
 40
0.6930890596205621
 40
1.0
 40
1.0
 40
1.0
 40
1.0
 10
103.775975912816
 20
198.2926654124516
 30
0.0
 10
103.8654067657105
 20
198.3112655479047
 30
0.0
 10
103.9944390331415
 20
198.3381021213507
 30
0.0
 10
104.1248808516868
 20
198.3598696822899
 30
0.0
 10
104.1649148728814
 20
198.3665503848875
 30
0.0
  0
LINE
  5
E4
330
1F
100
AcDbEntity
  8
0
  6
Continuous
 62
     7
370
    25
100
AcDbLine
 10
102.8831618522
 20
197.279095436
 30
0.0
 11
102.9116600498
 21
197.258169224
 31
0.0
  0
ARC
  5
E5
330
1F
100
AcDbEntity
  8
0
  6
Continuous
 62
     7
370
    25
100
AcDbCircle
 10
109.7371278347
 20
192.1353396621
 30
0.0
 40
8.569426652353899
100
AcDbArc
 50
143.1125512244
 51
152.1383696214
  0
LINE
  5
E6
330
1F
100
AcDbEntity
  8
0
  6
Continuous
 62
     7
370
    25
100
AcDbLine
 10
102.8752673168
 20
197.1127922701
 30
0.0
 11
102.8831618522
 21
197.279095436
 31
0.0
  0
SPLINE
  5
E7
330
1F
100
AcDbEntity
  8
0
  6
Continuous
 62
     7
370
    25
100
AcDbSpline
210
0.0
220
0.0
230
1.0
 70
     8
 71
     3
 72
     9
 73
     5
 74
     0
 42
0.00000001
 43
0.00000001
 40
0.0
 40
0.0
 40
0.0
 40
0.0
 40
0.6982440212202685
 40
0.9999999999999999
 40
0.9999999999999999
 40
0.9999999999999999
 40
0.9999999999999999
 10
102.1610794600062
 20
196.1401572827936
 30
0.0
 10
102.2331533523089
 20
196.17320319768
 30
0.0
 10
102.3363749913238
 20
196.2205303696745
 30
0.0
 10
102.4425338582289
 20
196.2635912608833
 30
0.0
 10
102.474567931018
 20
196.2765851422571
 30
0.0
  0
LINE
  5
E8
330
1F
100
AcDbEntity
  8
0
  6
Continuous
 62
     7
370
    25
100
AcDbLine
 10
103.7759759128
 20
198.2926654125
 30
0.0
 11
103.799946007
 21
198.2665986568
 31
0.0
  0
LINE
  5
E9
330
1F
100
AcDbEntity
  8
0
  6
Continuous
 62
     7
370
    25
100
AcDbLine
 10
102.16107946
 20
196.1401572828
 30
0.0
 11
102.1932398578
 21
196.1250074469
 31
0.0
  0
LINE
  5
EA
330
1F
100
AcDbEntity
  8
0
  6
Continuous
 62
     7
370
    25
100
AcDbLine
 10
104.8123939384
 20
199.1500704014
 30
0.0
 11
104.83110761
 21
199.1196551272
 31
0.0
  0
ARC
  5
EB
330
1F
100
AcDbEntity
  8
0
  6
Continuous
 62
     7
370
    25
100
AcDbCircle
 10
109.5610825669
 20
192.3867490582
 30
0.0
 40
8.263931224314408
100
AcDbArc
 50
115.8264770237
 51
125.073604936
  0
SPLINE
  5
EC
330
1F
100
AcDbEntity
  8
0
  6
Continuous
 62
     7
370
    25
100
AcDbSpline
210
0.0
220
0.0
230
1.0
 70
     8
 71
     3
 72
     9
 73
     5
 74
     0
 42
0.00000001
 43
0.00000001
 40
0.0
 40
0.0
 40
0.0
 40
0.0
 40
0.2154048105933126
 40
1.0
 40
1.0
 40
1.0
 40
1.0
 10
105.8534294237395
 20
199.5597242826129
 30
0.0
 10
105.8606285638729
 20
199.5791940298955
 30
0.0
 10
105.8940500093532
 20
199.6695808101582
 30
0.0
 10
105.9315234279041
 20
199.7568150338063
 30
0.0
 10
105.9609248918298
 20
199.8252585860322
 30
0.0
  0
SPLINE
  5
ED
330
1F
100
AcDbEntity
  8
0
  6
Continuous
 62
     7
370
    25
100
AcDbSpline
210
0.0
220
0.0
230
1.0
 70
     8
 71
     3
 72
     9
 73
     5
 74
     0
 42
0.00000001
 43
0.00000001
 40
0.0
 40
0.0
 40
0.0
 40
0.0
 40
0.904894262923303
 40
0.9999999999999999
 40
0.9999999999999999
 40
0.9999999999999999
 40
0.9999999999999999
 10
104.8123939384487
 20
199.1500704013771
 30
0.0
 10
104.9081267335164
 20
199.159416805558
 30
0.0
 10
105.0139211881729
 20
199.1697455307624
 30
0.0
 10
105.1201604128653
 20
199.1760556737121
 30
0.0
 10
105.1302643726361
 20
199.1766558045084
 30
0.0
  0
LWPOLYLINE
  5
EE
330
1F
100
AcDbEntity
  8
0
  6
Continuous
 62
     7
370
    25
100
AcDbPolyline
 90
       17
 70
   128
 43
0.0
 10
103.7212297701
 20
186.7413543412
 10
103.4201168898
 20
186.9746562097
 10
102.6495454152
 20
187.7243999742
 10
102.0095082877
 20
188.5952210241
 10
101.5142805358
 20
189.567697056
 10
101.1749074411
 20
190.6201385109
 10
100.9989581902
 20
191.729072326
 10
100.9903570565
 20
192.8697654645
 10
101.1492958749
 20
194.0167765476
 10
101.4722297631
 20
195.1445232845
 10
101.9519561853
 20
196.2278530457
 10
102.5777755928
 20
197.2426038529
 10
103.3357300612
 20
198.1661432741
 10
104.2089145999
 20
198.9778732052
 10
105.1778541916
 20
199.6596892777
 10
106.2209381521
 20
200.196384649
 10
107.3149021227
 20
200.5759891673
  0
ARC
  5
EF
330
1F
100
AcDbEntity
  8
0
  6
Continuous
 62
     7
370
    25
100
AcDbCircle
 10
109.3180665493
 20
193.0114313527
 30
0.0
 40
7.59162506953079
100
AcDbArc
 50
100.0583651829
 51
106.3053383443
  0
ARC
  5
F0
330
1F
100
AcDbEntity
  8
0
  6
Continuous
 62
     7
370
    25
100
AcDbCircle
 10
109.4133832927
 20
192.694429668
 30
0.0
 40
7.922637822578851
100
AcDbArc
 50
106.3232941148
 51
115.8343848002
  0
ARC
  5
F1
330
1F
100
AcDbEntity
  8
0
  6
Continuous
 62
     7
370
    25
100
AcDbCircle
 10
109.574030687
 20
192.2199221115
 30
0.0
 40
8.385707465192027
100
AcDbArc
 50
152.1285039345
 51
161.2858024492
  0
ARC
  5
F2
330
1F
100
AcDbEntity
  8
0
  6
Continuous
 62
     7
370
    25
100
AcDbCircle
 10
109.2884000994
 20
192.3153845867
 30
0.0
 40
8.084549115808539
100
AcDbArc
 50
161.2770962331
 51
170.6606445699
  0
ARC
  5
F3
330
1F
100
AcDbEntity
  8
0
  6
Continuous
 62
     7
370
    25
100
AcDbCircle
 10
108.9146280274
 20
192.3759529082
 30
0.0
 40
7.705902511808901
100
AcDbArc
 50
170.6540205522
 51
180.3428072424
  0
ARC
  5
F4
330
1F
100
AcDbEntity
  8
0
  6
Continuous
 62
     7
370
    25
100
AcDbCircle
 10
108.5070011619
 20
192.3730827512
 30
0.0
 40
7.29826578269512
100
AcDbArc
 50
180.3394217349
 51
190.3860843716
  0
ARC
  5
F5
330
1F
100
AcDbEntity
  8
0
  6
Continuous
 62
     7
370
    25
100
AcDbCircle
 10
108.2476660372
 20
192.3307278886
 30
0.0
 40
7.035545887360469
100
AcDbArc
 50
190.4275533049
 51
193.555239874
  0
LINE
  5
F6
330
1F
100
AcDbEntity
  8
0
  6
Continuous
 62
     7
370
    25
100
AcDbLine
 10
102.1743504226
 20
195.9289327322
 30
0.0
 11
102.16107946
 21
196.1401572828
 31
0.0
  0
SPLINE
  5
F7
330
1F
100
AcDbEntity
  8
0
  6
Continuous
 62
     7
370
    25
100
AcDbSpline
210
0.0
220
0.0
230
1.0
 70
     8
 71
     3
 72
     9
 73
     5
 74
     0
 42
0.00000001
 43
0.00000001
 40
0.0
 40
0.0
 40
0.0
 40
0.0
 40
0.8568070399340679
 40
1.0
 40
1.0
 40
1.0
 40
1.0
 10
101.6316688443698
 20
194.9104570123576
 30
0.0
 10
101.6931130564495
 20
194.9481302396773
 30
0.0
 10
101.7648260667492
 20
194.9920995648155
 30
0.0
 10
101.839477606729
 20
195.0330531764831
 30
0.0
 10
101.8501671817122
 20
195.0389174453631
 30
0.0
  0
ARC
  5
F8
330
1F
100
AcDbEntity
  8
0
  6
Continuous
 62
     7
370
    25
100
AcDbCircle
 10
105.8478508026
 20
193.9200063967
 30
0.0
 40
6.909642352211275
100
AcDbArc
 50
176.4382369335
 51
229.9150566109
  0
LINE
  5
F9
330
1F
100
AcDbEntity
  8
0
  6
Continuous
 62
     7
370
    25
100
AcDbLine
 10
101.6316688444
 20
194.9104570124
 30
0.0
 11
101.6665142649
 21
194.9015438726
 31
0.0
  0
LINE
  5
FA
330
1F
100
AcDbEntity
  8
0
  6
Continuous
 62
     7
370
    25
100
AcDbLine
 10
105.9609248918
 20
199.825258586
 30
0.0
 11
105.9738135354
 21
199.7914189461
 31
0.0
  0
LINE
  5
FB
330
1F
100
AcDbEntity
  8
0
  6
Continuous
 62
     7
370
    25
100
AcDbLine
 10
101.6757812982
 20
194.6574702855
 30
0.0
 11
101.6316688444
 21
194.9104570124
 31
0.0
  0
SPLINE
  5
FC
330
1F
100
AcDbEntity
  8
0
  6
Continuous
 62
     7
370
    25
100
AcDbSpline
210
0.0
220
0.0
230
1.0
 70
     8
 71
     3
 72
     9
 73
     5
 74
     0
 42
0.00000001
 43
0.00000001
 40
0.0
 40
0.0
 40
0.0
 40
0.0
 40
0.8393687152418015
 40
1.0
 40
1.0
 40
1.0
 40
1.0
 10
101.3110158789396
 20
193.6273584451301
 30
0.0
 10
101.361160554704
 20
193.6674650860434
 30
0.0
 10
101.4209014943576
 20
193.7152469966449
 30
0.0
 10
101.4841193472417
 20
193.7605046133768
 30
0.0
 10
101.4942741121702
 20
193.7677744024975
 30
0.0
  0
LINE
  5
FD
330
1F
100
AcDbEntity
  8
0
  6
Continuous
 62
     7
370
    25
100
AcDbLine
 10
107.1109939765
 20
200.1654632959
 30
0.0
 11
107.1866712411
 21
200.2977147151
 31
0.0
  0
SPLINE
  5
FE
330
1F
100
AcDbEntity
  8
0
  6
Continuous
 62
     7
370
    25
100
AcDbSpline
210
0.0
220
0.0
230
1.0
 70
     8
 71
     3
 72
     9
 73
     5
 74
     0
 42
0.00000001
 43
0.00000001
 40
0.0
 40
0.0
 40
0.0
 40
0.0
 40
0.804964604247495
 40
0.9999999999999999
 40
0.9999999999999999
 40
0.9999999999999999
 40
0.9999999999999999
 10
105.9609248918298
 20
199.8252585860322
 30
0.0
 10
106.0611855839191
 20
199.8238180825497
 30
0.0
 10
106.185738504085
 20
199.8220285585446
 30
0.0
 10
106.3100753591329
 20
199.815695385904
 30
0.0
 10
106.3343254468637
 20
199.8144601930717
 30
0.0
  0
LINE
  5
FF
330
1F
100
AcDbEntity
  8
0
  6
Continuous
 62
     7
370
    25
100
AcDbLine
 10
101.3110158789
 20
193.6273584451
 30
0.0
 11
101.3474875617
 21
193.6249528228
 31
0.0
  0
LINE
  5
100
330
1F
100
AcDbEntity
  8
0
  6
Continuous
 62
     7
370
    25
100
AcDbLine
 10
107.1866712411
 20
200.2977147151
 30
0.0
 11
107.1933432417
 21
200.2614789097
 31
0.0
  0
LINE
  5
101
330
1F
100
AcDbEntity
  8
0
  6
Continuous
 62
     7
370
    25
100
AcDbLine
 10
101.3843303253
 20
193.3750882511
 30
0.0
 11
101.3110158789
 21
193.6273584451
 31
0.0
  0
SPLINE
  5
102
330
1F
100
AcDbEntity
  8
0
  6
Continuous
 62
     7
370
    25
100
AcDbSpline
210
0.0
220
0.0
230
1.0
 70
     8
 71
     3
 72
     9
 73
     5
 74
     0
 42
0.00000001
 43
0.00000001
 40
0.0
 40
0.0
 40
0.0
 40
0.0
 40
0.9075898034528569
 40
1.0
 40
1.0
 40
1.0
 40
1.0
 10
107.18667124112
 20
200.2977147150856
 30
0.0
 10
107.2894970976213
 20
200.2848949273372
 30
0.0
 10
107.4027926151669
 20
200.2707698372363
 30
0.0
 10
107.5152785974348
 20
200.2527047630618
 30
0.0
 10
107.5256734491649
 20
200.2510353660068
 30
0.0
  0
LINE
  5
103
330
1F
100
AcDbEntity
  8
0
  6
Continuous
 62
     7
370
    25
100
AcDbLine
 10
101.2088634418
 20
192.3298478818
 30
0.0
 11
101.2458532131
 21
192.3340228705
 31
0.0
  0
LINE
  5
104
330
1F
100
AcDbEntity
  8
0
  6
Continuous
 62
     7
370
    25
100
AcDbLine
 10
101.3283153831
 20
191.0573495242
 30
0.0
 11
101.342460543
 21
191.0614817121
 31
0.0
  0
LWPOLYLINE
  5
105
330
1F
100
AcDbEntity
  8
0
  6
Continuous
 62
     7
370
    25
100
AcDbPolyline
 90
       63
 70
   128
 43
0.0
 10
85.3323838418
 20
251.4440870246
 10
84.6965610114
 20
251.8533727262
 10
83.9843623128
 20
252.1015573929
 10
83.2030958683
 20
252.1860943141
 10
82.3607785289
 20
252.1061160267
 10
81.4660536104
 20
251.8624432159
 10
80.5281022011
 20
251.4575762948
 10
79.5565489518
 20
250.8956697457
 10
78.5613633135
 20
250.1824894901
 10
77.5527572375
 20
249.3253537227
 10
76.5410803872
 20
248.3330578163
 10
75.5367139359
 20
247.2157840696
 10
74.5499640426
 20
245.9849972233
 10
73.5909560965
 20
244.6533268158
 10
72.6695308168
 20
243.2344375876
 10
71.7951432739
 20
241.7428892623
 10
70.9767658671
 20
240.1939871441
 10
70.222796256
 20
238.6036250646
 10
69.5409711893
 20
236.988122291
 10
68.9382871146
 20
235.3640560678
 10
68.4209283862
 20
233.7480915121
 10
67.9942038048
 20
232.1568106071
 10
67.6624921419
 20
230.6065420482
 10
67.4291972081
 20
229.1131936887
 10
67.2967129252
 20
227.6920893035
 10
67.2663987612
 20
226.3578113467
 10
67.3385657804
 20
225.1240513157
 10
67.5124734515
 20
224.003469258
 10
67.7863372464
 20
223.0075638618
 10
68.1573469522
 20
222.1465544643
 10
68.6216955071
 20
221.4292761869
 10
69.1746180665
 20
220.8630892755
 10
69.8104408969
 20
220.4538035738
 10
70.5226395955
 20
220.2056189071
 10
71.30390604
 20
220.1210819859
 10
72.1462233794
 20
220.2010602734
 10
73.0409482979
 20
220.4447330841
 10
73.9788997072
 20
220.8496000052
 10
74.9504529565
 20
221.4115065544
 10
75.9456385948
 20
222.1246868099
 10
76.9542446708
 20
222.9818225773
 10
77.9659215211
 20
223.9741184837
 10
78.9702879724
 20
225.0913922304
 10
79.9570378657
 20
226.3221790768
 10
80.9160458118
 20
227.6538494842
 10
81.8374710915
 20
229.0727387124
 10
82.7118586344
 20
230.5642870377
 10
83.5302360412
 20
232.1131891559
 10
84.2842056523
 20
233.7035512354
 10
84.966030719
 20
235.319054009
 10
85.5687147937
 20
236.9431202323
 10
86.0860735221
 20
238.5590847879
 10
86.5127981035
 20
240.1503656929
 10
86.8445097664
 20
241.7006342518
 10
87.0778047002
 20
243.1939826114
 10
87.2102889831
 20
244.6150869965
 10
87.2406031471
 20
245.9493649533
 10
87.1684361279
 20
247.1831249843
 10
86.9945284568
 20
248.303707042
 10
86.7206646619
 20
249.2996124382
 10
86.3496549561
 20
250.1606218357
 10
85.8853064012
 20
250.8779001131
 10
85.3323838418
 20
251.4440870246
  0
LWPOLYLINE
  5
106
330
1F
100
AcDbEntity
  8
0
  6
Continuous
 62
     7
370
    25
100
AcDbPolyline
 90
       24
 70
   128
 43
0.0
 10
80.9828630892
 20
252.5671023214
 10
80.9304195131
 20
252.5422034085
 10
79.9344785527
 20
251.9950710531
 10
78.9127183124
 20
251.2953765575
 10
77.8749789019
 20
250.4498583621
 10
76.8312543191
 20
249.4666592695
 10
75.7915962022
 20
248.3552480244
 10
74.7660170272
 20
247.1263281246
 10
73.7643936823
 20
245.7917347404
 10
72.7963723477
 20
244.3643207359
 10
71.8712755981
 20
242.8578328882
 10
70.9980126209
 20
241.2867794986
 10
70.1849934159
 20
239.6662906704
 10
69.4400478026
 20
238.0119725966
 10
68.7703500144
 20
236.3397572647
 10
68.1823496071
 20
234.6657490224
 10
67.6817093461
 20
233.0060694843
 10
67.2732506707
 20
231.3767022715
 10
66.9609072613
 20
229.7933390811
 10
66.7476871557
 20
228.271228566
 10
66.63564378
 20
226.8250294827
 10
66.6258561733
 20
225.4686695189
 10
66.7184185954
 20
224.2152111625
 10
66.8545031005
 20
223.3499749281
  0
LWPOLYLINE
  5
107
330
1F
100
AcDbEntity
  8
0
  6
Continuous
 62
     7
370
    25
100
AcDbPolyline
 90
       26
 70
   128
 43
0.0
 10
72.1546464629
 20
219.2421056351
 10
72.6160521705
 20
219.37567186
 10
73.5765823952
 20
219.7649728915
 10
74.5725233556
 20
220.3121052469
 10
75.5942835959
 20
221.0117997426
 10
76.6320230064
 20
221.8573179379
 10
77.6757475892
 20
222.8405170305
 10
78.7154057061
 20
223.9519282756
 10
79.7409848811
 20
225.1808481755
 10
80.742608226
 20
226.5154415596
 10
81.7106295606
 20
227.9428555641
 10
82.6357263102
 20
229.4493434119
 10
83.5089892874
 20
231.0203968014
 10
84.3220084924
 20
232.6408856297
 10
85.0669541057
 20
234.2952037035
 10
85.7366518939
 20
235.9674190354
 10
86.3246523012
 20
237.6414272776
 10
86.8252925622
 20
239.3011068157
 10
87.2337512376
 20
240.9304740285
 10
87.546094647
 20
242.5138372189
 10
87.7593147526
 20
244.035947734
 10
87.8713581283
 20
245.4821468173
 10
87.881145735
 20
246.8385067811
 10
87.7885833129
 20
248.0919651376
 10
87.5945622886
 20
249.2304503974
 10
87.3043243316
 20
250.2336609096
  0
LWPOLYLINE
  5
108
330
1F
100
AcDbEntity
  8
0
  6
Continuous
 62
     7
370
    25
100
AcDbPolyline
 90
       11
 70
   128
 43
0.0
 10
73.6857574546
 20
219.4254295391
 10
73.1573495969
 20
219.196777457
 10
72.2234163145
 20
218.9009502389
 10
71.338357427
 20
218.7653065774
 10
70.5104364908
 20
218.7911129407
 10
69.7473835804
 20
218.9781283817
 10
69.0563231155
 20
219.3246067878
 10
68.4437073412
 20
219.8273131834
 10
67.9152560861
 20
220.4815539342
 10
67.4759033571
 20
221.2812205708
 10
67.1558897062
 20
222.1326134401
  0
LWPOLYLINE
  5
109
330
1F
100
AcDbEntity
  8
0
  6
Continuous
 62
     7
370
    25
100
AcDbPolyline
 90
        8
 70
   128
 43
0.0
 10
81.218150923
 20
252.683261048
 10
81.2761717418
 20
252.7105043398
 10
82.2312976503
 20
253.0854801934
 10
83.1418570621
 20
253.3014678578
 10
83.9993483293
 20
253.3564507144
 10
84.7957652869
 20
253.2499154031
 10
85.5236720045
 20
252.9828566154
 10
86.1762722131
 20
252.5577678073
  0
LWPOLYLINE
  5
10A
330
1F
100
AcDbEntity
  8
0
  6
Continuous
 62
     7
370
    25
100
AcDbPolyline
 90
       34
 70
   128
 43
0.0
 10
73.3541471339
 20
217.2642207955
 10
74.006835247
 20
217.03372827
 10
74.8032522047
 20
216.9271929587
 10
75.6607434719
 20
216.9821758153
 10
76.5713028836
 20
217.1981634797
 10
77.5264287921
 20
217.5731393332
 10
78.517203444
 20
218.1036023274
 10
79.5343762434
 20
218.7845996722
 10
80.5684501218
 20
219.6097730788
 10
81.6097702102
 20
220.5714181255
 10
82.6486139834
 20
221.6605561916
 10
83.675282037
 20
222.8670182884
 10
84.680188648
 20
224.1795400044
 10
85.6539512742
 20
225.585866678
 10
86.5874781562
 20
227.0728678159
 10
87.4720532051
 20
228.6266596892
 10
88.299417382
 20
230.2327349617
 10
89.0618458105
 20
231.8760981414
 10
89.7522199018
 20
233.5414055891
 10
90.364093819
 20
235.2131087778
 10
90.8917546602
 20
236.8755994653
 10
91.3302757983
 20
238.5133554239
 10
91.6755628796
 20
240.1110853675
 10
91.9243920516
 20
241.6538717222
 10
92.0744400634
 20
243.1273099074
 10
92.1243059572
 20
244.5176428278
 10
92.0735241485
 20
245.8118893194
 10
91.9225687734
 20
246.9979653516
 10
91.6728492616
 20
248.064796852
 10
91.3266971768
 20
249.0024231023
 10
90.8873444478
 20
249.8020897388
 10
90.3588931927
 20
250.4563304897
 10
89.7462774185
 20
250.9590368852
 10
89.3349473947
 20
251.1886076437
  0
LWPOLYLINE
  5
10B
330
1F
100
AcDbEntity
  8
0
  6
Continuous
 62
     7
370
    25
100
AcDbPolyline
 90
       27
 70
   128
 43
0.0
 10
86.7370338346
 20
250.1570035183
 10
86.9341417383
 20
249.663280101
 10
87.2157150864
 20
248.6667224673
 10
87.3982794748
 20
247.5458036829
 10
87.4800204965
 20
246.3116639424
 10
87.4601257726
 20
244.976568681
 10
87.3387930256
 20
243.5537866752
 10
87.1172281151
 20
242.0574581717
 10
86.7976330525
 20
240.5024543556
 10
86.3831841173
 20
238.9042295533
 10
85.8780002891
 20
237.2786676409
 10
85.2871023118
 20
235.6419241831
 10
84.616362795
 20
234.0102658717
 10
83.8724478492
 20
232.39990886
 10
83.0627508356
 20
230.8268575995
 10
82.1953188867
 20
229.3067457803
 10
81.278772931
 20
227.8546809567
 10
80.3222220139
 20
226.4850944012
 10
79.3351727683
 20
225.2115976804
 10
78.327434933
 20
224.0468473767
 10
77.3090238593
 20
223.002419302
 10
76.290060974
 20
222.0886934518
 10
75.2806731881
 20
221.314750844
 10
74.2908922508
 20
220.688283268
 10
73.3305550499
 20
220.2155168399
 10
72.4092058478
 20
219.9011501251
 10
72.29029751
 20
219.8715069319
  0
LWPOLYLINE
  5
10C
330
1F
100
AcDbEntity
  8
0
  6
Continuous
 62
     7
370
    25
100
AcDbPolyline
 90
       22
 70
   128
 43
0.0
 10
67.2358116825
 20
223.9118805405
 10
67.1874917853
 20
224.1860366156
 10
67.0551745995
 20
225.3650314615
 10
67.0242129629
 20
226.6512478307
 10
67.0949145861
 20
228.0319027271
 10
67.2665768045
 20
229.4932745821
 10
67.5374935619
 20
231.0208396256
 10
67.9049723659
 20
232.5994162299
 10
68.365361047
 20
234.2133157916
 10
68.9140840556
 20
235.8464986516
 10
69.5456879361
 20
237.482733505
 10
70.2538955252
 20
239.1057587148
 10
71.0316683378
 20
240.6994439272
 10
71.8712765182
 20
242.2479503825
 10
72.7643756631
 20
243.735888328
 10
73.7020897519
 20
245.1484699678
 10
74.6750993609
 20
246.471656431
 10
75.6737342832
 20
247.692297296
 10
76.6880696365
 20
248.7982612855
 10
77.7080245003
 20
249.7785568326
 10
78.7234621048
 20
250.6234413196
 10
79.5431285755
 20
251.2075988552
  0
ARC
  5
10D
330
1F
100
AcDbEntity
  8
0
  6
Continuous
 62
     7
370
    25
100
AcDbCircle
 10
83.3514276863
 20
248.4838004709
 30
0.0
 40
3.769344126311452
100
AcDbArc
 50
53.1670291164
 51
106.7418258718
  0
ARC
  5
10E
330
1F
100
AcDbEntity
  8
0
  6
Continuous
 62
     7
370
    25
100
AcDbCircle
 10
71.5960038332
 20
223.5569703466
 30
0.0
 40
3.712434994723885
100
AcDbArc
 50
206.0023031354
 51
293.8001917524
  0
LINE
  5
10F
330
1F
100
AcDbEntity
  8
0
  6
Continuous
 62
     7
370
    25
100
AcDbLine
 10
70.752915131
 20
219.9822161143
 30
0.0
 11
70.8301702271
 21
219.9206699653
 31
0.0
  0
LWPOLYLINE
  5
110
330
1F
100
AcDbEntity
  8
0
  6
Continuous
 62
     7
370
    25
100
AcDbPolyline
 90
        3
 70
   128
 43
0.0
 10
85.8162172399
 20
251.409169333
 10
85.6692042999
 20
251.4454214124
 10
85.4886129288
 20
251.4805805798
  0
LINE
  5
111
330
1F
100
AcDbEntity
  8
0
  6
Continuous
 62
     7
370
    25
100
AcDbLine
 10
70.6797380205
 20
220.0439821005
 30
0.0
 11
70.752915131
 21
219.9822161143
 31
0.0
  0
LINE
  5
112
330
1F
100
AcDbEntity
  8
0
  6
Continuous
 62
     7
370
    25
100
AcDbLine
 10
90.7647325505
 20
250.1215106093
 30
0.0
 11
90.4701394676
 21
250.3389094852
 31
0.0
  0
LWPOLYLINE
  5
113
330
1F
100
AcDbEntity
  8
0
  6
Continuous
 62
     7
370
    25
100
AcDbPolyline
 90
       32
 70
   128
 43
0.0
 10
74.7321726236
 20
216.9300146417
 10
74.9464502927
 20
216.871838146
 10
75.7470511136
 20
216.7713956703
 10
76.6094386849
 20
216.8353426175
 10
77.5253077427
 20
217.0630631434
 10
78.4858379674
 20
217.452364175
 10
79.4817789278
 20
217.9994965304
 10
80.5035391681
 20
218.699191026
 10
81.5412785785
 20
219.5447092214
 10
82.5850031613
 20
220.527908314
 10
83.6246612782
 20
221.6393195591
 10
84.6502404532
 20
222.868239459
 10
85.6518637982
 20
224.2028328431
 10
86.6198851328
 20
225.6302468476
 10
87.5449818824
 20
227.1367346954
 10
88.4182448596
 20
228.7077880849
 10
89.2312640646
 20
230.3282769131
 10
89.9762096779
 20
231.9825949869
 10
90.6459074661
 20
233.6548103188
 10
91.2339078734
 20
235.3288185611
 10
91.7345481344
 20
236.9884980992
 10
92.1430068098
 20
238.617865312
 10
92.4553502191
 20
240.2012285024
 10
92.6685703248
 20
241.7233390175
 10
92.7806137004
 20
243.1695381008
 10
92.7904013072
 20
244.5258980646
 10
92.6978388851
 20
245.7793564211
 10
92.5038178608
 20
246.9178416809
 10
92.2102067628
 20
247.9303896088
 10
91.8198332266
 20
248.8072488147
 10
91.3364567626
 20
249.539974665
 10
90.7647325505
 20
250.1215106093
  0
LWPOLYLINE
  5
114
330
1F
100
AcDbEntity
  8
0
  6
Continuous
 62
     7
370
    25
100
AcDbPolyline
 90
       34
 70
   128
 43
0.0
 10
108.5371454011
 20
200.6905249938
 10
109.1898335142
 20
200.4600324683
 10
109.9862504718
 20
200.353497157
 10
110.843741739
 20
200.4084800136
 10
111.7543011508
 20
200.624467678
 10
112.7094270592
 20
200.9994435316
 10
113.7002017111
 20
201.5299065257
 10
114.7173745105
 20
202.2109038705
 10
115.751448389
 20
203.0360772771
 10
116.7927684774
 20
203.9977223238
 10
117.8316122506
 20
205.0868603899
 10
118.8582803042
 20
206.2933224867
 10
119.8631869152
 20
207.6058442027
 10
120.8369495413
 20
209.0121708763
 10
121.7704764233
 20
210.4991720142
 10
122.6550514722
 20
212.0529638875
 10
123.4824156491
 20
213.65903916
 10
124.2448440776
 20
215.3024023397
 10
124.9352181689
 20
216.9677097874
 10
125.5470920861
 20
218.6394129761
 10
126.0747529273
 20
220.3019036636
 10
126.5132740654
 20
221.9396596222
 10
126.8585611467
 20
223.5373895658
 10
127.1073903187
 20
225.0801759205
 10
127.2574383306
 20
226.5536141057
 10
127.3073042243
 20
227.9439470261
 10
127.2565224157
 20
229.2381935177
 10
127.1055670406
 20
230.4242695499
 10
126.8558475287
 20
231.4911010503
 10
126.5096954439
 20
232.4287273006
 10
126.070342715
 20
233.2283939371
 10
125.5418914599
 20
233.882634688
 10
124.9292756856
 20
234.3853410835
 10
124.5179456618
 20
234.614911842
  0
LWPOLYLINE
  5
115
330
1F
100
AcDbEntity
  8
0
  6
Continuous
 62
     7
370
    25
100
AcDbPolyline
 90
       36
 70
   128
 43
0.0
 10
73.7760332799
 20
217.0986362777
 10
74.0971377915
 20
216.9153522715
 10
74.8250445091
 20
216.6482934839
 10
75.6214614667
 20
216.5417581726
 10
76.4789527339
 20
216.5967410292
 10
77.3895121457
 20
216.8127286936
 10
78.3446380541
 20
217.1877045472
 10
79.335412706
 20
217.7181675413
 10
80.3525855054
 20
218.3991648861
 10
81.3866593839
 20
219.2243382927
 10
82.4279794722
 20
220.1859833394
 10
83.4668232454
 20
221.2751214055
 10
84.493491299
 20
222.4815835023
 10
85.4983979101
 20
223.7941052184
 10
86.4721605362
 20
225.2004318919
 10
87.4056874182
 20
226.6874330298
 10
88.2902624671
 20
228.2412249031
 10
89.117626644
 20
229.8473001756
 10
89.8800550725
 20
231.4906633553
 10
90.5704291638
 20
233.155970803
 10
91.182303081
 20
234.8276739917
 10
91.7099639222
 20
236.4901646792
 10
92.1484850603
 20
238.1279206378
 10
92.4937721416
 20
239.7256505815
 10
92.7426013136
 20
241.2684369361
 10
92.8926493254
 20
242.7418751213
 10
92.9425152192
 20
244.1322080417
 10
92.8917334105
 20
245.4264545333
 10
92.7407780354
 20
246.6125305655
 10
92.4910585236
 20
247.6793620659
 10
92.1449064388
 20
248.6169883162
 10
91.7055537099
 20
249.4166549528
 10
91.1771024548
 20
250.0708957036
 10
90.5644866805
 20
250.5736020992
 10
89.8734262155
 20
250.9200805052
 10
89.7312705107
 20
250.9687573754
  0
LINE
  5
116
330
1F
100
AcDbEntity
  8
0
  6
Continuous
 62
     8
370
    25
100
AcDbLine
 10
113.4151653523
 20
152.8985385681
 30
0.0
 11
113.4081554962
 21
146.018608134
 31
0.0
  0
SPLINE
  5
117
330
1F
100
AcDbEntity
  8
0
  6
Continuous
 62
     8
370
    25
100
AcDbSpline
210
0.0
220
0.0
230
1.0
 70
     8
 71
     3
 72
     9
 73
     5
 74
     0
 42
0.00000001
 43
0.00000001
 40
0.0
 40
0.0
 40
0.0
 40
0.0
 40
0.4854605511884363
 40
1.0
 40
1.0
 40
1.0
 40
1.0
 10
98.69564815542655
 20
176.8336806664014
 30
0.0
 10
99.02498216925052
 20
177.0123351664093
 30
0.0
 10
99.70337717584317
 20
177.380345501277
 30
0.0
 10
100.7118003436692
 20
177.6758278867819
 30
0.0
 10
101.2306738446112
 20
177.8278652305532
 30
0.0
  0
SPLINE
  5
118
330
1F
100
AcDbEntity
  8
0
  6
Continuous
 62
     8
370
    25
100
AcDbSpline
210
0.0
220
0.0
230
1.0
 70
     8
 71
     3
 72
    18
 73
    14
 74
     0
 42
0.00000001
 43
0.00000001
 40
0.0
 40
0.0
 40
0.0
 40
0.0
 40
0.0678607962887408
 40
0.1777040299787735
 40
0.234988892847194
 40
0.2922607712141823
 40
0.4090985626587689
 40
0.5259363541033556
 40
0.6403462043745012
 40
0.7501894380645338
 40
0.8538249453024097
 40
0.9574604525402858
 40
1.0
 40
1.0
 40
1.0
 40
1.0
 10
114.6255500927018
 20
178.1904765288001
 30
0.0
 10
115.028647604131
 20
178.1225533265039
 30
0.0
 10
116.0842210157747
 20
177.9446858767066
 30
0.0
 10
117.2670602827273
 20
177.6168465021031
 30
0.0
 10
118.252045840774
 20
177.2717466102138
 30
0.0
 10
119.13781980206
 20
176.8869586314986
 30
0.0
 10
119.9971073261293
 20
176.3587475596363
 30
0.0
 10
120.5642874016137
 20
175.6826708296348
 30
0.0
 10
120.6502178259937
 20
175.0056729466492
 30
0.0
 10
120.2981998888284
 20
174.3655381430168
 30
0.0
 10
119.545844240097
 20
173.785268887209
 30
0.0
 10
118.7305015246842
 20
173.3541783289002
 30
0.0
 10
118.0600019611116
 20
173.1477835473663
 30
0.0
 10
117.864874631997
 20
173.08771898558
 30
0.0
  0
SPLINE
  5
119
330
1F
100
AcDbEntity
  8
0
  6
Continuous
 62
     8
370
    25
100
AcDbSpline
210
0.0
220
0.0
230
1.0
 70
     8
 71
     3
 72
    15
 73
    11
 74
     0
 42
0.00000001
 43
0.00000001
 40
0.0
 40
0.0
 40
0.0
 40
0.0
 40
0.0253343152158343
 40
0.1079136125463663
 40
0.1904741919927622
 40
0.3589023287743295
 40
0.5273304655558971
 40
0.6922585908856754
 40
0.8506036859078537
 40
1.0
 40
1.0
 40
1.0
 40
1.0
 10
100.9779848605371
 20
173.0202107161181
 30
0.0
 10
100.8873521486303
 20
173.0434566730464
 30
0.0
 10
100.5012946107252
 20
173.1424747506169
 30
0.0
 10
99.95137423260013
 20
173.3551588796541
 30
0.0
 10
99.05266598933589
 20
173.7358833983559
 30
0.0
 10
98.20012568758422
 20
174.2660818789462
 30
0.0
 10
97.62953167896404
 20
174.9416651106376
 30
0.0
 10
97.54898090341979
 20
175.6182664773873
 30
0.0
 10
97.8838945478047
 20
176.260342645805
 30
0.0
 10
98.43036049533352
 20
176.6463091530526
 30
0.0
 10
98.69564815542655
 20
176.8336806664014
 30
0.0
  0
LWPOLYLINE
  5
11A
330
1F
100
AcDbEntity
  8
0
  6
Continuous
 62
     8
370
    25
100
AcDbPolyline
 90
       28
 70
   128
 43
0.0
 10
121.0924575154
 20
174.7424763489
 10
121.092039872
 20
174.6961235383
 10
120.9874537748
 20
174.26717661
 10
120.7025607858
 20
173.8468211778
 10
120.2416795923
 20
173.4414294015
 10
119.6117966832
 20
173.0571466072
 10
118.8224604415
 20
172.6997981304
 10
117.8856364
 20
172.3748010096
 10
116.8155258562
 20
172.08708187
 10
115.6283505952
 20
171.8410022404
 10
114.3421069837
 20
171.6402924372
 10
112.9762931637
 20
171.4879950164
 10
111.5516134807
 20
171.3864186516
 10
110.0896646262
 20
171.337103137
 10
108.6126082548
 20
171.3407960456
 10
107.1428350354
 20
171.3974413966
 10
105.7026252317
 20
171.5061805042
 10
104.3138109564
 20
171.6653649944
 10
102.9974452181
 20
171.8725817926
 10
101.7734827797
 20
172.1246897034
 10
100.6604776641
 20
172.4178670278
 10
99.6753018942
 20
172.7476694963
 10
98.8328897306
 20
173.1090976399
 10
98.1460112828
 20
173.4966725762
 10
97.6250789281
 20
173.9045190643
 10
97.2779894699
 20
174.3264545672
 10
97.1100044306
 20
174.7560829726
 10
97.0936615983
 20
174.9253957226
  0
LINE
  5
11B
330
1F
100
AcDbEntity
  8
0
  6
Continuous
 62
     8
370
    25
100
AcDbLine
 10
121.0719797182
 20
172.5814557005
 30
0.0
 11
121.2057693276
 21
172.5943025269
 31
0.0
  0
LINE
  5
11C
330
1F
100
AcDbEntity
  8
0
  6
Continuous
 62
     8
370
    25
100
AcDbLine
 10
121.0352350005
 20
168.755554178
 30
0.0
 11
121.1690246098
 21
168.7684010043
 31
0.0
  0
ARC
  5
11D
330
1F
100
AcDbEntity
  8
0
  6
Continuous
 62
     8
370
    25
100
AcDbCircle
 10
112.4938316353
 20
189.8762675952
 30
0.0
 40
8.388674527087845
100
AcDbArc
 50
96.5479863034
 51
184.1795881563
  0
LWPOLYLINE
  5
11E
330
1F
100
AcDbEntity
  8
0
  6
Continuous
 62
     8
370
    25
100
AcDbPolyline
 90
       25
 70
   128
 43
0.0
 10
124.0450072248
 20
195.7398902547
 10
124.4513070053
 20
195.9457868282
 10
125.4564545152
 20
196.5522251801
 10
126.4832769498
 20
197.3061910169
 10
127.5221871447
 20
198.2006447626
 10
128.5634850753
 20
199.2272351437
 10
129.5974484233
 20
200.3763771624
 10
130.6144233517
 20
201.6373415892
 10
131.6049146394
 20
202.9983551391
 10
132.5596743362
 20
204.4467103953
 10
133.4697881081
 20
205.9688844549
 10
134.326758468
 20
207.5506651889
 10
135.1225841146
 20
209.1772839367
 10
135.8498346381
 20
210.8335533975
 10
136.5017198965
 20
212.5040094294
 10
137.0721534126
 20
214.1730554346
 10
137.5558092025
 20
215.8251079803
 10
137.9481715024
 20
217.4447422969
 10
138.2455769311
 20
219.0168362953
 10
138.4452486944
 20
220.5267117572
 10
138.5453225107
 20
221.9602713825
 10
138.5448640178
 20
223.304130411
 10
138.4438774966
 20
224.5457415932
 10
138.2433058309
 20
225.6735123399
 10
138.2162384804
 20
225.7860926847
  0
ARC
  5
11F
330
1F
100
AcDbEntity
  8
0
  6
Continuous
 62
     8
370
    25
100
AcDbCircle
 10
112.2243753454
 20
192.1727815773
 30
0.0
 40
6.786252091114984
100
AcDbArc
 50
47.3213020142
 51
50.6278748312
  0
ARC
  5
120
330
1F
100
AcDbEntity
  8
0
  6
Continuous
 62
     8
370
    25
100
AcDbCircle
 10
107.5990358031
 20
193.8963126125
 30
0.0
 40
8.659335343901837
100
AcDbArc
 50
105.6663481803
 51
177.0016100313
  0
LWPOLYLINE
  5
121
330
1F
100
AcDbEntity
  8
0
  6
Continuous
 62
     8
370
    25
100
AcDbPolyline
 90
        7
 70
   128
 43
0.0
 10
85.8554769784
 20
252.4341193258
 10
85.2009110349
 20
252.858864855
 10
84.4698071878
 20
253.1227294375
 10
83.6692063668
 20
253.2231719132
 10
82.8068187956
 20
253.159224966
 10
81.8909497378
 20
252.9315044401
 10
80.9828630892
 20
252.5671023214
  0
LWPOLYLINE
  5
122
330
1F
100
AcDbEntity
  8
0
  6
Continuous
 62
     8
370
    25
100
AcDbPolyline
 90
       11
 70
   128
 43
0.0
 10
66.8545031005
 20
223.3499749281
 10
66.9124396197
 20
223.0767259026
 10
67.2060507177
 20
222.0641779747
 10
67.5964242539
 20
221.1873187688
 10
68.0798007178
 20
220.4545929185
 10
68.6515249299
 20
219.8730569742
 10
69.3060908734
 20
219.448311445
 10
70.0371947205
 20
219.1844468625
 10
70.8377955415
 20
219.0840043868
 10
71.7001831127
 20
219.147951334
 10
72.1546464629
 20
219.2421056351
  0
ARC
  5
123
330
1F
100
AcDbEntity
  8
0
  6
Continuous
 62
     8
370
    25
100
AcDbCircle
 10
82.3966910265
 20
248.5795403178
 30
0.0
 40
5.178897526516935
100
AcDbArc
 50
18.6264182477
 51
48.0977765968
  0
LWPOLYLINE
  5
124
330
1F
100
AcDbEntity
  8
0
  6
Continuous
 62
     8
370
    25
100
AcDbPolyline
 90
       28
 70
   128
 43
0.0
 10
86.1762722131
 20
252.5577678073
 10
86.7474727605
 20
251.9786179184
 10
87.2319405009
 20
251.2508143152
 10
87.6251520898
 20
250.3811523038
 10
87.9234362163
 20
249.3777516842
 10
88.1240078819
 20
248.2499809375
 10
88.2249944032
 20
247.0083697553
 10
88.2254528961
 20
245.6645107268
 10
88.1253790797
 20
244.2309511015
 10
87.9257073165
 20
242.7210756395
 10
87.6283018877
 20
241.1489816412
 10
87.2359395879
 20
239.5293473246
 10
86.752283798
 20
237.8772947789
 10
86.1818502818
 20
236.2082487737
 10
85.5299650235
 20
234.5377927418
 10
84.8027144999
 20
232.881523281
 10
84.0068888534
 20
231.2549045332
 10
83.1499184935
 20
229.6731237992
 10
82.2398047216
 20
228.1509497396
 10
81.2850450248
 20
226.7025944834
 10
80.294553737
 20
225.3415809335
 10
79.2775788087
 20
224.0806165067
 10
78.2436154606
 20
222.931474488
 10
77.2023175301
 20
221.9048841069
 10
76.1634073352
 20
221.0104303612
 10
75.1365849006
 20
220.2564645244
 10
74.1314373907
 20
219.6500261725
 10
73.6857574546
 20
219.4254295391
  0
ARC
  5
125
330
1F
100
AcDbEntity
  8
0
  6
Continuous
 62
     8
370
    25
100
AcDbCircle
 10
82.5360753408
 20
248.3625602393
 30
0.0
 40
4.568159251614943
100
AcDbArc
 50
23.1297952936
 51
49.0824096906
  0
LWPOLYLINE
  5
126
330
1F
100
AcDbEntity
  8
0
  6
Continuous
 62
     8
370
    25
100
AcDbPolyline
 90
       10
 70
   128
 43
0.0
 10
72.29029751
 20
219.8715069319
 10
71.5360014268
 20
219.748307441
 10
70.7196200849
 20
219.7585078071
 10
69.9681753865
 20
219.9316498473
 10
69.2891355267
 20
220.2660127985
 10
68.6892491086
 20
220.7582736113
 10
68.1744780731
 20
221.4035399766
 10
67.7499384458
 20
222.1953989474
 10
67.4198494925
 20
223.1259806735
 10
67.2358116825
 20
223.9118805405
  0
LWPOLYLINE
  5
127
330
1F
100
AcDbEntity
  8
0
  6
Continuous
 62
     8
370
    25
100
AcDbPolyline
 90
        9
 70
   128
 43
0.0
 10
79.5431285755
 20
251.2075988552
 10
79.724290575
 20
251.3245179049
 10
80.7005632279
 20
251.8748189745
 10
81.6425774273
 20
252.2688753891
 10
82.5409710128
 20
252.5027708391
 10
83.3868153454
 20
252.5741807662
 10
84.1717040441
 20
252.4823954667
 10
84.8878365323
 20
252.2283271441
 10
85.5280955636
 20
251.8145008434
  0
LINE
  5
128
330
1F
100
AcDbEntity
  8
0
  6
Continuous
 62
     8
370
    25
100
AcDbLine
 10
82.2656317258
 20
252.0933713976
 30
0.0
 11
82.1408683429
 21
252.0602929023
 31
0.0
  0
LINE
  5
129
330
1F
100
AcDbEntity
  8
0
  6
Continuous
 62
     8
370
    25
100
AcDbLine
 10
68.1009640265
 20
222.2560817654
 30
0.0
 11
68.2593547834
 21
221.929411835
 31
0.0
  0
ENDSEC
  0
SECTION
  2
OBJECTS
  0
DICTIONARY
  5
C
330
0
100
AcDbDictionary
281
     1
  3
ACAD_GROUP
350
D
  3
ACAD_LAYOUT
350
1A
  3
ACAD_MLINESTYLE
350
17
  3
ACAD_PLOTSETTINGS
350
19
  3
ACAD_PLOTSTYLENAME
350
E
  3
ACAD_SCALELIST
350
47
  3
DWGPROPS
350
12A
  0
DICTIONARY
  5
D
102
{ACAD_REACTORS
330
C
102
}
330
C
100
AcDbDictionary
281
     1
  0
DICTIONARY
  5
1A
102
{ACAD_REACTORS
330
C
102
}
330
C
100
AcDbDictionary
281
     1
  3
Layout1
350
1E
  3
Layout2
350
26
  3
Model
350
22
  0
DICTIONARY
  5
17
102
{ACAD_REACTORS
330
C
102
}
330
C
100
AcDbDictionary
281
     1
  3
Standard
350
18
  0
DICTIONARY
  5
19
102
{ACAD_REACTORS
330
C
102
}
330
C
100
AcDbDictionary
281
     1
  0
ACDBDICTIONARYWDFLT
  5
E
102
{ACAD_REACTORS
330
C
102
}
330
C
100
AcDbDictionary
281
     1
  3
Normal
350
F
100
AcDbDictionaryWithDefault
340
F
  0
DICTIONARY
  5
47
102
{ACAD_REACTORS
330
C
102
}
330
C
100
AcDbDictionary
281
     1
  3
A0
350
48
  3
A1
350
49
  3
A2
350
4A
  3
A3
350
4B
  3
A4
350
4C
  3
A5
350
4D
  3
A6
350
4E
  3
A7
350
4F
  3
A8
350
50
  3
A9
350
51
  3
B0
350
52
  3
B1
350
53
  3
B2
350
54
  3
B3
350
55
  3
B4
350
56
  3
B5
350
57
  3
B6
350
58
  3
B7
350
59
  3
B8
350
5A
  3
B9
350
5B
  3
C0
350
5C
  3
C1
350
5D
  3
C2
350
5E
  3
C3
350
5F
  3
C4
350
60
  3
C5
350
61
  3
C6
350
62
  3
C7
350
63
  3
C8
350
64
  3
C9
350
65
  3
D0
350
66
  3
D1
350
67
  3
D2
350
68
  0
XRECORD
  5
12A
102
{ACAD_REACTORS
330
C
102
}
330
C
100
AcDbXrecord
280
     1
  1
DWGPROPS COOKIE
  2

  3

  4

  6

  7

  8
9128
  9

300
=
301
=
302
=
303
=
304
=
305
=
306
=
307
=
308
=
309
=
 40
0.0
 41
2460018.226634977
 42
2460018.226635197
  1

 90
        0
  0
LAYOUT
  5
1E
102
{ACAD_REACTORS
330
1A
102
}
330
1A
100
AcDbPlotSettings
  1

  2
none_device
  4

  6

 40
0.0
 41
0.0
 42
0.0
 43
0.0
 44
0.0
 45
0.0
 46
0.0
 47
0.0
 48
0.0
 49
0.0
140
0.0
141
0.0
142
1.0
143
1.0
 70
   688
 72
     1
 73
     0
 74
     5
  7

 75
    16
147
1.0
148
0.0
149
0.0
100
AcDbLayout
  1
Layout1
 70
     1
 71
     1
 10
0.0
 20
0.0
 11
420.0
 21
297.0
 12
0.0
 22
0.0
 32
0.0
 14
1.0000000000E+20
 24
1.0000000000E+20
 34
1.0000000000E+20
 15
-1.0000000000E+20
 25
-1.0000000000E+20
 35
-1.0000000000E+20
146
0.0
 13
0.0
 23
0.0
 33
0.0
 16
1.0
 26
0.0
 36
0.0
 17
0.0
 27
1.0
 37
0.0
 76
     0
330
1B
  0
LAYOUT
  5
26
102
{ACAD_REACTORS
330
1A
102
}
330
1A
100
AcDbPlotSettings
  1

  2
none_device
  4

  6

 40
0.0
 41
0.0
 42
0.0
 43
0.0
 44
0.0
 45
0.0
 46
0.0
 47
0.0
 48
0.0
 49
0.0
140
0.0
141
0.0
142
1.0
143
1.0
 70
   688
 72
     1
 73
     0
 74
     5
  7

 75
    16
147
1.0
148
0.0
149
0.0
100
AcDbLayout
  1
Layout2
 70
     1
 71
     2
 10
0.0
 20
0.0
 11
0.0
 21
0.0
 12
0.0
 22
0.0
 32
0.0
 14
0.0
 24
0.0
 34
0.0
 15
0.0
 25
0.0
 35
0.0
146
0.0
 13
0.0
 23
0.0
 33
0.0
 16
1.0
 26
0.0
 36
0.0
 17
0.0
 27
1.0
 37
0.0
 76
     0
330
23
  0
LAYOUT
  5
22
102
{ACAD_REACTORS
330
1A
102
}
330
1A
100
AcDbPlotSettings
  1

  2
none_device
  4
Letter_(8.50_x_11.00_Inches)
  6

 40
6.35
 41
6.35
 42
6.35000508
 43
6.35000508
 44
215.9
 45
279.4
 46
0.0
 47
0.0
 48
0.0
 49
0.0
140
0.0
141
0.0
142
1.0
143
1.0
 70
  1712
 72
     1
 73
     0
 74
     0
  7

 75
     0
147
1.0
148
0.0
149
0.0
100
AcDbLayout
  1
Model
 70
     1
 71
     0
 10
0.0
 20
0.0
 11
210.0
 21
297.0
 12
0.0
 22
0.0
 32
0.0
 14
0.0
 24
0.0
 34
0.0
 15
210.0
 25
297.0
 35
0.0
146
0.0
 13
0.0
 23
0.0
 33
0.0
 16
1.0
 26
0.0
 36
0.0
 17
0.0
 27
1.0
 37
0.0
 76
     0
330
1F
331
29
  0
MLINESTYLE
  5
18
102
{ACAD_REACTORS
330
17
102
}
330
17
100
AcDbMlineStyle
  2
Standard
 70
     0
  3

 62
   256
 51
90.0
 52
90.0
 71
     2
 49
0.5
 62
   256
  6
BYLAYER
 49
-0.5
 62
   256
  6
BYLAYER
  0
ACDBPLACEHOLDER
  5
F
102
{ACAD_REACTORS
330
E
102
}
330
E
  0
SCALE
  5
48
102
{ACAD_REACTORS
330
47
102
}
330
47
100
AcDbScale
 70
     0
300
1:1
140
1.0
141
1.0
290
     1
  0
SCALE
  5
49
102
{ACAD_REACTORS
330
47
102
}
330
47
100
AcDbScale
 70
     0
300
1:2
140
1.0
141
2.0
290
     0
  0
SCALE
  5
4A
102
{ACAD_REACTORS
330
47
102
}
330
47
100
AcDbScale
 70
     0
300
1:4
140
1.0
141
4.0
290
     0
  0
SCALE
  5
4B
102
{ACAD_REACTORS
330
47
102
}
330
47
100
AcDbScale
 70
     0
300
1:5
140
1.0
141
5.0
290
     0
  0
SCALE
  5
4C
102
{ACAD_REACTORS
330
47
102
}
330
47
100
AcDbScale
 70
     0
300
1:8
140
1.0
141
8.0
290
     0
  0
SCALE
  5
4D
102
{ACAD_REACTORS
330
47
102
}
330
47
100
AcDbScale
 70
     0
300
1:10
140
1.0
141
10.0
290
     0
  0
SCALE
  5
4E
102
{ACAD_REACTORS
330
47
102
}
330
47
100
AcDbScale
 70
     0
300
1:16
140
1.0
141
16.0
290
     0
  0
SCALE
  5
4F
102
{ACAD_REACTORS
330
47
102
}
330
47
100
AcDbScale
 70
     0
300
1:20
140
1.0
141
20.0
290
     0
  0
SCALE
  5
50
102
{ACAD_REACTORS
330
47
102
}
330
47
100
AcDbScale
 70
     0
300
1:30
140
1.0
141
30.0
290
     0
  0
SCALE
  5
51
102
{ACAD_REACTORS
330
47
102
}
330
47
100
AcDbScale
 70
     0
300
1:40
140
1.0
141
40.0
290
     0
  0
SCALE
  5
52
102
{ACAD_REACTORS
330
47
102
}
330
47
100
AcDbScale
 70
     0
300
1:50
140
1.0
141
50.0
290
     0
  0
SCALE
  5
53
102
{ACAD_REACTORS
330
47
102
}
330
47
100
AcDbScale
 70
     0
300
1:100
140
1.0
141
100.0
290
     0
  0
SCALE
  5
54
102
{ACAD_REACTORS
330
47
102
}
330
47
100
AcDbScale
 70
     0
300
2:1
140
2.0
141
1.0
290
     0
  0
SCALE
  5
55
102
{ACAD_REACTORS
330
47
102
}
330
47
100
AcDbScale
 70
     0
300
4:1
140
4.0
141
1.0
290
     0
  0
SCALE
  5
56
102
{ACAD_REACTORS
330
47
102
}
330
47
100
AcDbScale
 70
     0
300
8:1
140
8.0
141
1.0
290
     0
  0
SCALE
  5
57
102
{ACAD_REACTORS
330
47
102
}
330
47
100
AcDbScale
 70
     0
300
10:1
140
10.0
141
1.0
290
     0
  0
SCALE
  5
58
102
{ACAD_REACTORS
330
47
102
}
330
47
100
AcDbScale
 70
     0
300
100:1
140
100.0
141
1.0
290
     0
  0
SCALE
  5
59
102
{ACAD_REACTORS
330
47
102
}
330
47
100
AcDbScale
 70
     0
300
1/128" = 1'-0"
140
0.0078125
141
12.0
290
     0
  0
SCALE
  5
5A
102
{ACAD_REACTORS
330
47
102
}
330
47
100
AcDbScale
 70
     0
300
1/64" = 1'-0"
140
0.015625
141
12.0
290
     0
  0
SCALE
  5
5B
102
{ACAD_REACTORS
330
47
102
}
330
47
100
AcDbScale
 70
     0
300
1/32" = 1'-0"
140
0.03125
141
12.0
290
     0
  0
SCALE
  5
5C
102
{ACAD_REACTORS
330
47
102
}
330
47
100
AcDbScale
 70
     0
300
1/16" = 1'-0"
140
0.0625
141
12.0
290
     0
  0
SCALE
  5
5D
102
{ACAD_REACTORS
330
47
102
}
330
47
100
AcDbScale
 70
     0
300
3/32" = 1'-0"
140
0.09375
141
12.0
290
     0
  0
SCALE
  5
5E
102
{ACAD_REACTORS
330
47
102
}
330
47
100
AcDbScale
 70
     0
300
1/8" = 1'-0"
140
0.125
141
12.0
290
     0
  0
SCALE
  5
5F
102
{ACAD_REACTORS
330
47
102
}
330
47
100
AcDbScale
 70
     0
300
3/16" = 1'-0"
140
0.1875
141
12.0
290
     0
  0
SCALE
  5
60
102
{ACAD_REACTORS
330
47
102
}
330
47
100
AcDbScale
 70
     0
300
1/4" = 1'-0"
140
0.25
141
12.0
290
     0
  0
SCALE
  5
61
102
{ACAD_REACTORS
330
47
102
}
330
47
100
AcDbScale
 70
     0
300
3/8" = 1'-0"
140
0.375
141
12.0
290
     0
  0
SCALE
  5
62
102
{ACAD_REACTORS
330
47
102
}
330
47
100
AcDbScale
 70
     0
300
1/2" = 1'-0"
140
0.5
141
12.0
290
     0
  0
SCALE
  5
63
102
{ACAD_REACTORS
330
47
102
}
330
47
100
AcDbScale
 70
     0
300
3/4" = 1'-0"
140
0.75
141
12.0
290
     0
  0
SCALE
  5
64
102
{ACAD_REACTORS
330
47
102
}
330
47
100
AcDbScale
 70
     0
300
1" = 1'-0"
140
1.0
141
12.0
290
     0
  0
SCALE
  5
65
102
{ACAD_REACTORS
330
47
102
}
330
47
100
AcDbScale
 70
     0
300
1-1/2" = 1'-0"
140
1.5
141
12.0
290
     0
  0
SCALE
  5
66
102
{ACAD_REACTORS
330
47
102
}
330
47
100
AcDbScale
 70
     0
300
3" = 1'-0"
140
3.0
141
12.0
290
     0
  0
SCALE
  5
67
102
{ACAD_REACTORS
330
47
102
}
330
47
100
AcDbScale
 70
     0
300
6" = 1'-0"
140
6.0
141
12.0
290
     0
  0
SCALE
  5
68
102
{ACAD_REACTORS
330
47
102
}
330
47
100
AcDbScale
 70
     0
300
1'-0" = 1'-0"
140
12.0
141
12.0
290
     0
  0
ENDSEC
  0
EOF
