  0
SECTION
  2
HEADER
  9
$ACADVER
  1
AC1015
  9
$ACADMAINTVER
 70
     6
  9
$DWGCODEPAGE
  3
DOS932
  9
$INSBASE
 10
0.0
 20
0.0
 30
0.0
  9
$EXTMIN
 10
0.0
 20
0.0
 30
0.0
  9
$EXTMAX
 10
210.0
 20
297.0
 30
0.0
  9
$LIMMIN
 10
0.0
 20
0.0
  9
$LIMMAX
 10
210.0
 20
297.0
  9
$ORTHOMODE
 70
     0
  9
$REGENMODE
 70
     1
  9
$FILLMODE
 70
     1
  9
$QTEXTMODE
 70
     0
  9
$MIRRTEXT
 70
     1
  9
$LTSCALE
 40
1.0
  9
$ATTMODE
 70
     1
  9
$TEXTSIZE
 40
3.5
  9
$TRACEWID
 40
1.0
  9
$TEXTSTYLE
  7
Standard
  9
$CLAYER
  8
0
  9
$CELTYPE
  6
ByLayer
  9
$CECOLOR
 62
   256
  9
$CELTSCALE
 40
1.0
  9
$DISPSILH
 70
     0
  9
$DIMSCALE
 40
1.0
  9
$DIMASZ
 40
1.5
  9
$DIMEXO
 40
1.0
  9
$DIMDLI
 40
3.75
  9
$DIMRND
 40
0.0
  9
$DIMDLE
 40
0.0
  9
$DIMEXE
 40
1.0
  9
$DIMTP
 40
0.0
  9
$DIMTM
 40
0.0
  9
$DIMTXT
 40
3.5
  9
$DIMCEN
 40
2.5
  9
$DIMTSZ
 40
0.0
  9
$DIMTOL
 70
     0
  9
$DIMLIM
 70
     0
  9
$DIMTIH
 70
     1
  9
$DIMTOH
 70
     1
  9
$DIMSE1
 70
     0
  9
$DIMSE2
 70
     0
  9
$DIMTAD
 70
     1
  9
$DIMZIN
 70
     0
  9
$DIMBLK
  1

  9
$DIMASO
 70
     1
  9
$DIMSHO
 70
     1
  9
$DIMPOST
  1

  9
$DIMAPOST
  1

  9
$DIMALT
 70
     0
  9
$DIMALTD
 70
     3
  9
$DIMALTF
 40
0.0393700787
  9
$DIMLFAC
 40
5.0
  9
$DIMTOFL
 70
     1
  9
$DIMTVP
 40
0.0
  9
$DIMTIX
 70
     0
  9
$DIMSOXD
 70
     0
  9
$DIMSAH
 70
     0
  9
$DIMBLK1
  1

  9
$DIMBLK2
  1

  9
$DIMSTYLE
  2
ISO-25
  9
$DIMCLRD
 70
     0
  9
$DIMCLRE
 70
     0
  9
$DIMCLRT
 70
     0
  9
$DIMTFAC
 40
1.0
  9
$DIMGAP
 40
1.5
  9
$DIMJUST
 70
     0
  9
$DIMSD1
 70
     0
  9
$DIMSD2
 70
     0
  9
$DIMTOLJ
 70
     0
  9
$DIMTZIN
 70
     0
  9
$DIMALTZ
 70
     0
  9
$DIMALTTZ
 70
     0
  9
$DIMUPT
 70
     0
  9
$DIMDEC
 70
     1
  9
$DIMTDEC
 70
     1
  9
$DIMALTU
 70
     2
  9
$DIMALTTD
 70
     3
  9
$DIMTXSTY
  7
Standard
  9
$DIMAUNIT
 70
     0
  9
$DIMADEC
 70
     2
  9
$DIMALTRND
 40
0.0
  9
$DIMAZIN
 70
     0
  9
$DIMDSEP
 70
    44
  9
$DIMATFIT
 70
     3
  9
$DIMFRAC
 70
     0
  9
$DIMLDRBLK
  1

  9
$DIMLUNIT
 70
     2
  9
$DIMLWD
 70
    -2
  9
$DIMLWE
 70
    -2
  9
$DIMTMOVE
 70
     0
  9
$LUNITS
 70
     2
  9
$LUPREC
 70
     4
  9
$SKETCHINC
 40
1.0
  9
$FILLETRAD
 40
10.0
  9
$AUNITS
 70
     0
  9
$AUPREC
 70
     2
  9
$MENU
  1
.
  9
$ELEVATION
 40
0.0
  9
$PELEVATION
 40
0.0
  9
$THICKNESS
 40
0.0
  9
$LIMCHECK
 70
     0
  9
$CHAMFERA
 40
0.0
  9
$CHAMFERB
 40
0.0
  9
$CHAMFERC
 40
0.0
  9
$CHAMFERD
 40
0.0
  9
$SKPOLY
 70
     0
  9
$TDCREATE
 40
2460018.599931829
  9
$TDUCREATE
 40
2460018.224931829
  9
$TDUPDATE
 40
2460018.599932118
  9
$TDUUPDATE
 40
2460018.224932118
  9
$TDINDWG
 40
0.0000000116
  9
$TDUSRTIMER
 40
0.0000000116
  9
$USRTIMER
 70
     1
  9
$ANGBASE
 50
0.0
  9
$ANGDIR
 70
     0
  9
$PDMODE
 70
     0
  9
$PDSIZE
 40
-1.0
  9
$PLINEWID
 40
0.0
  9
$SPLFRAME
 70
     0
  9
$SPLINETYPE
 70
     6
  9
$SPLINESEGS
 70
     8
  9
$HANDSEED
  5
22E
  9
$SURFTAB1
 70
     6
  9
$SURFTAB2
 70
     6
  9
$SURFTYPE
 70
     6
  9
$SURFU
 70
     6
  9
$SURFV
 70
     6
  9
$UCSBASE
  2

  9
$UCSNAME
  2

  9
$UCSORG
 10
0.0
 20
0.0
 30
0.0
  9
$UCSXDIR
 10
1.0
 20
0.0
 30
0.0
  9
$UCSYDIR
 10
0.0
 20
1.0
 30
0.0
  9
$UCSORTHOREF
  2

  9
$UCSORTHOVIEW
 70
     0
  9
$UCSORGTOP
 10
0.0
 20
0.0
 30
0.0
  9
$UCSORGBOTTOM
 10
0.0
 20
0.0
 30
0.0
  9
$UCSORGLEFT
 10
0.0
 20
0.0
 30
0.0
  9
$UCSORGRIGHT
 10
0.0
 20
0.0
 30
0.0
  9
$UCSORGFRONT
 10
0.0
 20
0.0
 30
0.0
  9
$UCSORGBACK
 10
0.0
 20
0.0
 30
0.0
  9
$PUCSBASE
  2

  9
$PUCSNAME
  2

  9
$PUCSORG
 10
0.0
 20
0.0
 30
0.0
  9
$PUCSXDIR
 10
1.0
 20
0.0
 30
0.0
  9
$PUCSYDIR
 10
0.0
 20
1.0
 30
0.0
  9
$PUCSORTHOREF
  2

  9
$PUCSORTHOVIEW
 70
     0
  9
$PUCSORGTOP
 10
0.0
 20
0.0
 30
0.0
  9
$PUCSORGBOTTOM
 10
0.0
 20
0.0
 30
0.0
  9
$PUCSORGLEFT
 10
0.0
 20
0.0
 30
0.0
  9
$PUCSORGRIGHT
 10
0.0
 20
0.0
 30
0.0
  9
$PUCSORGFRONT
 10
0.0
 20
0.0
 30
0.0
  9
$PUCSORGBACK
 10
0.0
 20
0.0
 30
0.0
  9
$USERI1
 70
     0
  9
$USERI2
 70
     0
  9
$USERI3
 70
     0
  9
$USERI4
 70
     0
  9
$USERI5
 70
     0
  9
$USERR1
 40
0.0
  9
$USERR2
 40
0.0
  9
$USERR3
 40
0.0
  9
$USERR4
 40
0.0
  9
$USERR5
 40
0.0
  9
$WORLDVIEW
 70
     1
  9
$SHADEDGE
 70
     3
  9
$SHADEDIF
 70
    70
  9
$TILEMODE
 70
     1
  9
$MAXACTVP
 70
    64
  9
$PINSBASE
 10
0.0
 20
0.0
 30
0.0
  9
$PLIMCHECK
 70
     0
  9
$PEXTMIN
 10
1.0000000000E+20
 20
1.0000000000E+20
 30
1.0000000000E+20
  9
$PEXTMAX
 10
-1.0000000000E+20
 20
-1.0000000000E+20
 30
-1.0000000000E+20
  9
$PLIMMIN
 10
0.0
 20
0.0
  9
$PLIMMAX
 10
420.0
 20
297.0
  9
$UNITMODE
 70
     0
  9
$VISRETAIN
 70
     1
  9
$PLINEGEN
 70
     0
  9
$PSLTSCALE
 70
     1
  9
$TREEDEPTH
 70
  3020
  9
$CMLSTYLE
  2
Standard
  9
$CMLJUST
 70
     0
  9
$CMLSCALE
 40
20.0
  9
$PROXYGRAPHICS
 70
     1
  9
$MEASUREMENT
 70
     1
  9
$CELWEIGHT
370
    -1
  9
$ENDCAPS
280
     0
  9
$JOINSTYLE
280
     0
  9
$LWDISPLAY
290
     1
  9
$INSUNITS
 70
     4
  9
$HYPERLINKBASE
  1

  9
$STYLESHEET
  1

  9
$XEDIT
290
     1
  9
$CEPSNTYPE
380
     0
  9
$PSTYLEMODE
290
     1
  9
$FINGERPRINTGUID
  2
{6ebcf058-4e01-4839-ac3c-fb0f3ff79242}
  9
$VERSIONGUID
  2
{FAEB1C32-E019-11D5-929B-00C0DF256EC4}
  9
$EXTNAMES
290
     1
  9
$PSVPSCALE
 40
0.0
  9
$OLESTARTUP
290
     0
  0
ENDSEC
  0
SECTION
  2
CLASSES
  0
CLASS
  1
ACDBDICTIONARYWDFLT
  2
AcDbDictionaryWithDefault
  3
ObjectDBX Classes
 90
        0
280
     0
281
     0
  0
CLASS
  1
VISUALSTYLE
  2
AcDbVisualStyle
  3
ObjectDBX Classes
 90
     4095
280
     0
281
     0
  0
CLASS
  1
MATERIAL
  2
AcDbMaterial
  3
ObjectDBX Classes
 90
     1153
280
     0
281
     0
  0
CLASS
  1
SCALE
  2
AcDbScale
  3
ObjectDBX Classes
 90
     1153
280
     0
281
     0
  0
CLASS
  1
TABLESTYLE
  2
AcDbTableStyle
  3
ObjectDBX Classes
 90
     4095
280
     0
281
     0
  0
CLASS
  1
MLEADERSTYLE
  2
AcDbMLeaderStyle
  3
ACDB_MLEADERSTYLE_CLASS
 90
     4095
280
     0
281
     0
  0
CLASS
  1
SUN
  2
AcDbSun
  3
SCENEOE
 90
     1153
280
     0
281
     0
  0
CLASS
  1
ACDBPLACEHOLDER
  2
AcDbPlaceHolder
  3
ObjectDBX Classes
 90
        0
280
     0
281
     0
  0
CLASS
  1
LAYOUT
  2
AcDbLayout
  3
ObjectDBX Classes
 90
        0
280
     0
281
     0
  0
ENDSEC
  0
SECTION
  2
TABLES
  0
TABLE
  2
VPORT
  5
8
330
0
100
AcDbSymbolTable
 70
     1
  0
VPORT
  5
29
330
8
100
AcDbSymbolTableRecord
100
AcDbViewportTableRecord
  2
*Active
 70
     0
 10
0.0
 20
0.0
 11
1.0
 21
1.0
 12
105.0
 22
148.5
 13
0.0
 23
0.0
 14
10.0
 24
10.0
 15
10.0
 25
10.0
 16
0.0
 26
0.0
 36
1.0
 17
0.0
 27
0.0
 37
0.0
 40
297.0
 41
0.7070707071
 42
50.0
 43
0.0
 44
0.0
 50
0.0
 51
0.0
 71
     0
 72
  2000
 73
     1
 74
     3
 75
     0
 76
     0
 77
     0
 78
     0
281
     0
 65
     1
110
0.0
120
0.0
130
0.0
111
1.0
121
0.0
131
0.0
112
0.0
122
1.0
132
0.0
 79
     0
146
0.0
  0
ENDTAB
  0
TABLE
  2
LTYPE
  5
5
330
0
100
AcDbSymbolTable
 70
     6
  0
LTYPE
  5
14
330
5
100
AcDbSymbolTableRecord
100
AcDbLinetypeTableRecord
  2
ByBlock
 70
     0
  3

 72
    65
 73
     0
 40
0.0
  0
LTYPE
  5
15
330
5
100
AcDbSymbolTableRecord
100
AcDbLinetypeTableRecord
  2
ByLayer
 70
     0
  3

 72
    65
 73
     0
 40
0.0
  0
LTYPE
  5
16
330
5
100
AcDbSymbolTableRecord
100
AcDbLinetypeTableRecord
  2
Continuous
 70
     0
  3
Solid line
 72
    65
 73
     0
 40
0.0
  0
LTYPE
  5
6E
330
5
100
AcDbSymbolTableRecord
100
AcDbLinetypeTableRecord
  2
HIDDEN
 70
     0
  3
Hidden __ __ __ __ __ __ __ __ __ __ __ __ __ __
 72
    65
 73
     2
 40
1.905
 49
1.27
 74
     0
 49
-0.635
 74
     0
  0
LTYPE
  5
6F
330
5
100
AcDbSymbolTableRecord
100
AcDbLinetypeTableRecord
  2
PHANTOM
 70
     0
  3
Phantom ______  __  __  ______  __  __  ______
 72
    65
 73
     6
 40
12.7
 49
6.35
 74
     0
 49
-1.27
 74
     0
 49
1.27
 74
     0
 49
-1.27
 74
     0
 49
1.27
 74
     0
 49
-1.27
 74
     0
  0
LTYPE
  5
70
330
5
100
AcDbSymbolTableRecord
100
AcDbLinetypeTableRecord
  2
CENTER
 70
     0
  3
Center ____ _ ____ _ ____ _ ____ _ ____ _ ____
 72
    65
 73
     4
 40
10.16
 49
6.35
 74
     0
 49
-1.27
 74
     0
 49
1.27
 74
     0
 49
-1.27
 74
     0
  0
LTYPE
  5
71
330
5
100
AcDbSymbolTableRecord
100
AcDbLinetypeTableRecord
  2
CENTERX2
 70
     0
  3
Center (2x) ________  __  ________  __  _____
 72
    65
 73
     4
 40
20.32
 49
12.7
 74
     0
 49
-2.54
 74
     0
 49
2.54
 74
     0
 49
-2.54
 74
     0
  0
LTYPE
  5
72
330
5
100
AcDbSymbolTableRecord
100
AcDbLinetypeTableRecord
  2
DOT2
 70
     0
  3
Dot (.5x) ........................................
 72
    65
 73
     2
 40
0.635
 49
0.0
 74
     0
 49
-0.635
 74
     0
  0
ENDTAB
  0
TABLE
  2
LAYER
  5
2
330
0
100
AcDbSymbolTable
 70
     1
  0
LAYER
  5
10
330
2
100
AcDbSymbolTableRecord
100
AcDbLayerTableRecord
  2
0
 70
     0
 62
     7
  6
Continuous
370
    -3
390
F
  0
ENDTAB
  0
TABLE
  2
STYLE
  5
3
330
0
100
AcDbSymbolTable
 70
     2
  0
STYLE
  5
11
330
3
100
AcDbSymbolTableRecord
100
AcDbTextStyleTableRecord
  2
Standard
 70
     0
 40
0.0
 41
1.0
 50
0.0
 71
     0
 42
3.5
  3
txt
  4
bigfont
  0
STYLE
  5
76
330
3
100
AcDbSymbolTableRecord
100
AcDbTextStyleTableRecord
  2
SLDTEXTSTYLE0
 70
     0
 40
0.0
 41
0.7
 50
0.0
 71
     0
 42
3.5
  3
TXT
  4
bigfont
  0
ENDTAB
  0
TABLE
  2
VIEW
  5
6
330
0
100
AcDbSymbolTable
 70
     0
  0
ENDTAB
  0
TABLE
  2
UCS
  5
7
330
0
100
AcDbSymbolTable
 70
     0
  0
ENDTAB
  0
TABLE
  2
APPID
  5
9
330
0
100
AcDbSymbolTable
 70
     1
  0
APPID
  5
12
330
9
100
AcDbSymbolTableRecord
100
AcDbRegAppTableRecord
  2
ACAD
 70
     0
  0
ENDTAB
  0
TABLE
  2
DIMSTYLE
  5
A
330
0
100
AcDbSymbolTable
 70
     1
100
AcDbDimStyleTable
  0
DIMSTYLE
105
27
330
A
100
AcDbSymbolTableRecord
100
AcDbDimStyleTableRecord
  2
ISO-25
 70
     0
 41
2.5
 42
0.625
 43
3.75
 44
1.25
 73
     0
 74
     0
 77
     1
 78
     8
140
2.5
141
2.5
143
0.0393700787
147
0.625
171
     3
172
     1
178
     0
271
     2
272
     2
274
     3
278
    44
283
     0
284
     8
340
11
  0
ENDTAB
  0
TABLE
  2
BLOCK_RECORD
  5
1
330
0
100
AcDbSymbolTable
 70
     2
  0
BLOCK_RECORD
  5
1F
330
1
100
AcDbSymbolTableRecord
100
AcDbBlockTableRecord
  2
*Model_Space
340
22
  0
BLOCK_RECORD
  5
1B
330
1
100
AcDbSymbolTableRecord
100
AcDbBlockTableRecord
  2
*Paper_Space
340
1E
  0
BLOCK_RECORD
  5
23
330
1
100
AcDbSymbolTableRecord
100
AcDbBlockTableRecord
  2
*Paper_Space0
340
26
  0
BLOCK_RECORD
  5
73
330
1
100
AcDbSymbolTableRecord
100
AcDbBlockTableRecord
  2
SW_NOTE_0
340
0
102
{BLKREFS
331
79
102
}
  0
ENDTAB
  0
ENDSEC
  0
SECTION
  2
BLOCKS
  0
BLOCK
  5
20
330
1F
100
AcDbEntity
  8
0
100
AcDbBlockBegin
  2
*Model_Space
 70
     0
 10
0.0
 20
0.0
 30
0.0
  3
*Model_Space
  1

  0
ENDBLK
  5
21
330
1F
100
AcDbEntity
  8
0
100
AcDbBlockEnd
  0
BLOCK
  5
1C
330
1B
100
AcDbEntity
 67
     1
  8
0
100
AcDbBlockBegin
  2
*Paper_Space
 70
     0
 10
0.0
 20
0.0
 30
0.0
  3
*Paper_Space
  1

  0
ENDBLK
  5
1D
330
1B
100
AcDbEntity
 67
     1
  8
0
100
AcDbBlockEnd
  0
BLOCK
  5
24
330
23
100
AcDbEntity
  8
0
100
AcDbBlockBegin
  2
*Paper_Space0
 70
     0
 10
0.0
 20
0.0
 30
0.0
  3
*Paper_Space0
  1

  0
ENDBLK
  5
25
330
23
100
AcDbEntity
  8
0
100
AcDbBlockEnd
  0
BLOCK
  5
74
330
73
100
AcDbEntity
  8
0
100
AcDbBlockBegin
  2
SW_NOTE_0
 70
     0
 10
0.0
 20
0.0
 30
0.0
  3
SW_NOTE_0
  1

  0
MTEXT
  5
77
330
73
100
AcDbEntity
  8
0
  6
Continuous
 62
     0
370
     0
100
AcDbMText
 10
0.0
 20
4.5117370892
 30
0.0
 40
3.5
 41
0.0
 71
     1
 72
     1
  1
HFE-D90S/C/K
  7
SLDTEXTSTYLE0
 73
     1
 44
1.0
  0
MTEXT
  5
78
330
73
100
AcDbEntity
  8
0
  6
Continuous
 62
     0
370
     0
100
AcDbMText
 10
0.0
 20
0.0117372829
 30
0.0
 40
3.5
 41
0.0
 71
     1
 72
     1
  1
HFE-D89S/C/K
  7
SLDTEXTSTYLE0
 73
     1
 44
1.0
  0
ENDBLK
  5
75
330
73
100
AcDbEntity
  8
0
100
AcDbBlockEnd
  0
ENDSEC
  0
SECTION
  2
ENTITIES
  0
INSERT
  5
79
330
1F
100
AcDbEntity
  8
0
  6
Continuous
 62
     7
370
     0
100
AcDbBlockReference
  2
SW_NOTE_0
 10
141.0036734694
 20
110.7238775119
 30
0.0
  0
LINE
  5
7A
330
1F
100
AcDbEntity
  8
0
  6
Continuous
 62
     7
370
    25
100
AcDbLine
 10
130.4335598218
 20
174.9411520624
 30
0.0
 11
130.2480993698
 21
175.1136677812
 31
0.0
  0
LINE
  5
7B
330
1F
100
AcDbEntity
  8
0
  6
Continuous
 62
     7
370
    25
100
AcDbLine
 10
130.3742582128
 20
175.2126819967
 30
0.0
 11
130.1529358578
 21
175.1914300484
 31
0.0
  0
SPLINE
  5
7C
330
1F
100
AcDbEntity
  8
0
  6
Continuous
 62
     7
370
    25
100
AcDbSpline
210
0.0
220
0.0
230
1.0
 70
     8
 71
     3
 72
    17
 73
    13
 74
     0
 42
0.00000001
 43
0.00000001
 40
0.0
 40
0.0
 40
0.0
 40
0.0
 40
0.0319264636328864
 40
0.1391424497476898
 40
0.2554797642383345
 40
0.3805930507604919
 40
0.5109641253785939
 40
0.6337224985827961
 40
0.7534343268548666
 40
0.8745497916756905
 40
0.9983663712944117
 40
1.0
 40
1.0
 40
1.0
 40
1.0
 10
133.35760133343
 20
172.4103530241786
 30
0.0
 10
133.3457277305196
 20
172.4594766725917
 30
0.0
 10
133.2939799949957
 20
172.673568181734
 30
0.0
 10
133.1710707858428
 20
173.0391457967877
 30
0.0
 10
132.9785193647422
 20
173.5109199041318
 30
0.0
 10
132.7253253748916
 20
173.9730039731704
 30
0.0
 10
132.4006135004402
 20
174.4043068303145
 30
0.0
 10
131.9930300069246
 20
174.7743675782226
 30
0.0
 10
131.5102415451069
 20
175.057016955913
 30
0.0
 10
130.9652786138758
 20
175.2058281589381
 30
0.0
 10
130.5679634371745
 20
175.2562414462266
 30
0.0
 10
130.3767148107997
 20
175.2122500518468
 30
0.0
 10
130.3742243466536
 20
175.211677190266
 30
0.0
  0
LINE
  5
7D
330
1F
100
AcDbEntity
  8
0
  6
Continuous
 62
     7
370
    25
100
AcDbLine
 10
129.4279770057
 20
161.3271671769
 30
0.0
 11
130.1337667247
 21
161.3949389417
 31
0.0
  0
LINE
  5
7E
330
1F
100
AcDbEntity
  8
0
  6
Continuous
 62
     7
370
    25
100
AcDbLine
 10
135.3180724744
 20
162.8581404641
 30
0.0
 11
135.467734576
 21
163.0633692823
 31
0.0
  0
LINE
  5
7F
330
1F
100
AcDbEntity
  8
0
  6
Continuous
 62
     7
370
    25
100
AcDbLine
 10
134.6602411281
 20
171.4727795295
 30
0.0
 11
134.1442268681
 21
171.9527771245
 31
0.0
  0
SPLINE
  5
80
330
1F
100
AcDbEntity
  8
0
  6
Continuous
 62
     7
370
    25
100
AcDbSpline
210
0.0
220
0.0
230
1.0
 70
     8
 71
     3
 72
     9
 73
     5
 74
     0
 42
0.00000001
 43
0.00000001
 40
0.0
 40
0.0
 40
0.0
 40
0.0
 40
0.477010507779413
 40
0.9999999999999999
 40
0.9999999999999999
 40
0.9999999999999999
 40
0.9999999999999999
 10
129.6678744849018
 20
163.6668529803474
 30
0.0
 10
129.6844651553863
 20
163.7173663370347
 30
0.0
 10
129.7192456690521
 20
163.8232620266759
 30
0.0
 10
129.7541922658444
 20
163.9296412273034
 30
0.0
 10
129.7724689687556
 20
163.9852764314224
 30
0.0
  0
SPLINE
  5
81
330
1F
100
AcDbEntity
  8
0
  6
Continuous
 62
     7
370
    25
100
AcDbSpline
210
0.0
220
0.0
230
1.0
 70
     8
 71
     3
 72
     9
 73
     5
 74
     0
 42
0.00000001
 43
0.00000001
 40
0.0
 40
0.0
 40
0.0
 40
0.0
 40
0.4999899840041868
 40
0.9999999999999999
 40
0.9999999999999999
 40
0.9999999999999999
 40
0.9999999999999999
 10
129.2056000264781
 20
169.2889339315267
 30
0.0
 10
129.1776850453826
 20
169.3389534625431
 30
0.0
 10
129.1218539647838
 20
169.4389945285975
 30
0.0
 10
129.0658088567934
 20
169.5394472476161
 30
0.0
 10
129.0377857414507
 20
169.5896746132593
 30
0.0
  0
LINE
  5
82
330
1F
100
AcDbEntity
  8
0
  6
Continuous
 62
     7
370
    25
100
AcDbLine
 10
128.2642981415
 20
162.5832182235
 30
0.0
 11
128.2353739505
 21
162.7234761937
 31
0.0
  0
LINE
  5
83
330
1F
100
AcDbEntity
  8
0
  6
Continuous
 62
     7
370
    25
100
AcDbLine
 10
128.6137975541
 20
162.616333304
 30
0.0
 11
128.6019677641
 21
162.6736978245
 31
0.0
  0
LINE
  5
84
330
1F
100
AcDbEntity
  8
0
  6
Continuous
 62
     7
370
    25
100
AcDbLine
 10
127.7947488764
 20
162.6099742153
 30
0.0
 11
127.8182408088
 21
162.496058125
 31
0.0
  0
LINE
  5
85
330
1F
100
AcDbEntity
  8
0
  6
Continuous
 62
     7
370
    25
100
AcDbLine
 10
127.8231603821
 20
162.472202337
 30
0.0
 11
127.8236730674
 21
162.4697162451
 31
0.0
  0
LINE
  5
86
330
1F
100
AcDbEntity
  8
0
  6
Continuous
 62
     7
370
    25
100
AcDbLine
 10
135.2240719393
 20
162.762747933
 30
0.0
 11
135.4611861479
 21
162.7855162562
 31
0.0
  0
LINE
  5
87
330
1F
100
AcDbEntity
  8
0
  6
Continuous
 62
     7
370
    25
100
AcDbLine
 10
134.6009395191
 20
171.7443094638
 30
0.0
 11
134.3901012609
 21
171.7240642258
 31
0.0
  0
SPLINE
  5
88
330
1F
100
AcDbEntity
  8
0
  6
Continuous
 62
     7
370
    25
100
AcDbSpline
210
0.0
220
0.0
230
1.0
 70
     8
 71
     3
 72
    18
 73
    14
 74
     0
 42
0.00000001
 43
0.00000001
 40
0.0
 40
0.0
 40
0.0
 40
0.0
 40
0.1222103665320678
 40
0.1713748963207296
 40
0.2525650130484585
 40
0.3356823660503168
 40
0.425870872318898
 40
0.5228628002758894
 40
0.6239307382106438
 40
0.719097060037148
 40
0.8119016001953022
 40
0.9057942854961416
 40
1.0
 40
1.0
 40
1.0
 40
1.0
 10
137.833090192005
 20
167.5339708160651
 30
0.0
 10
137.8023353024818
 20
167.7937136553813
 30
0.0
 10
137.7592078972299
 20
168.1579495497739
 30
0.0
 10
137.6556688918967
 20
168.6744413207394
 30
0.0
 10
137.5513104108705
 20
169.0968613802789
 30
0.0
 10
137.3990449321048
 20
169.5720072448339
 30
0.0
 10
137.2048161040543
 20
170.0421547759898
 30
0.0
 10
136.9521041721749
 20
170.5048368497472
 30
0.0
 10
136.6273229063774
 20
170.9355321571077
 30
0.0
 10
136.2195227384209
 20
171.3072948933359
 30
0.0
 10
135.7376365187738
 20
171.5839184163424
 30
0.0
 10
135.1926817187434
 20
171.7544224091629
 30
0.0
 10
134.8105404437982
 20
171.7478940922626
 30
0.0
 10
134.6191518307903
 20
171.7446245016721
 30
0.0
  0
SPLINE
  5
89
330
1F
100
AcDbEntity
  8
0
  6
Continuous
 62
     7
370
    25
100
AcDbSpline
210
0.0
220
0.0
230
1.0
 70
     8
 71
     3
 72
    18
 73
    14
 74
     0
 42
0.00000001
 43
0.00000001
 40
0.0
 40
0.0
 40
0.0
 40
0.0
 40
0.0015300749001399
 40
0.0997631323064287
 40
0.2025061205144208
 40
0.2992819491516414
 40
0.4022023341875944
 40
0.5173942918736482
 40
0.6374806881751711
 40
0.7339770006067114
 40
0.8079888229811676
 40
0.8774793207509558
 40
1.0
 40
1.0
 40
1.0
 40
1.0
 10
135.444439754436
 20
162.7851485670363
 30
0.0
 10
135.4475422676863
 20
162.7850315027599
 30
0.0
 10
135.6498306915041
 20
162.7773987398872
 30
0.0
 10
136.0559522098024
 20
162.9078560943699
 30
0.0
 10
136.5895054151862
 20
163.1802328532808
 30
0.0
 10
137.0296694688239
 20
163.5906250563475
 30
0.0
 10
137.369171863664
 20
164.0841713843091
 30
0.0
 10
137.6136137532479
 20
164.6561846101469
 30
0.0
 10
137.7642963259997
 20
165.254258681862
 30
0.0
 10
137.842275998552
 20
165.815906656321
 30
0.0
 10
137.8739291852928
 20
166.3025392496853
 30
0.0
 10
137.8824454678845
 20
166.8589154186362
 30
0.0
 10
137.8523157229164
 20
167.2710141578585
 30
0.0
 10
137.833090192005
 20
167.5339708160651
 30
0.0
  0
LINE
  5
8A
330
1F
100
AcDbEntity
  8
0
  6
Continuous
 62
     7
370
    25
100
AcDbLine
 10
127.8787395391
 20
162.229430784
 30
0.0
 11
127.8638943132
 21
162.3014176291
 31
0.0
  0
LINE
  5
8B
330
1F
100
AcDbEntity
  8
0
  6
Continuous
 62
     7
370
    25
100
AcDbLine
 10
128.3591784092
 20
162.293351471
 30
0.0
 11
128.3450091258
 21
162.3620605643
 31
0.0
  0
LINE
  5
8C
330
1F
100
AcDbEntity
  8
0
  6
Continuous
 62
     7
370
    25
100
AcDbLine
 10
128.036057573
 20
161.8775125617
 30
0.0
 11
128.0164115065
 21
161.9727794409
 31
0.0
  0
LINE
  5
8D
330
1F
100
AcDbEntity
  8
0
  6
Continuous
 62
     7
370
    25
100
AcDbLine
 10
90.6241042649
 20
161.206961762
 30
0.0
 11
90.5733840892
 21
161.2485822324
 31
0.0
  0
LINE
  5
8E
330
1F
100
AcDbEntity
  8
0
  6
Continuous
 62
     7
370
    25
100
AcDbLine
 10
88.035974964
 20
158.1564058256
 30
0.0
 11
88.0866951397
 21
158.1147853552
 31
0.0
  0
LINE
  5
8F
330
1F
100
AcDbEntity
  8
0
  6
Continuous
 62
     7
370
    25
100
AcDbLine
 10
88.8998102048
 20
159.3537467596
 30
0.0
 11
88.7053828647
 21
159.5132918961
 31
0.0
  0
LINE
  5
90
330
1F
100
AcDbEntity
  8
0
  6
Continuous
 62
     7
370
    25
100
AcDbLine
 10
89.6165618597
 20
160.1275454942
 30
0.0
 11
89.8109891997
 21
159.9680003577
 31
0.0
  0
LINE
  5
91
330
1F
100
AcDbEntity
  8
0
  6
Continuous
 62
     7
370
    25
100
AcDbLine
 10
118.8556930242
 20
163.9178323553
 30
0.0
 11
118.8049728485
 21
163.9594528257
 31
0.0
  0
LINE
  5
92
330
1F
100
AcDbEntity
  8
0
  6
Continuous
 62
     7
370
    25
100
AcDbLine
 10
116.2675637233
 20
160.8672764189
 30
0.0
 11
116.318283899
 21
160.8256559485
 31
0.0
  0
LINE
  5
93
330
1F
100
AcDbEntity
  8
0
  6
Continuous
 62
     7
370
    25
100
AcDbLine
 10
117.1695362524
 20
162.0206410755
 30
0.0
 11
116.9751089124
 21
162.180186212
 31
0.0
  0
LINE
  5
94
330
1F
100
AcDbEntity
  8
0
  6
Continuous
 62
     7
370
    25
100
AcDbLine
 10
117.8100133307
 20
162.8823923649
 30
0.0
 11
118.0044406707
 21
162.7228472283
 31
0.0
  0
LINE
  5
95
330
1F
100
AcDbEntity
  8
0
  6
Continuous
 62
     7
370
    25
100
AcDbLine
 10
76.611989274
 20
149.8649004676
 30
0.0
 11
76.5982100048
 21
148.4301873966
 31
0.0
  0
LINE
  5
96
330
1F
100
AcDbEntity
  8
0
  6
Continuous
 62
     7
370
    25
100
AcDbLine
 10
124.9228738663
 20
153.8799552201
 30
0.0
 11
124.9417852846
 21
155.8490334554
 31
0.0
  0
LINE
  5
97
330
1F
100
AcDbEntity
  8
0
  6
Continuous
 62
     7
370
    25
100
AcDbLine
 10
121.6881604906
 20
150.5218223214
 30
0.0
 11
121.7154924585
 21
153.3676576851
 31
0.0
  0
LINE
  5
98
330
1F
100
AcDbEntity
  8
0
  6
Continuous
 62
     7
370
    25
100
AcDbLine
 10
72.6786165631
 20
157.1955224735
 30
0.0
 11
72.6660973832
 21
155.8920113227
 31
0.0
  0
LINE
  5
99
330
1F
100
AcDbEntity
  8
0
  6
Continuous
 62
     7
370
    25
100
AcDbLine
 10
75.8430249797
 20
153.2334236186
 30
0.0
 11
75.8273213233
 21
151.5983411763
 31
0.0
  0
SPLINE
  5
9A
330
1F
100
AcDbEntity
  8
0
  6
Continuous
 62
     7
370
    25
100
AcDbSpline
210
0.0
220
0.0
230
1.0
 70
     8
 71
     3
 72
     9
 73
     5
 74
     0
 42
0.00000001
 43
0.00000001
 40
0.0
 40
0.0
 40
0.0
 40
0.0
 40
0.5030015694034804
 40
1.0
 40
1.0
 40
1.0
 40
1.0
 10
79.6409562931886
 20
151.482296210844
 30
0.0
 10
79.68493239789693
 20
151.453314904093
 30
0.0
 10
79.77235976867131
 20
151.3956981718323
 30
0.0
 10
79.86531026177104
 20
151.3989334391386
 30
0.0
 10
79.91150651096478
 20
151.4005413619124
 30
0.0
  0
LINE
  5
9B
330
1F
100
AcDbEntity
  8
0
  6
Continuous
 62
     7
370
    25
100
AcDbLine
 10
79.8835457527
 20
151.3959332013
 30
0.0
 11
80.8386931542
 21
151.4876489395
 31
0.0
  0
LINE
  5
9C
330
1F
100
AcDbEntity
  8
0
  6
Continuous
 62
     7
370
    25
100
AcDbLine
 10
70.1729557782
 20
159.2516427279
 30
0.0
 11
79.6407219042
 21
151.4824882543
 31
0.0
  0
SPLINE
  5
9D
330
1F
100
AcDbEntity
  8
0
  6
Continuous
 62
     7
370
    25
100
AcDbSpline
210
0.0
220
0.0
230
1.0
 70
     8
 71
     3
 72
    10
 73
     6
 74
     0
 42
0.00000001
 43
0.00000001
 40
0.0
 40
0.0
 40
0.0
 40
0.0
 40
0.1503531963953973
 40
0.5557031571192617
 40
0.9999999999999999
 40
0.9999999999999999
 40
0.9999999999999999
 40
0.9999999999999999
 10
129.1723398011297
 20
172.5581886620156
 30
0.0
 10
129.174286810605
 20
172.578015139766
 30
0.0
 10
129.1814829284017
 20
172.6512935039421
 30
0.0
 10
129.1155447712586
 20
172.7757075638513
 30
0.0
 10
129.0327579726145
 20
172.8250725561686
 30
0.0
 10
128.9894671450451
 20
172.8508864710122
 30
0.0
  0
LINE
  5
9E
330
1F
100
AcDbEntity
  8
0
  6
Continuous
 62
     7
370
    25
100
AcDbLine
 10
129.1710644867
 20
171.6004244499
 30
0.0
 11
129.1802506662
 21
172.5568998306
 31
0.0
  0
LINE
  5
9F
330
1F
100
AcDbEntity
  8
0
  6
Continuous
 62
     7
370
    25
100
AcDbLine
 10
129.0446745726
 20
172.8275363764
 30
0.0
 11
119.5769084466
 21
180.59669085
 31
0.0
  0
SPLINE
  5
A0
330
1F
100
AcDbEntity
  8
0
  6
Continuous
 62
     7
370
    25
100
AcDbSpline
210
0.0
220
0.0
230
1.0
 70
     8
 71
     3
 72
    11
 73
     7
 74
     0
 42
0.00000001
 43
0.00000001
 40
0.0
 40
0.0
 40
0.0
 40
0.0
 40
0.4767774502005068
 40
0.6708556235671577
 40
0.9923332447694821
 40
1.0
 40
1.0
 40
1.0
 40
1.0
 10
70.59560804881023
 20
175.7269563744124
 30
0.0
 10
70.49915203430285
 20
175.5876963600294
 30
0.0
 10
70.36343240299072
 20
175.3917488299027
 30
0.0
 10
70.26454465970652
 20
175.0619878270427
 30
0.0
 10
70.22253023733529
 20
174.8810612994395
 30
0.0
 10
70.23259316816949
 20
174.7703158513539
 30
0.0
 10
70.2328275638728
 20
174.767736259223
 30
0.0
  0
SPLINE
  5
A1
330
1F
100
AcDbEntity
  8
0
  6
Continuous
 62
     7
370
    25
100
AcDbSpline
210
0.0
220
0.0
230
1.0
 70
     8
 71
     3
 72
     9
 73
     5
 74
     0
 42
0.00000001
 43
0.00000001
 40
0.0
 40
0.0
 40
0.0
 40
0.0
 40
0.1319650365323776
 40
1.0
 40
1.0
 40
1.0
 40
1.0
 10
71.03667616882322
 20
176.0965133702679
 30
0.0
 10
71.01418019427864
 20
176.0851477799624
 30
0.0
 10
70.84371099171015
 20
175.9990220105606
 30
0.0
 10
70.71089605636259
 20
175.8533793210666
 30
0.0
 10
70.59560804881023
 20
175.7269563744124
 30
0.0
  0
SPLINE
  5
A2
330
1F
100
AcDbEntity
  8
0
  6
Continuous
 62
     7
370
    25
100
AcDbSpline
210
0.0
220
0.0
230
1.0
 70
     8
 71
     3
 72
    10
 73
     6
 74
     0
 42
0.00000001
 43
0.00000001
 40
0.0
 40
0.0
 40
0.0
 40
0.0
 40
0.1862609462195219
 40
0.6838733393061542
 40
1.0
 40
1.0
 40
1.0
 40
1.0
 10
71.64510676071835
 20
176.2875219463783
 30
0.0
 10
71.60577926886708
 20
176.2873268817721
 30
0.0
 10
71.46138494614537
 20
176.2866106850257
 30
0.0
 10
71.25152001128191
 20
176.2161567667936
 30
0.0
 10
71.09678761889823
 20
176.1299885584546
 30
0.0
 10
71.03667616882322
 20
176.0965133702679
 30
0.0
  0
LINE
  5
A3
330
1F
100
AcDbEntity
  8
0
  6
Continuous
 62
     7
370
    25
100
AcDbLine
 10
70.2319850436
 20
174.7699169728
 30
0.0
 11
69.8472414987
 21
160.3782266465
 31
0.0
  0
LINE
  5
A4
330
1F
100
AcDbEntity
  8
0
  6
Continuous
 62
     7
370
    25
100
AcDbLine
 10
118.4350340392
 20
180.7926157786
 30
0.0
 11
114.6470481979
 21
180.4288835242
 31
0.0
  0
LINE
  5
A5
330
1F
100
AcDbEntity
  8
0
  6
Continuous
 62
     7
370
    25
100
AcDbLine
 10
103.6363866324
 20
179.371611158
 30
0.0
 11
71.645419378
 21
176.2997552621
 31
0.0
  0
SPLINE
  5
A6
330
1F
100
AcDbEntity
  8
0
  6
Continuous
 62
     7
370
    25
100
AcDbSpline
210
0.0
220
0.0
230
1.0
 70
     8
 71
     3
 72
    12
 73
     8
 74
     0
 42
0.00000001
 43
0.00000001
 40
0.0
 40
0.0
 40
0.0
 40
0.0
 40
0.1561055973285347
 40
0.3016831913350399
 40
0.5701962870727072
 40
0.8170345227112435
 40
1.0
 40
1.0
 40
1.0
 40
1.0
 10
69.84726416887466
 20
160.3787869036986
 30
0.0
 10
69.84722371027307
 20
160.312277323522
 30
0.0
 10
69.84714552166066
 20
160.1837436722921
 30
0.0
 10
69.8729704926038
 20
159.9331045397785
 30
0.0
 10
69.93303621828342
 20
159.6582914452783
 30
0.0
 10
70.02935403407638
 20
159.4114351897876
 30
0.0
 10
70.11198880351624
 20
159.3218663319924
 30
0.0
 10
70.14716604739866
 20
159.2837372783714
 30
0.0
  0
LINE
  5
A7
330
1F
100
AcDbEntity
  8
0
  6
Continuous
 62
     7
370
    25
100
AcDbLine
 10
118.7170324302
 20
180.8043877485
 30
0.0
 11
118.4390998301
 21
180.7888889042
 31
0.0
  0
SPLINE
  5
A8
330
1F
100
AcDbEntity
  8
0
  6
Continuous
 62
     7
370
    25
100
AcDbSpline
210
0.0
220
0.0
230
1.0
 70
     8
 71
     3
 72
    12
 73
     8
 74
     0
 42
0.00000001
 43
0.00000001
 40
0.0
 40
0.0
 40
0.0
 40
0.0
 40
0.1987230938293001
 40
0.382059838621771
 40
0.5629960172363467
 40
0.7652036400245078
 40
1.0
 40
1.0
 40
1.0
 40
1.0
 10
119.5695320891725
 20
180.5838036371773
 30
0.0
 10
119.5317414696421
 20
180.6171400623409
 30
0.0
 10
119.4590862098985
 20
180.6812318041351
 30
0.0
 10
119.3150881811333
 20
180.7267627382865
 30
0.0
 10
119.1521960045312
 20
180.7671847939001
 30
0.0
 10
118.9515137152982
 20
180.7961462954499
 30
0.0
 10
118.7989843863606
 20
180.8015073343738
 30
0.0
 10
118.7170324302307
 20
180.8043877484539
 30
0.0
  0
SPLINE
  5
A9
330
1F
100
AcDbEntity
  8
0
  6
Continuous
 62
     7
370
    25
100
AcDbSpline
210
0.0
220
0.0
230
1.0
 70
     8
 71
     3
 72
    14
 73
    10
 74
     0
 42
0.00000001
 43
0.00000001
 40
0.0
 40
0.0
 40
0.0
 40
0.0
 40
0.2257386023527624
 40
0.3182996820073541
 40
0.4717387065854136
 40
0.6313242550364878
 40
0.8027365653295034
 40
0.9819500845158585
 40
1.0
 40
1.0
 40
1.0
 40
1.0
 10
116.9427370237116
 20
186.2268181933375
 30
0.0
 10
117.1711980328729
 20
186.5264153316815
 30
0.0
 10
117.4933364080078
 20
186.948858249602
 30
0.0
 10
117.8872059485716
 20
187.6276596266714
 30
0.0
 10
118.1851535866085
 20
188.2309785823317
 30
0.0
 10
118.4730933005662
 20
188.978436053909
 30
0.0
 10
118.6866300396288
 20
189.7858333100298
 30
0.0
 10
118.8042028516849
 20
190.3786708700084
 30
0.0
 10
118.8180499349171
 20
190.6954949747774
 30
0.0
 10
118.8193169648787
 20
190.7244848802
 30
0.0
  0
SPLINE
  5
AA
330
1F
100
AcDbEntity
  8
0
  6
Continuous
 62
     7
370
    25
100
AcDbSpline
210
0.0
220
0.0
230
1.0
 70
     8
 71
     3
 72
    13
 73
     9
 74
     0
 42
0.00000001
 43
0.00000001
 40
0.0
 40
0.0
 40
0.0
 40
0.0
 40
0.1186838360455702
 40
0.328712438686415
 40
0.5252196346911316
 40
0.6642510817528191
 40
0.8099311328491233
 40
1.0
 40
1.0
 40
1.0
 40
1.0
 10
113.2326500189484
 20
183.6282357549822
 30
0.0
 10
113.4017318978222
 20
183.6848208265182
 30
0.0
 10
113.8700291705944
 20
183.8415415517458
 30
0.0
 10
114.5818680521778
 20
184.2116934984591
 30
0.0
 10
115.2852765703077
 20
184.6622023163134
 30
0.0
 10
115.8666086664601
 20
185.1207317164626
 30
0.0
 10
116.4092009016286
 20
185.6135634875937
 30
0.0
 10
116.7498781872011
 20
186.0051432511188
 30
0.0
 10
116.9427370237116
 20
186.2268181933375
 30
0.0
  0
LINE
  5
AB
330
1F
100
AcDbEntity
  8
0
  6
Continuous
 62
     7
370
    25
100
AcDbLine
 10
105.3262927036
 20
185.5049593059
 30
0.0
 11
106.7988944109
 21
184.4373667386
 31
0.0
  0
LINE
  5
AC
330
1F
100
AcDbEntity
  8
0
  6
Continuous
 62
     7
370
    25
100
AcDbLine
 10
116.7177466949
 20
196.5248305653
 30
0.0
 11
114.7803224319
 21
198.3190887516
 31
0.0
  0
LINE
  5
AD
330
1F
100
AcDbEntity
  8
0
  6
Continuous
 62
     7
370
    25
100
AcDbLine
 10
114.6157713605
 20
177.1723038886
 30
0.0
 11
114.6841631453
 21
184.2933337793
 31
0.0
  0
LINE
  5
AE
330
1F
100
AcDbEntity
  8
0
  6
Continuous
 62
     7
370
    25
100
AcDbLine
 10
103.7039900688
 20
186.4105573173
 30
0.0
 11
103.6162786489
 21
177.2779452004
 31
0.0
  0
LINE
  5
AF
330
1F
100
AcDbEntity
  8
0
  6
Continuous
 62
     7
370
    25
100
AcDbLine
 10
103.4152942353
 20
187.0443493342
 30
0.0
 11
103.8961454671
 21
186.5990306316
 31
0.0
  0
LINE
  5
B0
330
1F
100
AcDbEntity
  8
0
  6
Continuous
 62
     7
370
    25
100
AcDbLine
 10
115.7837339901
 20
177.3053960097
 30
0.0
 11
115.3117340749
 21
177.7437401894
 31
0.0
  0
LINE
  5
B1
330
1F
100
AcDbEntity
  8
0
  6
Continuous
 62
     7
370
    25
100
AcDbLine
 10
102.9314196777
 20
177.8626431867
 30
0.0
 11
102.4510877172
 21
177.4334453914
 31
0.0
  0
LINE
  5
B2
330
1F
100
AcDbEntity
  8
0
  6
Continuous
 62
     7
370
    25
100
AcDbLine
 10
116.1019229157
 20
175.7231851842
 30
0.0
 11
116.1111090951
 21
176.6796605649
 31
0.0
  0
LINE
  5
B3
330
1F
100
AcDbEntity
  8
0
  6
Continuous
 62
     7
370
    25
100
AcDbLine
 10
102.1117547349
 20
176.8141131435
 30
0.0
 11
102.1025685554
 21
175.8576377628
 31
0.0
  0
LINE
  5
B4
330
1F
100
AcDbEntity
  8
0
  6
Continuous
 62
     7
370
    25
100
AcDbLine
 10
118.8941043519
 20
195.811660328
 30
0.0
 11
119.7875227539
 21
195.3907966851
 31
0.0
  0
LINE
  5
B5
330
1F
100
AcDbEntity
  8
0
  6
Continuous
 62
     7
370
    25
100
AcDbLine
 10
108.5371454011
 20
200.6905249938
 30
0.0
 11
109.3553546631
 21
200.3050902077
 31
0.0
  0
LINE
  5
B6
330
1F
100
AcDbEntity
  8
0
  6
Continuous
 62
     7
370
    25
100
AcDbLine
 10
135.7683230147
 20
229.3151835333
 30
0.0
 11
124.5179456618
 21
234.614911842
 31
0.0
  0
LINE
  5
B7
330
1F
100
AcDbEntity
  8
0
  6
Continuous
 62
     7
370
    25
100
AcDbLine
 10
138.3203673477
 20
225.6073944681
 30
0.0
 11
138.3095455436
 21
225.655009999
 31
0.0
  0
LINE
  5
B8
330
1F
100
AcDbEntity
  8
0
  6
Continuous
 62
     7
370
    25
100
AcDbLine
 10
124.2029077718
 20
195.7432552376
 30
0.0
 11
124.3575216992
 21
195.8247237614
 31
0.0
  0
LINE
  5
B9
330
1F
100
AcDbEntity
  8
0
  6
Continuous
 62
     7
370
    25
100
AcDbLine
 10
101.3985759631
 20
188.6335036927
 30
0.0
 11
103.4273829902
 21
186.968684877
 31
0.0
  0
SPLINE
  5
BA
330
1F
100
AcDbEntity
  8
0
  6
Continuous
 62
     7
370
    25
100
AcDbSpline
210
0.0
220
0.0
230
1.0
 70
     8
 71
     3
 72
    14
 73
    10
 74
     0
 42
0.00000001
 43
0.00000001
 40
0.0
 40
0.0
 40
0.0
 40
0.0
 40
0.2057602134366263
 40
0.2901037902921733
 40
0.42992614055382
 40
0.5753444702061813
 40
0.7315347364520256
 40
0.8948249527131527
 40
1.0
 40
1.0
 40
1.0
 40
1.0
 10
100.873092247778
 20
199.4134084552705
 30
0.0
 10
100.6419761825867
 20
199.1105777598256
 30
0.0
 10
100.3161228730981
 20
198.6836131338755
 30
0.0
 10
99.91679246439129
 20
197.9980311141034
 30
0.0
 10
99.61383517920085
 20
197.388873387522
 30
0.0
 10
99.32125429266344
 20
196.6342486379785
 30
0.0
 10
99.09685937726837
 20
195.8189213322674
 30
0.0
 10
98.95856616365617
 20
195.0620920625635
 30
0.0
 10
98.94104789985971
 20
194.5836874249109
 30
0.0
 10
98.93418487334064
 20
194.3962656716368
 30
0.0
  0
SPLINE
  5
BB
330
1F
100
AcDbEntity
  8
0
  6
Continuous
 62
     7
370
    25
100
AcDbSpline
210
0.0
220
0.0
230
1.0
 70
     8
 71
     3
 72
    13
 73
     9
 74
     0
 42
0.00000001
 43
0.00000001
 40
0.0
 40
0.0
 40
0.0
 40
0.0
 40
0.1746977643485082
 40
0.3614035969950777
 40
0.5341240740727528
 40
0.6705513883160036
 40
0.7936304970678
 40
1.0
 40
1.0
 40
1.0
 40
1.0
 10
105.2220209976205
 20
202.2521844916531
 30
0.0
 10
104.9329143486536
 20
202.1662171211622
 30
0.0
 10
104.3348289453201
 20
201.9883733059567
 30
0.0
 10
103.4886146759902
 20
201.586499115449
 30
0.0
 10
102.7411677110357
 20
201.1337257864884
 30
0.0
 10
102.1290009948415
 20
200.673974624788
 30
0.0
 10
101.5042392082372
 20
200.1301847194409
 30
0.0
 10
101.1161775055439
 20
199.6894737044948
 30
0.0
 10
100.873092247778
 20
199.4134084552705
 30
0.0
  0
LINE
  5
BC
330
1F
100
AcDbEntity
  8
0
  6
Continuous
 62
     7
370
    25
100
AcDbLine
 10
85.7639465417
 20
251.3508788554
 30
0.0
 11
84.6579384083
 21
251.8718873897
 31
0.0
  0
LINE
  5
BD
330
1F
100
AcDbEntity
  8
0
  6
Continuous
 62
     7
370
    25
100
AcDbLine
 10
69.8490635
 20
220.4352889103
 30
0.0
 11
70.9912840431
 21
219.8972217543
 31
0.0
  0
SPLINE
  5
BE
330
1F
100
AcDbEntity
  8
0
  6
Continuous
 62
     7
370
    25
100
AcDbSpline
210
0.0
220
0.0
230
1.0
 70
     8
 71
     3
 72
     9
 73
     5
 74
     0
 42
0.00000001
 43
0.00000001
 40
0.0
 40
0.0
 40
0.0
 40
0.0
 40
0.976145775056278
 40
0.9999999999999999
 40
0.9999999999999999
 40
0.9999999999999999
 40
0.9999999999999999
 10
66.84046848868849
 20
223.1141439603554
 30
0.0
 10
66.89711430465218
 20
222.8163945941067
 30
0.0
 10
66.95514438316216
 20
222.5113690806463
 30
0.0
 10
67.05205608590808
 20
222.2547702789409
 30
0.0
 10
67.05436783946506
 20
222.2486493134047
 30
0.0
  0
LINE
  5
BF
330
1F
100
AcDbEntity
  8
0
  6
Continuous
 62
     7
370
    25
100
AcDbLine
 10
69.4676531393
 20
219.0950360294
 30
0.0
 11
73.3541471339
 21
217.2642207955
 31
0.0
  0
LINE
  5
C0
330
1F
100
AcDbEntity
  8
0
  6
Continuous
 62
     7
370
    25
100
AcDbLine
 10
89.3349473947
 20
251.1886076437
 30
0.0
 11
85.4484534
 21
253.0194228776
 31
0.0
  0
SPLINE
  5
C1
330
1F
100
AcDbEntity
  8
0
  6
Continuous
 62
     7
370
    25
100
AcDbSpline
210
0.0
220
0.0
230
1.0
 70
     8
 71
     3
 72
    11
 73
     7
 74
     0
 42
0.00000001
 43
0.00000001
 40
0.0
 40
0.0
 40
0.0
 40
0.0
 40
0.2032299724325906
 40
0.6005632084633566
 40
0.9937409685797378
 40
1.0
 40
1.0
 40
1.0
 40
1.0
 10
85.57405980878501
 20
251.5248811214611
 30
0.0
 10
85.66470827187372
 20
251.4457842989347
 30
0.0
 10
85.9325827944316
 20
251.2120459337363
 30
0.0
 10
86.31706908388405
 20
250.7070906495221
 30
0.0
 10
86.60301359007599
 20
250.2540033520904
 30
0.0
 10
86.70907039441546
 20
249.9665619992675
 30
0.0
 10
86.71073226654332
 20
249.9620578962482
 30
0.0
  0
LINE
  5
C2
330
1F
100
AcDbEntity
  8
0
  6
Continuous
 62
     7
370
    25
100
AcDbLine
 10
74.1723563959
 20
216.8787860094
 30
0.0
 11
108.5371454011
 21
200.6905249938
 31
0.0
  0
LINE
  5
C3
330
1F
100
AcDbEntity
  8
0
  6
Continuous
 62
     7
370
    25
100
AcDbLine
 10
124.5179456618
 20
234.614911842
 30
0.0
 11
90.1531566567
 21
250.8031728576
 31
0.0
  0
LINE
  5
C4
330
1F
100
AcDbEntity
  8
0
  6
Continuous
 62
     7
370
    25
100
AcDbLine
 10
125.6700104155
 20
175.5967521327
 30
0.0
 11
128.7805165793
 21
175.8954310261
 31
0.0
  0
LINE
  5
C5
330
1F
100
AcDbEntity
  8
0
  6
Continuous
 62
     7
370
    25
100
AcDbLine
 10
130.5370448895
 20
174.121005104
 30
0.0
 11
127.7898724782
 21
173.8572144626
 31
0.0
  0
ARC
  5
C6
330
1F
100
AcDbEntity
  8
0
  6
Continuous
 62
     7
370
    25
100
AcDbCircle
 10
122.2922756202
 20
171.0594904591
 30
0.0
 40
8.794833268723323
100
AcDbArc
 50
19.4036724129
 51
20.3713771906
  0
LINE
  5
C7
330
1F
100
AcDbEntity
  8
0
  6
Continuous
 62
     7
370
    25
100
AcDbLine
 10
127.9475542953
 20
173.7278223359
 30
0.0
 11
130.5875743723
 21
173.9813239313
 31
0.0
  0
SPLINE
  5
C8
330
1F
100
AcDbEntity
  8
0
  6
Continuous
 62
     7
370
    25
100
AcDbSpline
210
0.0
220
0.0
230
1.0
 70
     8
 71
     3
 72
     9
 73
     5
 74
     0
 42
0.00000001
 43
0.00000001
 40
0.0
 40
0.0
 40
0.0
 40
0.0
 40
0.605458392454883
 40
1.0
 40
1.0
 40
1.0
 40
1.0
 10
130.5875743722593
 20
173.9813239312902
 30
0.0
 10
130.7958425314202
 20
173.6452463087619
 30
0.0
 10
131.1398267948416
 20
173.0901666753528
 30
0.0
 10
131.322315305501
 20
172.4675007438951
 30
0.0
 10
131.394314615855
 20
172.2218331263342
 30
0.0
  0
ARC
  5
C9
330
1F
100
AcDbEntity
  8
0
  6
Continuous
 62
     7
370
    25
100
AcDbCircle
 10
125.9779271306
 20
171.4508974289
 30
0.0
 40
5.659906367232909
100
AcDbArc
 50
8.0133464184
 51
38.072853799
  0
SPLINE
  5
CA
330
1F
100
AcDbEntity
  8
0
  6
Continuous
 62
     7
370
    25
100
AcDbSpline
210
0.0
220
0.0
230
1.0
 70
     8
 71
     3
 72
    12
 73
     8
 74
     0
 42
0.00000001
 43
0.00000001
 40
0.0
 40
0.0
 40
0.0
 40
0.0
 40
0.2170055756517634
 40
0.4412248343961003
 40
0.6012665849252044
 40
0.7666162356697535
 40
1.0
 40
1.0
 40
1.0
 40
1.0
 10
128.7805165793337
 20
175.8954310261258
 30
0.0
 10
129.0516123537088
 20
175.7875155047016
 30
0.0
 10
129.6028156478863
 20
175.5680971421727
 30
0.0
 10
130.1644614897511
 20
175.2194162092028
 30
0.0
 10
130.4766151280463
 20
174.8774276423792
 30
0.0
 10
130.619030888573
 20
174.5197822736992
 30
0.0
 10
130.5673149117634
 20
174.2682374843515
 30
0.0
 10
130.537044889519
 20
174.1210051039787
 30
0.0
  0
LINE
  5
CB
330
1F
100
AcDbEntity
  8
0
  6
Continuous
 62
     7
370
    25
100
AcDbLine
 10
129.6708935791
 20
163.5611950436
 30
0.0
 11
127.5365472799
 21
163.3562495598
 31
0.0
  0
LINE
  5
CC
330
1F
100
AcDbEntity
  8
0
  6
Continuous
 62
     7
370
    25
100
AcDbLine
 10
127.5789284903
 20
167.7690290657
 30
0.0
 11
129.5452627901
 21
167.9578416003
 31
0.0
  0
LINE
  5
CD
330
1F
100
AcDbEntity
  8
0
  6
Continuous
 62
     7
370
    25
100
AcDbLine
 10
129.5452627901
 20
167.9578416003
 30
0.0
 11
129.6708935791
 21
163.5611950436
 31
0.0
  0
LWPOLYLINE
  5
CE
330
1F
100
AcDbEntity
  8
0
  6
Continuous
 62
     7
370
    25
100
AcDbPolyline
 90
       19
 70
   128
 43
0.0
 10
129.1711971266
 20
171.6142350634
 10
129.319892841
 20
171.4251434857
 10
129.6386461389
 20
170.8899157403
 10
129.9327299258
 20
170.2112411893
 10
130.1921295312
 20
169.4122312807
 10
130.4080114126
 20
168.5200953386
 10
130.5730239714
 20
167.5652139825
 10
130.6815479029
 20
166.5801045517
 10
130.7298875548
 20
165.5983137664
 10
130.7163967781
 20
164.6532753342
 10
130.6415349852
 20
163.7771714055
 10
130.5078515045
 20
162.9998366489
 10
130.3198987666
 20
162.3477422671
 10
130.0840772767
 20
161.8430945522
 10
129.8084176528
 20
161.503078677
 10
129.5023071526
 20
161.3392734741
 10
129.1761700022
 20
161.3572571334
 10
128.8411124111
 20
161.5564172429
 10
128.656596481
 20
161.741620499
  0
SPLINE
  5
CF
330
1F
100
AcDbEntity
  8
0
  6
Continuous
 62
     7
370
    25
100
AcDbSpline
210
0.0
220
0.0
230
1.0
 70
     8
 71
     3
 72
    16
 73
    12
 74
     0
 42
0.00000001
 43
0.00000001
 40
0.0
 40
0.0
 40
0.0
 40
0.0
 40
0.0481316845569233
 40
0.1826519424861699
 40
0.3165449542384207
 40
0.4471500051125617
 40
0.5778454043755755
 40
0.7050045602187088
 40
0.8317295953925742
 40
0.956188498088745
 40
1.0
 40
1.0
 40
1.0
 40
1.0
 10
128.6430323154775
 20
170.3567683786976
 30
0.0
 10
128.6923711991682
 20
170.3525333347084
 30
0.0
 10
128.8796042667234
 20
170.3364620291169
 30
0.0
 10
129.2194246156891
 20
169.93615813249
 30
0.0
 10
129.60238431323
 20
169.1353291047181
 30
0.0
 10
129.8990117030611
 20
168.0530644859706
 30
0.0
 10
130.0745594829159
 20
166.8512136442191
 30
0.0
 10
130.112878841781
 20
165.6534315314822
 30
0.0
 10
130.011645328999
 20
164.6205126232389
 30
0.0
 10
129.8432369170914
 20
163.9709675742005
 30
0.0
 10
129.7030125384119
 20
163.7677528689871
 30
0.0
 10
129.6665032030428
 20
163.7148431403475
 30
0.0
  0
ARC
  5
D0
330
1F
100
AcDbEntity
  8
0
  6
Continuous
 62
     7
370
    25
100
AcDbCircle
 10
116.8809041351
 20
165.5339690735
 30
0.0
 40
14.55613912509066
100
AcDbArc
 50
351.5083479925
 51
11.7651268238
  0
LINE
  5
D1
330
1F
100
AcDbEntity
  8
0
  6
Continuous
 62
     7
370
    25
100
AcDbLine
 10
135.3945766589
 20
163.7798675721
 30
0.0
 11
131.2774699648
 21
163.3845322773
 31
0.0
  0
ARC
  5
D2
330
1F
100
AcDbEntity
  8
0
  6
Continuous
 62
     7
370
    25
100
AcDbCircle
 10
127.7551910373
 20
165.1491788054
 30
0.0
 40
7.761135608180096
100
AcDbArc
 50
348.7861779833
 51
349.838008398
  0
LINE
  5
D3
330
1F
100
AcDbEntity
  8
0
  6
Continuous
 62
     7
370
    25
100
AcDbLine
 10
131.2510464441
 20
163.2445277784
 30
0.0
 11
135.3681531382
 21
163.6398630732
 31
0.0
  0
LWPOLYLINE
  5
D4
330
1F
100
AcDbEntity
  8
0
  6
Continuous
 62
     7
370
    25
100
AcDbPolyline
 90
        8
 70
   128
 43
0.0
 10
130.1337667247
 20
161.3949389417
 10
130.2490756105
 20
161.4180624001
 10
130.4594897369
 20
161.5269510732
 10
130.6564584975
 20
161.7194187309
 10
130.8368271864
 20
161.9923827579
 10
130.997706969
 20
162.3414712873
 10
131.1365211503
 20
162.761093221
 10
131.2510464441
 20
163.2445277784
  0
LINE
  5
D5
330
1F
100
AcDbEntity
  8
0
  6
Continuous
 62
     7
370
    25
100
AcDbLine
 10
133.9186595262
 20
161.85196671
 30
0.0
 11
130.4481708358
 21
161.5187213579
 31
0.0
  0
LWPOLYLINE
  5
D6
330
1F
100
AcDbEntity
  8
0
  6
Continuous
 62
     7
370
    25
100
AcDbPolyline
 90
        3
 70
   128
 43
0.0
 10
129.4384638104
 20
172.0340272441
 10
129.2114304735
 20
172.0961619567
 10
129.1758447554
 20
172.0981514279
  0
LINE
  5
D7
330
1F
100
AcDbEntity
  8
0
  6
Continuous
 62
     7
370
    25
100
AcDbLine
 10
133.5555705045
 20
172.429362539
 30
0.0
 11
129.4384638104
 21
172.0340272441
 31
0.0
  0
ARC
  5
D8
330
1F
100
AcDbEntity
  8
0
  6
Continuous
 62
     7
370
    25
100
AcDbCircle
 10
133.1849217135
 20
171.6206118248
 30
0.0
 40
0.88963938981952
100
AcDbArc
 50
60.9201278225
 51
65.3781108043
  0
LINE
  5
D9
330
1F
100
AcDbEntity
  8
0
  6
Continuous
 62
     7
370
    25
100
AcDbLine
 10
129.500205026
 20
172.0027706625
 30
0.0
 11
133.6173117201
 21
172.3981059573
 31
0.0
  0
LWPOLYLINE
  5
DA
330
1F
100
AcDbEntity
  8
0
  6
Continuous
 62
     7
370
    25
100
AcDbPolyline
 90
        9
 70
   128
 43
0.0
 10
131.0959254539
 20
168.6732301917
 10
130.9500050789
 20
169.2885157538
 10
130.7827831093
 20
169.8630689411
 10
130.5969378181
 20
170.3876875515
 10
130.3954457549
 20
170.8539691486
 10
130.181534072
 20
171.2544456379
 10
129.9586288379
 20
171.5827028775
 10
129.7303001642
 20
171.8334834091
 10
129.500205026
 20
172.0027706625
  0
LINE
  5
DB
330
1F
100
AcDbEntity
  8
0
  6
Continuous
 62
     7
370
    25
100
AcDbLine
 10
135.213032148
 20
169.0685654866
 30
0.0
 11
131.0959254539
 21
168.6732301917
 31
0.0
  0
ARC
  5
DC
330
1F
100
AcDbEntity
  8
0
  6
Continuous
 62
     7
370
    25
100
AcDbCircle
 10
121.1779908748
 20
166.0849678557
 30
0.0
 40
14.34866678002279
100
AcDbArc
 50
11.3031380167
 51
12.0013963996
  0
LINE
  5
DD
330
1F
100
AcDbEntity
  8
0
  6
Continuous
 62
     7
370
    25
100
AcDbLine
 10
131.1312431488
 20
168.5019691112
 30
0.0
 11
135.2483498429
 21
168.8973044061
 31
0.0
  0
SPLINE
  5
DE
330
1F
100
AcDbEntity
  8
0
  6
Continuous
 62
     7
370
    25
100
AcDbSpline
210
0.0
220
0.0
230
1.0
 70
     8
 71
     3
 72
    12
 73
     8
 74
     0
 42
0.00000001
 43
0.00000001
 40
0.0
 40
0.0
 40
0.0
 40
0.0
 40
0.217005575651763
 40
0.4412248343960992
 40
0.6012665849252041
 40
0.7666162356697531
 40
1.0
 40
1.0
 40
1.0
 40
1.0
 10
135.2483498428904
 20
168.8973044060788
 30
0.0
 10
135.4084396723402
 20
168.5589388189382
 30
0.0
 10
135.7339410253599
 20
167.8709597211522
 30
0.0
 10
135.9619299985049
 20
166.8296019466406
 30
0.0
 10
135.9658267671492
 20
165.8476673308342
 30
0.0
 10
135.8005175963965
 20
164.8511802254919
 30
0.0
 10
135.5444539714678
 20
164.1754065448927
 30
0.0
 10
135.3945766588712
 20
163.7798675721082
 30
0.0
  0
LINE
  5
DF
330
1F
100
AcDbEntity
  8
0
  6
Continuous
 62
     7
370
    25
100
AcDbLine
 10
129.3583443889
 20
168.8642384493
 30
0.0
 11
127.5878142802
 21
168.6942275425
 31
0.0
  0
ARC
  5
E0
330
1F
100
AcDbEntity
  8
0
  6
Continuous
 62
     7
370
    25
100
AcDbCircle
 10
115.5214420352
 20
165.5383017611
 30
0.0
 40
14.23101266945781
100
AcDbArc
 50
9.7889127115
 51
13.5156217048
  0
LINE
  5
E1
330
1F
100
AcDbEntity
  8
0
  6
Continuous
 62
     7
370
    25
100
AcDbLine
 10
128.1900625245
 20
171.3019096609
 30
0.0
 11
129.3583443889
 21
168.8642384493
 31
0.0
  0
LINE
  5
E2
330
1F
100
AcDbEntity
  8
0
  6
Continuous
 62
     7
370
    25
100
AcDbLine
 10
127.5295533583
 20
162.6280345401
 30
0.0
 11
129.5310474691
 21
162.8202232113
 31
0.0
  0
ARC
  5
E3
330
1F
100
AcDbEntity
  8
0
  6
Continuous
 62
     7
370
    25
100
AcDbCircle
 10
122.0489104307
 20
164.6160348691
 30
0.0
 40
7.694628917052149
100
AcDbArc
 50
346.5035515756
 51
352.1206348057
  0
LWPOLYLINE
  5
E4
330
1F
100
AcDbEntity
  8
0
  6
Continuous
 62
     7
370
    25
100
AcDbPolyline
 90
       14
 70
   128
 43
0.0
 10
134.6602411281
 20
171.4727795295
 10
134.9442396784
 20
171.1309896651
 10
135.2329003038
 20
170.6105138697
 10
135.4940342702
 20
169.9512190533
 10
135.7169507221
 20
169.1800968231
 10
135.892523434
 20
168.3287170136
 10
136.0135644383
 20
167.4319352145
 10
136.0751183022
 20
166.5264657779
 10
136.0746650031
 20
165.6493787289
 10
136.0122230992
 20
164.8365821143
 10
135.8903489695
 20
164.1213519232
 10
135.714032155
 20
163.5329697634
 10
135.4904910869
 20
163.0955240699
 10
135.467734576
 20
163.0633692823
  0
SPLINE
  5
E5
330
1F
100
AcDbEntity
  8
0
  6
Continuous
 62
     7
370
    25
100
AcDbSpline
210
0.0
220
0.0
230
1.0
 70
     8
 71
     3
 72
    12
 73
     8
 74
     0
 42
0.00000001
 43
0.00000001
 40
0.0
 40
0.0
 40
0.0
 40
0.0
 40
0.2170055756517637
 40
0.4412248343961013
 40
0.6012665849252057
 40
0.7666162356697551
 40
1.0
 40
1.0
 40
1.0
 40
1.0
 10
135.3681531381691
 20
163.6398630732155
 30
0.0
 10
135.4182421667906
 20
163.5310189685132
 30
0.0
 10
135.5200852797716
 20
163.3097125715321
 30
0.0
 10
135.4174386028554
 20
162.9582405431021
 30
0.0
 10
135.1158697268877
 20
162.6136733560548
 30
0.0
 10
134.6456220332626
 20
162.2534538169046
 30
0.0
 10
134.187061101045
 20
162.0001996253343
 30
0.0
 10
133.9186595262343
 20
161.8519667099917
 30
0.0
  0
SPLINE
  5
E6
330
1F
100
AcDbEntity
  8
0
  6
Continuous
 62
     7
370
    25
100
AcDbSpline
210
0.0
220
0.0
230
1.0
 70
     8
 71
     3
 72
    12
 73
     8
 74
     0
 42
0.00000001
 43
0.00000001
 40
0.0
 40
0.0
 40
0.0
 40
0.0
 40
0.2170055756517627
 40
0.4412248343960999
 40
0.6012665849252042
 40
0.766616235669755
 40
1.0
 40
1.0
 40
1.0
 40
1.0
 10
133.6173117200839
 20
172.398105957346
 30
0.0
 10
133.8773222219264
 20
172.1829887966289
 30
0.0
 10
134.4059864752396
 20
171.7456035666501
 30
0.0
 10
134.9343126843171
 20
171.0747005823104
 30
0.0
 10
135.2156831838139
 20
170.435019475037
 30
0.0
 10
135.3273689259565
 20
169.7801952741186
 30
0.0
 10
135.25524639009
 20
169.3313060733637
 30
0.0
 10
135.2130321479994
 20
169.0685654865992
 30
0.0
  0
SPLINE
  5
E7
330
1F
100
AcDbEntity
  8
0
  6
Continuous
 62
     7
370
    25
100
AcDbSpline
210
0.0
220
0.0
230
1.0
 70
     8
 71
     3
 72
    14
 73
    10
 74
     0
 42
0.00000001
 43
0.00000001
 40
0.0
 40
0.0
 40
0.0
 40
0.0
 40
0.0053347360559805
 40
0.1801135965866806
 40
0.3510980292227667
 40
0.5257180526072383
 40
0.6982988544947778
 40
0.8708796563823178
 40
0.9999999999999999
 40
0.9999999999999999
 40
0.9999999999999999
 40
0.9999999999999999
 10
129.7726428265069
 20
163.9933291582412
 30
0.0
 10
129.7751093074451
 20
163.9984710998687
 30
0.0
 10
129.8583836715425
 20
164.1720754900849
 30
0.0
 10
129.9443185699382
 20
164.7593266351991
 30
0.0
 10
129.9984340151022
 20
165.7063882264809
 30
0.0
 10
129.9254487584092
 20
166.780104001802
 30
0.0
 10
129.7425455014484
 20
167.8282624857469
 30
0.0
 10
129.4935184275088
 20
168.7097659122833
 30
0.0
 10
129.2875468155923
 20
169.0994311146116
 30
0.0
 10
129.1993962543419
 20
169.2661978159319
 30
0.0
  0
SPLINE
  5
E8
330
1F
100
AcDbEntity
  8
0
  6
Continuous
 62
     7
370
    25
100
AcDbSpline
210
0.0
220
0.0
230
1.0
 70
     8
 71
     3
 72
    33
 73
    29
 74
     0
 42
0.00000001
 43
0.00000001
 40
0.0
 40
0.0
 40
0.0
 40
0.0
 40
0.0236407760502303
 40
0.0302463544889526
 40
0.0645122492863657
 40
0.1081118191671373
 40
0.1517112741834727
 40
0.1953092153390008
 40
0.2389085484844236
 40
0.2825066183002066
 40
0.3261050581549319
 40
0.369703809947689
 40
0.4133018152561517
 40
0.4362891629198781
 40
0.4705550577172911
 40
0.5141546275980643
 40
0.5577540826143994
 40
0.6013520237699292
 40
0.6449513569153511
 40
0.6885494267311326
 40
0.7321478665858568
 40
0.775746618378615
 40
0.8193446236870782
 40
0.8423319713508517
 40
0.8765978661482654
 40
0.9201974360290373
 40
0.9637968910453706
 40
1.0
 40
1.0
 40
1.0
 40
1.0
 10
129.428064642461
 20
168.5261539281845
 30
0.0
 10
129.2432229132691
 20
168.3915225530167
 30
0.0
 10
129.0067337026946
 20
168.219273203418
 30
0.0
 10
129.1996195601424
 20
167.6296666493186
 30
0.0
 10
129.303763291881
 20
166.8412626137122
 30
0.0
 10
129.415489083409
 20
165.6554623543878
 30
0.0
 10
129.3631196031947
 20
164.4917123651496
 30
0.0
 10
129.1822432483982
 20
163.5646536993995
 30
0.0
 10
128.8831856237455
 20
162.9808994004031
 30
0.0
 10
128.5079427250995
 20
162.8062394474368
 30
0.0
 10
128.1002356337415
 20
163.0609358858015
 30
0.0
 10
127.7073107056308
 20
163.7154542265656
 30
0.0
 10
127.4314604595398
 20
164.5447910786224
 30
0.0
 10
127.2389632007205
 20
165.4253396031861
 30
0.0
 10
127.1060411318115
 20
166.3824202019795
 30
0.0
 10
127.0612096908268
 20
167.5684446323036
 30
0.0
 10
127.1559874889535
 20
168.7380554267104
 30
0.0
 10
127.3913957212931
 20
169.6698712993392
 30
0.0
 10
127.738866052415
 20
170.2584020585723
 30
0.0
 10
128.1652741256564
 20
170.4379431324801
 30
0.0
 10
128.6245916693873
 20
170.1882022886409
 30
0.0
 10
129.0657920951199
 20
169.5383520805355
 30
0.0
 10
129.3867661708877
 20
168.7132384547209
 30
0.0
 10
129.6165978525241
 20
167.8365386040978
 30
0.0
 10
129.7882284275424
 20
166.881781147988
 30
0.0
 10
129.8798853554969
 20
165.7073028149487
 30
0.0
 10
129.8447890887427
 20
164.5831536888322
 30
0.0
 10
129.7200504655563
 20
164.0590487892934
 30
0.0
 10
129.6634617327969
 20
163.8212841632275
 30
0.0
  0
SPLINE
  5
E9
330
1F
100
AcDbEntity
  8
0
  6
Continuous
 62
     7
370
    25
100
AcDbSpline
210
0.0
220
0.0
230
1.0
 70
     8
 71
     3
 72
    15
 73
    11
 74
     0
 42
0.00000001
 43
0.00000001
 40
0.0
 40
0.0
 40
0.0
 40
0.0
 40
0.0501101588840165
 40
0.2254796937282933
 40
0.4008504833061881
 40
0.5762182702398544
 40
0.668682140059839
 40
0.8065126232530219
 40
0.9818867034925753
 40
1.0
 40
1.0
 40
1.0
 40
1.0
 10
129.6513934572448
 20
163.6865108413343
 30
0.0
 10
129.6777590700842
 20
163.7469985662307
 30
0.0
 10
129.796395898232
 20
164.0191739890934
 30
0.0
 10
129.891418910578
 20
164.8405507832069
 30
0.0
 10
129.9073218702314
 20
166.0256492645834
 30
0.0
 10
129.7884387388796
 20
167.1054003387951
 30
0.0
 10
129.6069417211318
 20
168.0447014476754
 30
0.0
 10
129.3620854932836
 20
168.8881778694974
 30
0.0
 10
129.1161684433694
 20
169.5309459210709
 30
0.0
 10
128.9527147622379
 20
169.7244181839067
 30
0.0
 10
128.9374130663787
 20
169.7425300655272
 30
0.0
  0
LINE
  5
EA
330
1F
100
AcDbEntity
  8
0
  6
Continuous
 62
     7
370
    25
100
AcDbLine
 10
127.7183040443
 20
161.8014988912
 30
0.0
 11
127.8006096231
 21
161.903019756
 31
0.0
  0
LINE
  5
EB
330
1F
100
AcDbEntity
  8
0
  6
Continuous
 62
     7
370
    25
100
AcDbLine
 10
127.8006096231
 20
161.903019756
 30
0.0
 11
127.9967754301
 21
161.9218561071
 31
0.0
  0
SPLINE
  5
EC
330
1F
100
AcDbEntity
  8
0
  6
Continuous
 62
     7
370
    25
100
AcDbSpline
210
0.0
220
0.0
230
1.0
 70
     8
 71
     3
 72
    10
 73
     6
 74
     0
 42
0.00000001
 43
0.00000001
 40
0.0
 40
0.0
 40
0.0
 40
0.0
 40
0.402163503449417
 40
0.877821650639622
 40
1.0
 40
1.0
 40
1.0
 40
1.0
 10
127.9967754301393
 20
161.9218561071249
 30
0.0
 10
128.0107311043223
 20
161.9113610774205
 30
0.0
 10
128.0411928265869
 20
161.8884530705536
 30
0.0
 10
128.0395544850028
 20
161.8528631921487
 30
0.0
 10
128.0224972543505
 20
161.829909939704
 30
0.0
 10
128.0190113107894
 20
161.8252190409176
 30
0.0
  0
SPLINE
  5
ED
330
1F
100
AcDbEntity
  8
0
  6
Continuous
 62
     7
370
    25
100
AcDbSpline
210
0.0
220
0.0
230
1.0
 70
     8
 71
     3
 72
    12
 73
     8
 74
     0
 42
0.00000001
 43
0.00000001
 40
0.0
 40
0.0
 40
0.0
 40
0.0
 40
0.228116549234907
 40
0.4024684955824901
 40
0.578034893507388
 40
0.7866391940510089
 40
1.0
 40
1.0
 40
1.0
 40
1.0
 10
128.0190113107894
 20
161.8252190409176
 30
0.0
 10
128.0002550672384
 20
161.8073968066818
 30
0.0
 10
127.967163223836
 20
161.7759528460184
 30
0.0
 10
127.8776141652693
 20
161.7305994222567
 30
0.0
 10
127.7651287616703
 20
161.6935229419046
 30
0.0
 10
127.6325051815296
 20
161.6660017649463
 30
0.0
 10
127.543210016971
 20
161.6560837618305
 30
0.0
 10
127.4980591550054
 20
161.6510688610588
 30
0.0
  0
SPLINE
  5
EE
330
1F
100
AcDbEntity
  8
0
  6
Continuous
 62
     7
370
    25
100
AcDbSpline
210
0.0
220
0.0
230
1.0
 70
     8
 71
     3
 72
    12
 73
     8
 74
     0
 42
0.00000001
 43
0.00000001
 40
0.0
 40
0.0
 40
0.0
 40
0.0
 40
0.225081111002159
 40
0.4200730448767291
 40
0.615912633255934
 40
0.854483078377931
 40
1.0
 40
1.0
 40
1.0
 40
1.0
 10
127.5197532683638
 20
161.6076381091078
 30
0.0
 10
127.5803465595192
 20
161.615528847583
 30
0.0
 10
127.6934329406972
 20
161.6302554788977
 30
0.0
 10
127.8594732898206
 20
161.6751934628803
 30
0.0
 10
128.0007909341726
 20
161.7323885388716
 30
0.0
 10
128.0948826741713
 20
161.7904054438698
 30
0.0
 10
128.1291014851269
 20
161.8272033482969
 30
0.0
 10
128.1420657647751
 20
161.8411447539197
 30
0.0
  0
SPLINE
  5
EF
330
1F
100
AcDbEntity
  8
0
  6
Continuous
 62
     7
370
    25
100
AcDbSpline
210
0.0
220
0.0
230
1.0
 70
     8
 71
     3
 72
    10
 73
     6
 74
     0
 42
0.00000001
 43
0.00000001
 40
0.0
 40
0.0
 40
0.0
 40
0.0
 40
0.2471538600984509
 40
0.7148309598930318
 40
1.0
 40
1.0
 40
1.0
 40
1.0
 10
128.1420657647751
 20
161.8411447539197
 30
0.0
 10
128.151201073259
 20
161.8548912078798
 30
0.0
 10
128.1776226769106
 20
161.894649400916
 30
0.0
 10
128.1635804165962
 20
161.9432367301547
 30
0.0
 10
128.1227478685573
 20
161.9709917125736
 30
0.0
 10
128.1072809917119
 20
161.9815049652491
 30
0.0
  0
LINE
  5
F0
330
1F
100
AcDbEntity
  8
0
  6
Continuous
 62
     7
370
    25
100
AcDbLine
 10
128.1072809917
 20
161.9815049652
 30
0.0
 11
127.7242807321
 21
161.944728284
 31
0.0
  0
LINE
  5
F1
330
1F
100
AcDbEntity
  8
0
  6
Continuous
 62
     7
370
    25
100
AcDbLine
 10
127.7242807321
 20
161.944728284
 30
0.0
 11
127.5988627072
 21
161.7900298233
 31
0.0
  0
LINE
  5
F2
330
1F
100
AcDbEntity
  8
0
  6
Continuous
 62
     7
370
    25
100
AcDbLine
 10
127.5988627072
 20
161.7900298233
 30
0.0
 11
127.7183040443
 21
161.8014988912
 31
0.0
  0
SPLINE
  5
F3
330
1F
100
AcDbEntity
  8
0
  6
Continuous
 62
     7
370
    25
100
AcDbSpline
210
0.0
220
0.0
230
1.0
 70
     8
 71
     3
 72
    12
 73
     8
 74
     0
 42
0.00000001
 43
0.00000001
 40
0.0
 40
0.0
 40
0.0
 40
0.0
 40
0.3325026658980934
 40
0.532835621996576
 40
0.7336360564999641
 40
0.926389510999313
 40
0.9999999999999999
 40
0.9999999999999999
 40
0.9999999999999999
 40
0.9999999999999999
 10
128.3925569249309
 20
162.4520215358901
 30
0.0
 10
128.4430860499008
 20
162.460185793149
 30
0.0
 10
128.5240589878458
 20
162.4732690178591
 30
0.0
 10
128.6273231203645
 20
162.506706652528
 30
0.0
 10
128.693199131373
 20
162.5381505282237
 30
0.0
 10
128.7269909635611
 20
162.5638033329145
 30
0.0
 10
128.7390880146534
 20
162.5778038931957
 30
0.0
 10
128.7424310716553
 20
162.5816729907735
 30
0.0
  0
SPLINE
  5
F4
330
1F
100
AcDbEntity
  8
0
  6
Continuous
 62
     7
370
    25
100
AcDbSpline
210
0.0
220
0.0
230
1.0
 70
     8
 71
     3
 72
    12
 73
     8
 74
     0
 42
0.00000001
 43
0.00000001
 40
0.0
 40
0.0
 40
0.0
 40
0.0
 40
0.1922216487370175
 40
0.3585648406283415
 40
0.4987891391997178
 40
0.7303696387362969
 40
1.0
 40
1.0
 40
1.0
 40
1.0
 10
128.7424310716553
 20
162.5816729907735
 30
0.0
 10
128.7516185684443
 20
162.5987653182168
 30
0.0
 10
128.7687566657584
 20
162.6306488636239
 30
0.0
 10
128.7219161078521
 20
162.6608281472972
 30
0.0
 10
128.6320872833698
 20
162.6773881509519
 30
0.0
 10
128.4880630145684
 20
162.6778996946054
 30
0.0
 10
128.3646339958032
 20
162.667175066098
 30
0.0
 10
128.2982343753582
 20
162.6614056670585
 30
0.0
  0
SPLINE
  5
F5
330
1F
100
AcDbEntity
  8
0
  6
Continuous
 62
     7
370
    25
100
AcDbSpline
210
0.0
220
0.0
230
1.0
 70
     8
 71
     3
 72
    12
 73
     8
 74
     0
 42
0.00000001
 43
0.00000001
 40
0.0
 40
0.0
 40
0.0
 40
0.0
 40
0.4178159420779167
 40
0.5917704564616378
 40
0.7666151372021285
 40
0.9284127610051507
 40
1.0
 40
1.0
 40
1.0
 40
1.0
 10
128.2982343753582
 20
162.6614056670585
 30
0.0
 10
128.2005705285232
 20
162.6512539171399
 30
0.0
 10
128.062245076091
 20
162.6368755627543
 30
0.0
 10
127.8811295745882
 20
162.5896698562017
 30
0.0
 10
127.7799073468984
 20
162.5488384173749
 30
0.0
 10
127.722575862625
 20
162.5130983957101
 30
0.0
 10
127.7047861089531
 20
162.4935636953235
 30
0.0
 10
127.6993293739596
 20
162.4875717245996
 30
0.0
  0
SPLINE
  5
F6
330
1F
100
AcDbEntity
  8
0
  6
Continuous
 62
     7
370
    25
100
AcDbSpline
210
0.0
220
0.0
230
1.0
 70
     8
 71
     3
 72
    12
 73
     8
 74
     0
 42
0.00000001
 43
0.00000001
 40
0.0
 40
0.0
 40
0.0
 40
0.0
 40
0.2515770958900042
 40
0.4738742737271016
 40
0.6646735162352775
 40
0.8679832614149704
 40
1.0
 40
1.0
 40
1.0
 40
1.0
 10
127.6993293739596
 20
162.4875717245996
 30
0.0
 10
127.6907458545994
 20
162.4718645505112
 30
0.0
 10
127.6745778127971
 20
162.4422782891423
 30
0.0
 10
127.716886150672
 20
162.4137096311001
 30
0.0
 10
127.7869869362715
 20
162.3994163791241
 30
0.0
 10
127.8687313093639
 20
162.3982706885148
 30
0.0
 10
127.9264936776288
 20
162.4030951910436
 30
0.0
 10
127.9492344984123
 20
162.4049945790132
 30
0.0
  0
SPLINE
  5
F7
330
1F
100
AcDbEntity
  8
0
  6
Continuous
 62
     7
370
    25
100
AcDbSpline
210
0.0
220
0.0
230
1.0
 70
     8
 71
     3
 72
    12
 73
     8
 74
     0
 42
0.00000001
 43
0.00000001
 40
0.0
 40
0.0
 40
0.0
 40
0.0
 40
0.288456290088847
 40
0.4978153455862849
 40
0.706993535488952
 40
0.916458820954713
 40
1.0
 40
1.0
 40
1.0
 40
1.0
 10
127.9492344984123
 20
162.4049945790132
 30
0.0
 10
127.998432964915
 20
162.4109471800882
 30
0.0
 10
128.0833392486253
 20
162.4212201270236
 30
0.0
 10
128.20436771793
 20
162.4534045588179
 30
0.0
 10
128.2966373395053
 20
162.4890543261679
 30
0.0
 10
128.3486049162636
 20
162.5211788810424
 30
0.0
 10
128.3646646684221
 20
162.5389582867592
 30
0.0
 10
128.3692435797875
 20
162.5440275009105
 30
0.0
  0
SPLINE
  5
F8
330
1F
100
AcDbEntity
  8
0
  6
Continuous
 62
     7
370
    25
100
AcDbSpline
210
0.0
220
0.0
230
1.0
 70
     8
 71
     3
 72
    10
 73
     6
 74
     0
 42
0.00000001
 43
0.00000001
 40
0.0
 40
0.0
 40
0.0
 40
0.0
 40
0.3591934476452773
 40
0.707431406270681
 40
1.0
 40
1.0
 40
1.0
 40
1.0
 10
128.3692435797875
 20
162.5440275009105
 30
0.0
 10
128.3754766609425
 20
162.5560712717194
 30
0.0
 10
128.3877527127351
 20
162.579791475348
 30
0.0
 10
128.3596724415893
 20
162.6050315581443
 30
0.0
 10
128.3214775044144
 20
162.6135115563109
 30
0.0
 10
128.3040391074197
 20
162.6173832101342
 30
0.0
  0
SPLINE
  5
F9
330
1F
100
AcDbEntity
  8
0
  6
Continuous
 62
     7
370
    25
100
AcDbSpline
210
0.0
220
0.0
230
1.0
 70
     8
 71
     3
 72
    10
 73
     6
 74
     0
 42
0.00000001
 43
0.00000001
 40
0.0
 40
0.0
 40
0.0
 40
0.0
 40
0.2500033366638292
 40
0.5000070690713078
 40
1.0
 40
1.0
 40
1.0
 40
1.0
 10
128.3040391074197
 20
162.6173832101342
 30
0.0
 10
128.3061660551322
 20
162.6176091211715
 30
0.0
 10
128.3104199539242
 20
162.6180609436037
 30
0.0
 10
128.3189221632762
 20
162.6189570619503
 30
0.0
 10
128.3252815883467
 20
162.6196062461989
 30
0.0
 10
128.3295211639815
 20
162.6200390315046
 30
0.0
  0
SPLINE
  5
FA
330
1F
100
AcDbEntity
  8
0
  6
Continuous
 62
     7
370
    25
100
AcDbSpline
210
0.0
220
0.0
230
1.0
 70
     8
 71
     3
 72
    12
 73
     8
 74
     0
 42
0.00000001
 43
0.00000001
 40
0.0
 40
0.0
 40
0.0
 40
0.0
 40
0.4934044183777951
 40
0.6441714473184635
 40
0.7718384951903083
 40
0.8991514245124947
 40
1.0
 40
1.0
 40
1.0
 40
1.0
 10
128.3295211639815
 20
162.6200390315046
 30
0.0
 10
128.40624317778
 20
162.6251387505152
 30
0.0
 10
128.5064087393941
 20
162.6317967642126
 30
0.0
 10
128.6029187653661
 20
162.6228330125182
 30
0.0
 10
128.6304254543814
 20
162.6086063703677
 30
0.0
 10
128.6373247079175
 20
162.5914583220487
 30
0.0
 10
128.6287851566969
 20
162.5784474819071
 30
0.0
 10
128.625010630505
 20
162.5726966226845
 30
0.0
  0
SPLINE
  5
FB
330
1F
100
AcDbEntity
  8
0
  6
Continuous
 62
     7
370
    25
100
AcDbSpline
210
0.0
220
0.0
230
1.0
 70
     8
 71
     3
 72
    12
 73
     8
 74
     0
 42
0.00000001
 43
0.00000001
 40
0.0
 40
0.0
 40
0.0
 40
0.0
 40
0.2656839109022954
 40
0.4486938695731392
 40
0.6314722081025956
 40
0.9293372921761068
 40
1.0
 40
1.0
 40
1.0
 40
1.0
 10
128.625010630505
 20
162.5726966226845
 30
0.0
 10
128.6164588085499
 20
162.5643809596459
 30
0.0
 10
128.6020162701518
 20
162.5503372525422
 30
0.0
 10
128.5592560597944
 20
162.5310061111979
 30
0.0
 10
128.5048866542719
 20
162.514446061424
 30
0.0
 10
128.4562097341007
 20
162.5048759284266
 30
0.0
 10
128.4245494441654
 20
162.5000213051112
 30
0.0
 10
128.4184787980256
 20
162.4990904639739
 30
0.0
  0
LINE
  5
FC
330
1F
100
AcDbEntity
  8
0
  6
Continuous
 62
     7
370
    25
100
AcDbLine
 10
128.418478798
 20
162.499090464
 30
0.0
 11
128.3925569249
 21
162.4520215359
 31
0.0
  0
LINE
  5
FD
330
1F
100
AcDbEntity
  8
0
  6
Continuous
 62
     7
370
    25
100
AcDbLine
 10
128.2857148339
 20
161.284151806
 30
0.0
 11
127.5159365366
 21
161.2102356914
 31
0.0
  0
LINE
  5
FE
330
1F
100
AcDbEntity
  8
0
  6
Continuous
 62
     7
370
    25
100
AcDbLine
 10
128.346059187
 20
162.1078583031
 30
0.0
 11
128.4608215789
 21
162.2494134375
 31
0.0
  0
SPLINE
  5
FF
330
1F
100
AcDbEntity
  8
0
  6
Continuous
 62
     7
370
    25
100
AcDbSpline
210
0.0
220
0.0
230
1.0
 70
     8
 71
     3
 72
    12
 73
     8
 74
     0
 42
0.00000001
 43
0.00000001
 40
0.0
 40
0.0
 40
0.0
 40
0.0
 40
0.3067724084362969
 40
0.4750195975938241
 40
0.6165294468200722
 40
0.8009361378009966
 40
1.0
 40
1.0
 40
1.0
 40
1.0
 10
128.460821578916
 20
162.2494134375002
 30
0.0
 10
128.4753196039087
 20
162.2697048674772
 30
0.0
 10
128.4977689696554
 20
162.301124990791
 30
0.0
 10
128.4895991049455
 20
162.3364194730452
 30
0.0
 10
128.4513904662918
 20
162.3562735859084
 30
0.0
 10
128.3803274476878
 20
162.3660728445732
 30
0.0
 10
128.3122101180525
 20
162.3619275683972
 30
0.0
 10
128.2768496487611
 20
162.3597757090729
 30
0.0
  0
SPLINE
  5
100
330
1F
100
AcDbEntity
  8
0
  6
Continuous
 62
     7
370
    25
100
AcDbSpline
210
0.0
220
0.0
230
1.0
 70
     8
 71
     3
 72
    11
 73
     7
 74
     0
 42
0.00000001
 43
0.00000001
 40
0.0
 40
0.0
 40
0.0
 40
0.0
 40
0.2927394944606399
 40
0.5241326648682928
 40
0.7553978501729358
 40
1.0
 40
1.0
 40
1.0
 40
1.0
 10
128.2768496487611
 20
162.3597757090729
 30
0.0
 10
128.242483278281
 20
162.3554147412018
 30
0.0
 10
128.1809523346179
 20
162.3476066874375
 30
0.0
 10
128.092933234178
 20
162.3234429661132
 30
0.0
 10
128.0218898746861
 20
162.2957327534908
 30
0.0
 10
127.9886944486679
 20
162.2753820877458
 30
0.0
 10
127.9716315574605
 20
162.2649215744385
 30
0.0
  0
SPLINE
  5
101
330
1F
100
AcDbEntity
  8
0
  6
Continuous
 62
     7
370
    25
100
AcDbSpline
210
0.0
220
0.0
230
1.0
 70
     8
 71
     3
 72
    11
 73
     7
 74
     0
 42
0.00000001
 43
0.00000001
 40
0.0
 40
0.0
 40
0.0
 40
0.0
 40
0.3582304433516573
 40
0.6337965849703213
 40
0.9092786749577139
 40
1.0
 40
1.0
 40
1.0
 40
1.0
 10
127.9716315574605
 20
162.2649215744385
 30
0.0
 10
127.9636776927444
 20
162.2743143322838
 30
0.0
 10
127.9496053759216
 20
162.2909324002237
 30
0.0
 10
127.8920850776639
 20
162.3026259757565
 30
0.0
 10
127.8378612029421
 20
162.3036503720462
 30
0.0
 10
127.8033428428495
 20
162.3008155560791
 30
0.0
 10
127.7947914442624
 20
162.3001132735491
 30
0.0
  0
SPLINE
  5
102
330
1F
100
AcDbEntity
  8
0
  6
Continuous
 62
     7
370
    25
100
AcDbSpline
210
0.0
220
0.0
230
1.0
 70
     8
 71
     3
 72
    11
 73
     7
 74
     0
 42
0.00000001
 43
0.00000001
 40
0.0
 40
0.0
 40
0.0
 40
0.0
 40
0.3260082931143941
 40
0.6519693982996086
 40
0.9632451813135596
 40
1.0
 40
1.0
 40
1.0
 40
1.0
 10
127.7947914442624
 20
162.3001132735491
 30
0.0
 10
127.7614683886162
 20
162.2956567214691
 30
0.0
 10
127.6948271006552
 20
162.2867442623707
 30
0.0
 10
127.5991102722689
 20
162.2598524286727
 30
0.0
 10
127.5365192949099
 20
162.2366641539757
 30
0.0
 10
127.5177015515133
 20
162.2237862302223
 30
0.0
 10
127.5157142471117
 20
162.2224262183431
 30
0.0
  0
LINE
  5
103
330
1F
100
AcDbEntity
  8
0
  6
Continuous
 62
     7
370
    25
100
AcDbLine
 10
127.5237991777
 20
162.028902758
 30
0.0
 11
128.346059187
 21
162.1078583031
 31
0.0
  0
LINE
  5
104
330
1F
100
AcDbEntity
  8
0
  6
Continuous
 62
     7
370
    25
100
AcDbLine
 10
127.6782082047
 20
161.284089
 30
0.0
 11
127.7213206507
 21
161.3372665958
 31
0.0
  0
LINE
  5
105
330
1F
100
AcDbEntity
  8
0
  6
Continuous
 62
     7
370
    25
100
AcDbLine
 10
127.7213206507
 20
161.3372665958
 30
0.0
 11
127.5169681086
 21
161.3176441332
 31
0.0
  0
LINE
  5
106
330
1F
100
AcDbEntity
  8
0
  6
Continuous
 62
     7
370
    25
100
AcDbLine
 10
127.5164967049
 20
161.2685610411
 30
0.0
 11
127.6782082047
 21
161.284089
 31
0.0
  0
LINE
  5
107
330
1F
100
AcDbEntity
  8
0
  6
Continuous
 62
     7
370
    25
100
AcDbLine
 10
129.5310474691
 20
162.8202232113
 30
0.0
 11
128.2857148339
 21
161.284151806
 31
0.0
  0
LINE
  5
108
330
1F
100
AcDbEntity
  8
0
  6
Continuous
 62
     7
370
    25
100
AcDbLine
 10
128.285814819
 20
162.6417366492
 30
0.0
 11
128.2450474739
 21
162.6236706402
 31
0.0
  0
LINE
  5
109
330
1F
100
AcDbEntity
  8
0
  6
Continuous
 62
     7
370
    25
100
AcDbLine
 10
128.7424310717
 20
162.5816729908
 30
0.0
 11
128.726643338
 21
162.6582302046
 31
0.0
  0
SPLINE
  5
10A
330
1F
100
AcDbEntity
  8
0
  6
Continuous
 62
     7
370
    25
100
AcDbSpline
210
0.0
220
0.0
230
1.0
 70
     8
 71
     3
 72
    12
 73
     8
 74
     0
 42
0.00000001
 43
0.00000001
 40
0.0
 40
0.0
 40
0.0
 40
0.0
 40
0.3275076142910319
 40
0.5151915666444257
 40
0.7027011406689863
 40
0.894543643013603
 40
1.0
 40
1.0
 40
1.0
 40
1.0
 10
128.1031039414304
 20
162.5980888927905
 30
0.0
 10
128.1387237026939
 20
162.6005559508436
 30
0.0
 10
128.1947559896028
 20
162.6044367995566
 30
0.0
 10
128.2476310375272
 20
162.594825651005
 30
0.0
 10
128.2715289495673
 20
162.5804035770911
 30
0.0
 10
128.2731700131994
 20
162.5631980250926
 30
0.0
 10
128.2647356834294
 20
162.5514538555607
 30
0.0
 10
128.2617439003691
 20
162.5472880227773
 30
0.0
  0
SPLINE
  5
10B
330
1F
100
AcDbEntity
  8
0
  6
Continuous
 62
     7
370
    25
100
AcDbSpline
210
0.0
220
0.0
230
1.0
 70
     8
 71
     3
 72
    12
 73
     8
 74
     0
 42
0.00000001
 43
0.00000001
 40
0.0
 40
0.0
 40
0.0
 40
0.0
 40
0.2193986081128132
 40
0.4048844918330579
 40
0.5902427906827873
 40
0.7861257432688364
 40
0.9999999999999999
 40
0.9999999999999999
 40
0.9999999999999999
 40
0.9999999999999999
 10
128.2617439003691
 20
162.5472880227773
 30
0.0
 10
128.25307915634
 20
162.5384367903193
 30
0.0
 10
128.2370889888853
 20
162.5221024717623
 30
0.0
 10
128.1899127538898
 20
162.4980231694517
 30
0.0
 10
128.1323745473632
 20
162.4780865565578
 30
0.0
 10
128.0644918534695
 20
162.4620850450484
 30
0.0
 10
128.0191462759818
 20
162.4567825158498
 30
0.0
 10
127.9954779878816
 20
162.4540148415653
 30
0.0
  0
SPLINE
  5
10C
330
1F
100
AcDbEntity
  8
0
  6
Continuous
 62
     7
370
    25
100
AcDbSpline
210
0.0
220
0.0
230
1.0
 70
     8
 71
     3
 72
    12
 73
     8
 74
     0
 42
0.00000001
 43
0.00000001
 40
0.0
 40
0.0
 40
0.0
 40
0.0
 40
0.3075303045557548
 40
0.5134394067067763
 40
0.7198672359054898
 40
0.9022816111193334
 40
1.0
 40
1.0
 40
1.0
 40
1.0
 10
127.9954779878816
 20
162.4540148415653
 30
0.0
 10
127.9605842349002
 20
162.4516797947309
 30
0.0
 10
127.9023271214933
 20
162.4477813006852
 30
0.0
 10
127.843689640379
 20
162.4572984944841
 30
0.0
 10
127.8154018672186
 20
162.4726514618603
 30
0.0
 10
127.8135650917736
 20
162.4907735652016
 30
0.0
 10
127.821873831412
 20
162.5023908955965
 30
0.0
 10
127.8247721594734
 20
162.506443355554
 30
0.0
  0
SPLINE
  5
10D
330
1F
100
AcDbEntity
  8
0
  6
Continuous
 62
     7
370
    25
100
AcDbSpline
210
0.0
220
0.0
230
1.0
 70
     8
 71
     3
 72
    12
 73
     8
 74
     0
 42
0.00000001
 43
0.00000001
 40
0.0
 40
0.0
 40
0.0
 40
0.0
 40
0.2159903050044185
 40
0.3921487898002768
 40
0.5674874627894284
 40
0.7572663033857701
 40
1.0
 40
1.0
 40
1.0
 40
1.0
 10
127.8247721594734
 20
162.506443355554
 30
0.0
 10
127.8338564509251
 20
162.5153627205976
 30
0.0
 10
127.8503497555618
 20
162.5315565872972
 30
0.0
 10
127.8995428437495
 20
162.5547932036984
 30
0.0
 10
127.9566909812583
 20
162.5735069605901
 30
0.0
 10
128.0272529259274
 20
162.589414440236
 30
0.0
 10
128.0758374474276
 20
162.5949706496531
 30
0.0
 10
128.1031039414304
 20
162.5980888927905
 30
0.0
  0
LINE
  5
10E
330
1F
100
AcDbEntity
  8
0
  6
Continuous
 62
     7
370
    25
100
AcDbLine
 10
128.3206581597
 20
162.6630171391
 30
0.0
 11
128.329521164
 21
162.6200390315
 31
0.0
  0
LINE
  5
10F
330
1F
100
AcDbEntity
  8
0
  6
Continuous
 62
     7
370
    25
100
AcDbLine
 10
127.9394960892
 20
162.4522176635
 30
0.0
 11
127.9492344984
 21
162.404994579
 31
0.0
  0
LINE
  5
110
330
1F
100
AcDbEntity
  8
0
  6
Continuous
 62
     7
370
    25
100
AcDbLine
 10
128.2953643672
 20
162.6594483956
 30
0.0
 11
128.3040391074
 21
162.6173832101
 31
0.0
  0
LINE
  5
111
330
1F
100
AcDbEntity
  8
0
  6
Continuous
 62
     7
370
    25
100
AcDbLine
 10
128.3579532597
 20
162.5987760463
 30
0.0
 11
128.3692435798
 21
162.5440275009
 31
0.0
  0
LINE
  5
112
330
1F
100
AcDbEntity
  8
0
  6
Continuous
 62
     7
370
    25
100
AcDbLine
 10
127.8824820939
 20
162.2554175975
 30
0.0
 11
127.9150416074
 21
162.2955785443
 31
0.0
  0
LINE
  5
113
330
1F
100
AcDbEntity
  8
0
  6
Continuous
 62
     7
370
    25
100
AcDbLine
 10
128.3580894401
 20
162.2986320541
 30
0.0
 11
128.4072354257
 21
162.3592517961
 31
0.0
  0
LINE
  5
114
330
1F
100
AcDbEntity
  8
0
  6
Continuous
 62
     7
370
    25
100
AcDbLine
 10
127.8923983803
 20
162.2073319585
 30
0.0
 11
127.872179644
 21
162.2053905029
 31
0.0
  0
LINE
  5
115
330
1F
100
AcDbEntity
  8
0
  6
Continuous
 62
     7
370
    25
100
AcDbLine
 10
127.7919649478
 20
162.1036905595
 30
0.0
 11
127.5242705814
 21
162.07798585
 31
0.0
  0
LINE
  5
116
330
1F
100
AcDbEntity
  8
0
  6
Continuous
 62
     7
370
    25
100
AcDbLine
 10
127.5248323592
 20
162.1364787875
 30
0.0
 11
127.5316932613
 21
162.1449414546
 31
0.0
  0
SPLINE
  5
117
330
1F
100
AcDbEntity
  8
0
  6
Continuous
 62
     7
370
    25
100
AcDbSpline
210
0.0
220
0.0
230
1.0
 70
     8
 71
     3
 72
    13
 73
     9
 74
     0
 42
0.00000001
 43
0.00000001
 40
0.0
 40
0.0
 40
0.0
 40
0.0
 40
0.3606975991498074
 40
0.5001541328582613
 40
0.6180402787623088
 40
0.7356336469376796
 40
0.908166558859076
 40
0.9999999999999999
 40
0.9999999999999999
 40
0.9999999999999999
 40
0.9999999999999999
 10
127.5316932613474
 20
162.1449414546263
 30
0.0
 10
127.5438460543659
 20
162.1596959985376
 30
0.0
 10
127.5606974824549
 20
162.1801550926181
 30
0.0
 10
127.5979055994342
 20
162.2065252391415
 30
0.0
 10
127.6329838823742
 20
162.2216763350257
 30
0.0
 10
127.6786465183991
 20
162.2349750786613
 30
0.0
 10
127.724262168912
 20
162.2438158018477
 30
0.0
 10
127.7541524777806
 20
162.2470475699912
 30
0.0
 10
127.7645355310261
 20
162.2481701954167
 30
0.0
  0
SPLINE
  5
118
330
1F
100
AcDbEntity
  8
0
  6
Continuous
 62
     7
370
    25
100
AcDbSpline
210
0.0
220
0.0
230
1.0
 70
     8
 71
     3
 72
    11
 73
     7
 74
     0
 42
0.00000001
 43
0.00000001
 40
0.0
 40
0.0
 40
0.0
 40
0.0
 40
0.311655805895915
 40
0.538352308549294
 40
0.7658191034981026
 40
1.0
 40
1.0
 40
1.0
 40
1.0
 10
127.7645355310261
 20
162.2481701954167
 30
0.0
 10
127.7840109936389
 20
162.2496027991804
 30
0.0
 10
127.8176527871152
 20
162.2520774700476
 30
0.0
 10
127.8548263758021
 20
162.247986019795
 30
0.0
 10
127.8756759396176
 20
162.239064920643
 30
0.0
 10
127.8782058988298
 20
162.2301080645489
 30
0.0
 10
127.8794892760186
 20
162.2255645032384
 30
0.0
  0
SPLINE
  5
119
330
1F
100
AcDbEntity
  8
0
  6
Continuous
 62
     7
370
    25
100
AcDbSpline
210
0.0
220
0.0
230
1.0
 70
     8
 71
     3
 72
    10
 73
     6
 74
     0
 42
0.00000001
 43
0.00000001
 40
0.0
 40
0.0
 40
0.0
 40
0.0
 40
0.2510868258468873
 40
0.5016634248050544
 40
1.0
 40
1.0
 40
1.0
 40
1.0
 10
127.8794892760186
 20
162.2255645032384
 30
0.0
 10
127.8790153913118
 20
162.2220934268452
 30
0.0
 10
127.8780685848669
 20
162.2151583275412
 30
0.0
 10
127.8696183285947
 20
162.2003308849397
 30
0.0
 10
127.8608288139942
 20
162.1889742946192
 30
0.0
 10
127.8549801565599
 20
162.1814174715836
 30
0.0
  0
LINE
  5
11A
330
1F
100
AcDbEntity
  8
0
  6
Continuous
 62
     7
370
    25
100
AcDbLine
 10
127.8549801566
 20
162.1814174716
 30
0.0
 11
127.7919649478
 21
162.1036905595
 31
0.0
  0
LINE
  5
11B
330
1F
100
AcDbEntity
  8
0
  6
Continuous
 62
     7
370
    25
100
AcDbLine
 10
127.7551141349
 20
162.2938560332
 30
0.0
 11
127.764535531
 21
162.2481701954
 31
0.0
  0
LINE
  5
11C
330
1F
100
AcDbEntity
  8
0
  6
Continuous
 62
     7
370
    25
100
AcDbLine
 10
128.269730296
 20
162.149566831
 30
0.0
 11
127.9114062848
 21
162.1151596274
 31
0.0
  0
LINE
  5
11D
330
1F
100
AcDbEntity
  8
0
  6
Continuous
 62
     7
370
    25
100
AcDbLine
 10
127.9114062848
 20
162.1151596274
 30
0.0
 11
127.9787694818
 21
162.1982496209
 31
0.0
  0
SPLINE
  5
11E
330
1F
100
AcDbEntity
  8
0
  6
Continuous
 62
     7
370
    25
100
AcDbSpline
210
0.0
220
0.0
230
1.0
 70
     8
 71
     3
 72
    12
 73
     8
 74
     0
 42
0.00000001
 43
0.00000001
 40
0.0
 40
0.0
 40
0.0
 40
0.0
 40
0.4038695109167892
 40
0.5516672297518425
 40
0.7000395965012137
 40
0.8389274398615411
 40
1.0
 40
1.0
 40
1.0
 40
1.0
 10
127.9787694817849
 20
162.1982496208786
 30
0.0
 10
127.9933626682161
 20
162.2158209278357
 30
0.0
 10
128.0132962916121
 20
162.2398225272883
 30
0.0
 10
128.0720857577973
 20
162.2707839322588
 30
0.0
 10
128.1210136387674
 20
162.2872013633108
 30
0.0
 10
128.1763222687177
 20
162.299890008004
 30
0.0
 10
128.2123288016338
 20
162.3041249310045
 30
0.0
 10
128.2316635683925
 20
162.3063989974537
 30
0.0
  0
SPLINE
  5
11F
330
1F
100
AcDbEntity
  8
0
  6
Continuous
 62
     7
370
    25
100
AcDbSpline
210
0.0
220
0.0
230
1.0
 70
     8
 71
     3
 72
    11
 73
     7
 74
     0
 42
0.00000001
 43
0.00000001
 40
0.0
 40
0.0
 40
0.0
 40
0.0
 40
0.268249033762556
 40
0.4928875452886549
 40
0.7187084056001832
 40
1.0
 40
1.0
 40
1.0
 40
1.0
 10
128.2316635683925
 20
162.3063989974537
 30
0.0
 10
128.2534529320332
 20
162.3078997575708
 30
0.0
 10
128.2934892587541
 20
162.3106572920894
 30
0.0
 10
128.3384923528768
 20
162.3053117329921
 30
0.0
 10
128.366468111579
 20
162.2924312727682
 30
0.0
 10
128.3643829459457
 20
162.2783578447489
 30
0.0
 10
128.3632263197179
 20
162.2705514164717
 30
0.0
  0
SPLINE
  5
120
330
1F
100
AcDbEntity
  8
0
  6
Continuous
 62
     7
370
    25
100
AcDbSpline
210
0.0
220
0.0
230
1.0
 70
     8
 71
     3
 72
    10
 73
     6
 74
     0
 42
0.00000001
 43
0.00000001
 40
0.0
 40
0.0
 40
0.0
 40
0.0
 40
0.2504914565496557
 40
0.5009143266308034
 40
1.0
 40
1.0
 40
1.0
 40
1.0
 10
128.3632263197179
 20
162.2705514164717
 30
0.0
 10
128.3621795280708
 20
162.2679873258066
 30
0.0
 10
128.3600862313963
 20
162.262859846544
 30
0.0
 10
128.3525660316204
 20
162.2521934630748
 30
0.0
 10
128.3462557732752
 20
162.2441387639932
 30
0.0
 10
128.3420538738268
 20
162.2387752695407
 30
0.0
  0
LINE
  5
121
330
1F
100
AcDbEntity
  8
0
  6
Continuous
 62
     7
370
    25
100
AcDbLine
 10
128.3420538738
 20
162.2387752695
 30
0.0
 11
128.269730296
 21
162.149566831
 31
0.0
  0
LINE
  5
122
330
1F
100
AcDbEntity
  8
0
  6
Continuous
 62
     7
370
    25
100
AcDbLine
 10
128.222388152
 20
162.3513769563
 30
0.0
 11
128.2316635684
 21
162.3063989975
 31
0.0
  0
LINE
  5
123
330
1F
100
AcDbEntity
  8
0
  6
Continuous
 62
     7
370
    25
100
AcDbLine
 10
127.9114062848
 20
162.1151596274
 30
0.0
 11
127.8824820939
 21
162.2554175975
 31
0.0
  0
LINE
  5
124
330
1F
100
AcDbEntity
  8
0
  6
Continuous
 62
     7
370
    25
100
AcDbLine
 10
128.3237238519
 20
162.2161658705
 30
0.0
 11
128.346059187
 21
162.1078583031
 31
0.0
  0
SPLINE
  5
125
330
1F
100
AcDbEntity
  8
0
  6
Continuous
 62
     7
370
    25
100
AcDbSpline
210
0.0
220
0.0
230
1.0
 70
     8
 71
     3
 72
     9
 73
     5
 74
     0
 42
0.00000001
 43
0.00000001
 40
0.0
 40
0.0
 40
0.0
 40
0.0
 40
0.9944515513696709
 40
1.0
 40
1.0
 40
1.0
 40
1.0
 10
128.1131415738122
 20
161.9814027241179
 30
0.0
 10
128.0880502376119
 20
161.9521194340345
 30
0.0
 10
128.062818906668
 20
161.9226727605961
 30
0.0
 10
128.0039862433315
 20
161.8947478312517
 30
0.0
 10
128.0036598133212
 20
161.8945928912158
 30
0.0
  0
LINE
  5
126
330
1F
100
AcDbEntity
  8
0
  6
Continuous
 62
     7
370
    25
100
AcDbLine
 10
128.1142398363
 20
161.9760770757
 30
0.0
 11
128.1420657648
 21
161.8411447539
 31
0.0
  0
LINE
  5
127
330
1F
100
AcDbEntity
  8
0
  6
Continuous
 62
     7
370
    25
100
AcDbLine
 10
127.9868591437
 20
161.9699417461
 30
0.0
 11
127.9967754301
 21
161.9218561071
 31
0.0
  0
LINE
  5
128
330
1F
100
AcDbEntity
  8
0
  6
Continuous
 62
     7
370
    25
100
AcDbLine
 10
127.8006096231
 20
161.903019756
 30
0.0
 11
127.7906933367
 21
161.9511053951
 31
0.0
  0
LINE
  5
129
330
1F
100
AcDbEntity
  8
0
  6
Continuous
 62
     7
370
    25
100
AcDbLine
 10
127.6959687092
 20
161.9098064587
 30
0.0
 11
127.7183040443
 21
161.8014988912
 31
0.0
  0
LINE
  5
12A
330
1F
100
AcDbEntity
  8
0
  6
Continuous
 62
     7
370
    25
100
AcDbLine
 10
127.6682919182
 20
161.332174639
 30
0.0
 11
127.6782082047
 21
161.284089
 31
0.0
  0
LWPOLYLINE
  5
12B
330
1F
100
AcDbEntity
  8
0
  6
Continuous
 62
     7
370
    25
100
AcDbPolyline
 90
       22
 70
   128
 43
0.0
 10
91.2189223305
 20
159.5897547611
 10
91.2140847376
 20
160.1588891418
 10
91.0440948226
 20
160.6837726524
 10
90.7240569355
 20
161.1177670896
 10
90.2824078469
 20
161.4223101431
 10
89.7583900165
 20
161.5703418261
 10
89.1985647283
 20
161.548708874
 10
88.6526749157
 20
161.3593334695
 10
88.1692252843
 20
161.0190424484
 10
87.7911724554
 20
160.5580721611
 10
87.5521080818
 20
160.0173818408
 10
87.4732740823
 20
159.445014195
 10
87.5616752038
 20
158.891826601
 10
87.8094566186
 20
158.4069722041
 10
88.1946018606
 20
158.0335324452
 10
88.6828890849
 20
157.8046890857
 10
89.2309318288
 20
157.7407758623
 10
89.7900340896
 20
157.8474717455
 10
90.3105171776
 20
158.1152963377
 10
90.7461338865
 20
158.5204522487
 10
91.05817776
 20
159.0269395977
 10
91.2189223305
 20
159.5897547611
  0
ARC
  5
12C
330
1F
100
AcDbEntity
  8
0
  6
Continuous
 62
     7
370
    25
100
AcDbCircle
 10
89.4264850903
 20
159.602541598
 30
0.0
 40
2.006197169694479
100
AcDbArc
 50
55.1326716953
 51
226.1234064599
  0
LINE
  5
12D
330
1F
100
AcDbEntity
  8
0
  6
Continuous
 62
     7
370
    25
100
AcDbLine
 10
89.7526329745
 20
160.7314766179
 30
0.0
 11
89.255693607
 21
160.7504416306
 31
0.0
  0
LINE
  5
12E
330
1F
100
AcDbEntity
  8
0
  6
Continuous
 62
     7
370
    25
100
AcDbLine
 10
89.255693607
 20
160.7504416306
 30
0.0
 11
89.1950862191
 21
160.3104067705
 31
0.0
  0
ARC
  5
12F
330
1F
100
AcDbEntity
  8
0
  6
Continuous
 62
     7
370
    25
100
AcDbCircle
 10
88.7717542992
 20
160.3677986643
 30
0.0
 40
0.4272045690929464
100
AcDbArc
 50
269.6960436743
 51
352.2793762317
  0
LINE
  5
130
330
1F
100
AcDbEntity
  8
0
  6
Continuous
 62
     7
370
    25
100
AcDbLine
 10
88.7694879731
 20
159.9406001067
 30
0.0
 11
88.3424307041
 21
159.9568981644
 31
0.0
  0
LINE
  5
131
330
1F
100
AcDbEntity
  8
0
  6
Continuous
 62
     7
370
    25
100
AcDbLine
 10
88.3424307041
 20
159.9568981644
 30
0.0
 11
88.2719057436
 21
159.4448576
 31
0.0
  0
LINE
  5
132
330
1F
100
AcDbEntity
  8
0
  6
Continuous
 62
     7
370
    25
100
AcDbLine
 10
88.2719057436
 20
159.4448576
 30
0.0
 11
88.6989630126
 21
159.4285595422
 31
0.0
  0
ARC
  5
133
330
1F
100
AcDbEntity
  8
0
  6
Continuous
 62
     7
370
    25
100
AcDbCircle
 10
88.6850952916
 20
159.0898870925
 30
0.0
 40
0.3389562536358744
100
AcDbArc
 50
349.875947035
 51
87.6552026637
  0
LINE
  5
134
330
1F
100
AcDbEntity
  8
0
  6
Continuous
 62
     7
370
    25
100
AcDbLine
 10
89.0187738179
 20
159.0303053594
 30
0.0
 11
88.95816643
 21
158.5902704993
 31
0.0
  0
LINE
  5
135
330
1F
100
AcDbEntity
  8
0
  6
Continuous
 62
     7
370
    25
100
AcDbLine
 10
88.95816643
 20
158.5902704993
 30
0.0
 11
89.4551057976
 21
158.5713054866
 31
0.0
  0
LINE
  5
136
330
1F
100
AcDbEntity
  8
0
  6
Continuous
 62
     7
370
    25
100
AcDbLine
 10
89.4551057976
 20
158.5713054866
 30
0.0
 11
89.5157131855
 21
159.0113403467
 31
0.0
  0
ARC
  5
137
330
1F
100
AcDbEntity
  8
0
  6
Continuous
 62
     7
370
    25
100
AcDbCircle
 10
89.9390451054
 20
158.9539484529
 30
0.0
 40
0.4272045690930149
100
AcDbArc
 50
89.6960436743
 51
172.2793762317
  0
LINE
  5
138
330
1F
100
AcDbEntity
  8
0
  6
Continuous
 62
     7
370
    25
100
AcDbLine
 10
89.9413114315
 20
159.3811470106
 30
0.0
 11
90.3683687005
 21
159.3648489528
 31
0.0
  0
LINE
  5
139
330
1F
100
AcDbEntity
  8
0
  6
Continuous
 62
     7
370
    25
100
AcDbLine
 10
90.3683687005
 20
159.3648489528
 30
0.0
 11
90.4388936609
 21
159.8768895172
 31
0.0
  0
LINE
  5
13A
330
1F
100
AcDbEntity
  8
0
  6
Continuous
 62
     7
370
    25
100
AcDbLine
 10
90.4388936609
 20
159.8768895172
 30
0.0
 11
90.0118363919
 21
159.893187575
 31
0.0
  0
ARC
  5
13B
330
1F
100
AcDbEntity
  8
0
  6
Continuous
 62
     7
370
    25
100
AcDbCircle
 10
90.025704113
 20
160.2318600247
 30
0.0
 40
0.3389562536358167
100
AcDbArc
 50
169.8759470349
 51
267.6552026638
  0
LINE
  5
13C
330
1F
100
AcDbEntity
  8
0
  6
Continuous
 62
     7
370
    25
100
AcDbLine
 10
89.6920255866
 20
160.2914417578
 30
0.0
 11
89.7526329745
 21
160.7314766179
 31
0.0
  0
LINE
  5
13D
330
1F
100
AcDbEntity
  8
0
  6
Continuous
 62
     7
370
    25
100
AcDbLine
 10
88.2927488509
 20
159.5961872337
 30
0.0
 11
88.5045356725
 21
159.5881046787
 31
0.0
  0
LINE
  5
13E
330
1F
100
AcDbEntity
  8
0
  6
Continuous
 62
     7
370
    25
100
AcDbLine
 10
88.6989630126
 20
159.4285595422
 30
0.0
 11
88.5045356725
 21
159.5881046787
 31
0.0
  0
LINE
  5
13F
330
1F
100
AcDbEntity
  8
0
  6
Continuous
 62
     7
370
    25
100
AcDbLine
 10
89.4975982465
 20
160.4509868943
 30
0.0
 11
89.6920255866
 21
160.2914417578
 31
0.0
  0
LINE
  5
140
330
1F
100
AcDbEntity
  8
0
  6
Continuous
 62
     7
370
    25
100
AcDbLine
 10
89.4975982465
 20
160.4509868943
 30
0.0
 11
89.5373625271
 21
160.7396921207
 31
0.0
  0
ARC
  5
141
330
1F
100
AcDbEntity
  8
0
  6
Continuous
 62
     7
370
    25
100
AcDbCircle
 10
88.4947289332
 20
159.2547668627
 30
0.0
 40
0.3334820411350478
100
AcDbArc
 50
50.8258220064
 51
88.3148544163
  0
LINE
  5
142
330
1F
100
AcDbEntity
  8
0
  6
Continuous
 62
     7
370
    25
100
AcDbLine
 10
90.1739413604
 20
159.5243940893
 30
0.0
 11
90.2236232135
 21
159.88510502
 31
0.0
  0
LINE
  5
143
330
1F
100
AcDbEntity
  8
0
  6
Continuous
 62
     7
370
    25
100
AcDbLine
 10
89.7468840914
 20
159.5406921471
 30
0.0
 11
90.1739413604
 21
159.5243940893
 31
0.0
  0
ARC
  5
144
330
1F
100
AcDbEntity
  8
0
  6
Continuous
 62
     7
370
    25
100
AcDbCircle
 10
89.7446177653
 20
159.1134935895
 30
0.0
 40
0.4272045690929369
100
AcDbArc
 50
89.6960436743
 51
172.2793762317
  0
LINE
  5
145
330
1F
100
AcDbEntity
  8
0
  6
Continuous
 62
     7
370
    25
100
AcDbLine
 10
89.2606784575
 20
158.7308506232
 30
0.0
 11
89.3212858454
 21
159.1708854832
 31
0.0
  0
LINE
  5
146
330
1F
100
AcDbEntity
  8
0
  6
Continuous
 62
     7
370
    25
100
AcDbLine
 10
88.9790095374
 20
158.741600133
 30
0.0
 11
89.2606784575
 21
158.7308506232
 31
0.0
  0
ARC
  5
147
330
1F
100
AcDbEntity
  8
0
  6
Continuous
 62
     7
370
    25
100
AcDbCircle
 10
89.8456345378
 20
160.3953981986
 30
0.0
 40
0.3524476743163474
100
AcDbArc
 50
170.925311664
 51
229.4623149303
  0
LINE
  5
148
330
1F
100
AcDbEntity
  8
0
  6
Continuous
 62
     7
370
    25
100
AcDbLine
 10
89.7468840914
 20
159.5406921471
 30
0.0
 11
89.9413114315
 21
159.3811470106
 31
0.0
  0
LINE
  5
149
330
1F
100
AcDbEntity
  8
0
  6
Continuous
 62
     7
370
    25
100
AcDbLine
 10
89.5157131855
 20
159.0113403467
 30
0.0
 11
89.3212858454
 21
159.1708854832
 31
0.0
  0
LINE
  5
14A
330
1F
100
AcDbEntity
  8
0
  6
Continuous
 62
     7
370
    25
100
AcDbLine
 10
89.2606784575
 20
158.7308506232
 30
0.0
 11
89.4551057976
 21
158.5713054866
 31
0.0
  0
LINE
  5
14B
330
1F
100
AcDbEntity
  8
0
  6
Continuous
 62
     7
370
    25
100
AcDbLine
 10
90.1739413604
 20
159.5243940893
 30
0.0
 11
90.3683687005
 21
159.3648489528
 31
0.0
  0
LWPOLYLINE
  5
14C
330
1F
100
AcDbEntity
  8
0
  6
Continuous
 62
     7
370
    25
100
AcDbPolyline
 90
       22
 70
   128
 43
0.0
 10
117.723315825
 20
164.2922619236
 10
117.1639294417
 20
164.1891224139
 10
116.6421337088
 20
163.9245008702
 10
116.2042924671
 20
163.5219100779
 10
115.8893098324
 20
163.0171219957
 10
115.725173394
 20
162.4549892599
 10
115.7264673948
 20
161.8854598309
 10
115.8930768572
 20
161.3591388978
 10
116.2101977992
 20
160.9227923853
 10
116.6496526336
 20
160.6151915959
 10
117.1723938697
 20
160.4636682096
 10
117.7319736546
 20
160.4816857443
 10
118.278670869
 20
160.6676432628
 10
118.763909066
 20
161.0050176237
 10
119.1445727025
 20
161.4638316343
 10
119.3868381439
 20
162.0033176565
 10
119.4691790424
 20
162.5755399896
 10
119.384279048
 20
163.1296541682
 10
119.1396818978
 20
163.6164247158
 10
118.7571211218
 20
163.9925999331
 10
118.2705889239
 20
164.2247550012
 10
117.723315825
 20
164.2922619236
  0
ARC
  5
14D
330
1F
100
AcDbEntity
  8
0
  6
Continuous
 62
     7
370
    25
100
AcDbCircle
 10
117.6812774706
 20
162.3123275544
 30
0.0
 40
2.021573482099766
100
AcDbArc
 50
90.2460624108
 51
225.628043314
  0
ARC
  5
14E
330
1F
100
AcDbEntity
  8
0
  6
Continuous
 62
     7
370
    25
100
AcDbCircle
 10
117.7467183511
 20
162.6585260462
 30
0.0
 40
1.676995249510747
100
AcDbArc
 50
50.8729559911
 51
92.5332820707
  0
LINE
  5
14F
330
1F
100
AcDbEntity
  8
0
  6
Continuous
 62
     7
370
    25
100
AcDbLine
 10
116.5492111925
 20
162.5938132246
 30
0.0
 11
116.5128572289
 21
162.0816751521
 31
0.0
  0
LINE
  5
150
330
1F
100
AcDbEntity
  8
0
  6
Continuous
 62
     7
370
    25
100
AcDbLine
 10
116.5128572289
 20
162.0816751521
 30
0.0
 11
116.9430608126
 21
162.0955269891
 31
0.0
  0
ARC
  5
151
330
1F
100
AcDbEntity
  8
0
  6
Continuous
 62
     7
370
    25
100
AcDbCircle
 10
116.9559207657
 20
161.7586150396
 30
0.0
 40
0.3371572928671778
100
AcDbArc
 50
354.0238884714
 51
92.185922794
  0
LINE
  5
152
330
1F
100
AcDbEntity
  8
0
  6
Continuous
 62
     7
370
    25
100
AcDbLine
 10
117.2912457402
 20
161.7235123107
 30
0.0
 11
117.2600040528
 21
161.2833936547
 31
0.0
  0
LINE
  5
153
330
1F
100
AcDbEntity
  8
0
  6
Continuous
 62
     7
370
    25
100
AcDbLine
 10
117.2600040528
 20
161.2833936547
 30
0.0
 11
117.7606045865
 21
161.2995121559
 31
0.0
  0
LINE
  5
154
330
1F
100
AcDbEntity
  8
0
  6
Continuous
 62
     7
370
    25
100
AcDbLine
 10
117.7606045865
 20
161.2995121559
 30
0.0
 11
117.791846274
 21
161.739630812
 31
0.0
  0
ARC
  5
155
330
1F
100
AcDbEntity
  8
0
  6
Continuous
 62
     7
370
    25
100
AcDbCircle
 10
118.2199208254
 20
161.7072774462
 30
0.0
 40
0.4292954248770385
100
AcDbArc
 50
93.38645943
 51
175.6778701586
  0
LINE
  5
156
330
1F
100
AcDbEntity
  8
0
  6
Continuous
 62
     7
370
    25
100
AcDbLine
 10
118.194562147
 20
162.1358232422
 30
0.0
 11
118.6247657307
 21
162.1496750792
 31
0.0
  0
LINE
  5
157
330
1F
100
AcDbEntity
  8
0
  6
Continuous
 62
     7
370
    25
100
AcDbLine
 10
118.6247657307
 20
162.1496750792
 30
0.0
 11
118.6611196943
 21
162.6618131517
 31
0.0
  0
LINE
  5
158
330
1F
100
AcDbEntity
  8
0
  6
Continuous
 62
     7
370
    25
100
AcDbLine
 10
118.6611196943
 20
162.6618131517
 30
0.0
 11
118.2309161106
 21
162.6479613147
 31
0.0
  0
ARC
  5
159
330
1F
100
AcDbEntity
  8
0
  6
Continuous
 62
     7
370
    25
100
AcDbCircle
 10
118.2180561575
 20
162.9848732642
 30
0.0
 40
0.3371572928671518
100
AcDbArc
 50
174.0238884714
 51
272.185922794
  0
LINE
  5
15A
330
1F
100
AcDbEntity
  8
0
  6
Continuous
 62
     7
370
    25
100
AcDbLine
 10
117.882731183
 20
163.0199759931
 30
0.0
 11
117.9139728704
 21
163.4600946491
 31
0.0
  0
LINE
  5
15B
330
1F
100
AcDbEntity
  8
0
  6
Continuous
 62
     7
370
    25
100
AcDbLine
 10
117.9139728704
 20
163.4600946491
 30
0.0
 11
117.4133723367
 21
163.4439761479
 31
0.0
  0
LINE
  5
15C
330
1F
100
AcDbEntity
  8
0
  6
Continuous
 62
     7
370
    25
100
AcDbLine
 10
117.4133723367
 20
163.4439761479
 30
0.0
 11
117.3821306492
 21
163.0038574919
 31
0.0
  0
ARC
  5
15D
330
1F
100
AcDbEntity
  8
0
  6
Continuous
 62
     7
370
    25
100
AcDbCircle
 10
116.9540560978
 20
163.0362108576
 30
0.0
 40
0.4292954248770668
100
AcDbArc
 50
273.38645943
 51
355.6778701586
  0
LINE
  5
15E
330
1F
100
AcDbEntity
  8
0
  6
Continuous
 62
     7
370
    25
100
AcDbLine
 10
116.9794147762
 20
162.6076650616
 30
0.0
 11
116.5492111925
 21
162.5938132246
 31
0.0
  0
LINE
  5
15F
330
1F
100
AcDbEntity
  8
0
  6
Continuous
 62
     7
370
    25
100
AcDbLine
 10
116.5246538345
 20
162.2478603553
 30
0.0
 11
116.7486334725
 21
162.2550721257
 31
0.0
  0
LINE
  5
160
330
1F
100
AcDbEntity
  8
0
  6
Continuous
 62
     7
370
    25
100
AcDbLine
 10
116.9430608126
 20
162.0955269891
 30
0.0
 11
116.7486334725
 21
162.2550721257
 31
0.0
  0
LINE
  5
161
330
1F
100
AcDbEntity
  8
0
  6
Continuous
 62
     7
370
    25
100
AcDbLine
 10
117.6883038429
 20
163.1795211296
 30
0.0
 11
117.882731183
 21
163.0199759931
 31
0.0
  0
LINE
  5
162
330
1F
100
AcDbEntity
  8
0
  6
Continuous
 62
     7
370
    25
100
AcDbLine
 10
117.6883038429
 20
163.1795211296
 30
0.0
 11
117.7077489248
 21
163.4534545824
 31
0.0
  0
ARC
  5
163
330
1F
100
AcDbEntity
  8
0
  6
Continuous
 62
     7
370
    25
100
AcDbCircle
 10
118.0351466165
 20
163.148102782
 30
0.0
 40
0.3482628636347749
100
AcDbArc
 50
174.8240548336
 51
229.7257891511
  0
LINE
  5
164
330
1F
100
AcDbEntity
  8
0
  6
Continuous
 62
     7
370
    25
100
AcDbLine
 10
118.4303383906
 20
162.3092202157
 30
0.0
 11
118.4548957486
 21
162.655173085
 31
0.0
  0
LINE
  5
165
330
1F
100
AcDbEntity
  8
0
  6
Continuous
 62
     7
370
    25
100
AcDbLine
 10
118.0001348069
 20
162.2953683787
 30
0.0
 11
118.4303383906
 21
162.3092202157
 31
0.0
  0
ARC
  5
166
330
1F
100
AcDbEntity
  8
0
  6
Continuous
 62
     7
370
    25
100
AcDbCircle
 10
118.0254934853
 20
161.8668225828
 30
0.0
 40
0.4292954248770685
100
AcDbArc
 50
93.38645943
 51
175.6778701586
  0
LINE
  5
167
330
1F
100
AcDbEntity
  8
0
  6
Continuous
 62
     7
370
    25
100
AcDbLine
 10
117.5661772464
 20
161.4590572924
 30
0.0
 11
117.5974189339
 21
161.8991759485
 31
0.0
  0
LINE
  5
168
330
1F
100
AcDbEntity
  8
0
  6
Continuous
 62
     7
370
    25
100
AcDbLine
 10
117.2718006583
 20
161.4495788579
 30
0.0
 11
117.5661772464
 21
161.4590572924
 31
0.0
  0
ARC
  5
169
330
1F
100
AcDbEntity
  8
0
  6
Continuous
 62
     7
370
    25
100
AcDbCircle
 10
116.7630718559
 20
161.9188330121
 30
0.0
 40
0.3365489688067665
100
AcDbArc
 50
50.9474208233
 51
92.4588172384
  0
LINE
  5
16A
330
1F
100
AcDbEntity
  8
0
  6
Continuous
 62
     7
370
    25
100
AcDbLine
 10
118.0001348069
 20
162.2953683787
 30
0.0
 11
118.194562147
 21
162.1358232422
 31
0.0
  0
LINE
  5
16B
330
1F
100
AcDbEntity
  8
0
  6
Continuous
 62
     7
370
    25
100
AcDbLine
 10
117.791846274
 20
161.739630812
 30
0.0
 11
117.5974189339
 21
161.8991759485
 31
0.0
  0
LINE
  5
16C
330
1F
100
AcDbEntity
  8
0
  6
Continuous
 62
     7
370
    25
100
AcDbLine
 10
117.5661772464
 20
161.4590572924
 30
0.0
 11
117.7606045865
 21
161.2995121559
 31
0.0
  0
LINE
  5
16D
330
1F
100
AcDbEntity
  8
0
  6
Continuous
 62
     7
370
    25
100
AcDbLine
 10
118.4303383906
 20
162.3092202157
 30
0.0
 11
118.6247657307
 21
162.1496750792
 31
0.0
  0
ARC
  5
16E
330
1F
100
AcDbEntity
  8
0
  6
Continuous
 62
     7
370
    25
100
AcDbCircle
 10
77.6251865612
 20
149.8417000012
 30
0.0
 40
0.9863449251366054
100
AcDbArc
 50
130.256813417
 51
239.6881621747
  0
ARC
  5
16F
330
1F
100
AcDbEntity
  8
0
  6
Continuous
 62
     7
370
    25
100
AcDbCircle
 10
81.7523636794
 20
156.0312703873
 30
0.0
 40
8.42420672294712
100
AcDbArc
 50
236.7007355893
 51
261.5702343381
  0
ARC
  5
170
330
1F
100
AcDbEntity
  8
0
  6
Continuous
 62
     7
370
    25
100
AcDbCircle
 10
77.7178755643
 20
148.500718461
 30
0.0
 40
1.121884840804614
100
AcDbArc
 50
183.6044689775
 51
237.4094749318
  0
LWPOLYLINE
  5
171
330
1F
100
AcDbEntity
  8
0
  6
Continuous
 62
     7
370
    25
100
AcDbPolyline
 90
       19
 70
   128
 43
0.0
 10
93.8271827179
 20
147.6422223304
 10
93.5083310789
 20
147.353792809
 10
92.9760883216
 20
147.029078912
 10
92.2885557441
 20
146.7311768765
 10
91.459729527
 20
146.466151129
 10
90.5064821821
 20
146.2393968293
 10
89.4482190762
 20
146.0555300411
 10
88.3064833945
 20
145.918293762
 10
87.1045175829
 20
145.8304817269
 10
85.8667901992
 20
145.7938815356
 10
84.6184978037
 20
145.8092382623
 10
83.3850520296
 20
145.8762392885
 10
82.191562276
 20
145.9935206665
 10
81.0623245525
 20
146.1586948857
 10
80.0203268828
 20
146.3683994751
 10
79.0867813345
 20
146.6183654542
 10
78.2806922029
 20
146.9035042365
 10
77.618469138
 20
147.2180112186
 10
77.1135930919
 20
147.5554839453
  0
LINE
  5
172
330
1F
100
AcDbEntity
  8
0
  6
Continuous
 62
     7
370
    25
100
AcDbLine
 10
84.1221031948
 20
75.3321724701
 30
0.0
 11
85.7689458724
 21
75.4903065881
 31
0.0
  0
LINE
  5
173
330
1F
100
AcDbEntity
  8
0
  6
Continuous
 62
     7
370
    25
100
AcDbLine
 10
83.9303440026
 20
78.769258146
 30
0.0
 11
84.1221031948
 21
75.3321724701
 31
0.0
  0
LINE
  5
174
330
1F
100
AcDbEntity
  8
0
  6
Continuous
 62
     7
370
    25
100
AcDbLine
 10
87.0434388756
 20
145.8274330648
 30
0.0
 11
83.9303440026
 21
78.769258146
 31
0.0
  0
LINE
  5
175
330
1F
100
AcDbEntity
  8
0
  6
Continuous
 62
     7
370
    25
100
AcDbLine
 10
86.2829763992
 20
78.9951640287
 30
0.0
 11
89.3958210216
 21
146.0479483791
 31
0.0
  0
LINE
  5
176
330
1F
100
AcDbEntity
  8
0
  6
Continuous
 62
     7
370
    25
100
AcDbLine
 10
85.7689458724
 20
75.4903065881
 30
0.0
 11
86.2829763992
 21
78.9951640287
 31
0.0
  0
LINE
  5
177
330
1F
100
AcDbEntity
  8
0
  6
Continuous
 62
     7
370
    25
100
AcDbLine
 10
84.56679035
 20
145.8109992589
 30
0.0
 11
83.9229663029
 21
78.7753122127
 31
0.0
  0
LINE
  5
178
330
1F
100
AcDbEntity
  8
0
  6
Continuous
 62
     7
370
    25
100
AcDbLine
 10
83.9229663029
 20
78.7753122127
 30
0.0
 11
83.9303440026
 21
78.769258146
 31
0.0
  0
LINE
  5
179
330
1F
100
AcDbEntity
  8
0
  6
Continuous
 62
     7
370
    25
100
AcDbLine
 10
83.5303678119
 20
75.8177446247
 30
0.0
 11
83.0850077413
 21
79.4629326525
 31
0.0
  0
LINE
  5
17A
330
1F
100
AcDbEntity
  8
0
  6
Continuous
 62
     7
370
    25
100
AcDbLine
 10
83.0923854409
 20
79.4568785857
 30
0.0
 11
83.0850077413
 21
79.4629326525
 31
0.0
  0
LINE
  5
17B
330
1F
100
AcDbEntity
  8
0
  6
Continuous
 62
     7
370
    25
100
AcDbLine
 10
76.9965132872
 20
147.658228233
 30
0.0
 11
83.0923854409
 21
79.4568785857
 31
0.0
  0
LINE
  5
17C
330
1F
100
AcDbEntity
  8
0
  6
Continuous
 62
     7
370
    25
100
AcDbLine
 10
77.7318353617
 20
147.1566610185
 30
0.0
 11
83.9229663029
 21
78.7753122127
 31
0.0
  0
LINE
  5
17D
330
1F
100
AcDbEntity
  8
0
  6
Continuous
 62
     7
370
    25
100
AcDbLine
 10
83.5303678119
 20
75.8177446247
 30
0.0
 11
84.1221031948
 21
75.3321724701
 31
0.0
  0
LINE
  5
17E
330
1F
100
AcDbEntity
  8
0
  6
Continuous
 62
     7
370
    25
100
AcDbLine
 10
93.5691101278
 20
147.4004785619
 30
0.0
 11
86.2891628208
 21
79.1284237457
 31
0.0
  0
LINE
  5
17F
330
1F
100
AcDbEntity
  8
0
  6
Continuous
 62
     7
370
    25
100
AcDbLine
 10
83.0850077413
 20
79.4629326525
 30
0.0
 11
83.082333375
 21
79.5693423062
 31
0.0
  0
LINE
  5
180
330
1F
100
AcDbEntity
  8
0
  6
Continuous
 62
     7
370
    25
100
AcDbLine
 10
81.4431448696
 20
149.5006021066
 30
0.0
 11
124.2610544879
 21
153.6120891731
 31
0.0
  0
ARC
  5
181
330
1F
100
AcDbEntity
  8
0
  6
Continuous
 62
     7
370
    25
100
AcDbCircle
 10
81.1037914011
 20
151.646792332
 30
0.0
 40
2.172853713457097
100
AcDbArc
 50
244.3714921084
 51
278.9851633868
  0
LINE
  5
182
330
1F
100
AcDbEntity
  8
0
  6
Continuous
 62
     7
370
    25
100
AcDbLine
 10
72.7249983074
 20
155.792045214
 30
0.0
 11
80.1639574065
 21
149.6877095561
 31
0.0
  0
ARC
  5
183
330
1F
100
AcDbEntity
  8
0
  6
Continuous
 62
     7
370
    25
100
AcDbCircle
 10
82.5743428187
 20
148.7404711988
 30
0.0
 40
2.172853713456274
100
AcDbArc
 50
244.3714921084
 51
278.9851633868
  0
LINE
  5
184
330
1F
100
AcDbEntity
  8
0
  6
Continuous
 62
     7
370
    25
100
AcDbLine
 10
121.0263411123
 20
150.2539562743
 30
0.0
 11
82.9136962872
 21
146.5942809734
 31
0.0
  0
LINE
  5
185
330
1F
100
AcDbEntity
  8
0
  6
Continuous
 62
     7
370
    25
100
AcDbLine
 10
75.8862222475
 20
151.4983750676
 30
0.0
 11
81.6345088241
 21
146.7813884229
 31
0.0
  0
LWPOLYLINE
  5
186
330
1F
100
AcDbEntity
  8
0
  6
Continuous
 62
     7
370
    25
100
AcDbPolyline
 90
        8
 70
   128
 43
0.0
 10
124.2610544879
 20
153.6120891731
 10
124.438147653
 20
153.6350494981
 10
124.5954409076
 20
153.6677904796
 10
124.7268895603
 20
153.7090539001
 10
124.827442113
 20
153.7572540294
 10
124.8932343876
 20
153.8105385635
 10
124.9217380237
 20
153.8668598078
 10
124.9228738663
 20
153.8799552201
  0
LWPOLYLINE
  5
187
330
1F
100
AcDbEntity
  8
0
  6
Continuous
 62
     7
370
    25
100
AcDbPolyline
 90
        8
 70
   128
 43
0.0
 10
121.0263411123
 20
150.2539562743
 10
121.2034342773
 20
150.2769165994
 10
121.360727532
 20
150.3096575809
 10
121.4921761847
 20
150.3509210013
 10
121.5927287374
 20
150.3991211306
 10
121.6585210119
 20
150.4524056648
 10
121.6870246481
 20
150.5087269091
 10
121.6881604906
 20
150.5218223214
  0
LWPOLYLINE
  5
188
330
1F
100
AcDbEntity
  8
0
  6
Continuous
 62
     7
370
    25
100
AcDbPolyline
 90
        3
 70
   128
 43
0.0
 10
72.6660973832
 20
155.8920113227
 10
72.6771136068
 20
155.8479131744
 10
72.7249983074
 20
155.792045214
  0
LWPOLYLINE
  5
189
330
1F
100
AcDbEntity
  8
0
  6
Continuous
 62
     7
370
    25
100
AcDbPolyline
 90
        3
 70
   128
 43
0.0
 10
75.8273213233
 20
151.5983411763
 10
75.8383375469
 20
151.554243028
 10
75.8862222475
 20
151.4983750676
  0
ARC
  5
18A
330
1F
100
AcDbEntity
  8
0
  6
Continuous
 62
     7
370
    25
100
AcDbCircle
 10
81.8352864053
 20
166.5010578675
 30
0.0
 40
1.61466673836578
100
AcDbArc
 50
96.7115226566
 51
177.9270729378
  0
ARC
  5
18B
330
1F
100
AcDbEntity
  8
0
  6
Continuous
 62
     7
370
    25
100
AcDbCircle
 10
81.259353084
 20
167.8362270871
 30
0.0
 40
0.4711691059001818
100
AcDbArc
 50
355.1234324975
 51
34.7304087508
  0
SPLINE
  5
18C
330
1F
100
AcDbEntity
  8
0
  6
Continuous
 62
     7
370
    25
100
AcDbSpline
210
0.0
220
0.0
230
1.0
 70
     8
 71
     3
 72
    13
 73
     9
 74
     0
 42
0.00000001
 43
0.00000001
 40
0.0
 40
0.0
 40
0.0
 40
0.0
 40
0.2396832910637715
 40
0.3697720286455055
 40
0.4999999403308915
 40
0.6300887375505757
 40
0.7603167089362249
 40
1.0
 40
1.0
 40
1.0
 40
1.0
 10
81.72881662665864
 20
167.7961732669665
 30
0.0
 10
81.58224293068123
 20
167.766389939361
 30
0.0
 10
81.35611597511796
 20
167.7204416322444
 30
0.0
 10
81.08294816729544
 20
167.5485939802416
 30
0.0
 10
80.89547567892902
 20
167.3795570934062
 30
0.0
 10
80.74165128187951
 20
167.1785115966107
 30
0.0
 10
80.59086613696722
 20
166.8906591234953
 30
0.0
 10
80.56084767109874
 20
166.6587647880669
 30
0.0
 10
80.54139726387295
 20
166.5085092994221
 30
0.0
  0
ARC
  5
18D
330
1F
100
AcDbEntity
  8
0
  6
Continuous
 62
     7
370
    25
100
AcDbCircle
 10
80.4653329368
 20
167.0597867065
 30
0.0
 40
0.5565002798299358
100
AcDbArc
 50
244.0340210651
 51
277.855971621
  0
LINE
  5
18E
330
1F
100
AcDbEntity
  8
0
  6
Continuous
 62
     7
370
    25
100
AcDbLine
 10
81.4565971762
 20
166.8144407474
 30
0.0
 11
128.5092451084
 21
171.3325584029
 31
0.0
  0
ARC
  5
18F
330
1F
100
AcDbEntity
  8
0
  6
Continuous
 62
     7
370
    25
100
AcDbCircle
 10
81.4879824245
 20
166.5472776142
 30
0.0
 40
0.2690003225704442
100
AcDbArc
 50
96.7001677992
 51
178.8383085007
  0
LINE
  5
190
330
1F
100
AcDbEntity
  8
0
  6
Continuous
 62
     7
370
    25
100
AcDbLine
 10
81.0812447
 20
152.2056006044
 30
0.0
 11
81.2190373917
 21
166.552731314
 31
0.0
  0
LINE
  5
191
330
1F
100
AcDbEntity
  8
0
  6
Continuous
 62
     7
370
    25
100
AcDbLine
 10
80.156653719
 20
152.1168189732
 30
0.0
 11
81.0812447
 21
152.2056006044
 31
0.0
  0
LINE
  5
192
330
1F
100
AcDbEntity
  8
0
  6
Continuous
 62
     7
370
    25
100
AcDbLine
 10
80.5413972639
 20
166.5085092994
 30
0.0
 11
80.156653719
 21
152.1168189732
 31
0.0
  0
LINE
  5
193
330
1F
100
AcDbEntity
  8
0
  6
Continuous
 62
     7
370
    25
100
AcDbLine
 10
81.7288166267
 20
167.796173267
 30
0.0
 11
128.5184312878
 21
172.2890337835
 31
0.0
  0
LINE
  5
194
330
1F
100
AcDbEntity
  8
0
  6
Continuous
 62
     7
370
    25
100
AcDbLine
 10
128.5184312878
 20
172.2890337835
 30
0.0
 11
128.5092451084
 21
171.3325584029
 31
0.0
  0
LINE
  5
195
330
1F
100
AcDbEntity
  8
0
  6
Continuous
 62
     7
370
    25
100
AcDbLine
 10
70.2467084272
 20
174.7448219793
 30
0.0
 11
80.2216763101
 21
166.5594628017
 31
0.0
  0
ARC
  5
196
330
1F
100
AcDbEntity
  8
0
  6
Continuous
 62
     7
370
    25
100
AcDbCircle
 10
71.8603185225
 20
174.6864170451
 30
0.0
 40
1.614666738365663
100
AcDbArc
 50
96.7115226566
 51
177.9270729378
  0
LINE
  5
197
330
1F
100
AcDbEntity
  8
0
  6
Continuous
 62
     7
370
    25
100
AcDbLine
 10
71.6716116626
 20
176.2900187403
 30
0.0
 11
81.6465795454
 21
168.1046595628
 31
0.0
  0
LINE
  5
198
330
1F
100
AcDbEntity
  8
0
  6
Continuous
 62
     7
370
    25
100
AcDbLine
 10
79.8369327652
 20
152.1677724755
 30
0.0
 11
80.2216763101
 21
166.5594628017
 31
0.0
  0
ARC
  5
199
330
1F
100
AcDbEntity
  8
0
  6
Continuous
 62
     7
370
    25
100
AcDbCircle
 10
80.0805893919
 20
152.6680963803
 30
0.0
 40
0.5565002798296418
100
AcDbArc
 50
244.0340210652
 51
277.855971621
  0
LINE
  5
19A
330
1F
100
AcDbEntity
  8
0
  6
Continuous
 62
     7
370
    25
100
AcDbLine
 10
81.6465795454
 20
168.1046595628
 30
0.0
 11
128.4361942065
 21
172.5975200794
 31
0.0
  0
ARC
  5
19B
330
1F
100
AcDbEntity
  8
0
  6
Continuous
 62
     7
370
    25
100
AcDbCircle
 10
128.0489677452
 20
172.3290876037
 30
0.0
 40
0.4711691059005657
100
AcDbArc
 50
355.1234324976
 51
34.7304087508
  0
LINE
  5
19C
330
1F
100
AcDbEntity
  8
0
  6
Continuous
 62
     7
370
    25
100
AcDbLine
 10
70.2467084272
 20
174.7448219793
 30
0.0
 11
69.8619648824
 21
160.353131653
 31
0.0
  0
SPLINE
  5
19D
330
1F
100
AcDbEntity
  8
0
  6
Continuous
 62
     7
370
    25
100
AcDbSpline
210
0.0
220
0.0
230
1.0
 70
     8
 71
     3
 72
    13
 73
     9
 74
     0
 42
0.00000001
 43
0.00000001
 40
0.0
 40
0.0
 40
0.0
 40
0.0
 40
0.2394259924026154
 40
0.3695846593149659
 40
0.4999752278747435
 40
0.6301417045486257
 40
0.7605400971976229
 40
1.0
 40
1.0
 40
1.0
 40
1.0
 10
79.56412264685136
 20
151.657335331421
 30
0.0
 10
79.59627207440936
 20
151.6408162540455
 30
0.0
 10
79.64589883010096
 20
151.615316944122
 30
0.0
 10
79.70739165144666
 20
151.6562684293485
 30
0.0
 10
79.75021706429428
 20
151.715982724412
 30
0.0
 10
79.78605972550008
 20
151.803433218135
 30
0.0
 10
79.82211874222588
 20
151.9449645073678
 30
0.0
 10
79.831110906411
 20
152.0802097298752
 30
0.0
 10
79.83693276518295
 20
152.1677724754845
 30
0.0
  0
LINE
  5
19E
330
1F
100
AcDbEntity
  8
0
  6
Continuous
 62
     7
370
    25
100
AcDbLine
 10
70.0963565208
 20
159.426489805
 30
0.0
 11
79.5641226469
 21
151.6573353314
 31
0.0
  0
SPLINE
  5
19F
330
1F
100
AcDbEntity
  8
0
  6
Continuous
 62
     7
370
    25
100
AcDbSpline
210
0.0
220
0.0
230
1.0
 70
     8
 71
     3
 72
    13
 73
     9
 74
     0
 42
0.00000001
 43
0.00000001
 40
0.0
 40
0.0
 40
0.0
 40
0.0
 40
0.2394599028268714
 40
0.3696300083677745
 40
0.5000245666300004
 40
0.6301870679524907
 40
0.7605740075726591
 40
1.0
 40
1.0
 40
1.0
 40
1.0
 10
69.86196488236584
 20
160.3531316530337
 30
0.0
 10
69.86295517245634
 20
160.2599784547535
 30
0.0
 10
69.8644837830091
 20
160.1161872936727
 30
0.0
 10
69.89157708488578
 20
159.9228240922012
 30
0.0
 10
69.92128080886812
 20
159.7816329363621
 30
0.0
 10
69.95915730322214
 20
159.6556203984152
 30
0.0
 10
70.0158631687268
 20
159.5176401621012
 30
0.0
 10
70.06472328146768
 20
159.4623111615193
 30
0.0
 10
70.0963565207877
 20
159.426489805027
 30
0.0
  0
LINE
  5
1A0
330
1F
100
AcDbEntity
  8
0
  6
Continuous
 62
     7
370
    25
100
AcDbLine
 10
128.8883830472
 20
172.8733941962
 30
0.0
 11
119.4206169211
 21
180.6425486698
 31
0.0
  0
SPLINE
  5
1A1
330
1F
100
AcDbEntity
  8
0
  6
Continuous
 62
     7
370
    25
100
AcDbSpline
210
0.0
220
0.0
230
1.0
 70
     8
 71
     3
 72
    13
 73
     9
 74
     0
 42
0.00000001
 43
0.00000001
 40
0.0
 40
0.0
 40
0.0
 40
0.0
 40
0.23944294786128
 40
0.3696073166373069
 40
0.4999998972369518
 40
0.6301643686854234
 40
0.7605570521388034
 40
1.0
 40
1.0
 40
1.0
 40
1.0
 10
128.4361942065449
 20
172.597520079354
 30
0.0
 10
128.521543792742
 20
172.6088375609886
 30
0.0
 10
128.6532905483354
 20
172.6263073760549
 30
0.0
 10
128.786205155833
 20
172.6680077964681
 30
0.0
 10
128.8657258339771
 20
172.7056715863455
 30
0.0
 10
128.9166108280255
 20
172.7475521428378
 30
0.0
 10
128.9454091058812
 20
172.8044878493477
 30
0.0
 10
128.9107939574867
 20
172.8463144015114
 30
0.0
 10
128.8883830471512
 20
172.8733941961579
 30
0.0
  0
SPLINE
  5
1A2
330
1F
100
AcDbEntity
  8
0
  6
Continuous
 62
     7
370
    25
100
AcDbSpline
210
0.0
220
0.0
230
1.0
 70
     8
 71
     3
 72
    13
 73
     9
 74
     0
 42
0.00000001
 43
0.00000001
 40
0.0
 40
0.0
 40
0.0
 40
0.0
 40
0.239442947861199
 40
0.3696073166343406
 40
0.4999998972369404
 40
0.6301643686846636
 40
0.7605570521388965
 40
1.0
 40
1.0
 40
1.0
 40
1.0
 10
119.4206169210873
 20
180.6425486697639
 30
0.0
 10
119.3792465224457
 20
180.6678080742349
 30
0.0
 10
119.3153866252692
 20
180.7067988266865
 30
0.0
 10
119.1684226924637
 20
180.7468604765288
 30
0.0
 10
119.0369058487666
 20
180.7712117546548
 30
0.0
 10
118.8917954604933
 20
180.7873296513037
 30
0.0
 10
118.695737429486
 20
180.7974526887653
 30
0.0
 10
118.5533878281498
 20
180.7886065311006
 30
0.0
 10
118.461226323728
 20
180.7828792569032
 30
0.0
  0
LINE
  5
1A3
330
1F
100
AcDbEntity
  8
0
  6
Continuous
 62
     7
370
    25
100
AcDbLine
 10
127.4667750824
 20
156.0914895442
 30
0.0
 11
127.6123261769
 21
171.2464339139
 31
0.0
  0
LINE
  5
1A4
330
1F
100
AcDbEntity
  8
0
  6
Continuous
 62
     7
370
    25
100
AcDbLine
 10
80.9842768318
 20
151.6281191443
 30
0.0
 11
127.4667750824
 21
156.0914895442
 31
0.0
  0
LWPOLYLINE
  5
1A5
330
1F
100
AcDbEntity
  8
0
  6
Continuous
 62
     7
370
    25
100
AcDbPolyline
 90
       23
 70
   128
 43
0.0
 10
89.4014390815
 20
157.3576624536
 10
90.0253578798
 20
157.5085371307
 10
90.6004793802
 20
157.8292855141
 10
91.0802106593
 20
158.2939224774
 10
91.4256867418
 20
158.864805897
 10
91.6089192101
 20
159.4956861936
 10
91.6150636594
 20
160.1354531974
 10
91.443622303
 20
160.7322767907
 10
91.1084842999
 20
161.2378058753
 10
90.636800538
 20
161.6110854914
 10
90.0667840306
 20
161.8218747443
 10
89.4446141249
 20
161.8530967426
 10
88.8206953266
 20
161.7022220655
 10
88.2455738261
 20
161.381473682
 10
87.7658425471
 20
160.9168367188
 10
87.4203664646
 20
160.3459532991
 10
87.2371339963
 20
159.7150730026
 10
87.230989547
 20
159.0753059988
 10
87.4024309034
 20
158.4784824055
 10
87.7375689065
 20
157.9729533209
 10
88.2092526683
 20
157.5996737048
 10
88.7792691758
 20
157.3888844518
 10
89.4014390815
 20
157.3576624536
  0
LWPOLYLINE
  5
1A6
330
1F
100
AcDbEntity
  8
0
  6
Continuous
 62
     7
370
    25
100
AcDbPolyline
 90
       23
 70
   128
 43
0.0
 10
117.6330278408
 20
160.0685330469
 10
118.2569466391
 20
160.219407724
 10
118.8320681396
 20
160.5401561074
 10
119.3117994186
 20
161.0047930707
 10
119.6572755011
 20
161.5756764903
 10
119.8405079694
 20
162.2065567869
 10
119.8466524187
 20
162.8463237907
 10
119.6752110623
 20
163.443147384
 10
119.3400730592
 20
163.9486764686
 10
118.8683892973
 20
164.3219560847
 10
118.2983727899
 20
164.5327453376
 10
117.6762028842
 20
164.5639673359
 10
117.0522840859
 20
164.4130926588
 10
116.4771625854
 20
164.0923442753
 10
115.9974313064
 20
163.6277073121
 10
115.6519552239
 20
163.0568238924
 10
115.4687227556
 20
162.4259435959
 10
115.4625783063
 20
161.7861765921
 10
115.6340196627
 20
161.1893529988
 10
115.9691576658
 20
160.6838239142
 10
116.4408414277
 20
160.3105442981
 10
117.0108579351
 20
160.0997550451
 10
117.6330278408
 20
160.0685330469
  0
LWPOLYLINE
  5
1A7
330
1F
100
AcDbEntity
  8
0
  6
Continuous
 62
     7
370
    25
100
AcDbPolyline
 90
        3
 70
   128
 43
0.0
 10
79.6902348321
 20
151.4525310312
 10
79.6654261224
 20
151.4651296364
 10
79.6409803761
 20
151.4822765121
  0
LWPOLYLINE
  5
1A8
330
1F
100
AcDbEntity
  8
0
  6
Continuous
 62
     7
370
    25
100
AcDbPolyline
 90
        8
 70
   128
 43
0.0
 10
80.8386931542
 20
151.4876489395
 10
80.8640217451
 20
151.493219283
 10
80.9233296319
 20
151.5336362302
 10
80.9757117868
 20
151.6105394003
 10
81.019155193
 20
151.7209734477
 10
81.0519903447
 20
151.8606944538
 10
81.0729554056
 20
152.0243330188
 10
81.0812447
 20
152.2056006044
  0
ARC
  5
1A9
330
1F
100
AcDbEntity
  8
0
  6
Continuous
 62
     7
370
    25
100
AcDbCircle
 10
128.9113296791
 20
172.6623369277
 30
0.0
 40
0.2123010091393611
100
AcDbArc
 50
51.0903925894
 51
96.2049569565
  0
LWPOLYLINE
  5
1AA
330
1F
100
AcDbEntity
  8
0
  6
Continuous
 62
     7
370
    25
100
AcDbPolyline
 90
        8
 70
   128
 43
0.0
 10
128.5092451084
 20
171.3325584029
 10
128.6863382734
 20
171.3555187279
 10
128.8436315281
 20
171.3882597094
 10
128.9750801807
 20
171.4295231299
 10
129.0756327335
 20
171.4777232592
 10
129.141425008
 20
171.5310077933
 10
129.1699286441
 20
171.5873290376
 10
129.1710644867
 20
171.6004244499
  0
ARC
  5
1AB
330
1F
100
AcDbEntity
  8
0
  6
Continuous
 62
     7
370
    25
100
AcDbCircle
 10
119.443563553
 20
180.4314914013
 30
0.0
 40
0.2123010091396292
100
AcDbArc
 50
51.0903925894
 51
96.2049569564
  0
LWPOLYLINE
  5
1AC
330
1F
100
AcDbEntity
  8
0
  6
Continuous
 62
     7
370
    25
100
AcDbPolyline
 90
        3
 70
   128
 43
0.0
 10
71.6716116626
 20
176.2900187403
 10
71.6550758428
 20
176.2989570571
 10
71.645419378
 20
176.2997552621
  0
LWPOLYLINE
  5
1AD
330
1F
100
AcDbEntity
  8
0
  6
Continuous
 62
     7
370
    25
100
AcDbPolyline
 90
        3
 70
   128
 43
0.0
 10
70.2319850436
 20
174.7699169728
 10
70.2347357934
 20
174.7587087164
 10
70.2467084272
 20
174.7448219793
  0
LWPOLYLINE
  5
1AE
330
1F
100
AcDbEntity
  8
0
  6
Continuous
 62
     7
370
    25
100
AcDbPolyline
 90
        3
 70
   128
 43
0.0
 10
118.4612263237
 20
180.7828792569
 10
118.4446905039
 20
180.7918175736
 10
118.4350340392
 20
180.7926157786
  0
SPLINE
  5
1AF
330
1F
100
AcDbEntity
  8
0
  6
Continuous
 62
     7
370
    25
100
AcDbSpline
210
0.0
220
0.0
230
1.0
 70
    11
 71
     3
 72
    39
 73
    35
 74
     0
 42
0.00000001
 43
0.00000001
 40
0.0
 40
0.0
 40
0.0
 40
0.0
 40
0.029129008105451
 40
0.0600028324322984
 40
0.0921602034406938
 40
0.125
 40
0.1578397965593062
 40
0.1899971675677016
 40
0.2208709918945491
 40
0.2500000000000001
 40
0.2791290081054509
 40
0.3100028324322984
 40
0.3421602034406938
 40
0.3749999999999999
 40
0.4078397965593061
 40
0.4399971675677017
 40
0.4708709918945491
 40
0.5
 40
0.5291290081054509
 40
0.5600028324322983
 40
0.5921602034406938
 40
0.625
 40
0.6578397965593061
 40
0.6899971675677017
 40
0.7208709918945491
 40
0.7499999999999999
 40
0.7791290081054508
 40
0.8100028324322982
 40
0.8421602034406936
 40
0.875
 40
0.9078397965593061
 40
0.9399971675677017
 40
0.9708709918945491
 40
1.0
 40
1.0
 40
1.0
 40
1.0
 10
111.6972766129915
 20
197.5970432043666
 30
0.0
 10
112.1177515998514
 20
197.6146951164481
 30
0.0
 10
112.9838878612439
 20
197.6510562832583
 30
0.0
 10
114.2656739765986
 20
197.3844506077039
 30
0.0
 10
115.4956252792392
 20
196.8563814383228
 30
0.0
 10
116.5899505591138
 20
196.0504271067699
 30
0.0
 10
117.4752367563049
 20
195.0156134783369
 30
0.0
 10
118.1035533231582
 20
193.8206032529336
 30
0.0
 10
118.4605826681881
 20
192.5495111509201
 30
0.0
 10
118.5660950471833
 20
191.2524681085013
 30
0.0
 10
118.4354508231577
 20
189.9327550573259
 30
0.0
 10
118.0533239744899
 20
188.5906667303329
 30
0.0
 10
117.4008727933505
 20
187.2727536537088
 30
0.0
 10
116.4940538315293
 20
186.0655515053654
 30
0.0
 10
115.3822238313389
 20
185.0488945842363
 30
0.0
 10
114.1398096602914
 20
184.279315816977
 30
0.0
 10
112.8506697960784
 20
183.7802408545958
 30
0.0
 10
111.5622375118984
 20
183.5366194578692
 30
0.0
 10
110.276110493833
 20
183.5330249730289
 30
0.0
 10
108.9941859723371
 20
183.7852196448208
 30
0.0
 10
107.7642741470274
 20
184.3173992384907
 30
0.0
 10
106.6699379257613
 20
185.1222143399947
 30
0.0
 10
105.7846546694047
 20
186.1573341714389
 30
0.0
 10
105.156337335432
 20
187.3522645234972
 30
0.0
 10
104.7993081877049
 20
188.6233771689028
 30
0.0
 10
104.6937957475456
 20
189.9204138428538
 30
0.0
 10
104.8244400327353
 20
191.240133262497
 30
0.0
 10
105.2065666841002
 20
192.5822010460979
 30
0.0
 10
105.8590186323591
 20
193.900193996067
 30
0.0
 10
106.7658346533457
 20
195.1070899413993
 30
0.0
 10
107.8776755949277
 20
196.1248860925772
 30
0.0
 10
109.1200502886444
 20
196.8903544355477
 30
0.0
 10
110.4093285589985
 20
197.4038404016915
 30
0.0
 10
111.2763647471777
 20
197.5339029621012
 30
0.0
 10
111.6972766129915
 20
197.5970432043666
 30
0.0
  0
ARC
  5
1B0
330
1F
100
AcDbEntity
  8
0
  6
Continuous
 62
     7
370
    25
100
AcDbCircle
 10
112.2203150158
 20
191.6134314092
 30
0.0
 40
6.63206099205336
100
AcDbArc
 50
352.706952817
 51
95.9118302724
  0
ARC
  5
1B1
330
1F
100
AcDbEntity
  8
0
  6
Continuous
 62
     7
370
    25
100
AcDbCircle
 10
110.7559639699
 20
189.8212899442
 30
0.0
 40
6.651809616300786
100
AcDbArc
 50
184.7983071307
 51
291.4346571219
  0
LWPOLYLINE
  5
1B2
330
1F
100
AcDbEntity
  8
0
  6
Continuous
 62
     7
370
    25
100
AcDbPolyline
 90
       41
 70
   128
 43
0.0
 10
111.5633456064
 20
183.6519955067
 10
110.4968704683
 20
183.6348855991
 10
109.4582953956
 20
183.7889460814
 10
108.4731935536
 20
184.1103834732
 10
107.5658214188
 20
184.5912829192
 10
106.7585215047
 20
185.2198030789
 10
106.0711722145
 20
185.9804677001
 10
105.5206983687
 20
186.8545466953
 10
105.1206544604
 20
187.8205173388
 10
104.8808908984
 20
188.8545942274
 10
104.8073114572
 20
189.9313149563
 10
104.9017279069
 20
191.0241670876
 10
105.1618154011
 20
192.1062409749
 10
105.5811697225
 20
193.150892368
 10
106.1494649761
 20
194.1323984824
 10
106.8527078465
 20
195.0265913804
 10
107.6735821605
 20
195.8114530649
 10
108.591875268
 20
196.4676576366
 10
109.5849757451
 20
196.9790471612
 10
110.6284301621
 20
197.3330295312
 10
111.6965452083
 20
197.5208885259
 10
112.7630203464
 20
197.5379984335
 10
113.8015954191
 20
197.3839379512
 10
114.7866972611
 20
197.0625005594
 10
115.6940693959
 20
196.5816011135
 10
116.50136931
 20
195.9530809537
 10
117.1887186003
 20
195.1924163325
 10
117.739192446
 20
194.3183373373
 10
118.1392363543
 20
193.3523666938
 10
118.3789999163
 20
192.3182898052
 10
118.4525793575
 20
191.2415690764
 10
118.3581629078
 20
190.148716945
 10
118.0980754136
 20
189.0666430577
 10
117.6787210922
 20
188.0219916647
 10
117.1104258386
 20
187.0404855502
 10
116.4071829682
 20
186.1462926523
 10
115.5863086542
 20
185.3614309677
 10
114.6680155468
 20
184.705226396
 10
113.6749150697
 20
184.1938368715
 10
112.6314606526
 20
183.8398545014
 10
111.5633456064
 20
183.6519955067
  0
SPLINE
  5
1B3
330
1F
100
AcDbEntity
  8
0
  6
Continuous
 62
     7
370
    25
100
AcDbSpline
210
0.0
220
0.0
230
1.0
 70
     8
 71
     3
 72
    10
 73
     6
 74
     0
 42
0.00000001
 43
0.00000001
 40
0.0
 40
0.0
 40
0.0
 40
0.0
 40
0.0293904055451649
 40
0.6462902581999513
 40
0.9999999999999999
 40
0.9999999999999999
 40
0.9999999999999999
 40
0.9999999999999999
 10
105.327078082029
 20
185.5061092810241
 30
0.0
 10
105.3097584621149
 20
185.5181092606484
 30
0.0
 10
104.9289028250934
 20
185.7819868692056
 30
0.0
 10
104.4563797509518
 20
186.1663955283284
 30
0.0
 10
104.1466994721809
 20
186.3926618457271
 30
0.0
 10
104.033845723289
 20
186.4751178621959
 30
0.0
  0
LWPOLYLINE
  5
1B4
330
1F
100
AcDbEntity
  8
0
  6
Continuous
 62
     7
370
    25
100
AcDbPolyline
 90
       17
 70
   128
 43
0.0
 10
104.0338457233
 20
186.4751178622
 10
103.28783745
 20
187.2450403009
 10
102.6741889256
 20
188.1320051576
 10
102.2064934726
 20
189.116364704
 10
101.8951113135
 20
190.1763137596
 10
101.7469400743
 20
191.2883727122
 10
101.7652619914
 20
192.4279076297
 10
101.9496712042
 20
193.5696759423
 10
102.2960827458
 20
194.688385607
 10
102.7968230317
 20
195.7592553673
 10
103.4407998422
 20
196.7585636996
 10
104.2137480335
 20
197.6641742832
 10
105.0985455336
 20
198.4560263564
 10
106.075592625
 20
199.1165790954
 10
107.12324611
 20
199.6312001723
 10
108.2182987436
 20
199.988489885
 10
108.5979166264
 20
200.0727712755
  0
LWPOLYLINE
  5
1B5
330
1F
100
AcDbEntity
  8
0
  6
Continuous
 62
     7
370
    25
100
AcDbPolyline
 90
       36
 70
   128
 43
0.0
 10
111.4080576226
 20
185.2254434789
 10
112.3750875616
 20
185.4066016796
 10
113.3127340582
 20
185.7587032647
 10
114.1908603822
 20
186.2704313994
 10
114.9812428312
 20
186.9253387205
 10
115.658477863
 20
187.7023759677
 10
116.2007985863
 20
188.5765685247
 10
116.5907743669
 20
189.5198191233
 10
116.8158710623
 20
190.5018109132
 10
116.8688538796
 20
191.4909818704
 10
116.7480199074
 20
192.4555392262
 10
116.457252849
 20
193.3644813137
 10
116.0058981968
 20
194.1885939863
 10
115.4084628608
 20
194.9013895847
 10
114.6841489043
 20
195.4799582717
 10
113.8562363738
 20
195.9057043738
 10
112.9513350591
 20
196.1649440609
 10
111.9985292332
 20
196.2493451562
 10
111.0284428593
 20
196.1561949391
 10
110.0722553115
 20
195.888487334
 10
109.1606992445
 20
195.4548266839
 10
108.3230728203
 20
194.8691511987
 10
107.5862980412
 20
194.1502849704
 10
106.9740554551
 20
193.3213329512
 10
106.5060230422
 20
192.4089383409
 10
106.1972437495
 20
191.4424262531
 10
106.0576419975
 20
190.4528611815
 10
106.0917047015
 20
189.4720485618
 10
106.2983370579
 20
188.5315125185
 10
106.6708977329
 20
187.661482654
 10
107.19741232
 20
186.889922444
 10
107.8609582069
 20
186.2416304684
 10
108.6402084829
 20
185.7374433648
 10
109.5101174031
 20
185.3935661215
 10
110.4427253788
 20
185.221051236
 10
111.4080576226
 20
185.2254434789
  0
LWPOLYLINE
  5
1B6
330
1F
100
AcDbEntity
  8
0
  6
Continuous
 62
     7
370
    25
100
AcDbPolyline
 90
       19
 70
   128
 43
0.0
 10
103.6162786489
 20
177.2779452004
 10
103.6407943582
 20
177.1218653147
 10
103.8253387595
 20
176.8334833926
 10
104.1848878332
 20
176.5580561286
 10
104.7075484592
 20
176.304694072
 10
105.3760321331
 20
176.081777902
 10
106.1682268337
 20
175.8966812125
 10
107.0579284416
 20
175.7555266089
 10
108.015707516
 20
175.6629831861
 10
109.0098827576
 20
175.6221120841
 10
110.0075689595
 20
175.6342652322
 10
110.9757647795
 20
175.69904063
 10
111.8824443547
 20
175.8142956449
 10
112.697616649
 20
175.9762178855
 10
113.3943174931
 20
176.1794513079
 10
113.9495015015
 20
176.4172733816
 10
114.3448043655
 20
176.6818174573
 10
114.5671503055
 20
176.9643329784
 10
114.6157713605
 20
177.1723038886
  0
LINE
  5
1B7
330
1F
100
AcDbEntity
  8
0
  6
Continuous
 62
     7
370
    25
100
AcDbLine
 10
103.718074049
 20
186.4127770964
 30
0.0
 11
103.7235733113
 21
186.4102889091
 31
0.0
  0
LINE
  5
1B8
330
1F
100
AcDbEntity
  8
0
  6
Continuous
 62
     7
370
    25
100
AcDbLine
 10
103.7214169867
 20
186.760847541
 30
0.0
 11
103.718074049
 21
186.4127770964
 31
0.0
  0
LWPOLYLINE
  5
1B9
330
1F
100
AcDbEntity
  8
0
  6
Continuous
 62
     7
370
    25
100
AcDbPolyline
 90
       17
 70
   128
 43
0.0
 10
108.1057808741
 20
200.4542389344
 10
107.7018780563
 20
200.3644925649
 10
106.5987805326
 20
200.0011733106
 10
105.5447110001
 20
199.4774693968
 10
104.563627917
 20
198.805284344
 10
103.6778307971
 20
197.9998965727
 10
102.9074533534
 20
197.0796121328
 10
102.270005869
 20
196.0653486161
 10
101.7799771971
 20
194.9801597106
 10
101.4485054375
 20
193.8487112021
 10
101.2831247728
 20
192.696720333
 10
101.2875942205
 20
191.5503712634
 10
101.4618121922
 20
190.4357199178
 10
101.801818803
 20
189.3781017481
 10
102.2998858777
 20
188.4015558712
 10
102.9446926078
 20
187.5282786726
 10
103.4152942353
 20
187.0443493342
  0
LWPOLYLINE
  5
1BA
330
1F
100
AcDbEntity
  8
0
  6
Continuous
 62
     7
370
    25
100
AcDbPolyline
 90
       25
 70
   128
 43
0.0
 10
115.7837339901
 20
177.3053960097
 10
115.9931820277
 20
177.0596671397
 10
116.1093277167
 20
176.7318101083
 10
116.0442315804
 20
176.4043435568
 10
115.7995795743
 20
176.0857486967
 10
115.381708057
 20
175.7842769676
 10
114.8014396812
 20
175.5077363289
 10
114.0738030931
 20
175.263289038
 10
113.2176436981
 20
175.0572661512
 10
112.2551355749
 20
174.8950035531
 10
111.2112071781
 20
174.7807037597
 10
110.112895705
 20
174.7173270757
 10
108.9886468457
 20
174.7065149238
 10
107.8675780553
 20
174.7485473333
 10
106.7787244265
 20
174.8423356866
 10
105.7502866963
 20
174.9854509147
 10
104.8089008617
 20
175.1741864085
 10
103.9789483214
 20
175.4036540176
 10
103.2819244102
 20
175.6679106517
 10
102.7358816813
 20
175.9601122027
 10
102.3549623545
 20
176.2726908038
 10
102.1490320403
 20
176.5975508336
 10
102.1234242257
 20
176.9262785879
 10
102.2788021396
 20
177.2503601905
 10
102.4510877172
 20
177.4334453914
  0
LWPOLYLINE
  5
1BB
330
1F
100
AcDbEntity
  8
0
  6
Continuous
 62
     7
370
    25
100
AcDbPolyline
 90
       28
 70
   128
 43
0.0
 10
114.6254746975
 20
178.1826262979
 10
115.0304780926
 20
177.9594100095
 10
115.3934761315
 20
177.6615374386
 10
115.5852416677
 20
177.3517606615
 10
115.6005438373
 20
177.0385295813
 10
115.4389652371
 20
176.7303883252
 10
115.10491331
 20
176.4357421836
 10
114.6075001218
 20
176.162628335
 10
113.9602938076
 20
175.9184966133
 10
113.1809484685
 20
175.7100062954
 10
112.2907226138
 20
175.5428444538
 10
111.3138992841
 20
175.4215708277
 10
110.2771236736
 20
175.3494934455
 10
109.2086763181
 20
175.3285783902
 10
108.1377016763
 20
175.3593961702
 10
107.0934131446
 20
175.4411061566
 10
106.1042961919
 20
175.571479514
 10
105.1973313502
 20
175.7469599972
 10
104.3972582561
 20
175.9627609559
 10
103.725900818
 20
176.2129959026
 10
103.2015719168
 20
176.4908390803
 10
102.8385738779
 20
176.7887116513
 10
102.6468083417
 20
177.0984884283
 10
102.6315061721
 20
177.4117195086
 10
102.7930847723
 20
177.7198607646
 10
103.1271366995
 20
178.0145069062
 10
103.6245498877
 20
178.2876207548
 10
103.6259819859
 20
178.2882676096
  0
LWPOLYLINE
  5
1BC
330
1F
100
AcDbEntity
  8
0
  6
Continuous
 62
     7
370
    25
100
AcDbPolyline
 90
       22
 70
   128
 43
0.0
 10
102.1025685554
 20
175.8576377628
 10
102.1164323899
 20
175.7232273497
 10
102.2776010997
 20
175.396603927
 10
102.6155245207
 20
175.0801799128
 10
103.1214506138
 20
174.782150523
 10
103.782276159
 20
174.5102345622
 10
104.5808861219
 20
174.2714745109
 10
105.4965969237
 20
174.0720541292
 10
106.5056921358
 20
173.9171383
 10
107.5820367222
 20
173.810739262
 10
108.6977539236
 20
173.7556126945
 10
109.8239472504
 20
173.7531863465
 10
110.9314488871
 20
173.8035230592
 10
111.9915751229
 20
173.9053191381
 10
112.9768692454
 20
174.0559381183
 10
113.8618126542
 20
174.2514790474
 10
114.6234857798
 20
174.4868775179
 10
115.2421616885
 20
174.7560368332
 10
115.7018169992
 20
175.0519859083
 10
115.9905468807
 20
175.3670598177
 10
116.1008733809
 20
175.6930983126
 10
116.1019229157
 20
175.7231851842
  0
LWPOLYLINE
  5
1BD
330
1F
100
AcDbEntity
  8
0
  6
Continuous
 62
     7
370
    25
100
AcDbPolyline
 90
        3
 70
   128
 43
0.0
 10
125.2457644749
 20
234.1532567717
 10
124.5931642663
 20
234.5783455798
 10
124.5179456618
 20
234.614911842
  0
LWPOLYLINE
  5
1BE
330
1F
100
AcDbEntity
  8
0
  6
Continuous
 62
     7
370
    25
100
AcDbPolyline
 90
       33
 70
   128
 43
0.0
 10
108.5371454011
 20
200.6905249938
 10
108.8168758422
 20
200.5736173461
 10
109.5799287525
 20
200.3866019051
 10
110.4078496888
 20
200.3607955418
 10
111.2929085763
 20
200.4964392033
 10
112.2268418586
 20
200.7922664213
 10
113.2009296524
 20
201.2455151369
 10
114.2060771624
 20
201.8519534888
 10
115.232899597
 20
202.6059193256
 10
116.2718097918
 20
203.5003730713
 10
117.3131077224
 20
204.5269634524
 10
118.3470710705
 20
205.6761054711
 10
119.3640459988
 20
206.9370698979
 10
120.3545372865
 20
208.2980834478
 10
121.3092969834
 20
209.746438704
 10
122.2194107553
 20
211.2686127636
 10
123.0763811152
 20
212.8503934976
 10
123.8722067617
 20
214.4770122454
 10
124.5994572852
 20
216.1332817062
 10
125.2513425436
 20
217.8037377381
 10
125.8217760598
 20
219.4727837433
 10
126.3054318497
 20
221.124836289
 10
126.6977941495
 20
222.7444706056
 10
126.9951995782
 20
224.3165646039
 10
127.1948713415
 20
225.8264400659
 10
127.2949451578
 20
227.2599996912
 10
127.2944866649
 20
228.6038587197
 10
127.1935001437
 20
229.8454699019
 10
126.992928478
 20
230.9732406486
 10
126.6946443515
 20
231.9766412682
 10
126.3014327627
 20
232.8463032796
 10
125.8169650223
 20
233.5741068828
 10
125.2457644749
 20
234.1532567717
  0
ARC
  5
1BF
330
1F
100
AcDbEntity
  8
0
  6
Continuous
 62
     7
370
    25
100
AcDbCircle
 10
110.8823949858
 20
203.5792424643
 30
0.0
 40
3.612744821688295
100
AcDbArc
 50
244.99600344
 51
269.8159218845
  0
LINE
  5
1C0
330
1F
100
AcDbEntity
  8
0
  6
Continuous
 62
     7
370
    25
100
AcDbLine
 10
116.8246832696
 20
197.16180798
 30
0.0
 11
119.0528807108
 21
196.1121684269
 31
0.0
  0
SPLINE
  5
1C1
330
1F
100
AcDbEntity
  8
0
  6
Continuous
 62
     7
370
    25
100
AcDbSpline
210
0.0
220
0.0
230
1.0
 70
     8
 71
     3
 72
     9
 73
     5
 74
     0
 42
0.00000001
 43
0.00000001
 40
0.0
 40
0.0
 40
0.0
 40
0.0
 40
0.7640940040455921
 40
1.0
 40
1.0
 40
1.0
 40
1.0
 10
116.1221360782825
 20
197.6869990408979
 30
0.0
 10
116.3451716065649
 20
197.5389391873333
 30
0.0
 10
116.6370670109281
 20
197.3451674095407
 30
0.0
 10
116.7888716459629
 20
197.1968070729325
 30
0.0
 10
116.8246832695813
 20
197.1618079799648
 30
0.0
  0
LINE
  5
1C2
330
1F
100
AcDbEntity
  8
0
  6
Continuous
 62
     7
370
    25
100
AcDbLine
 10
114.5790375397
 20
198.4139082593
 30
0.0
 11
116.1221360783
 21
197.6869990409
 31
0.0
  0
SPLINE
  5
1C3
330
1F
100
AcDbEntity
  8
0
  6
Continuous
 62
     7
370
    25
100
AcDbSpline
210
0.0
220
0.0
230
1.0
 70
     8
 71
     3
 72
     9
 73
     5
 74
     0
 42
0.00000001
 43
0.00000001
 40
0.0
 40
0.0
 40
0.0
 40
0.0
 40
0.7643143614262677
 40
0.9999999999999999
 40
0.9999999999999999
 40
0.9999999999999999
 40
0.9999999999999999
 10
113.0989855317341
 20
198.916876734688
 30
0.0
 10
113.4764377895762
 20
198.7976767012458
 30
0.0
 10
113.9702820464572
 20
198.6417198862781
 30
0.0
 10
114.4629279705076
 20
198.4573593823633
 30
0.0
 10
114.5790375397082
 20
198.4139082592704
 30
0.0
  0
LINE
  5
1C4
330
1F
100
AcDbEntity
  8
0
  6
Continuous
 62
     7
370
    25
100
AcDbLine
 10
110.8707880905
 20
199.9665162878
 30
0.0
 11
113.0989855317
 21
198.9168767347
 31
0.0
  0
LWPOLYLINE
  5
1C5
330
1F
100
AcDbEntity
  8
0
  6
Continuous
 62
     7
370
    25
100
AcDbPolyline
 90
        3
 70
   128
 43
0.0
 10
136.4961418278
 20
228.853528463
 10
135.8435416192
 20
229.2786172711
 10
135.7683230147
 20
229.3151835333
  0
ARC
  5
1C6
330
1F
100
AcDbEntity
  8
0
  6
Continuous
 62
     7
370
    25
100
AcDbCircle
 10
121.5485925375
 20
200.0494127581
 30
0.0
 40
4.980368510247762
100
AcDbArc
 50
249.2921928392
 51
300.0827999473
  0
ARC
  5
1C7
330
1F
100
AcDbEntity
  8
0
  6
Continuous
 62
     7
370
    25
100
AcDbCircle
 10
132.6852819847
 20
224.7005500293
 30
0.0
 40
5.636477855456984
100
AcDbArc
 50
11.1041110294
 51
47.45985738
  0
LWPOLYLINE
  5
1C8
330
1F
100
AcDbEntity
  8
0
  6
Continuous
 62
     7
370
    25
100
AcDbPolyline
 90
       24
 70
   128
 43
0.0
 10
138.3125303905
 20
225.3814795498
 10
138.3235365343
 20
225.3334936601
 10
138.5175575586
 20
224.1950084002
 10
138.6101199807
 20
222.9415500438
 10
138.6003323739
 20
221.58519008
 10
138.4882889982
 20
220.1389909966
 10
138.2750688926
 20
218.6168804816
 10
137.9627254833
 20
217.0335172912
 10
137.5542668079
 20
215.4041500784
 10
137.0536265469
 20
213.7444705403
 10
136.4656261396
 20
212.070462298
 10
135.7959283514
 20
210.3982469661
 10
135.0509827381
 20
208.7439288923
 10
134.2379635331
 20
207.123440064
 10
133.3647005559
 20
205.5523866745
 10
132.4396038063
 20
204.0458988268
 10
131.4715824717
 20
202.6184848222
 10
130.4699591267
 20
201.2838914381
 10
129.4443799517
 20
200.0549715383
 10
128.4047218348
 20
198.9435602931
 10
127.360997252
 20
197.9603612005
 10
126.3232578416
 20
197.1148430052
 10
125.3014976013
 20
196.4151485096
 10
124.5218502897
 20
195.9749502851
  0
LINE
  5
1C9
330
1F
100
AcDbEntity
  8
0
  6
Continuous
 62
     7
370
    25
100
AcDbLine
 10
117.4273712122
 20
195.6788117116
 30
0.0
 11
118.4307997818
 21
194.9347868659
 31
0.0
  0
LWPOLYLINE
  5
1CA
330
1F
100
AcDbEntity
  8
0
  6
Continuous
 62
     7
370
    25
100
AcDbPolyline
 90
        3
 70
   128
 43
0.0
 10
115.0737138193
 20
198.0473775376
 10
115.0567098968
 20
198.072892083
 10
114.9375831922
 20
198.2450077429
  0
LINE
  5
1CB
330
1F
100
AcDbEntity
  8
0
  6
Continuous
 62
     7
370
    25
100
AcDbLine
 10
107.4623931732
 20
200.8551381257
 30
0.0
 11
110.2487071615
 21
198.7891347268
 31
0.0
  0
ARC
  5
1CC
330
1F
100
AcDbEntity
  8
0
  6
Continuous
 62
     7
370
    25
100
AcDbCircle
 10
112.015326479
 20
191.2336372011
 30
0.0
 40
7.759283902065365
100
AcDbArc
 50
81.971846522
 51
103.1604125118
  0
ARC
  5
1CD
330
1F
100
AcDbEntity
  8
0
  6
Continuous
 62
     7
370
    25
100
AcDbCircle
 10
112.1203966027
 20
192.0764277522
 30
0.0
 40
6.92758291938718
100
AcDbArc
 50
24.3686163829
 51
47.2292927099
  0
LINE
  5
1CE
330
1F
100
AcDbEntity
  8
0
  6
Continuous
 62
     7
370
    25
100
AcDbLine
 10
110.8707880905
 20
199.9665162878
 30
0.0
 11
110.2487071615
 21
198.7891347268
 31
0.0
  0
LINE
  5
1CF
330
1F
100
AcDbEntity
  8
0
  6
Continuous
 62
     7
370
    25
100
AcDbLine
 10
107.4623931732
 20
200.8551381257
 30
0.0
 11
107.3149021227
 21
200.5759891673
 31
0.0
  0
LINE
  5
1D0
330
1F
100
AcDbEntity
  8
0
  6
Continuous
 62
     7
370
    25
100
AcDbLine
 10
107.3149021227
 20
200.5759891673
 30
0.0
 11
105.6242296002
 21
201.9633381805
 31
0.0
  0
LINE
  5
1D1
330
1F
100
AcDbEntity
  8
0
  6
Continuous
 62
     7
370
    25
100
AcDbLine
 10
105.6242296002
 20
201.9633381805
 30
0.0
 11
105.6662723901
 21
202.0429104729
 31
0.0
  0
LINE
  5
1D2
330
1F
100
AcDbEntity
  8
0
  6
Continuous
 62
     7
370
    25
100
AcDbLine
 10
118.4307997818
 20
194.9347868659
 30
0.0
 11
119.0528807108
 21
196.1121684269
 31
0.0
  0
ARC
  5
1D3
330
1F
100
AcDbEntity
  8
0
  6
Continuous
 62
     7
370
    25
100
AcDbCircle
 10
109.7711291396
 20
192.1117625011
 30
0.0
 40
8.610773659330105
100
AcDbArc
 50
134.1260021007
 51
143.122876312
  0
LINE
  5
1D4
330
1F
100
AcDbEntity
  8
0
  6
Continuous
 62
     7
370
    25
100
AcDbLine
 10
103.756510251
 20
198.1711708198
 30
0.0
 11
103.7759759128
 21
198.2926654125
 31
0.0
  0
SPLINE
  5
1D5
330
1F
100
AcDbEntity
  8
0
  6
Continuous
 62
     7
370
    25
100
AcDbSpline
210
0.0
220
0.0
230
1.0
 70
     8
 71
     3
 72
     9
 73
     5
 74
     0
 42
0.00000001
 43
0.00000001
 40
0.0
 40
0.0
 40
0.0
 40
0.0
 40
0.9874164700850051
 40
1.0
 40
1.0
 40
1.0
 40
1.0
 10
102.8831618521869
 20
197.2790954359763
 30
0.0
 10
102.9644670237671
 20
197.3060839310448
 30
0.0
 10
103.0468083397604
 20
197.3334163646088
 30
0.0
 10
103.1307012238723
 20
197.3574149745409
 30
0.0
 10
103.1317568924892
 20
197.357716961767
 30
0.0
  0
ARC
  5
1D6
330
1F
100
AcDbEntity
  8
0
  6
Continuous
 62
     7
370
    25
100
AcDbCircle
 10
109.697931682
 20
192.1894015473
 30
0.0
 40
8.504080781615201
100
AcDbArc
 50
125.0641579709
 51
134.1361985936
  0
LINE
  5
1D7
330
1F
100
AcDbEntity
  8
0
  6
Continuous
 62
     7
370
    25
100
AcDbLine
 10
104.7476358433
 20
198.9187920355
 30
0.0
 11
104.8123939384
 21
199.1500704014
 31
0.0
  0
SPLINE
  5
1D8
330
1F
100
AcDbEntity
  8
0
  6
Continuous
 62
     7
370
    25
100
AcDbSpline
210
0.0
220
0.0
230
1.0
 70
     8
 71
     3
 72
     9
 73
     5
 74
     0
 42
0.00000001
 43
0.00000001
 40
0.0
 40
0.0
 40
0.0
 40
0.0
 40
0.6930890596205621
 40
1.0
 40
1.0
 40
1.0
 40
1.0
 10
103.775975912816
 20
198.2926654124516
 30
0.0
 10
103.8654067657105
 20
198.3112655479047
 30
0.0
 10
103.9944390331415
 20
198.3381021213507
 30
0.0
 10
104.1248808516868
 20
198.3598696822899
 30
0.0
 10
104.1649148728814
 20
198.3665503848875
 30
0.0
  0
LINE
  5
1D9
330
1F
100
AcDbEntity
  8
0
  6
Continuous
 62
     7
370
    25
100
AcDbLine
 10
102.8831618522
 20
197.279095436
 30
0.0
 11
102.9116600498
 21
197.258169224
 31
0.0
  0
ARC
  5
1DA
330
1F
100
AcDbEntity
  8
0
  6
Continuous
 62
     7
370
    25
100
AcDbCircle
 10
109.7371278347
 20
192.1353396621
 30
0.0
 40
8.569426652353899
100
AcDbArc
 50
143.1125512244
 51
152.1383696214
  0
LINE
  5
1DB
330
1F
100
AcDbEntity
  8
0
  6
Continuous
 62
     7
370
    25
100
AcDbLine
 10
102.8752673168
 20
197.1127922701
 30
0.0
 11
102.8831618522
 21
197.279095436
 31
0.0
  0
SPLINE
  5
1DC
330
1F
100
AcDbEntity
  8
0
  6
Continuous
 62
     7
370
    25
100
AcDbSpline
210
0.0
220
0.0
230
1.0
 70
     8
 71
     3
 72
     9
 73
     5
 74
     0
 42
0.00000001
 43
0.00000001
 40
0.0
 40
0.0
 40
0.0
 40
0.0
 40
0.6982440212202685
 40
0.9999999999999999
 40
0.9999999999999999
 40
0.9999999999999999
 40
0.9999999999999999
 10
102.1610794600062
 20
196.1401572827936
 30
0.0
 10
102.2331533523089
 20
196.17320319768
 30
0.0
 10
102.3363749913238
 20
196.2205303696745
 30
0.0
 10
102.4425338582289
 20
196.2635912608833
 30
0.0
 10
102.474567931018
 20
196.2765851422571
 30
0.0
  0
LINE
  5
1DD
330
1F
100
AcDbEntity
  8
0
  6
Continuous
 62
     7
370
    25
100
AcDbLine
 10
103.7759759128
 20
198.2926654125
 30
0.0
 11
103.799946007
 21
198.2665986568
 31
0.0
  0
LINE
  5
1DE
330
1F
100
AcDbEntity
  8
0
  6
Continuous
 62
     7
370
    25
100
AcDbLine
 10
102.16107946
 20
196.1401572828
 30
0.0
 11
102.1932398578
 21
196.1250074469
 31
0.0
  0
LINE
  5
1DF
330
1F
100
AcDbEntity
  8
0
  6
Continuous
 62
     7
370
    25
100
AcDbLine
 10
104.8123939384
 20
199.1500704014
 30
0.0
 11
104.83110761
 21
199.1196551272
 31
0.0
  0
ARC
  5
1E0
330
1F
100
AcDbEntity
  8
0
  6
Continuous
 62
     7
370
    25
100
AcDbCircle
 10
109.5610825669
 20
192.3867490582
 30
0.0
 40
8.263931224314408
100
AcDbArc
 50
115.8264770237
 51
125.073604936
  0
SPLINE
  5
1E1
330
1F
100
AcDbEntity
  8
0
  6
Continuous
 62
     7
370
    25
100
AcDbSpline
210
0.0
220
0.0
230
1.0
 70
     8
 71
     3
 72
     9
 73
     5
 74
     0
 42
0.00000001
 43
0.00000001
 40
0.0
 40
0.0
 40
0.0
 40
0.0
 40
0.2154048105933126
 40
1.0
 40
1.0
 40
1.0
 40
1.0
 10
105.8534294237395
 20
199.5597242826129
 30
0.0
 10
105.8606285638729
 20
199.5791940298955
 30
0.0
 10
105.8940500093532
 20
199.6695808101582
 30
0.0
 10
105.9315234279041
 20
199.7568150338063
 30
0.0
 10
105.9609248918298
 20
199.8252585860322
 30
0.0
  0
SPLINE
  5
1E2
330
1F
100
AcDbEntity
  8
0
  6
Continuous
 62
     7
370
    25
100
AcDbSpline
210
0.0
220
0.0
230
1.0
 70
     8
 71
     3
 72
     9
 73
     5
 74
     0
 42
0.00000001
 43
0.00000001
 40
0.0
 40
0.0
 40
0.0
 40
0.0
 40
0.904894262923303
 40
0.9999999999999999
 40
0.9999999999999999
 40
0.9999999999999999
 40
0.9999999999999999
 10
104.8123939384487
 20
199.1500704013771
 30
0.0
 10
104.9081267335164
 20
199.159416805558
 30
0.0
 10
105.0139211881729
 20
199.1697455307624
 30
0.0
 10
105.1201604128653
 20
199.1760556737121
 30
0.0
 10
105.1302643726361
 20
199.1766558045084
 30
0.0
  0
LWPOLYLINE
  5
1E3
330
1F
100
AcDbEntity
  8
0
  6
Continuous
 62
     7
370
    25
100
AcDbPolyline
 90
       17
 70
   128
 43
0.0
 10
103.7212297701
 20
186.7413543412
 10
103.4201168898
 20
186.9746562097
 10
102.6495454152
 20
187.7243999742
 10
102.0095082877
 20
188.5952210241
 10
101.5142805358
 20
189.567697056
 10
101.1749074411
 20
190.6201385109
 10
100.9989581902
 20
191.729072326
 10
100.9903570565
 20
192.8697654645
 10
101.1492958749
 20
194.0167765476
 10
101.4722297631
 20
195.1445232845
 10
101.9519561853
 20
196.2278530457
 10
102.5777755928
 20
197.2426038529
 10
103.3357300612
 20
198.1661432741
 10
104.2089145999
 20
198.9778732052
 10
105.1778541916
 20
199.6596892777
 10
106.2209381521
 20
200.196384649
 10
107.3149021227
 20
200.5759891673
  0
ARC
  5
1E4
330
1F
100
AcDbEntity
  8
0
  6
Continuous
 62
     7
370
    25
100
AcDbCircle
 10
109.3180665493
 20
193.0114313527
 30
0.0
 40
7.59162506953079
100
AcDbArc
 50
100.0583651829
 51
106.3053383443
  0
ARC
  5
1E5
330
1F
100
AcDbEntity
  8
0
  6
Continuous
 62
     7
370
    25
100
AcDbCircle
 10
109.4133832927
 20
192.694429668
 30
0.0
 40
7.922637822578851
100
AcDbArc
 50
106.3232941148
 51
115.8343848002
  0
ARC
  5
1E6
330
1F
100
AcDbEntity
  8
0
  6
Continuous
 62
     7
370
    25
100
AcDbCircle
 10
109.574030687
 20
192.2199221115
 30
0.0
 40
8.385707465192027
100
AcDbArc
 50
152.1285039345
 51
161.2858024492
  0
ARC
  5
1E7
330
1F
100
AcDbEntity
  8
0
  6
Continuous
 62
     7
370
    25
100
AcDbCircle
 10
109.2884000994
 20
192.3153845867
 30
0.0
 40
8.084549115808539
100
AcDbArc
 50
161.2770962331
 51
170.6606445699
  0
ARC
  5
1E8
330
1F
100
AcDbEntity
  8
0
  6
Continuous
 62
     7
370
    25
100
AcDbCircle
 10
108.9146280274
 20
192.3759529082
 30
0.0
 40
7.705902511808901
100
AcDbArc
 50
170.6540205522
 51
180.3428072424
  0
ARC
  5
1E9
330
1F
100
AcDbEntity
  8
0
  6
Continuous
 62
     7
370
    25
100
AcDbCircle
 10
108.5070011619
 20
192.3730827512
 30
0.0
 40
7.29826578269512
100
AcDbArc
 50
180.3394217349
 51
190.3860843716
  0
ARC
  5
1EA
330
1F
100
AcDbEntity
  8
0
  6
Continuous
 62
     7
370
    25
100
AcDbCircle
 10
108.2476660372
 20
192.3307278886
 30
0.0
 40
7.035545887360469
100
AcDbArc
 50
190.4275533049
 51
193.555239874
  0
LINE
  5
1EB
330
1F
100
AcDbEntity
  8
0
  6
Continuous
 62
     7
370
    25
100
AcDbLine
 10
102.1743504226
 20
195.9289327322
 30
0.0
 11
102.16107946
 21
196.1401572828
 31
0.0
  0
SPLINE
  5
1EC
330
1F
100
AcDbEntity
  8
0
  6
Continuous
 62
     7
370
    25
100
AcDbSpline
210
0.0
220
0.0
230
1.0
 70
     8
 71
     3
 72
     9
 73
     5
 74
     0
 42
0.00000001
 43
0.00000001
 40
0.0
 40
0.0
 40
0.0
 40
0.0
 40
0.8568070399340679
 40
1.0
 40
1.0
 40
1.0
 40
1.0
 10
101.6316688443698
 20
194.9104570123576
 30
0.0
 10
101.6931130564495
 20
194.9481302396773
 30
0.0
 10
101.7648260667492
 20
194.9920995648155
 30
0.0
 10
101.839477606729
 20
195.0330531764831
 30
0.0
 10
101.8501671817122
 20
195.0389174453631
 30
0.0
  0
ARC
  5
1ED
330
1F
100
AcDbEntity
  8
0
  6
Continuous
 62
     7
370
    25
100
AcDbCircle
 10
105.8478508026
 20
193.9200063967
 30
0.0
 40
6.909642352211275
100
AcDbArc
 50
176.4382369335
 51
229.9150566109
  0
LINE
  5
1EE
330
1F
100
AcDbEntity
  8
0
  6
Continuous
 62
     7
370
    25
100
AcDbLine
 10
101.6316688444
 20
194.9104570124
 30
0.0
 11
101.6665142649
 21
194.9015438726
 31
0.0
  0
LINE
  5
1EF
330
1F
100
AcDbEntity
  8
0
  6
Continuous
 62
     7
370
    25
100
AcDbLine
 10
105.9609248918
 20
199.825258586
 30
0.0
 11
105.9738135354
 21
199.7914189461
 31
0.0
  0
LINE
  5
1F0
330
1F
100
AcDbEntity
  8
0
  6
Continuous
 62
     7
370
    25
100
AcDbLine
 10
101.6757812982
 20
194.6574702855
 30
0.0
 11
101.6316688444
 21
194.9104570124
 31
0.0
  0
SPLINE
  5
1F1
330
1F
100
AcDbEntity
  8
0
  6
Continuous
 62
     7
370
    25
100
AcDbSpline
210
0.0
220
0.0
230
1.0
 70
     8
 71
     3
 72
     9
 73
     5
 74
     0
 42
0.00000001
 43
0.00000001
 40
0.0
 40
0.0
 40
0.0
 40
0.0
 40
0.8393687152418015
 40
1.0
 40
1.0
 40
1.0
 40
1.0
 10
101.3110158789396
 20
193.6273584451301
 30
0.0
 10
101.361160554704
 20
193.6674650860434
 30
0.0
 10
101.4209014943576
 20
193.7152469966449
 30
0.0
 10
101.4841193472417
 20
193.7605046133768
 30
0.0
 10
101.4942741121702
 20
193.7677744024975
 30
0.0
  0
LINE
  5
1F2
330
1F
100
AcDbEntity
  8
0
  6
Continuous
 62
     7
370
    25
100
AcDbLine
 10
107.1109939765
 20
200.1654632959
 30
0.0
 11
107.1866712411
 21
200.2977147151
 31
0.0
  0
SPLINE
  5
1F3
330
1F
100
AcDbEntity
  8
0
  6
Continuous
 62
     7
370
    25
100
AcDbSpline
210
0.0
220
0.0
230
1.0
 70
     8
 71
     3
 72
     9
 73
     5
 74
     0
 42
0.00000001
 43
0.00000001
 40
0.0
 40
0.0
 40
0.0
 40
0.0
 40
0.804964604247495
 40
0.9999999999999999
 40
0.9999999999999999
 40
0.9999999999999999
 40
0.9999999999999999
 10
105.9609248918298
 20
199.8252585860322
 30
0.0
 10
106.0611855839191
 20
199.8238180825497
 30
0.0
 10
106.185738504085
 20
199.8220285585446
 30
0.0
 10
106.3100753591329
 20
199.815695385904
 30
0.0
 10
106.3343254468637
 20
199.8144601930717
 30
0.0
  0
LINE
  5
1F4
330
1F
100
AcDbEntity
  8
0
  6
Continuous
 62
     7
370
    25
100
AcDbLine
 10
101.3110158789
 20
193.6273584451
 30
0.0
 11
101.3474875617
 21
193.6249528228
 31
0.0
  0
LINE
  5
1F5
330
1F
100
AcDbEntity
  8
0
  6
Continuous
 62
     7
370
    25
100
AcDbLine
 10
107.1866712411
 20
200.2977147151
 30
0.0
 11
107.1933432417
 21
200.2614789097
 31
0.0
  0
LINE
  5
1F6
330
1F
100
AcDbEntity
  8
0
  6
Continuous
 62
     7
370
    25
100
AcDbLine
 10
101.3843303253
 20
193.3750882511
 30
0.0
 11
101.3110158789
 21
193.6273584451
 31
0.0
  0
SPLINE
  5
1F7
330
1F
100
AcDbEntity
  8
0
  6
Continuous
 62
     7
370
    25
100
AcDbSpline
210
0.0
220
0.0
230
1.0
 70
     8
 71
     3
 72
     9
 73
     5
 74
     0
 42
0.00000001
 43
0.00000001
 40
0.0
 40
0.0
 40
0.0
 40
0.0
 40
0.9075898034528569
 40
1.0
 40
1.0
 40
1.0
 40
1.0
 10
107.18667124112
 20
200.2977147150856
 30
0.0
 10
107.2894970976213
 20
200.2848949273372
 30
0.0
 10
107.4027926151669
 20
200.2707698372363
 30
0.0
 10
107.5152785974348
 20
200.2527047630618
 30
0.0
 10
107.5256734491649
 20
200.2510353660068
 30
0.0
  0
LINE
  5
1F8
330
1F
100
AcDbEntity
  8
0
  6
Continuous
 62
     7
370
    25
100
AcDbLine
 10
101.2088634418
 20
192.3298478818
 30
0.0
 11
101.2458532131
 21
192.3340228705
 31
0.0
  0
LINE
  5
1F9
330
1F
100
AcDbEntity
  8
0
  6
Continuous
 62
     7
370
    25
100
AcDbLine
 10
101.3283153831
 20
191.0573495242
 30
0.0
 11
101.342460543
 21
191.0614817121
 31
0.0
  0
LWPOLYLINE
  5
1FA
330
1F
100
AcDbEntity
  8
0
  6
Continuous
 62
     7
370
    25
100
AcDbPolyline
 90
       63
 70
   128
 43
0.0
 10
85.3323838418
 20
251.4440870246
 10
84.6965610114
 20
251.8533727262
 10
83.9843623128
 20
252.1015573929
 10
83.2030958683
 20
252.1860943141
 10
82.3607785289
 20
252.1061160267
 10
81.4660536104
 20
251.8624432159
 10
80.5281022011
 20
251.4575762948
 10
79.5565489518
 20
250.8956697457
 10
78.5613633135
 20
250.1824894901
 10
77.5527572375
 20
249.3253537227
 10
76.5410803872
 20
248.3330578163
 10
75.5367139359
 20
247.2157840696
 10
74.5499640426
 20
245.9849972233
 10
73.5909560965
 20
244.6533268158
 10
72.6695308168
 20
243.2344375876
 10
71.7951432739
 20
241.7428892623
 10
70.9767658671
 20
240.1939871441
 10
70.222796256
 20
238.6036250646
 10
69.5409711893
 20
236.988122291
 10
68.9382871146
 20
235.3640560678
 10
68.4209283862
 20
233.7480915121
 10
67.9942038048
 20
232.1568106071
 10
67.6624921419
 20
230.6065420482
 10
67.4291972081
 20
229.1131936887
 10
67.2967129252
 20
227.6920893035
 10
67.2663987612
 20
226.3578113467
 10
67.3385657804
 20
225.1240513157
 10
67.5124734515
 20
224.003469258
 10
67.7863372464
 20
223.0075638618
 10
68.1573469522
 20
222.1465544643
 10
68.6216955071
 20
221.4292761869
 10
69.1746180665
 20
220.8630892755
 10
69.8104408969
 20
220.4538035738
 10
70.5226395955
 20
220.2056189071
 10
71.30390604
 20
220.1210819859
 10
72.1462233794
 20
220.2010602734
 10
73.0409482979
 20
220.4447330841
 10
73.9788997072
 20
220.8496000052
 10
74.9504529565
 20
221.4115065544
 10
75.9456385948
 20
222.1246868099
 10
76.9542446708
 20
222.9818225773
 10
77.9659215211
 20
223.9741184837
 10
78.9702879724
 20
225.0913922304
 10
79.9570378657
 20
226.3221790768
 10
80.9160458118
 20
227.6538494842
 10
81.8374710915
 20
229.0727387124
 10
82.7118586344
 20
230.5642870377
 10
83.5302360412
 20
232.1131891559
 10
84.2842056523
 20
233.7035512354
 10
84.966030719
 20
235.319054009
 10
85.5687147937
 20
236.9431202323
 10
86.0860735221
 20
238.5590847879
 10
86.5127981035
 20
240.1503656929
 10
86.8445097664
 20
241.7006342518
 10
87.0778047002
 20
243.1939826114
 10
87.2102889831
 20
244.6150869965
 10
87.2406031471
 20
245.9493649533
 10
87.1684361279
 20
247.1831249843
 10
86.9945284568
 20
248.303707042
 10
86.7206646619
 20
249.2996124382
 10
86.3496549561
 20
250.1606218357
 10
85.8853064012
 20
250.8779001131
 10
85.3323838418
 20
251.4440870246
  0
LWPOLYLINE
  5
1FB
330
1F
100
AcDbEntity
  8
0
  6
Continuous
 62
     7
370
    25
100
AcDbPolyline
 90
       24
 70
   128
 43
0.0
 10
80.9828630892
 20
252.5671023214
 10
80.9304195131
 20
252.5422034085
 10
79.9344785527
 20
251.9950710531
 10
78.9127183124
 20
251.2953765575
 10
77.8749789019
 20
250.4498583621
 10
76.8312543191
 20
249.4666592695
 10
75.7915962022
 20
248.3552480244
 10
74.7660170272
 20
247.1263281246
 10
73.7643936823
 20
245.7917347404
 10
72.7963723477
 20
244.3643207359
 10
71.8712755981
 20
242.8578328882
 10
70.9980126209
 20
241.2867794986
 10
70.1849934159
 20
239.6662906704
 10
69.4400478026
 20
238.0119725966
 10
68.7703500144
 20
236.3397572647
 10
68.1823496071
 20
234.6657490224
 10
67.6817093461
 20
233.0060694843
 10
67.2732506707
 20
231.3767022715
 10
66.9609072613
 20
229.7933390811
 10
66.7476871557
 20
228.271228566
 10
66.63564378
 20
226.8250294827
 10
66.6258561733
 20
225.4686695189
 10
66.7184185954
 20
224.2152111625
 10
66.8545031005
 20
223.3499749281
  0
LWPOLYLINE
  5
1FC
330
1F
100
AcDbEntity
  8
0
  6
Continuous
 62
     7
370
    25
100
AcDbPolyline
 90
       26
 70
   128
 43
0.0
 10
72.1546464629
 20
219.2421056351
 10
72.6160521705
 20
219.37567186
 10
73.5765823952
 20
219.7649728915
 10
74.5725233556
 20
220.3121052469
 10
75.5942835959
 20
221.0117997426
 10
76.6320230064
 20
221.8573179379
 10
77.6757475892
 20
222.8405170305
 10
78.7154057061
 20
223.9519282756
 10
79.7409848811
 20
225.1808481755
 10
80.742608226
 20
226.5154415596
 10
81.7106295606
 20
227.9428555641
 10
82.6357263102
 20
229.4493434119
 10
83.5089892874
 20
231.0203968014
 10
84.3220084924
 20
232.6408856297
 10
85.0669541057
 20
234.2952037035
 10
85.7366518939
 20
235.9674190354
 10
86.3246523012
 20
237.6414272776
 10
86.8252925622
 20
239.3011068157
 10
87.2337512376
 20
240.9304740285
 10
87.546094647
 20
242.5138372189
 10
87.7593147526
 20
244.035947734
 10
87.8713581283
 20
245.4821468173
 10
87.881145735
 20
246.8385067811
 10
87.7885833129
 20
248.0919651376
 10
87.5945622886
 20
249.2304503974
 10
87.3043243316
 20
250.2336609096
  0
LWPOLYLINE
  5
1FD
330
1F
100
AcDbEntity
  8
0
  6
Continuous
 62
     7
370
    25
100
AcDbPolyline
 90
       11
 70
   128
 43
0.0
 10
73.6857574546
 20
219.4254295391
 10
73.1573495969
 20
219.196777457
 10
72.2234163145
 20
218.9009502389
 10
71.338357427
 20
218.7653065774
 10
70.5104364908
 20
218.7911129407
 10
69.7473835804
 20
218.9781283817
 10
69.0563231155
 20
219.3246067878
 10
68.4437073412
 20
219.8273131834
 10
67.9152560861
 20
220.4815539342
 10
67.4759033571
 20
221.2812205708
 10
67.1558897062
 20
222.1326134401
  0
LWPOLYLINE
  5
1FE
330
1F
100
AcDbEntity
  8
0
  6
Continuous
 62
     7
370
    25
100
AcDbPolyline
 90
        8
 70
   128
 43
0.0
 10
81.218150923
 20
252.683261048
 10
81.2761717418
 20
252.7105043398
 10
82.2312976503
 20
253.0854801934
 10
83.1418570621
 20
253.3014678578
 10
83.9993483293
 20
253.3564507144
 10
84.7957652869
 20
253.2499154031
 10
85.5236720045
 20
252.9828566154
 10
86.1762722131
 20
252.5577678073
  0
LWPOLYLINE
  5
1FF
330
1F
100
AcDbEntity
  8
0
  6
Continuous
 62
     7
370
    25
100
AcDbPolyline
 90
       34
 70
   128
 43
0.0
 10
73.3541471339
 20
217.2642207955
 10
74.006835247
 20
217.03372827
 10
74.8032522047
 20
216.9271929587
 10
75.6607434719
 20
216.9821758153
 10
76.5713028836
 20
217.1981634797
 10
77.5264287921
 20
217.5731393332
 10
78.517203444
 20
218.1036023274
 10
79.5343762434
 20
218.7845996722
 10
80.5684501218
 20
219.6097730788
 10
81.6097702102
 20
220.5714181255
 10
82.6486139834
 20
221.6605561916
 10
83.675282037
 20
222.8670182884
 10
84.680188648
 20
224.1795400044
 10
85.6539512742
 20
225.585866678
 10
86.5874781562
 20
227.0728678159
 10
87.4720532051
 20
228.6266596892
 10
88.299417382
 20
230.2327349617
 10
89.0618458105
 20
231.8760981414
 10
89.7522199018
 20
233.5414055891
 10
90.364093819
 20
235.2131087778
 10
90.8917546602
 20
236.8755994653
 10
91.3302757983
 20
238.5133554239
 10
91.6755628796
 20
240.1110853675
 10
91.9243920516
 20
241.6538717222
 10
92.0744400634
 20
243.1273099074
 10
92.1243059572
 20
244.5176428278
 10
92.0735241485
 20
245.8118893194
 10
91.9225687734
 20
246.9979653516
 10
91.6728492616
 20
248.064796852
 10
91.3266971768
 20
249.0024231023
 10
90.8873444478
 20
249.8020897388
 10
90.3588931927
 20
250.4563304897
 10
89.7462774185
 20
250.9590368852
 10
89.3349473947
 20
251.1886076437
  0
LWPOLYLINE
  5
200
330
1F
100
AcDbEntity
  8
0
  6
Continuous
 62
     7
370
    25
100
AcDbPolyline
 90
       27
 70
   128
 43
0.0
 10
86.7370338346
 20
250.1570035183
 10
86.9341417383
 20
249.663280101
 10
87.2157150864
 20
248.6667224673
 10
87.3982794748
 20
247.5458036829
 10
87.4800204965
 20
246.3116639424
 10
87.4601257726
 20
244.976568681
 10
87.3387930256
 20
243.5537866752
 10
87.1172281151
 20
242.0574581717
 10
86.7976330525
 20
240.5024543556
 10
86.3831841173
 20
238.9042295533
 10
85.8780002891
 20
237.2786676409
 10
85.2871023118
 20
235.6419241831
 10
84.616362795
 20
234.0102658717
 10
83.8724478492
 20
232.39990886
 10
83.0627508356
 20
230.8268575995
 10
82.1953188867
 20
229.3067457803
 10
81.278772931
 20
227.8546809567
 10
80.3222220139
 20
226.4850944012
 10
79.3351727683
 20
225.2115976804
 10
78.327434933
 20
224.0468473767
 10
77.3090238593
 20
223.002419302
 10
76.290060974
 20
222.0886934518
 10
75.2806731881
 20
221.314750844
 10
74.2908922508
 20
220.688283268
 10
73.3305550499
 20
220.2155168399
 10
72.4092058478
 20
219.9011501251
 10
72.29029751
 20
219.8715069319
  0
LWPOLYLINE
  5
201
330
1F
100
AcDbEntity
  8
0
  6
Continuous
 62
     7
370
    25
100
AcDbPolyline
 90
       22
 70
   128
 43
0.0
 10
67.2358116825
 20
223.9118805405
 10
67.1874917853
 20
224.1860366156
 10
67.0551745995
 20
225.3650314615
 10
67.0242129629
 20
226.6512478307
 10
67.0949145861
 20
228.0319027271
 10
67.2665768045
 20
229.4932745821
 10
67.5374935619
 20
231.0208396256
 10
67.9049723659
 20
232.5994162299
 10
68.365361047
 20
234.2133157916
 10
68.9140840556
 20
235.8464986516
 10
69.5456879361
 20
237.482733505
 10
70.2538955252
 20
239.1057587148
 10
71.0316683378
 20
240.6994439272
 10
71.8712765182
 20
242.2479503825
 10
72.7643756631
 20
243.735888328
 10
73.7020897519
 20
245.1484699678
 10
74.6750993609
 20
246.471656431
 10
75.6737342832
 20
247.692297296
 10
76.6880696365
 20
248.7982612855
 10
77.7080245003
 20
249.7785568326
 10
78.7234621048
 20
250.6234413196
 10
79.5431285755
 20
251.2075988552
  0
ARC
  5
202
330
1F
100
AcDbEntity
  8
0
  6
Continuous
 62
     7
370
    25
100
AcDbCircle
 10
83.3514276863
 20
248.4838004709
 30
0.0
 40
3.769344126311452
100
AcDbArc
 50
53.1670291164
 51
106.7418258718
  0
ARC
  5
203
330
1F
100
AcDbEntity
  8
0
  6
Continuous
 62
     7
370
    25
100
AcDbCircle
 10
71.5960038332
 20
223.5569703466
 30
0.0
 40
3.712434994723885
100
AcDbArc
 50
206.0023031354
 51
293.8001917524
  0
LINE
  5
204
330
1F
100
AcDbEntity
  8
0
  6
Continuous
 62
     7
370
    25
100
AcDbLine
 10
70.752915131
 20
219.9822161143
 30
0.0
 11
70.8301702271
 21
219.9206699653
 31
0.0
  0
LWPOLYLINE
  5
205
330
1F
100
AcDbEntity
  8
0
  6
Continuous
 62
     7
370
    25
100
AcDbPolyline
 90
        3
 70
   128
 43
0.0
 10
85.8162172399
 20
251.409169333
 10
85.6692042999
 20
251.4454214124
 10
85.4886129288
 20
251.4805805798
  0
LINE
  5
206
330
1F
100
AcDbEntity
  8
0
  6
Continuous
 62
     7
370
    25
100
AcDbLine
 10
70.6797380205
 20
220.0439821005
 30
0.0
 11
70.752915131
 21
219.9822161143
 31
0.0
  0
LINE
  5
207
330
1F
100
AcDbEntity
  8
0
  6
Continuous
 62
     7
370
    25
100
AcDbLine
 10
90.7647325505
 20
250.1215106093
 30
0.0
 11
90.4701394676
 21
250.3389094852
 31
0.0
  0
LWPOLYLINE
  5
208
330
1F
100
AcDbEntity
  8
0
  6
Continuous
 62
     7
370
    25
100
AcDbPolyline
 90
       32
 70
   128
 43
0.0
 10
74.7321726236
 20
216.9300146417
 10
74.9464502927
 20
216.871838146
 10
75.7470511136
 20
216.7713956703
 10
76.6094386849
 20
216.8353426175
 10
77.5253077427
 20
217.0630631434
 10
78.4858379674
 20
217.452364175
 10
79.4817789278
 20
217.9994965304
 10
80.5035391681
 20
218.699191026
 10
81.5412785785
 20
219.5447092214
 10
82.5850031613
 20
220.527908314
 10
83.6246612782
 20
221.6393195591
 10
84.6502404532
 20
222.868239459
 10
85.6518637982
 20
224.2028328431
 10
86.6198851328
 20
225.6302468476
 10
87.5449818824
 20
227.1367346954
 10
88.4182448596
 20
228.7077880849
 10
89.2312640646
 20
230.3282769131
 10
89.9762096779
 20
231.9825949869
 10
90.6459074661
 20
233.6548103188
 10
91.2339078734
 20
235.3288185611
 10
91.7345481344
 20
236.9884980992
 10
92.1430068098
 20
238.617865312
 10
92.4553502191
 20
240.2012285024
 10
92.6685703248
 20
241.7233390175
 10
92.7806137004
 20
243.1695381008
 10
92.7904013072
 20
244.5258980646
 10
92.6978388851
 20
245.7793564211
 10
92.5038178608
 20
246.9178416809
 10
92.2102067628
 20
247.9303896088
 10
91.8198332266
 20
248.8072488147
 10
91.3364567626
 20
249.539974665
 10
90.7647325505
 20
250.1215106093
  0
LWPOLYLINE
  5
209
330
1F
100
AcDbEntity
  8
0
  6
Continuous
 62
     7
370
    25
100
AcDbPolyline
 90
       34
 70
   128
 43
0.0
 10
108.5371454011
 20
200.6905249938
 10
109.1898335142
 20
200.4600324683
 10
109.9862504718
 20
200.353497157
 10
110.843741739
 20
200.4084800136
 10
111.7543011508
 20
200.624467678
 10
112.7094270592
 20
200.9994435316
 10
113.7002017111
 20
201.5299065257
 10
114.7173745105
 20
202.2109038705
 10
115.751448389
 20
203.0360772771
 10
116.7927684774
 20
203.9977223238
 10
117.8316122506
 20
205.0868603899
 10
118.8582803042
 20
206.2933224867
 10
119.8631869152
 20
207.6058442027
 10
120.8369495413
 20
209.0121708763
 10
121.7704764233
 20
210.4991720142
 10
122.6550514722
 20
212.0529638875
 10
123.4824156491
 20
213.65903916
 10
124.2448440776
 20
215.3024023397
 10
124.9352181689
 20
216.9677097874
 10
125.5470920861
 20
218.6394129761
 10
126.0747529273
 20
220.3019036636
 10
126.5132740654
 20
221.9396596222
 10
126.8585611467
 20
223.5373895658
 10
127.1073903187
 20
225.0801759205
 10
127.2574383306
 20
226.5536141057
 10
127.3073042243
 20
227.9439470261
 10
127.2565224157
 20
229.2381935177
 10
127.1055670406
 20
230.4242695499
 10
126.8558475287
 20
231.4911010503
 10
126.5096954439
 20
232.4287273006
 10
126.070342715
 20
233.2283939371
 10
125.5418914599
 20
233.882634688
 10
124.9292756856
 20
234.3853410835
 10
124.5179456618
 20
234.614911842
  0
LWPOLYLINE
  5
20A
330
1F
100
AcDbEntity
  8
0
  6
Continuous
 62
     7
370
    25
100
AcDbPolyline
 90
       36
 70
   128
 43
0.0
 10
73.7760332799
 20
217.0986362777
 10
74.0971377915
 20
216.9153522715
 10
74.8250445091
 20
216.6482934839
 10
75.6214614667
 20
216.5417581726
 10
76.4789527339
 20
216.5967410292
 10
77.3895121457
 20
216.8127286936
 10
78.3446380541
 20
217.1877045472
 10
79.335412706
 20
217.7181675413
 10
80.3525855054
 20
218.3991648861
 10
81.3866593839
 20
219.2243382927
 10
82.4279794722
 20
220.1859833394
 10
83.4668232454
 20
221.2751214055
 10
84.493491299
 20
222.4815835023
 10
85.4983979101
 20
223.7941052184
 10
86.4721605362
 20
225.2004318919
 10
87.4056874182
 20
226.6874330298
 10
88.2902624671
 20
228.2412249031
 10
89.117626644
 20
229.8473001756
 10
89.8800550725
 20
231.4906633553
 10
90.5704291638
 20
233.155970803
 10
91.182303081
 20
234.8276739917
 10
91.7099639222
 20
236.4901646792
 10
92.1484850603
 20
238.1279206378
 10
92.4937721416
 20
239.7256505815
 10
92.7426013136
 20
241.2684369361
 10
92.8926493254
 20
242.7418751213
 10
92.9425152192
 20
244.1322080417
 10
92.8917334105
 20
245.4264545333
 10
92.7407780354
 20
246.6125305655
 10
92.4910585236
 20
247.6793620659
 10
92.1449064388
 20
248.6169883162
 10
91.7055537099
 20
249.4166549528
 10
91.1771024548
 20
250.0708957036
 10
90.5644866805
 20
250.5736020992
 10
89.8734262155
 20
250.9200805052
 10
89.7312705107
 20
250.9687573754
  0
LWPOLYLINE
  5
20B
330
1F
100
AcDbEntity
  8
0
  6
Continuous
 62
     8
370
    25
100
AcDbPolyline
 90
        8
 70
   128
 43
0.0
 10
130.3742582128
 20
175.2126819967
 10
130.5620114534
 20
175.1945494074
 10
130.8694735044
 20
175.0174032972
 10
131.1742706822
 20
174.6648648966
 10
131.4639245545
 20
174.1513671692
 10
131.7265766578
 20
173.4979327723
 10
131.9514739841
 20
172.7313133868
 10
132.0530945178
 20
172.2850908862
  0
LWPOLYLINE
  5
20C
330
1F
100
AcDbEntity
  8
0
  6
Continuous
 62
     8
370
    25
100
AcDbPolyline
 90
       11
 70
   128
 43
0.0
 10
136.28168007
 20
168.8075026241
 10
136.4307517668
 20
167.9289140661
 10
136.5225200341
 20
167.0231412207
 10
136.5532278685
 20
166.1272665345
 10
136.5216180875
 20
165.2779672227
 10
136.4289847992
 20
164.5100136986
 10
136.2791204214
 20
163.85484607
 10
136.0781604193
 20
163.3392869763
 10
135.8343321191
 20
162.9844434676
 10
135.5576178799
 20
162.8048428788
 10
135.4611861479
 20
162.7855162562
  0
LWPOLYLINE
  5
20D
330
1F
100
AcDbEntity
  8
0
  6
Continuous
 62
     8
370
    25
100
AcDbPolyline
 90
        8
 70
   128
 43
0.0
 10
134.6009395191
 20
171.7443094638
 10
134.6516971166
 20
171.7464787062
 10
134.9562038854
 20
171.6517609572
 10
135.2637753883
 20
171.3774451317
 10
135.5618196118
 20
170.9347617518
 10
135.8381345905
 20
170.3418343271
 10
136.0814079566
 20
169.622937376
 10
136.28168007
 20
168.8075026241
  0
LINE
  5
20E
330
1F
100
AcDbEntity
  8
0
  6
Continuous
 62
     8
370
    25
100
AcDbLine
 10
127.5252153284
 20
162.1763539744
 30
0.0
 11
127.5316932613
 21
162.1449414546
 31
0.0
  0
LINE
  5
20F
330
1F
100
AcDbEntity
  8
0
  6
Continuous
 62
     8
370
    25
100
AcDbLine
 10
128.4608215789
 20
162.2494134375
 30
0.0
 11
128.4390712435
 21
162.3548842489
 31
0.0
  0
LINE
  5
210
330
1F
100
AcDbEntity
  8
0
  6
Continuous
 62
     8
370
    25
100
AcDbLine
 10
127.9649165495
 20
162.2654246773
 30
0.0
 11
127.9787694818
 21
162.1982496209
 31
0.0
  0
LINE
  5
211
330
1F
100
AcDbEntity
  8
0
  6
Continuous
 62
     8
370
    25
100
AcDbLine
 10
124.2819300131
 20
155.7856724357
 30
0.0
 11
124.2610544879
 21
153.6120891731
 31
0.0
  0
LINE
  5
212
330
1F
100
AcDbEntity
  8
0
  6
Continuous
 62
     8
370
    25
100
AcDbLine
 10
81.4431448696
 20
149.5006021066
 30
0.0
 11
81.4640203948
 21
151.6741853692
 31
0.0
  0
LINE
  5
213
330
1F
100
AcDbEntity
  8
0
  6
Continuous
 62
     8
370
    25
100
AcDbLine
 10
80.1806375095
 20
151.4244607246
 30
0.0
 11
80.1639574065
 21
149.6877095561
 31
0.0
  0
LINE
  5
214
330
1F
100
AcDbEntity
  8
0
  6
Continuous
 62
     8
370
    25
100
AcDbLine
 10
72.7249983074
 20
155.792045214
 30
0.0
 11
72.7380094994
 21
157.1467852221
 31
0.0
  0
LINE
  5
215
330
1F
100
AcDbEntity
  8
0
  6
Continuous
 62
     8
370
    25
100
AcDbLine
 10
82.9136962872
 20
146.5942809734
 30
0.0
 11
82.9429923619
 21
149.6446213645
 31
0.0
  0
LINE
  5
216
330
1F
100
AcDbEntity
  8
0
  6
Continuous
 62
     8
370
    25
100
AcDbLine
 10
81.6608254415
 20
149.5215043614
 30
0.0
 11
81.6345088241
 21
146.7813884229
 31
0.0
  0
LINE
  5
217
330
1F
100
AcDbEntity
  8
0
  6
Continuous
 62
     8
370
    25
100
AcDbLine
 10
121.055637187
 20
153.3042966654
 30
0.0
 11
121.0263411123
 21
150.2539562743
 31
0.0
  0
LINE
  5
218
330
1F
100
AcDbEntity
  8
0
  6
Continuous
 62
     8
370
    25
100
AcDbLine
 10
75.8862222475
 20
151.4983750676
 30
0.0
 11
75.902417916
 21
153.1846863673
 31
0.0
  0
LINE
  5
219
330
1F
100
AcDbEntity
  8
0
  6
Continuous
 62
     8
370
    25
100
AcDbLine
 10
118.4612263237
 20
180.7828792569
 30
0.0
 11
114.6469304227
 21
180.4166206421
 31
0.0
  0
LINE
  5
21A
330
1F
100
AcDbEntity
  8
0
  6
Continuous
 62
     8
370
    25
100
AcDbLine
 10
103.6362688573
 20
179.3593482759
 30
0.0
 11
71.6716116626
 21
176.2900187403
 31
0.0
  0
SPLINE
  5
21B
330
1F
100
AcDbEntity
  8
0
  6
Continuous
 62
     8
370
    25
100
AcDbSpline
210
0.0
220
0.0
230
1.0
 70
     8
 71
     3
 72
    12
 73
     8
 74
     0
 42
0.00000001
 43
0.00000001
 40
0.0
 40
0.0
 40
0.0
 40
0.0
 40
0.1976854888620587
 40
0.3845197826955398
 40
0.5604947108405496
 40
0.7256026361003215
 40
1.0
 40
1.0
 40
1.0
 40
1.0
 10
80.15665371900418
 20
152.1168189731763
 30
0.0
 10
80.15299906302866
 20
152.0407581977735
 30
0.0
 10
80.14589035955413
 20
151.8928117147115
 30
0.0
 10
80.1129472967045
 20
151.7083783617677
 30
0.0
 10
80.06884019933568
 20
151.5681537875512
 30
0.0
 10
80.00451344906143
 20
151.443116467717
 30
0.0
 10
79.94657351125922
 20
151.4186653056122
 30
0.0
 10
79.91039973453894
 20
151.4033996544554
 30
0.0
  0
ARC
  5
21C
330
1F
100
AcDbEntity
  8
0
  6
Continuous
 62
     8
370
    25
100
AcDbCircle
 10
79.7798232811
 20
151.6476352235
 30
0.0
 40
0.2159186321780487
100
AcDbArc
 50
177.4251302105
 51
229.9816093462
  0
ARC
  5
21D
330
1F
100
AcDbEntity
  8
0
  6
Continuous
 62
     8
370
    25
100
AcDbCircle
 10
70.3110280656
 20
159.4163335449
 30
0.0
 40
0.2149116603455233
100
AcDbArc
 50
177.2913165696
 51
230.0244495164
  0
LWPOLYLINE
  5
21E
330
1F
100
AcDbEntity
  8
0
  6
Continuous
 62
     8
370
    25
100
AcDbPolyline
 90
        8
 70
   128
 43
0.0
 10
128.5184312878
 20
172.2890337835
 10
128.6955244529
 20
172.3119941086
 10
128.8528177075
 20
172.3447350901
 10
128.9842663602
 20
172.3859985105
 10
129.0848189129
 20
172.4341986398
 10
129.1506111874
 20
172.487483174
 10
129.1791148236
 20
172.5438044183
 10
129.1802542455
 20
172.5574749208
  0
LWPOLYLINE
  5
21F
330
1F
100
AcDbEntity
  8
0
  6
Continuous
 62
     8
370
    25
100
AcDbPolyline
 90
        3
 70
   128
 43
0.0
 10
69.8472414987
 20
160.3782266465
 10
69.8499922486
 20
160.3670183902
 10
69.8619648824
 20
160.353131653
  0
ARC
  5
220
330
1F
100
AcDbEntity
  8
0
  6
Continuous
 62
     8
370
    25
100
AcDbCircle
 10
112.4938316353
 20
189.8762675952
 30
0.0
 40
8.388674527087845
100
AcDbArc
 50
96.5479863034
 51
184.1795881563
  0
LWPOLYLINE
  5
221
330
1F
100
AcDbEntity
  8
0
  6
Continuous
 62
     8
370
    25
100
AcDbPolyline
 90
       25
 70
   128
 43
0.0
 10
124.0450072248
 20
195.7398902547
 10
124.4513070053
 20
195.9457868282
 10
125.4564545152
 20
196.5522251801
 10
126.4832769498
 20
197.3061910169
 10
127.5221871447
 20
198.2006447626
 10
128.5634850753
 20
199.2272351437
 10
129.5974484233
 20
200.3763771624
 10
130.6144233517
 20
201.6373415892
 10
131.6049146394
 20
202.9983551391
 10
132.5596743362
 20
204.4467103953
 10
133.4697881081
 20
205.9688844549
 10
134.326758468
 20
207.5506651889
 10
135.1225841146
 20
209.1772839367
 10
135.8498346381
 20
210.8335533975
 10
136.5017198965
 20
212.5040094294
 10
137.0721534126
 20
214.1730554346
 10
137.5558092025
 20
215.8251079803
 10
137.9481715024
 20
217.4447422969
 10
138.2455769311
 20
219.0168362953
 10
138.4452486944
 20
220.5267117572
 10
138.5453225107
 20
221.9602713825
 10
138.5448640178
 20
223.304130411
 10
138.4438774966
 20
224.5457415932
 10
138.2433058309
 20
225.6735123399
 10
138.2162384804
 20
225.7860926847
  0
ARC
  5
222
330
1F
100
AcDbEntity
  8
0
  6
Continuous
 62
     8
370
    25
100
AcDbCircle
 10
112.2243753454
 20
192.1727815773
 30
0.0
 40
6.786252091114984
100
AcDbArc
 50
47.3213020142
 51
50.6278748312
  0
ARC
  5
223
330
1F
100
AcDbEntity
  8
0
  6
Continuous
 62
     8
370
    25
100
AcDbCircle
 10
107.5990358031
 20
193.8963126125
 30
0.0
 40
8.659335343901837
100
AcDbArc
 50
105.6663481803
 51
177.0016100313
  0
LWPOLYLINE
  5
224
330
1F
100
AcDbEntity
  8
0
  6
Continuous
 62
     8
370
    25
100
AcDbPolyline
 90
        7
 70
   128
 43
0.0
 10
85.8554769784
 20
252.4341193258
 10
85.2009110349
 20
252.858864855
 10
84.4698071878
 20
253.1227294375
 10
83.6692063668
 20
253.2231719132
 10
82.8068187956
 20
253.159224966
 10
81.8909497378
 20
252.9315044401
 10
80.9828630892
 20
252.5671023214
  0
LWPOLYLINE
  5
225
330
1F
100
AcDbEntity
  8
0
  6
Continuous
 62
     8
370
    25
100
AcDbPolyline
 90
       11
 70
   128
 43
0.0
 10
66.8545031005
 20
223.3499749281
 10
66.9124396197
 20
223.0767259026
 10
67.2060507177
 20
222.0641779747
 10
67.5964242539
 20
221.1873187688
 10
68.0798007178
 20
220.4545929185
 10
68.6515249299
 20
219.8730569742
 10
69.3060908734
 20
219.448311445
 10
70.0371947205
 20
219.1844468625
 10
70.8377955415
 20
219.0840043868
 10
71.7001831127
 20
219.147951334
 10
72.1546464629
 20
219.2421056351
  0
ARC
  5
226
330
1F
100
AcDbEntity
  8
0
  6
Continuous
 62
     8
370
    25
100
AcDbCircle
 10
82.3966910265
 20
248.5795403178
 30
0.0
 40
5.178897526516935
100
AcDbArc
 50
18.6264182477
 51
48.0977765968
  0
LWPOLYLINE
  5
227
330
1F
100
AcDbEntity
  8
0
  6
Continuous
 62
     8
370
    25
100
AcDbPolyline
 90
       28
 70
   128
 43
0.0
 10
86.1762722131
 20
252.5577678073
 10
86.7474727605
 20
251.9786179184
 10
87.2319405009
 20
251.2508143152
 10
87.6251520898
 20
250.3811523038
 10
87.9234362163
 20
249.3777516842
 10
88.1240078819
 20
248.2499809375
 10
88.2249944032
 20
247.0083697553
 10
88.2254528961
 20
245.6645107268
 10
88.1253790797
 20
244.2309511015
 10
87.9257073165
 20
242.7210756395
 10
87.6283018877
 20
241.1489816412
 10
87.2359395879
 20
239.5293473246
 10
86.752283798
 20
237.8772947789
 10
86.1818502818
 20
236.2082487737
 10
85.5299650235
 20
234.5377927418
 10
84.8027144999
 20
232.881523281
 10
84.0068888534
 20
231.2549045332
 10
83.1499184935
 20
229.6731237992
 10
82.2398047216
 20
228.1509497396
 10
81.2850450248
 20
226.7025944834
 10
80.294553737
 20
225.3415809335
 10
79.2775788087
 20
224.0806165067
 10
78.2436154606
 20
222.931474488
 10
77.2023175301
 20
221.9048841069
 10
76.1634073352
 20
221.0104303612
 10
75.1365849006
 20
220.2564645244
 10
74.1314373907
 20
219.6500261725
 10
73.6857574546
 20
219.4254295391
  0
ARC
  5
228
330
1F
100
AcDbEntity
  8
0
  6
Continuous
 62
     8
370
    25
100
AcDbCircle
 10
82.5360753408
 20
248.3625602393
 30
0.0
 40
4.568159251614943
100
AcDbArc
 50
23.1297952936
 51
49.0824096906
  0
LWPOLYLINE
  5
229
330
1F
100
AcDbEntity
  8
0
  6
Continuous
 62
     8
370
    25
100
AcDbPolyline
 90
       10
 70
   128
 43
0.0
 10
72.29029751
 20
219.8715069319
 10
71.5360014268
 20
219.748307441
 10
70.7196200849
 20
219.7585078071
 10
69.9681753865
 20
219.9316498473
 10
69.2891355267
 20
220.2660127985
 10
68.6892491086
 20
220.7582736113
 10
68.1744780731
 20
221.4035399766
 10
67.7499384458
 20
222.1953989474
 10
67.4198494925
 20
223.1259806735
 10
67.2358116825
 20
223.9118805405
  0
LWPOLYLINE
  5
22A
330
1F
100
AcDbEntity
  8
0
  6
Continuous
 62
     8
370
    25
100
AcDbPolyline
 90
        9
 70
   128
 43
0.0
 10
79.5431285755
 20
251.2075988552
 10
79.724290575
 20
251.3245179049
 10
80.7005632279
 20
251.8748189745
 10
81.6425774273
 20
252.2688753891
 10
82.5409710128
 20
252.5027708391
 10
83.3868153454
 20
252.5741807662
 10
84.1717040441
 20
252.4823954667
 10
84.8878365323
 20
252.2283271441
 10
85.5280955636
 20
251.8145008434
  0
LINE
  5
22B
330
1F
100
AcDbEntity
  8
0
  6
Continuous
 62
     8
370
    25
100
AcDbLine
 10
82.2656317258
 20
252.0933713976
 30
0.0
 11
82.1408683429
 21
252.0602929023
 31
0.0
  0
LINE
  5
22C
330
1F
100
AcDbEntity
  8
0
  6
Continuous
 62
     8
370
    25
100
AcDbLine
 10
68.1009640265
 20
222.2560817654
 30
0.0
 11
68.2593547834
 21
221.929411835
 31
0.0
  0
ENDSEC
  0
SECTION
  2
OBJECTS
  0
DICTIONARY
  5
C
330
0
100
AcDbDictionary
281
     1
  3
ACAD_GROUP
350
D
  3
ACAD_LAYOUT
350
1A
  3
ACAD_MLINESTYLE
350
17
  3
ACAD_PLOTSETTINGS
350
19
  3
ACAD_PLOTSTYLENAME
350
E
  3
ACAD_SCALELIST
350
47
  3
DWGPROPS
350
22D
  0
DICTIONARY
  5
D
102
{ACAD_REACTORS
330
C
102
}
330
C
100
AcDbDictionary
281
     1
  0
DICTIONARY
  5
1A
102
{ACAD_REACTORS
330
C
102
}
330
C
100
AcDbDictionary
281
     1
  3
Layout1
350
1E
  3
Layout2
350
26
  3
Model
350
22
  0
DICTIONARY
  5
17
102
{ACAD_REACTORS
330
C
102
}
330
C
100
AcDbDictionary
281
     1
  3
Standard
350
18
  0
DICTIONARY
  5
19
102
{ACAD_REACTORS
330
C
102
}
330
C
100
AcDbDictionary
281
     1
  0
ACDBDICTIONARYWDFLT
  5
E
102
{ACAD_REACTORS
330
C
102
}
330
C
100
AcDbDictionary
281
     1
  3
Normal
350
F
100
AcDbDictionaryWithDefault
340
F
  0
DICTIONARY
  5
47
102
{ACAD_REACTORS
330
C
102
}
330
C
100
AcDbDictionary
281
     1
  3
A0
350
48
  3
A1
350
49
  3
A2
350
4A
  3
A3
350
4B
  3
A4
350
4C
  3
A5
350
4D
  3
A6
350
4E
  3
A7
350
4F
  3
A8
350
50
  3
A9
350
51
  3
B0
350
52
  3
B1
350
53
  3
B2
350
54
  3
B3
350
55
  3
B4
350
56
  3
B5
350
57
  3
B6
350
58
  3
B7
350
59
  3
B8
350
5A
  3
B9
350
5B
  3
C0
350
5C
  3
C1
350
5D
  3
C2
350
5E
  3
C3
350
5F
  3
C4
350
60
  3
C5
350
61
  3
C6
350
62
  3
C7
350
63
  3
C8
350
64
  3
C9
350
65
  3
D0
350
66
  3
D1
350
67
  3
D2
350
68
  0
XRECORD
  5
22D
102
{ACAD_REACTORS
330
C
102
}
330
C
100
AcDbXrecord
280
     1
  1
DWGPROPS COOKIE
  2

  3

  4

  6

  7

  8
9128
  9

300
=
301
=
302
=
303
=
304
=
305
=
306
=
307
=
308
=
309
=
 40
0.0
 41
2460018.224931829
 42
2460018.224932118
  1

 90
        0
  0
LAYOUT
  5
1E
102
{ACAD_REACTORS
330
1A
102
}
330
1A
100
AcDbPlotSettings
  1

  2
none_device
  4

  6

 40
0.0
 41
0.0
 42
0.0
 43
0.0
 44
0.0
 45
0.0
 46
0.0
 47
0.0
 48
0.0
 49
0.0
140
0.0
141
0.0
142
1.0
143
1.0
 70
   688
 72
     1
 73
     0
 74
     5
  7

 75
    16
147
1.0
148
0.0
149
0.0
100
AcDbLayout
  1
Layout1
 70
     1
 71
     1
 10
0.0
 20
0.0
 11
420.0
 21
297.0
 12
0.0
 22
0.0
 32
0.0
 14
1.0000000000E+20
 24
1.0000000000E+20
 34
1.0000000000E+20
 15
-1.0000000000E+20
 25
-1.0000000000E+20
 35
-1.0000000000E+20
146
0.0
 13
0.0
 23
0.0
 33
0.0
 16
1.0
 26
0.0
 36
0.0
 17
0.0
 27
1.0
 37
0.0
 76
     0
330
1B
  0
LAYOUT
  5
26
102
{ACAD_REACTORS
330
1A
102
}
330
1A
100
AcDbPlotSettings
  1

  2
none_device
  4

  6

 40
0.0
 41
0.0
 42
0.0
 43
0.0
 44
0.0
 45
0.0
 46
0.0
 47
0.0
 48
0.0
 49
0.0
140
0.0
141
0.0
142
1.0
143
1.0
 70
   688
 72
     1
 73
     0
 74
     5
  7

 75
    16
147
1.0
148
0.0
149
0.0
100
AcDbLayout
  1
Layout2
 70
     1
 71
     2
 10
0.0
 20
0.0
 11
0.0
 21
0.0
 12
0.0
 22
0.0
 32
0.0
 14
0.0
 24
0.0
 34
0.0
 15
0.0
 25
0.0
 35
0.0
146
0.0
 13
0.0
 23
0.0
 33
0.0
 16
1.0
 26
0.0
 36
0.0
 17
0.0
 27
1.0
 37
0.0
 76
     0
330
23
  0
LAYOUT
  5
22
102
{ACAD_REACTORS
330
1A
102
}
330
1A
100
AcDbPlotSettings
  1

  2
none_device
  4
Letter_(8.50_x_11.00_Inches)
  6

 40
6.35
 41
6.35
 42
6.35000508
 43
6.35000508
 44
215.9
 45
279.4
 46
0.0
 47
0.0
 48
0.0
 49
0.0
140
0.0
141
0.0
142
1.0
143
1.0
 70
  1712
 72
     1
 73
     0
 74
     0
  7

 75
     0
147
1.0
148
0.0
149
0.0
100
AcDbLayout
  1
Model
 70
     1
 71
     0
 10
0.0
 20
0.0
 11
210.0
 21
297.0
 12
0.0
 22
0.0
 32
0.0
 14
0.0
 24
0.0
 34
0.0
 15
210.0
 25
297.0
 35
0.0
146
0.0
 13
0.0
 23
0.0
 33
0.0
 16
1.0
 26
0.0
 36
0.0
 17
0.0
 27
1.0
 37
0.0
 76
     0
330
1F
331
29
  0
MLINESTYLE
  5
18
102
{ACAD_REACTORS
330
17
102
}
330
17
100
AcDbMlineStyle
  2
Standard
 70
     0
  3

 62
   256
 51
90.0
 52
90.0
 71
     2
 49
0.5
 62
   256
  6
BYLAYER
 49
-0.5
 62
   256
  6
BYLAYER
  0
ACDBPLACEHOLDER
  5
F
102
{ACAD_REACTORS
330
E
102
}
330
E
  0
SCALE
  5
48
102
{ACAD_REACTORS
330
47
102
}
330
47
100
AcDbScale
 70
     0
300
1:1
140
1.0
141
1.0
290
     1
  0
SCALE
  5
49
102
{ACAD_REACTORS
330
47
102
}
330
47
100
AcDbScale
 70
     0
300
1:2
140
1.0
141
2.0
290
     0
  0
SCALE
  5
4A
102
{ACAD_REACTORS
330
47
102
}
330
47
100
AcDbScale
 70
     0
300
1:4
140
1.0
141
4.0
290
     0
  0
SCALE
  5
4B
102
{ACAD_REACTORS
330
47
102
}
330
47
100
AcDbScale
 70
     0
300
1:5
140
1.0
141
5.0
290
     0
  0
SCALE
  5
4C
102
{ACAD_REACTORS
330
47
102
}
330
47
100
AcDbScale
 70
     0
300
1:8
140
1.0
141
8.0
290
     0
  0
SCALE
  5
4D
102
{ACAD_REACTORS
330
47
102
}
330
47
100
AcDbScale
 70
     0
300
1:10
140
1.0
141
10.0
290
     0
  0
SCALE
  5
4E
102
{ACAD_REACTORS
330
47
102
}
330
47
100
AcDbScale
 70
     0
300
1:16
140
1.0
141
16.0
290
     0
  0
SCALE
  5
4F
102
{ACAD_REACTORS
330
47
102
}
330
47
100
AcDbScale
 70
     0
300
1:20
140
1.0
141
20.0
290
     0
  0
SCALE
  5
50
102
{ACAD_REACTORS
330
47
102
}
330
47
100
AcDbScale
 70
     0
300
1:30
140
1.0
141
30.0
290
     0
  0
SCALE
  5
51
102
{ACAD_REACTORS
330
47
102
}
330
47
100
AcDbScale
 70
     0
300
1:40
140
1.0
141
40.0
290
     0
  0
SCALE
  5
52
102
{ACAD_REACTORS
330
47
102
}
330
47
100
AcDbScale
 70
     0
300
1:50
140
1.0
141
50.0
290
     0
  0
SCALE
  5
53
102
{ACAD_REACTORS
330
47
102
}
330
47
100
AcDbScale
 70
     0
300
1:100
140
1.0
141
100.0
290
     0
  0
SCALE
  5
54
102
{ACAD_REACTORS
330
47
102
}
330
47
100
AcDbScale
 70
     0
300
2:1
140
2.0
141
1.0
290
     0
  0
SCALE
  5
55
102
{ACAD_REACTORS
330
47
102
}
330
47
100
AcDbScale
 70
     0
300
4:1
140
4.0
141
1.0
290
     0
  0
SCALE
  5
56
102
{ACAD_REACTORS
330
47
102
}
330
47
100
AcDbScale
 70
     0
300
8:1
140
8.0
141
1.0
290
     0
  0
SCALE
  5
57
102
{ACAD_REACTORS
330
47
102
}
330
47
100
AcDbScale
 70
     0
300
10:1
140
10.0
141
1.0
290
     0
  0
SCALE
  5
58
102
{ACAD_REACTORS
330
47
102
}
330
47
100
AcDbScale
 70
     0
300
100:1
140
100.0
141
1.0
290
     0
  0
SCALE
  5
59
102
{ACAD_REACTORS
330
47
102
}
330
47
100
AcDbScale
 70
     0
300
1/128" = 1'-0"
140
0.0078125
141
12.0
290
     0
  0
SCALE
  5
5A
102
{ACAD_REACTORS
330
47
102
}
330
47
100
AcDbScale
 70
     0
300
1/64" = 1'-0"
140
0.015625
141
12.0
290
     0
  0
SCALE
  5
5B
102
{ACAD_REACTORS
330
47
102
}
330
47
100
AcDbScale
 70
     0
300
1/32" = 1'-0"
140
0.03125
141
12.0
290
     0
  0
SCALE
  5
5C
102
{ACAD_REACTORS
330
47
102
}
330
47
100
AcDbScale
 70
     0
300
1/16" = 1'-0"
140
0.0625
141
12.0
290
     0
  0
SCALE
  5
5D
102
{ACAD_REACTORS
330
47
102
}
330
47
100
AcDbScale
 70
     0
300
3/32" = 1'-0"
140
0.09375
141
12.0
290
     0
  0
SCALE
  5
5E
102
{ACAD_REACTORS
330
47
102
}
330
47
100
AcDbScale
 70
     0
300
1/8" = 1'-0"
140
0.125
141
12.0
290
     0
  0
SCALE
  5
5F
102
{ACAD_REACTORS
330
47
102
}
330
47
100
AcDbScale
 70
     0
300
3/16" = 1'-0"
140
0.1875
141
12.0
290
     0
  0
SCALE
  5
60
102
{ACAD_REACTORS
330
47
102
}
330
47
100
AcDbScale
 70
     0
300
1/4" = 1'-0"
140
0.25
141
12.0
290
     0
  0
SCALE
  5
61
102
{ACAD_REACTORS
330
47
102
}
330
47
100
AcDbScale
 70
     0
300
3/8" = 1'-0"
140
0.375
141
12.0
290
     0
  0
SCALE
  5
62
102
{ACAD_REACTORS
330
47
102
}
330
47
100
AcDbScale
 70
     0
300
1/2" = 1'-0"
140
0.5
141
12.0
290
     0
  0
SCALE
  5
63
102
{ACAD_REACTORS
330
47
102
}
330
47
100
AcDbScale
 70
     0
300
3/4" = 1'-0"
140
0.75
141
12.0
290
     0
  0
SCALE
  5
64
102
{ACAD_REACTORS
330
47
102
}
330
47
100
AcDbScale
 70
     0
300
1" = 1'-0"
140
1.0
141
12.0
290
     0
  0
SCALE
  5
65
102
{ACAD_REACTORS
330
47
102
}
330
47
100
AcDbScale
 70
     0
300
1-1/2" = 1'-0"
140
1.5
141
12.0
290
     0
  0
SCALE
  5
66
102
{ACAD_REACTORS
330
47
102
}
330
47
100
AcDbScale
 70
     0
300
3" = 1'-0"
140
3.0
141
12.0
290
     0
  0
SCALE
  5
67
102
{ACAD_REACTORS
330
47
102
}
330
47
100
AcDbScale
 70
     0
300
6" = 1'-0"
140
6.0
141
12.0
290
     0
  0
SCALE
  5
68
102
{ACAD_REACTORS
330
47
102
}
330
47
100
AcDbScale
 70
     0
300
1'-0" = 1'-0"
140
12.0
141
12.0
290
     0
  0
ENDSEC
  0
EOF
