  0
SECTION
  2
HEADER
  9
$ACADVER
  1
AC1015
  9
$ACADMAINTVER
 70
     6
  9
$DWGCODEPAGE
  3
DOS932
  9
$INSBASE
 10
0.0
 20
0.0
 30
0.0
  9
$EXTMIN
 10
0.0
 20
0.0
 30
0.0
  9
$EXTMAX
 10
210.0
 20
297.0
 30
0.0
  9
$LIMMIN
 10
0.0
 20
0.0
  9
$LIMMAX
 10
210.0
 20
297.0
  9
$ORTHOMODE
 70
     0
  9
$REGENMODE
 70
     1
  9
$FILLMODE
 70
     1
  9
$QTEXTMODE
 70
     0
  9
$MIRRTEXT
 70
     1
  9
$LTSCALE
 40
1.0
  9
$ATTMODE
 70
     1
  9
$TEXTSIZE
 40
3.5
  9
$TRACEWID
 40
1.0
  9
$TEXTSTYLE
  7
Standard
  9
$CLAYER
  8
0
  9
$CELTYPE
  6
ByLayer
  9
$CECOLOR
 62
   256
  9
$CELTSCALE
 40
1.0
  9
$DISPSILH
 70
     0
  9
$DIMSCALE
 40
1.0
  9
$DIMASZ
 40
1.5
  9
$DIMEXO
 40
1.0
  9
$DIMDLI
 40
3.75
  9
$DIMRND
 40
0.0
  9
$DIMDLE
 40
0.0
  9
$DIMEXE
 40
1.0
  9
$DIMTP
 40
0.0
  9
$DIMTM
 40
0.0
  9
$DIMTXT
 40
3.5
  9
$DIMCEN
 40
2.5
  9
$DIMTSZ
 40
0.0
  9
$DIMTOL
 70
     0
  9
$DIMLIM
 70
     0
  9
$DIMTIH
 70
     1
  9
$DIMTOH
 70
     1
  9
$DIMSE1
 70
     0
  9
$DIMSE2
 70
     0
  9
$DIMTAD
 70
     1
  9
$DIMZIN
 70
     0
  9
$DIMBLK
  1

  9
$DIMASO
 70
     1
  9
$DIMSHO
 70
     1
  9
$DIMPOST
  1

  9
$DIMAPOST
  1

  9
$DIMALT
 70
     0
  9
$DIMALTD
 70
     3
  9
$DIMALTF
 40
0.0393700787
  9
$DIMLFAC
 40
5.0
  9
$DIMTOFL
 70
     1
  9
$DIMTVP
 40
0.0
  9
$DIMTIX
 70
     0
  9
$DIMSOXD
 70
     0
  9
$DIMSAH
 70
     0
  9
$DIMBLK1
  1

  9
$DIMBLK2
  1

  9
$DIMSTYLE
  2
ISO-25
  9
$DIMCLRD
 70
     0
  9
$DIMCLRE
 70
     0
  9
$DIMCLRT
 70
     0
  9
$DIMTFAC
 40
1.0
  9
$DIMGAP
 40
1.5
  9
$DIMJUST
 70
     0
  9
$DIMSD1
 70
     0
  9
$DIMSD2
 70
     0
  9
$DIMTOLJ
 70
     0
  9
$DIMTZIN
 70
     0
  9
$DIMALTZ
 70
     0
  9
$DIMALTTZ
 70
     0
  9
$DIMUPT
 70
     0
  9
$DIMDEC
 70
     1
  9
$DIMTDEC
 70
     1
  9
$DIMALTU
 70
     2
  9
$DIMALTTD
 70
     3
  9
$DIMTXSTY
  7
Standard
  9
$DIMAUNIT
 70
     0
  9
$DIMADEC
 70
     2
  9
$DIMALTRND
 40
0.0
  9
$DIMAZIN
 70
     0
  9
$DIMDSEP
 70
    44
  9
$DIMATFIT
 70
     3
  9
$DIMFRAC
 70
     0
  9
$DIMLDRBLK
  1

  9
$DIMLUNIT
 70
     2
  9
$DIMLWD
 70
    -2
  9
$DIMLWE
 70
    -2
  9
$DIMTMOVE
 70
     0
  9
$LUNITS
 70
     2
  9
$LUPREC
 70
     4
  9
$SKETCHINC
 40
1.0
  9
$FILLETRAD
 40
10.0
  9
$AUNITS
 70
     0
  9
$AUPREC
 70
     2
  9
$MENU
  1
.
  9
$ELEVATION
 40
0.0
  9
$PELEVATION
 40
0.0
  9
$THICKNESS
 40
0.0
  9
$LIMCHECK
 70
     0
  9
$CHAMFERA
 40
0.0
  9
$CHAMFERB
 40
0.0
  9
$CHAMFERC
 40
0.0
  9
$CHAMFERD
 40
0.0
  9
$SKPOLY
 70
     0
  9
$TDCREATE
 40
2460018.60014963
  9
$TDUCREATE
 40
2460018.22514963
  9
$TDUPDATE
 40
2460018.600149965
  9
$TDUUPDATE
 40
2460018.225149965
  9
$TDINDWG
 40
0.0000000116
  9
$TDUSRTIMER
 40
0.0000000116
  9
$USRTIMER
 70
     1
  9
$ANGBASE
 50
0.0
  9
$ANGDIR
 70
     0
  9
$PDMODE
 70
     0
  9
$PDSIZE
 40
-1.0
  9
$PLINEWID
 40
0.0
  9
$SPLFRAME
 70
     0
  9
$SPLINETYPE
 70
     6
  9
$SPLINESEGS
 70
     8
  9
$HANDSEED
  5
1D7
  9
$SURFTAB1
 70
     6
  9
$SURFTAB2
 70
     6
  9
$SURFTYPE
 70
     6
  9
$SURFU
 70
     6
  9
$SURFV
 70
     6
  9
$UCSBASE
  2

  9
$UCSNAME
  2

  9
$UCSORG
 10
0.0
 20
0.0
 30
0.0
  9
$UCSXDIR
 10
1.0
 20
0.0
 30
0.0
  9
$UCSYDIR
 10
0.0
 20
1.0
 30
0.0
  9
$UCSORTHOREF
  2

  9
$UCSORTHOVIEW
 70
     0
  9
$UCSORGTOP
 10
0.0
 20
0.0
 30
0.0
  9
$UCSORGBOTTOM
 10
0.0
 20
0.0
 30
0.0
  9
$UCSORGLEFT
 10
0.0
 20
0.0
 30
0.0
  9
$UCSORGRIGHT
 10
0.0
 20
0.0
 30
0.0
  9
$UCSORGFRONT
 10
0.0
 20
0.0
 30
0.0
  9
$UCSORGBACK
 10
0.0
 20
0.0
 30
0.0
  9
$PUCSBASE
  2

  9
$PUCSNAME
  2

  9
$PUCSORG
 10
0.0
 20
0.0
 30
0.0
  9
$PUCSXDIR
 10
1.0
 20
0.0
 30
0.0
  9
$PUCSYDIR
 10
0.0
 20
1.0
 30
0.0
  9
$PUCSORTHOREF
  2

  9
$PUCSORTHOVIEW
 70
     0
  9
$PUCSORGTOP
 10
0.0
 20
0.0
 30
0.0
  9
$PUCSORGBOTTOM
 10
0.0
 20
0.0
 30
0.0
  9
$PUCSORGLEFT
 10
0.0
 20
0.0
 30
0.0
  9
$PUCSORGRIGHT
 10
0.0
 20
0.0
 30
0.0
  9
$PUCSORGFRONT
 10
0.0
 20
0.0
 30
0.0
  9
$PUCSORGBACK
 10
0.0
 20
0.0
 30
0.0
  9
$USERI1
 70
     0
  9
$USERI2
 70
     0
  9
$USERI3
 70
     0
  9
$USERI4
 70
     0
  9
$USERI5
 70
     0
  9
$USERR1
 40
0.0
  9
$USERR2
 40
0.0
  9
$USERR3
 40
0.0
  9
$USERR4
 40
0.0
  9
$USERR5
 40
0.0
  9
$WORLDVIEW
 70
     1
  9
$SHADEDGE
 70
     3
  9
$SHADEDIF
 70
    70
  9
$TILEMODE
 70
     1
  9
$MAXACTVP
 70
    64
  9
$PINSBASE
 10
0.0
 20
0.0
 30
0.0
  9
$PLIMCHECK
 70
     0
  9
$PEXTMIN
 10
1.0000000000E+20
 20
1.0000000000E+20
 30
1.0000000000E+20
  9
$PEXTMAX
 10
-1.0000000000E+20
 20
-1.0000000000E+20
 30
-1.0000000000E+20
  9
$PLIMMIN
 10
0.0
 20
0.0
  9
$PLIMMAX
 10
420.0
 20
297.0
  9
$UNITMODE
 70
     0
  9
$VISRETAIN
 70
     1
  9
$PLINEGEN
 70
     0
  9
$PSLTSCALE
 70
     1
  9
$TREEDEPTH
 70
  3020
  9
$CMLSTYLE
  2
Standard
  9
$CMLJUST
 70
     0
  9
$CMLSCALE
 40
20.0
  9
$PROXYGRAPHICS
 70
     1
  9
$MEASUREMENT
 70
     1
  9
$CELWEIGHT
370
    -1
  9
$ENDCAPS
280
     0
  9
$JOINSTYLE
280
     0
  9
$LWDISPLAY
290
     1
  9
$INSUNITS
 70
     4
  9
$HYPERLINKBASE
  1

  9
$STYLESHEET
  1

  9
$XEDIT
290
     1
  9
$CEPSNTYPE
380
     0
  9
$PSTYLEMODE
290
     1
  9
$FINGERPRINTGUID
  2
{8eb313cc-f141-4c87-97d2-1b149d577166}
  9
$VERSIONGUID
  2
{FAEB1C32-E019-11D5-929B-00C0DF256EC4}
  9
$EXTNAMES
290
     1
  9
$PSVPSCALE
 40
0.0
  9
$OLESTARTUP
290
     0
  0
ENDSEC
  0
SECTION
  2
CLASSES
  0
CLASS
  1
ACDBDICTIONARYWDFLT
  2
AcDbDictionaryWithDefault
  3
ObjectDBX Classes
 90
        0
280
     0
281
     0
  0
CLASS
  1
VISUALSTYLE
  2
AcDbVisualStyle
  3
ObjectDBX Classes
 90
     4095
280
     0
281
     0
  0
CLASS
  1
MATERIAL
  2
AcDbMaterial
  3
ObjectDBX Classes
 90
     1153
280
     0
281
     0
  0
CLASS
  1
SCALE
  2
AcDbScale
  3
ObjectDBX Classes
 90
     1153
280
     0
281
     0
  0
CLASS
  1
TABLESTYLE
  2
AcDbTableStyle
  3
ObjectDBX Classes
 90
     4095
280
     0
281
     0
  0
CLASS
  1
MLEADERSTYLE
  2
AcDbMLeaderStyle
  3
ACDB_MLEADERSTYLE_CLASS
 90
     4095
280
     0
281
     0
  0
CLASS
  1
SUN
  2
AcDbSun
  3
SCENEOE
 90
     1153
280
     0
281
     0
  0
CLASS
  1
ACDBPLACEHOLDER
  2
AcDbPlaceHolder
  3
ObjectDBX Classes
 90
        0
280
     0
281
     0
  0
CLASS
  1
LAYOUT
  2
AcDbLayout
  3
ObjectDBX Classes
 90
        0
280
     0
281
     0
  0
ENDSEC
  0
SECTION
  2
TABLES
  0
TABLE
  2
VPORT
  5
8
330
0
100
AcDbSymbolTable
 70
     1
  0
VPORT
  5
29
330
8
100
AcDbSymbolTableRecord
100
AcDbViewportTableRecord
  2
*Active
 70
     0
 10
0.0
 20
0.0
 11
1.0
 21
1.0
 12
105.0
 22
148.5
 13
0.0
 23
0.0
 14
10.0
 24
10.0
 15
10.0
 25
10.0
 16
0.0
 26
0.0
 36
1.0
 17
0.0
 27
0.0
 37
0.0
 40
297.0
 41
0.7070707071
 42
50.0
 43
0.0
 44
0.0
 50
0.0
 51
0.0
 71
     0
 72
  2000
 73
     1
 74
     3
 75
     0
 76
     0
 77
     0
 78
     0
281
     0
 65
     1
110
0.0
120
0.0
130
0.0
111
1.0
121
0.0
131
0.0
112
0.0
122
1.0
132
0.0
 79
     0
146
0.0
  0
ENDTAB
  0
TABLE
  2
LTYPE
  5
5
330
0
100
AcDbSymbolTable
 70
     6
  0
LTYPE
  5
14
330
5
100
AcDbSymbolTableRecord
100
AcDbLinetypeTableRecord
  2
ByBlock
 70
     0
  3

 72
    65
 73
     0
 40
0.0
  0
LTYPE
  5
15
330
5
100
AcDbSymbolTableRecord
100
AcDbLinetypeTableRecord
  2
ByLayer
 70
     0
  3

 72
    65
 73
     0
 40
0.0
  0
LTYPE
  5
16
330
5
100
AcDbSymbolTableRecord
100
AcDbLinetypeTableRecord
  2
Continuous
 70
     0
  3
Solid line
 72
    65
 73
     0
 40
0.0
  0
LTYPE
  5
6E
330
5
100
AcDbSymbolTableRecord
100
AcDbLinetypeTableRecord
  2
HIDDEN
 70
     0
  3
Hidden __ __ __ __ __ __ __ __ __ __ __ __ __ __
 72
    65
 73
     2
 40
1.905
 49
1.27
 74
     0
 49
-0.635
 74
     0
  0
LTYPE
  5
6F
330
5
100
AcDbSymbolTableRecord
100
AcDbLinetypeTableRecord
  2
PHANTOM
 70
     0
  3
Phantom ______  __  __  ______  __  __  ______
 72
    65
 73
     6
 40
12.7
 49
6.35
 74
     0
 49
-1.27
 74
     0
 49
1.27
 74
     0
 49
-1.27
 74
     0
 49
1.27
 74
     0
 49
-1.27
 74
     0
  0
LTYPE
  5
70
330
5
100
AcDbSymbolTableRecord
100
AcDbLinetypeTableRecord
  2
CENTER
 70
     0
  3
Center ____ _ ____ _ ____ _ ____ _ ____ _ ____
 72
    65
 73
     4
 40
10.16
 49
6.35
 74
     0
 49
-1.27
 74
     0
 49
1.27
 74
     0
 49
-1.27
 74
     0
  0
LTYPE
  5
71
330
5
100
AcDbSymbolTableRecord
100
AcDbLinetypeTableRecord
  2
CENTERX2
 70
     0
  3
Center (2x) ________  __  ________  __  _____
 72
    65
 73
     4
 40
20.32
 49
12.7
 74
     0
 49
-2.54
 74
     0
 49
2.54
 74
     0
 49
-2.54
 74
     0
  0
LTYPE
  5
72
330
5
100
AcDbSymbolTableRecord
100
AcDbLinetypeTableRecord
  2
DOT2
 70
     0
  3
Dot (.5x) ........................................
 72
    65
 73
     2
 40
0.635
 49
0.0
 74
     0
 49
-0.635
 74
     0
  0
ENDTAB
  0
TABLE
  2
LAYER
  5
2
330
0
100
AcDbSymbolTable
 70
     1
  0
LAYER
  5
10
330
2
100
AcDbSymbolTableRecord
100
AcDbLayerTableRecord
  2
0
 70
     0
 62
     7
  6
Continuous
370
    -3
390
F
  0
ENDTAB
  0
TABLE
  2
STYLE
  5
3
330
0
100
AcDbSymbolTable
 70
     2
  0
STYLE
  5
11
330
3
100
AcDbSymbolTableRecord
100
AcDbTextStyleTableRecord
  2
Standard
 70
     0
 40
0.0
 41
1.0
 50
0.0
 71
     0
 42
3.5
  3
txt
  4
bigfont
  0
STYLE
  5
76
330
3
100
AcDbSymbolTableRecord
100
AcDbTextStyleTableRecord
  2
SLDTEXTSTYLE0
 70
     0
 40
0.0
 41
0.7
 50
0.0
 71
     0
 42
3.5
  3
TXT
  4
bigfont
  0
ENDTAB
  0
TABLE
  2
VIEW
  5
6
330
0
100
AcDbSymbolTable
 70
     0
  0
ENDTAB
  0
TABLE
  2
UCS
  5
7
330
0
100
AcDbSymbolTable
 70
     0
  0
ENDTAB
  0
TABLE
  2
APPID
  5
9
330
0
100
AcDbSymbolTable
 70
     1
  0
APPID
  5
12
330
9
100
AcDbSymbolTableRecord
100
AcDbRegAppTableRecord
  2
ACAD
 70
     0
  0
ENDTAB
  0
TABLE
  2
DIMSTYLE
  5
A
330
0
100
AcDbSymbolTable
 70
     1
100
AcDbDimStyleTable
  0
DIMSTYLE
105
27
330
A
100
AcDbSymbolTableRecord
100
AcDbDimStyleTableRecord
  2
ISO-25
 70
     0
 41
2.5
 42
0.625
 43
3.75
 44
1.25
 73
     0
 74
     0
 77
     1
 78
     8
140
2.5
141
2.5
143
0.0393700787
147
0.625
171
     3
172
     1
178
     0
271
     2
272
     2
274
     3
278
    44
283
     0
284
     8
340
11
  0
ENDTAB
  0
TABLE
  2
BLOCK_RECORD
  5
1
330
0
100
AcDbSymbolTable
 70
     2
  0
BLOCK_RECORD
  5
1F
330
1
100
AcDbSymbolTableRecord
100
AcDbBlockTableRecord
  2
*Model_Space
340
22
  0
BLOCK_RECORD
  5
1B
330
1
100
AcDbSymbolTableRecord
100
AcDbBlockTableRecord
  2
*Paper_Space
340
1E
  0
BLOCK_RECORD
  5
23
330
1
100
AcDbSymbolTableRecord
100
AcDbBlockTableRecord
  2
*Paper_Space0
340
26
  0
BLOCK_RECORD
  5
73
330
1
100
AcDbSymbolTableRecord
100
AcDbBlockTableRecord
  2
SW_NOTE_0
340
0
102
{BLKREFS
331
7B
102
}
  0
ENDTAB
  0
ENDSEC
  0
SECTION
  2
BLOCKS
  0
BLOCK
  5
20
330
1F
100
AcDbEntity
  8
0
100
AcDbBlockBegin
  2
*Model_Space
 70
     0
 10
0.0
 20
0.0
 30
0.0
  3
*Model_Space
  1

  0
ENDBLK
  5
21
330
1F
100
AcDbEntity
  8
0
100
AcDbBlockEnd
  0
BLOCK
  5
1C
330
1B
100
AcDbEntity
 67
     1
  8
0
100
AcDbBlockBegin
  2
*Paper_Space
 70
     0
 10
0.0
 20
0.0
 30
0.0
  3
*Paper_Space
  1

  0
ENDBLK
  5
1D
330
1B
100
AcDbEntity
 67
     1
  8
0
100
AcDbBlockEnd
  0
BLOCK
  5
24
330
23
100
AcDbEntity
  8
0
100
AcDbBlockBegin
  2
*Paper_Space0
 70
     0
 10
0.0
 20
0.0
 30
0.0
  3
*Paper_Space0
  1

  0
ENDBLK
  5
25
330
23
100
AcDbEntity
  8
0
100
AcDbBlockEnd
  0
BLOCK
  5
74
330
73
100
AcDbEntity
  8
0
100
AcDbBlockBegin
  2
SW_NOTE_0
 70
     0
 10
0.0
 20
0.0
 30
0.0
  3
SW_NOTE_0
  1

  0
MTEXT
  5
77
330
73
100
AcDbEntity
  8
0
  6
Continuous
 62
     0
370
     0
100
AcDbMText
 10
0.0
 20
4.5117370892
 30
0.0
 40
3.5
 41
0.0
 71
     1
 72
     1
  1
HFE-D73S/C/K
  7
SLDTEXTSTYLE0
 73
     1
 44
1.0
  0
MTEXT
  5
78
330
73
100
AcDbEntity
  8
0
  6
Continuous
 62
     0
370
     0
100
AcDbMText
 10
0.0
 20
0.0117372829
 30
0.0
 40
3.5
 41
0.0
 71
     1
 72
     1
  1
HFE-D74S/C/K
  7
SLDTEXTSTYLE0
 73
     1
 44
1.0
  0
MTEXT
  5
79
330
73
100
AcDbEntity
  8
0
  6
Continuous
 62
     0
370
     0
100
AcDbMText
 10
0.0
 20
-4.4882625234
 30
0.0
 40
3.5
 41
0.0
 71
     1
 72
     1
  1
HFE-D91S/C/K
  7
SLDTEXTSTYLE0
 73
     1
 44
1.0
  0
MTEXT
  5
7A
330
73
100
AcDbEntity
  8
0
  6
Continuous
 62
     0
370
     0
100
AcDbMText
 10
0.0
 20
-8.9882623297
 30
0.0
 40
3.5
 41
0.0
 71
     1
 72
     1
  1
HFE-D92S/C/K
  7
SLDTEXTSTYLE0
 73
     1
 44
1.0
  0
ENDBLK
  5
75
330
73
100
AcDbEntity
  8
0
100
AcDbBlockEnd
  0
ENDSEC
  0
SECTION
  2
ENTITIES
  0
INSERT
  5
7B
330
1F
100
AcDbEntity
  8
0
  6
Continuous
 62
     7
370
     0
100
AcDbBlockReference
  2
SW_NOTE_0
 10
141.0036734694
 20
110.7238775119
 30
0.0
  0
LINE
  5
7C
330
1F
100
AcDbEntity
  8
0
  6
Continuous
 62
     7
370
    25
100
AcDbLine
 10
126.0694781892
 20
135.3007438991
 30
0.0
 11
125.8840177371
 21
135.4732596179
 31
0.0
  0
LINE
  5
7D
330
1F
100
AcDbEntity
  8
0
  6
Continuous
 62
     7
370
    25
100
AcDbLine
 10
126.0101765801
 20
135.5722738334
 30
0.0
 11
125.7888542252
 21
135.5510218852
 31
0.0
  0
SPLINE
  5
7E
330
1F
100
AcDbEntity
  8
0
  6
Continuous
 62
     7
370
    25
100
AcDbSpline
210
0.0
220
0.0
230
1.0
 70
     8
 71
     3
 72
    17
 73
    13
 74
     0
 42
0.00000001
 43
0.00000001
 40
0.0
 40
0.0
 40
0.0
 40
0.0
 40
0.0319264636328864
 40
0.1391424497476898
 40
0.2554797642383345
 40
0.3805930507604919
 40
0.5109641253785939
 40
0.6337224985827961
 40
0.7534343268548666
 40
0.8745497916756905
 40
0.9983663712944117
 40
1.0
 40
1.0
 40
1.0
 40
1.0
 10
128.9935197007769
 20
132.7699448609132
 30
0.0
 10
128.9816460978664
 20
132.8190685093263
 30
0.0
 10
128.9298983623425
 20
133.0331600184687
 30
0.0
 10
128.8069891531897
 20
133.3987376335223
 30
0.0
 10
128.614437732089
 20
133.8705117408665
 30
0.0
 10
128.3612437422385
 20
134.332595809905
 30
0.0
 10
128.0365318677871
 20
134.7638986670492
 30
0.0
 10
127.6289483742715
 20
135.1339594149573
 30
0.0
 10
127.1461599124538
 20
135.4166087926476
 30
0.0
 10
126.6011969812227
 20
135.5654199956728
 30
0.0
 10
126.2038818045214
 20
135.6158332829613
 30
0.0
 10
126.0126331781466
 20
135.5718418885815
 30
0.0
 10
126.0101427140005
 20
135.5712690270007
 30
0.0
  0
LINE
  5
7F
330
1F
100
AcDbEntity
  8
0
  6
Continuous
 62
     7
370
    25
100
AcDbLine
 10
125.063895373
 20
121.6867590136
 30
0.0
 11
125.769685092
 21
121.7545307785
 31
0.0
  0
LINE
  5
80
330
1F
100
AcDbEntity
  8
0
  6
Continuous
 62
     7
370
    25
100
AcDbLine
 10
130.9539908417
 20
123.2177323009
 30
0.0
 11
131.1036529433
 21
123.4229611191
 31
0.0
  0
LINE
  5
81
330
1F
100
AcDbEntity
  8
0
  6
Continuous
 62
     7
370
    25
100
AcDbLine
 10
130.2961594954
 20
131.8323713663
 30
0.0
 11
129.7801452355
 21
132.3123689613
 31
0.0
  0
SPLINE
  5
82
330
1F
100
AcDbEntity
  8
0
  6
Continuous
 62
     7
370
    25
100
AcDbSpline
210
0.0
220
0.0
230
1.0
 70
     8
 71
     3
 72
     9
 73
     5
 74
     0
 42
0.00000001
 43
0.00000001
 40
0.0
 40
0.0
 40
0.0
 40
0.0
 40
0.477010507779413
 40
0.9999999999999999
 40
0.9999999999999999
 40
0.9999999999999999
 40
0.9999999999999999
 10
125.3037928522487
 20
124.026444817082
 30
0.0
 10
125.3203835227332
 20
124.0769581737694
 30
0.0
 10
125.3551640363989
 20
124.1828538634105
 30
0.0
 10
125.3901106331912
 20
124.289233064038
 30
0.0
 10
125.4083873361025
 20
124.344868268157
 30
0.0
  0
SPLINE
  5
83
330
1F
100
AcDbEntity
  8
0
  6
Continuous
 62
     7
370
    25
100
AcDbSpline
210
0.0
220
0.0
230
1.0
 70
     8
 71
     3
 72
     9
 73
     5
 74
     0
 42
0.00000001
 43
0.00000001
 40
0.0
 40
0.0
 40
0.0
 40
0.0
 40
0.4999899840041868
 40
0.9999999999999999
 40
0.9999999999999999
 40
0.9999999999999999
 40
0.9999999999999999
 10
124.841518393825
 20
129.6485257682614
 30
0.0
 10
124.8136034127294
 20
129.6985452992778
 30
0.0
 10
124.7577723321306
 20
129.7985863653322
 30
0.0
 10
124.7017272241403
 20
129.8990390843507
 30
0.0
 10
124.6737041087975
 20
129.949266449994
 30
0.0
  0
LINE
  5
84
330
1F
100
AcDbEntity
  8
0
  6
Continuous
 62
     7
370
    25
100
AcDbLine
 10
123.9002165088
 20
122.9428100603
 30
0.0
 11
123.8712923179
 21
123.0830680305
 31
0.0
  0
LINE
  5
85
330
1F
100
AcDbEntity
  8
0
  6
Continuous
 62
     7
370
    25
100
AcDbLine
 10
124.2497159215
 20
122.9759251407
 30
0.0
 11
124.2378861314
 21
123.0332896612
 31
0.0
  0
LINE
  5
86
330
1F
100
AcDbEntity
  8
0
  6
Continuous
 62
     7
370
    25
100
AcDbLine
 10
123.4306672438
 20
122.969566052
 30
0.0
 11
123.4541591762
 21
122.8556499617
 31
0.0
  0
LINE
  5
87
330
1F
100
AcDbEntity
  8
0
  6
Continuous
 62
     7
370
    25
100
AcDbLine
 10
123.4590787495
 20
122.8317941737
 30
0.0
 11
123.4595914348
 21
122.8293080818
 31
0.0
  0
LINE
  5
88
330
1F
100
AcDbEntity
  8
0
  6
Continuous
 62
     7
370
    25
100
AcDbLine
 10
130.8599903066
 20
123.1223397698
 30
0.0
 11
131.0971045153
 21
123.1451080929
 31
0.0
  0
LINE
  5
89
330
1F
100
AcDbEntity
  8
0
  6
Continuous
 62
     7
370
    25
100
AcDbLine
 10
130.2368578864
 20
132.1039013006
 30
0.0
 11
130.0260196282
 21
132.0836560626
 31
0.0
  0
SPLINE
  5
8A
330
1F
100
AcDbEntity
  8
0
  6
Continuous
 62
     7
370
    25
100
AcDbSpline
210
0.0
220
0.0
230
1.0
 70
     8
 71
     3
 72
    18
 73
    14
 74
     0
 42
0.00000001
 43
0.00000001
 40
0.0
 40
0.0
 40
0.0
 40
0.0
 40
0.1222103665320678
 40
0.1713748963207296
 40
0.2525650130484585
 40
0.3356823660503168
 40
0.425870872318898
 40
0.5228628002758894
 40
0.6239307382106438
 40
0.719097060037148
 40
0.8119016001953022
 40
0.9057942854961416
 40
1.0
 40
1.0
 40
1.0
 40
1.0
 10
133.4690085593519
 20
127.8935626527998
 30
0.0
 10
133.4382536698286
 20
128.153305492116
 30
0.0
 10
133.3951262645768
 20
128.5175413865086
 30
0.0
 10
133.2915872592436
 20
129.0340331574741
 30
0.0
 10
133.1872287782173
 20
129.4564532170136
 30
0.0
 10
133.0349632994516
 20
129.9315990815685
 30
0.0
 10
132.8407344714012
 20
130.4017466127245
 30
0.0
 10
132.5880225395217
 20
130.8644286864818
 30
0.0
 10
132.2632412737242
 20
131.2951239938424
 30
0.0
 10
131.8554411057678
 20
131.6668867300706
 30
0.0
 10
131.3735548861207
 20
131.943510253077
 30
0.0
 10
130.8286000860903
 20
132.1140142458976
 30
0.0
 10
130.446458811145
 20
132.1074859289973
 30
0.0
 10
130.2550701981371
 20
132.1042163384068
 30
0.0
  0
SPLINE
  5
8B
330
1F
100
AcDbEntity
  8
0
  6
Continuous
 62
     7
370
    25
100
AcDbSpline
210
0.0
220
0.0
230
1.0
 70
     8
 71
     3
 72
    18
 73
    14
 74
     0
 42
0.00000001
 43
0.00000001
 40
0.0
 40
0.0
 40
0.0
 40
0.0
 40
0.0015300749001399
 40
0.0997631323064287
 40
0.2025061205144208
 40
0.2992819491516414
 40
0.4022023341875944
 40
0.5173942918736482
 40
0.6374806881751711
 40
0.7339770006067114
 40
0.8079888229811676
 40
0.8774793207509558
 40
1.0
 40
1.0
 40
1.0
 40
1.0
 10
131.0803581217828
 20
123.144740403771
 30
0.0
 10
131.0834606350332
 20
123.1446233394946
 30
0.0
 10
131.2857490588509
 20
123.1369905766219
 30
0.0
 10
131.6918705771493
 20
123.2674479311045
 30
0.0
 10
132.2254237825331
 20
123.5398246900154
 30
0.0
 10
132.6655878361708
 20
123.9502168930822
 30
0.0
 10
133.0050902310109
 20
124.4437632210438
 30
0.0
 10
133.2495321205948
 20
125.0157764468816
 30
0.0
 10
133.4002146933465
 20
125.6138505185966
 30
0.0
 10
133.4781943658988
 20
126.1754984930556
 30
0.0
 10
133.5098475526397
 20
126.6621310864199
 30
0.0
 10
133.5183638352314
 20
127.2185072553709
 30
0.0
 10
133.4882340902632
 20
127.6306059945932
 30
0.0
 10
133.4690085593519
 20
127.8935626527998
 30
0.0
  0
LINE
  5
8C
330
1F
100
AcDbEntity
  8
0
  6
Continuous
 62
     7
370
    25
100
AcDbLine
 10
123.5146579065
 20
122.5890226207
 30
0.0
 11
123.4998126806
 21
122.6610094658
 31
0.0
  0
LINE
  5
8D
330
1F
100
AcDbEntity
  8
0
  6
Continuous
 62
     7
370
    25
100
AcDbLine
 10
123.9950967766
 20
122.6529433077
 30
0.0
 11
123.9809274931
 21
122.721652401
 31
0.0
  0
LINE
  5
8E
330
1F
100
AcDbEntity
  8
0
  6
Continuous
 62
     7
370
    25
100
AcDbLine
 10
123.6719759403
 20
122.2371043985
 30
0.0
 11
123.6523298738
 21
122.3323712776
 31
0.0
  0
SPLINE
  5
8F
330
1F
100
AcDbEntity
  8
0
  6
Continuous
 62
     7
370
    25
100
AcDbSpline
210
0.0
220
0.0
230
1.0
 70
     8
 71
     3
 72
     9
 73
     5
 74
     0
 42
0.00000001
 43
0.00000001
 40
0.0
 40
0.0
 40
0.0
 40
0.0
 40
0.5030015694034804
 40
1.0
 40
1.0
 40
1.0
 40
1.0
 10
75.27687466053546
 20
111.8418880475786
 30
0.0
 10
75.32085076524378
 20
111.8129067408276
 30
0.0
 10
75.40827813601817
 20
111.755290008567
 30
0.0
 10
75.5012286291179
 20
111.7585252758733
 30
0.0
 10
75.54742487831165
 20
111.7601331986471
 30
0.0
  0
LINE
  5
90
330
1F
100
AcDbEntity
  8
0
  6
Continuous
 62
     7
370
    25
100
AcDbLine
 10
75.5194641201
 20
111.755525038
 30
0.0
 11
76.4746115216
 21
111.8472407762
 31
0.0
  0
LINE
  5
91
330
1F
100
AcDbEntity
  8
0
  6
Continuous
 62
     7
370
    25
100
AcDbLine
 10
65.8088741455
 20
119.6112345647
 30
0.0
 11
75.2766402716
 21
111.8420800911
 31
0.0
  0
SPLINE
  5
92
330
1F
100
AcDbEntity
  8
0
  6
Continuous
 62
     7
370
    25
100
AcDbSpline
210
0.0
220
0.0
230
1.0
 70
     8
 71
     3
 72
    10
 73
     6
 74
     0
 42
0.00000001
 43
0.00000001
 40
0.0
 40
0.0
 40
0.0
 40
0.0
 40
0.1503531963953973
 40
0.5557031571192617
 40
0.9999999999999999
 40
0.9999999999999999
 40
0.9999999999999999
 40
0.9999999999999999
 10
124.8082581684766
 20
132.9177804987502
 30
0.0
 10
124.8102051779519
 20
132.9376069765007
 30
0.0
 10
124.8174012957486
 20
133.0108853406767
 30
0.0
 10
124.7514631386055
 20
133.135299400586
 30
0.0
 10
124.6686763399614
 20
133.1846643929032
 30
0.0
 10
124.625385512392
 20
133.2104783077468
 30
0.0
  0
LINE
  5
93
330
1F
100
AcDbEntity
  8
0
  6
Continuous
 62
     7
370
    25
100
AcDbLine
 10
124.8069828541
 20
131.9600162866
 30
0.0
 11
124.8161690335
 21
132.9164916673
 31
0.0
  0
LINE
  5
94
330
1F
100
AcDbEntity
  8
0
  6
Continuous
 62
     7
370
    25
100
AcDbLine
 10
124.68059294
 20
133.1871282132
 30
0.0
 11
115.2128268139
 21
140.9562826868
 31
0.0
  0
SPLINE
  5
95
330
1F
100
AcDbEntity
  8
0
  6
Continuous
 62
     7
370
    25
100
AcDbSpline
210
0.0
220
0.0
230
1.0
 70
     8
 71
     3
 72
    11
 73
     7
 74
     0
 42
0.00000001
 43
0.00000001
 40
0.0
 40
0.0
 40
0.0
 40
0.0
 40
0.4767774502005068
 40
0.6708556235671577
 40
0.9923332447694821
 40
1.0
 40
1.0
 40
1.0
 40
1.0
 10
66.2315264161571
 20
136.0865482111471
 30
0.0
 10
66.1350704016497
 20
135.9472881967641
 30
0.0
 10
65.99935077033759
 20
135.7513406666373
 30
0.0
 10
65.90046302705336
 20
135.4215796637774
 30
0.0
 10
65.85844860468215
 20
135.2406531361742
 30
0.0
 10
65.86851153551635
 20
135.1299076880886
 30
0.0
 10
65.86874593121966
 20
135.1273280959577
 30
0.0
  0
SPLINE
  5
96
330
1F
100
AcDbEntity
  8
0
  6
Continuous
 62
     7
370
    25
100
AcDbSpline
210
0.0
220
0.0
230
1.0
 70
     8
 71
     3
 72
     9
 73
     5
 74
     0
 42
0.00000001
 43
0.00000001
 40
0.0
 40
0.0
 40
0.0
 40
0.0
 40
0.1319650365323776
 40
1.0
 40
1.0
 40
1.0
 40
1.0
 10
66.67259453617008
 20
136.4561052070025
 30
0.0
 10
66.65009856162548
 20
136.444739616697
 30
0.0
 10
66.479629359057
 20
136.3586138472952
 30
0.0
 10
66.34681442370945
 20
136.2129711578013
 30
0.0
 10
66.2315264161571
 20
136.0865482111471
 30
0.0
  0
SPLINE
  5
97
330
1F
100
AcDbEntity
  8
0
  6
Continuous
 62
     7
370
    25
100
AcDbSpline
210
0.0
220
0.0
230
1.0
 70
     8
 71
     3
 72
    10
 73
     6
 74
     0
 42
0.00000001
 43
0.00000001
 40
0.0
 40
0.0
 40
0.0
 40
0.0
 40
0.1862609462195219
 40
0.6838733393061542
 40
1.0
 40
1.0
 40
1.0
 40
1.0
 10
67.28102512806521
 20
136.647113783113
 30
0.0
 10
67.24169763621393
 20
136.6469187185068
 30
0.0
 10
67.09730331349223
 20
136.6462025217604
 30
0.0
 10
66.88743837862876
 20
136.5757486035282
 30
0.0
 10
66.7327059862451
 20
136.4895803951893
 30
0.0
 10
66.67259453617008
 20
136.4561052070025
 30
0.0
  0
LINE
  5
98
330
1F
100
AcDbEntity
  8
0
  6
Continuous
 62
     7
370
    25
100
AcDbLine
 10
65.867903411
 20
135.1295088095
 30
0.0
 11
65.4831598661
 21
120.7378184833
 31
0.0
  0
LINE
  5
99
330
1F
100
AcDbEntity
  8
0
  6
Continuous
 62
     7
370
    25
100
AcDbLine
 10
114.0709524065
 20
141.1522076154
 30
0.0
 11
110.2829665652
 21
140.7884753609
 31
0.0
  0
LINE
  5
9A
330
1F
100
AcDbEntity
  8
0
  6
Continuous
 62
     7
370
    25
100
AcDbLine
 10
99.2723049998
 20
139.7312029947
 30
0.0
 11
67.2813377454
 21
136.6593470988
 31
0.0
  0
SPLINE
  5
9B
330
1F
100
AcDbEntity
  8
0
  6
Continuous
 62
     7
370
    25
100
AcDbSpline
210
0.0
220
0.0
230
1.0
 70
     8
 71
     3
 72
    12
 73
     8
 74
     0
 42
0.00000001
 43
0.00000001
 40
0.0
 40
0.0
 40
0.0
 40
0.0
 40
0.1561055973285347
 40
0.3016831913350399
 40
0.5701962870727072
 40
0.8170345227112435
 40
1.0
 40
1.0
 40
1.0
 40
1.0
 10
65.4831825362215
 20
120.7383787404333
 30
0.0
 10
65.48314207761993
 20
120.6718691602566
 30
0.0
 10
65.48306388900751
 20
120.5433355090268
 30
0.0
 10
65.50888885995066
 20
120.2926963765132
 30
0.0
 10
65.56895458563028
 20
120.017883282013
 30
0.0
 10
65.66527240142324
 20
119.7710270265222
 30
0.0
 10
65.7479071708631
 20
119.681458168727
 30
0.0
 10
65.7830844147455
 20
119.6433291151061
 30
0.0
  0
LINE
  5
9C
330
1F
100
AcDbEntity
  8
0
  6
Continuous
 62
     7
370
    25
100
AcDbLine
 10
114.3529507976
 20
141.1639795852
 30
0.0
 11
114.0750181974
 21
141.1484807409
 31
0.0
  0
SPLINE
  5
9D
330
1F
100
AcDbEntity
  8
0
  6
Continuous
 62
     7
370
    25
100
AcDbSpline
210
0.0
220
0.0
230
1.0
 70
     8
 71
     3
 72
    12
 73
     8
 74
     0
 42
0.00000001
 43
0.00000001
 40
0.0
 40
0.0
 40
0.0
 40
0.0
 40
0.1987230938293001
 40
0.382059838621771
 40
0.5629960172363467
 40
0.7652036400245078
 40
1.0
 40
1.0
 40
1.0
 40
1.0
 10
115.2054504565194
 20
140.9433954739119
 30
0.0
 10
115.1676598369889
 20
140.9767318990756
 30
0.0
 10
115.0950045772453
 20
141.0408236408697
 30
0.0
 10
114.9510065484802
 20
141.0863545750212
 30
0.0
 10
114.7881143718781
 20
141.1267766306348
 30
0.0
 10
114.5874320826451
 20
141.1557381321846
 30
0.0
 10
114.4349027537075
 20
141.1610991711085
 30
0.0
 10
114.3529507975775
 20
141.1639795851886
 30
0.0
  0
SPLINE
  5
9E
330
1F
100
AcDbEntity
  8
0
  6
Continuous
 62
     7
370
    25
100
AcDbSpline
210
0.0
220
0.0
230
1.0
 70
     8
 71
     3
 72
    14
 73
    10
 74
     0
 42
0.00000001
 43
0.00000001
 40
0.0
 40
0.0
 40
0.0
 40
0.0
 40
0.2257386023527624
 40
0.3182996820073541
 40
0.4717387065854136
 40
0.6313242550364878
 40
0.8027365653295034
 40
0.9819500845158585
 40
1.0
 40
1.0
 40
1.0
 40
1.0
 10
112.5786553910584
 20
146.5864100300722
 30
0.0
 10
112.8071164002198
 20
146.8860071684161
 30
0.0
 10
113.1292547753547
 20
147.3084500863367
 30
0.0
 10
113.5231243159185
 20
147.9872514634061
 30
0.0
 10
113.8210719539553
 20
148.5905704190664
 30
0.0
 10
114.109011667913
 20
149.3380278906437
 30
0.0
 10
114.3225484069756
 20
150.1454251467644
 30
0.0
 10
114.4401212190318
 20
150.7382627067431
 30
0.0
 10
114.453968302264
 20
151.0550868115121
 30
0.0
 10
114.4552353322255
 20
151.0840767169346
 30
0.0
  0
SPLINE
  5
9F
330
1F
100
AcDbEntity
  8
0
  6
Continuous
 62
     7
370
    25
100
AcDbSpline
210
0.0
220
0.0
230
1.0
 70
     8
 71
     3
 72
    13
 73
     9
 74
     0
 42
0.00000001
 43
0.00000001
 40
0.0
 40
0.0
 40
0.0
 40
0.0
 40
0.1186838360455702
 40
0.328712438686415
 40
0.5252196346911316
 40
0.6642510817528191
 40
0.8099311328491233
 40
1.0
 40
1.0
 40
1.0
 40
1.0
 10
108.8685683862953
 20
143.9878275917169
 30
0.0
 10
109.037650265169
 20
144.0444126632529
 30
0.0
 10
109.5059475379413
 20
144.2011333884805
 30
0.0
 10
110.2177864195247
 20
144.5712853351938
 30
0.0
 10
110.9211949376545
 20
145.0217941530481
 30
0.0
 10
111.5025270338069
 20
145.4803235531972
 30
0.0
 10
112.0451192689755
 20
145.9731553243284
 30
0.0
 10
112.385796554548
 20
146.3647350878535
 30
0.0
 10
112.5786553910584
 20
146.5864100300722
 30
0.0
  0
LINE
  5
A0
330
1F
100
AcDbEntity
  8
0
  6
Continuous
 62
     7
370
    25
100
AcDbLine
 10
100.9622110709
 20
145.8645511426
 30
0.0
 11
102.4348127782
 21
144.7969585754
 31
0.0
  0
LINE
  5
A1
330
1F
100
AcDbEntity
  8
0
  6
Continuous
 62
     7
370
    25
100
AcDbLine
 10
112.3536650622
 20
156.8844224021
 30
0.0
 11
110.2657806519
 21
158.8180224745
 31
0.0
  0
LINE
  5
A2
330
1F
100
AcDbEntity
  8
0
  6
Continuous
 62
     7
370
    25
100
AcDbLine
 10
110.2516897279
 20
137.5318957253
 30
0.0
 11
110.3200815127
 21
144.652925616
 31
0.0
  0
LINE
  5
A3
330
1F
100
AcDbEntity
  8
0
  6
Continuous
 62
     7
370
    25
100
AcDbLine
 10
99.3399084361
 20
146.770149154
 30
0.0
 11
99.2521970162
 21
137.6375370371
 31
0.0
  0
LINE
  5
A4
330
1F
100
AcDbEntity
  8
0
  6
Continuous
 62
     7
370
    25
100
AcDbLine
 10
99.0512126027
 20
147.4039411709
 30
0.0
 11
99.5320638345
 21
146.9586224684
 31
0.0
  0
LINE
  5
A5
330
1F
100
AcDbEntity
  8
0
  6
Continuous
 62
     7
370
    25
100
AcDbLine
 10
111.4196523575
 20
137.6649878464
 30
0.0
 11
110.9476524422
 21
138.1033320261
 31
0.0
  0
LINE
  5
A6
330
1F
100
AcDbEntity
  8
0
  6
Continuous
 62
     7
370
    25
100
AcDbLine
 10
98.5673380451
 20
138.2222350234
 30
0.0
 11
98.0870060845
 21
137.7930372282
 31
0.0
  0
LINE
  5
A7
330
1F
100
AcDbEntity
  8
0
  6
Continuous
 62
     7
370
    25
100
AcDbLine
 10
111.737841283
 20
136.082777021
 30
0.0
 11
111.7470274625
 21
137.0392524016
 31
0.0
  0
LINE
  5
A8
330
1F
100
AcDbEntity
  8
0
  6
Continuous
 62
     7
370
    25
100
AcDbLine
 10
97.7476731022
 20
137.1737049802
 30
0.0
 11
97.7384869228
 21
136.2172295995
 31
0.0
  0
LINE
  5
A9
330
1F
100
AcDbEntity
  8
0
  6
Continuous
 62
     7
370
    25
100
AcDbLine
 10
85.9966896678
 20
208.5503040808
 30
0.0
 11
85.1751162319
 21
209.0595952827
 31
0.0
  0
LINE
  5
AA
330
1F
100
AcDbEntity
  8
0
  6
Continuous
 62
     7
370
    25
100
AcDbLine
 10
70.5542891735
 20
185.4737114509
 30
0.0
 11
71.3758626094
 21
184.964420249
 31
0.0
  0
SPLINE
  5
AB
330
1F
100
AcDbEntity
  8
0
  6
Continuous
 62
     7
370
    25
100
AcDbSpline
210
0.0
220
0.0
230
1.0
 70
     8
 71
     3
 72
     9
 73
     5
 74
     0
 42
0.00000001
 43
0.00000001
 40
0.0
 40
0.0
 40
0.0
 40
0.0
 40
0.0264378644176161
 40
0.9999999999999999
 40
0.9999999999999999
 40
0.9999999999999999
 40
0.9999999999999999
 10
68.15886722951967
 20
188.5138426597321
 30
0.0
 10
68.1585624356544
 20
188.5042182825721
 30
0.0
 10
68.14703374859963
 20
188.1401806656136
 30
0.0
 10
68.18774091246274
 20
187.8201528752201
 30
0.0
 10
68.22737186584682
 20
187.5085859361588
 30
0.0
  0
SPLINE
  5
AC
330
1F
100
AcDbEntity
  8
0
  6
Continuous
 62
     7
370
    25
100
AcDbSpline
210
0.0
220
0.0
230
1.0
 70
     8
 71
     3
 72
     9
 73
     5
 74
     0
 42
0.00000001
 43
0.00000001
 40
0.0
 40
0.0
 40
0.0
 40
0.0
 40
0.0387657935244965
 40
1.0
 40
1.0
 40
1.0
 40
1.0
 10
82.32540402187871
 20
210.2409973022861
 30
0.0
 10
82.31548534062442
 20
210.238214106219
 30
0.0
 10
82.05962365555375
 20
210.1664189534828
 30
0.0
 10
81.78658944025362
 20
210.0357944917045
 30
0.0
 10
81.52413961296892
 20
209.9102337908407
 30
0.0
  0
LINE
  5
AD
330
1F
100
AcDbEntity
  8
0
  6
Continuous
 62
     7
370
    25
100
AcDbLine
 10
70.0212328984
 20
184.1863937228
 30
0.0
 11
73.6578161726
 21
181.9320853612
 31
0.0
  0
LINE
  5
AE
330
1F
100
AcDbEntity
  8
0
  6
Continuous
 62
     7
370
    25
100
AcDbLine
 10
89.7275540206
 20
207.8553090322
 30
0.0
 11
86.0909707464
 21
210.1096173937
 31
0.0
  0
LINE
  5
AF
330
1F
100
AcDbEntity
  8
0
  6
Continuous
 62
     7
370
    25
100
AcDbLine
 10
74.040614412
 20
181.6947897442
 30
0.0
 11
103.5160788453
 21
163.4230272349
 31
0.0
  0
LINE
  5
B0
330
1F
100
AcDbEntity
  8
0
  6
Continuous
 62
     7
370
    25
100
AcDbLine
 10
119.5858166933
 20
189.3462509059
 30
0.0
 11
90.11035226
 21
207.6180134152
 31
0.0
  0
LINE
  5
B1
330
1F
100
AcDbEntity
  8
0
  6
Continuous
 62
     7
370
    25
100
AcDbLine
 10
115.1772473025
 20
156.1942997245
 30
0.0
 11
115.5742233862
 21
155.9482152993
 31
0.0
  0
LINE
  5
B2
330
1F
100
AcDbEntity
  8
0
  6
Continuous
 62
     7
370
    25
100
AcDbLine
 10
103.5160788453
 20
163.4230272349
 30
0.0
 11
105.8128682817
 21
161.9992535329
 31
0.0
  0
LINE
  5
B3
330
1F
100
AcDbEntity
  8
0
  6
Continuous
 62
     7
370
    25
100
AcDbLine
 10
131.6439612342
 20
181.8714389703
 30
0.0
 11
119.5858166933
 21
189.3462509059
 31
0.0
  0
LINE
  5
B4
330
1F
100
AcDbEntity
  8
0
  6
Continuous
 62
     7
370
    25
100
AcDbLine
 10
133.498350969
 20
177.6974312764
 30
0.0
 11
133.4367837581
 21
178.5638616048
 31
0.0
  0
SPLINE
  5
B5
330
1F
100
AcDbEntity
  8
0
  6
Continuous
 62
     7
370
    25
100
AcDbSpline
210
0.0
220
0.0
230
1.0
 70
     8
 71
     3
 72
     9
 73
     5
 74
     0
 42
0.00000001
 43
0.00000001
 40
0.0
 40
0.0
 40
0.0
 40
0.0
 40
0.0430080160323937
 40
1.0
 40
1.0
 40
1.0
 40
1.0
 10
119.3303384156797
 20
155.8141574723286
 30
0.0
 10
119.3434036918015
 20
155.8178197070161
 30
0.0
 10
119.6471906907642
 20
155.9029720815111
 30
0.0
 10
119.9713687325747
 20
156.0579796809124
 30
0.0
 10
120.2816045199658
 20
156.2063207109935
 30
0.0
  0
LINE
  5
B6
330
1F
100
AcDbEntity
  8
0
  6
Continuous
 62
     7
370
    25
100
AcDbLine
 10
96.8654270782
 20
149.1318304308
 30
0.0
 11
98.8942341052
 21
147.467011615
 31
0.0
  0
SPLINE
  5
B7
330
1F
100
AcDbEntity
  8
0
  6
Continuous
 62
     7
370
    25
100
AcDbSpline
210
0.0
220
0.0
230
1.0
 70
     8
 71
     3
 72
    15
 73
    11
 74
     0
 42
0.00000001
 43
0.00000001
 40
0.0
 40
0.0
 40
0.0
 40
0.0
 40
0.1902003308712563
 40
0.2681657254286022
 40
0.3974145089459981
 40
0.5318360958634459
 40
0.6762150300735702
 40
0.8271570058918062
 40
0.9833883470201414
 40
1.0
 40
1.0
 40
1.0
 40
1.0
 10
96.33994336287302
 20
159.9117351933199
 30
0.0
 10
96.10881883210247
 20
159.6089038125706
 30
0.0
 10
95.78295358689223
 20
159.1819382204017
 30
0.0
 10
95.38368030712282
 20
158.4963608253231
 30
0.0
 10
95.08043025583174
 20
157.8871793987825
 30
0.0
 10
94.78912016122517
 20
157.1326575222043
 30
0.0
 10
94.55954062390808
 20
156.3169105117264
 30
0.0
 10
94.42117967563291
 20
155.4479867147477
 30
0.0
 10
94.36367654205957
 20
154.8192585191578
 30
0.0
 10
94.38578931865548
 20
154.4899577543772
 30
0.0
 10
94.38791454087306
 20
154.4583092050173
 30
0.0
  0
SPLINE
  5
B8
330
1F
100
AcDbEntity
  8
0
  6
Continuous
 62
     7
370
    25
100
AcDbSpline
210
0.0
220
0.0
230
1.0
 70
     8
 71
     3
 72
    15
 73
    11
 74
     0
 42
0.00000001
 43
0.00000001
 40
0.0
 40
0.0
 40
0.0
 40
0.0
 40
0.0536246996090427
 40
0.2056072332592117
 40
0.3555655910899942
 40
0.5013541976199077
 40
0.6362223874102149
 40
0.7427511859710383
 40
0.8388570842363141
 40
1.0
 40
1.0
 40
1.0
 40
1.0
 10
102.101633751157
 20
162.984543020308
 30
0.0
 10
101.9858887695912
 20
162.9796922183125
 30
0.0
 10
101.5421006347041
 20
162.9610933266703
 30
0.0
 10
100.7752066711762
 20
162.7947536137947
 30
0.0
 10
99.83040846123924
 20
162.4945710003762
 30
0.0
 10
98.95516135219192
 20
162.0860942174491
 30
0.0
 10
98.20807957328587
 20
161.6317994376172
 30
0.0
 10
97.59583936857251
 20
161.1723544463529
 30
0.0
 10
96.97109587612417
 20
160.628488323254
 30
0.0
 10
96.58303075928804
 20
160.1877915324296
 30
0.0
 10
96.33994336287302
 20
159.9117351933199
 30
0.0
  0
LINE
  5
B9
330
1F
100
AcDbEntity
  8
0
  6
Continuous
 62
     7
370
    25
100
AcDbLine
 10
121.3059287828
 20
135.9563439695
 30
0.0
 11
124.4164349467
 21
136.2550228629
 31
0.0
  0
LINE
  5
BA
330
1F
100
AcDbEntity
  8
0
  6
Continuous
 62
     7
370
    25
100
AcDbLine
 10
126.1729632569
 20
134.4805969407
 30
0.0
 11
123.4257908455
 21
134.2168062994
 31
0.0
  0
ARC
  5
BB
330
1F
100
AcDbEntity
  8
0
  6
Continuous
 62
     7
370
    25
100
AcDbCircle
 10
117.9281939873
 20
131.4190822957
 30
0.0
 40
8.794833269027842
100
AcDbArc
 50
19.4036724129
 51
20.3713771906
  0
LINE
  5
BC
330
1F
100
AcDbEntity
  8
0
  6
Continuous
 62
     7
370
    25
100
AcDbLine
 10
123.5834726627
 20
134.0874141726
 30
0.0
 11
126.2234927396
 21
134.340915768
 31
0.0
  0
SPLINE
  5
BD
330
1F
100
AcDbEntity
  8
0
  6
Continuous
 62
     7
370
    25
100
AcDbSpline
210
0.0
220
0.0
230
1.0
 70
     8
 71
     3
 72
     9
 73
     5
 74
     0
 42
0.00000001
 43
0.00000001
 40
0.0
 40
0.0
 40
0.0
 40
0.0
 40
0.605458392454883
 40
1.0
 40
1.0
 40
1.0
 40
1.0
 10
126.2234927396062
 20
134.3409157680249
 30
0.0
 10
126.4317608987671
 20
134.0048381454966
 30
0.0
 10
126.7757451621885
 20
133.4497585120875
 30
0.0
 10
126.9582336728478
 20
132.8270925806297
 30
0.0
 10
127.0302329832019
 20
132.5814249630688
 30
0.0
  0
ARC
  5
BE
330
1F
100
AcDbEntity
  8
0
  6
Continuous
 62
     7
370
    25
100
AcDbCircle
 10
121.613845498
 20
131.8104892656
 30
0.0
 40
5.65990636722722
100
AcDbArc
 50
8.0133464184
 51
38.072853799
  0
SPLINE
  5
BF
330
1F
100
AcDbEntity
  8
0
  6
Continuous
 62
     7
370
    25
100
AcDbSpline
210
0.0
220
0.0
230
1.0
 70
     8
 71
     3
 72
    12
 73
     8
 74
     0
 42
0.00000001
 43
0.00000001
 40
0.0
 40
0.0
 40
0.0
 40
0.0
 40
0.2170055756517634
 40
0.4412248343961003
 40
0.6012665849252044
 40
0.7666162356697535
 40
1.0
 40
1.0
 40
1.0
 40
1.0
 10
124.4164349466806
 20
136.2550228628605
 30
0.0
 10
124.6875307210557
 20
136.1471073414363
 30
0.0
 10
125.2387340152331
 20
135.9276889789074
 30
0.0
 10
125.8003798570979
 20
135.5790080459374
 30
0.0
 10
126.1125334953932
 20
135.2370194791139
 30
0.0
 10
126.2549492559199
 20
134.8793741104338
 30
0.0
 10
126.2032332791102
 20
134.6278293210862
 30
0.0
 10
126.1729632568659
 20
134.4805969407134
 30
0.0
  0
LINE
  5
C0
330
1F
100
AcDbEntity
  8
0
  6
Continuous
 62
     7
370
    25
100
AcDbLine
 10
125.3068119464
 20
123.9207868803
 30
0.0
 11
123.1724656472
 21
123.7158413965
 31
0.0
  0
LINE
  5
C1
330
1F
100
AcDbEntity
  8
0
  6
Continuous
 62
     7
370
    25
100
AcDbLine
 10
123.2148468577
 20
128.1286209025
 30
0.0
 11
125.1811811574
 21
128.3174334371
 31
0.0
  0
LINE
  5
C2
330
1F
100
AcDbEntity
  8
0
  6
Continuous
 62
     7
370
    25
100
AcDbLine
 10
125.1811811574
 20
128.3174334371
 30
0.0
 11
125.3068119464
 21
123.9207868803
 31
0.0
  0
LWPOLYLINE
  5
C3
330
1F
100
AcDbEntity
  8
0
  6
Continuous
 62
     7
370
    25
100
AcDbPolyline
 90
       19
 70
   128
 43
0.0
 10
124.807115494
 20
131.9738269001
 10
124.9558112084
 20
131.7847353224
 10
125.2745645062
 20
131.249507577
 10
125.5686482932
 20
130.570833026
 10
125.8280478985
 20
129.7718231174
 10
126.0439297799
 20
128.8796871753
 10
126.2089423388
 20
127.9248058192
 10
126.3174662703
 20
126.9396963884
 10
126.3658059221
 20
125.9579056031
 10
126.3523151455
 20
125.0128671709
 10
126.2774533525
 20
124.1367632423
 10
126.1437698718
 20
123.3594284856
 10
125.955817134
 20
122.7073341038
 10
125.7199956441
 20
122.202686389
 10
125.4443360201
 20
121.8626705137
 10
125.13822552
 20
121.6988653108
 10
124.8120883696
 20
121.7168489701
 10
124.4770307784
 20
121.9160090796
 10
124.2925148484
 20
122.1012123357
  0
ARC
  5
C4
330
1F
100
AcDbEntity
  8
0
  6
Continuous
 62
     7
370
    25
100
AcDbCircle
 10
112.5168225025
 20
125.8935609102
 30
0.0
 40
14.55613912509052
100
AcDbArc
 50
351.5083479925
 51
11.7651268238
  0
LINE
  5
C5
330
1F
100
AcDbEntity
  8
0
  6
Continuous
 62
     7
370
    25
100
AcDbLine
 10
131.0304950262
 20
124.1394594088
 30
0.0
 11
126.9133883322
 21
123.744124114
 31
0.0
  0
ARC
  5
C6
330
1F
100
AcDbEntity
  8
0
  6
Continuous
 62
     7
370
    25
100
AcDbCircle
 10
123.3911094047
 20
125.5087706421
 30
0.0
 40
7.761135608086287
100
AcDbArc
 50
348.7861779833
 51
349.838008398
  0
LINE
  5
C7
330
1F
100
AcDbEntity
  8
0
  6
Continuous
 62
     7
370
    25
100
AcDbLine
 10
126.8869648114
 20
123.6041196151
 30
0.0
 11
131.0040715055
 21
123.99945491
 31
0.0
  0
LWPOLYLINE
  5
C8
330
1F
100
AcDbEntity
  8
0
  6
Continuous
 62
     7
370
    25
100
AcDbPolyline
 90
        8
 70
   128
 43
0.0
 10
125.769685092
 20
121.7545307785
 10
125.8849939778
 20
121.7776542369
 10
126.0954081042
 20
121.88654291
 10
126.2923768648
 20
122.0790105676
 10
126.4727455537
 20
122.3519745947
 10
126.6336253363
 20
122.7010631241
 10
126.7724395176
 20
123.1206850577
 10
126.8869648114
 20
123.6041196151
  0
LINE
  5
C9
330
1F
100
AcDbEntity
  8
0
  6
Continuous
 62
     7
370
    25
100
AcDbLine
 10
129.5545778936
 20
122.2115585467
 30
0.0
 11
126.0840892031
 21
121.8783131947
 31
0.0
  0
LWPOLYLINE
  5
CA
330
1F
100
AcDbEntity
  8
0
  6
Continuous
 62
     7
370
    25
100
AcDbPolyline
 90
        3
 70
   128
 43
0.0
 10
125.0743821778
 20
132.3936190809
 10
124.8473488409
 20
132.4557537935
 10
124.8117631228
 20
132.4577432646
  0
LINE
  5
CB
330
1F
100
AcDbEntity
  8
0
  6
Continuous
 62
     7
370
    25
100
AcDbLine
 10
129.1914888718
 20
132.7889543757
 30
0.0
 11
125.0743821778
 21
132.3936190809
 31
0.0
  0
ARC
  5
CC
330
1F
100
AcDbEntity
  8
0
  6
Continuous
 62
     7
370
    25
100
AcDbCircle
 10
128.8208400808
 20
131.9802036616
 30
0.0
 40
0.8896393898217505
100
AcDbArc
 50
60.9201278225
 51
65.3781108043
  0
LINE
  5
CD
330
1F
100
AcDbEntity
  8
0
  6
Continuous
 62
     7
370
    25
100
AcDbLine
 10
125.1361233934
 20
132.3623624992
 30
0.0
 11
129.2532300874
 21
132.7576977941
 31
0.0
  0
LWPOLYLINE
  5
CE
330
1F
100
AcDbEntity
  8
0
  6
Continuous
 62
     7
370
    25
100
AcDbPolyline
 90
        9
 70
   128
 43
0.0
 10
126.7318438213
 20
129.0328220285
 10
126.5859234463
 20
129.6481075905
 10
126.4187014766
 20
130.2226607778
 10
126.2328561855
 20
130.7472793882
 10
126.0313641222
 20
131.2135609853
 10
125.8174524393
 20
131.6140374746
 10
125.5945472052
 20
131.9422947143
 10
125.3662185316
 20
132.1930752458
 10
125.1361233934
 20
132.3623624992
  0
LINE
  5
CF
330
1F
100
AcDbEntity
  8
0
  6
Continuous
 62
     7
370
    25
100
AcDbLine
 10
130.8489505153
 20
129.4281573233
 30
0.0
 11
126.7318438213
 21
129.0328220285
 31
0.0
  0
ARC
  5
D0
330
1F
100
AcDbEntity
  8
0
  6
Continuous
 62
     7
370
    25
100
AcDbCircle
 10
116.8139092421
 20
126.4445596924
 30
0.0
 40
14.34866678008802
100
AcDbArc
 50
11.3031380167
 51
12.0013963996
  0
LINE
  5
D1
330
1F
100
AcDbEntity
  8
0
  6
Continuous
 62
     7
370
    25
100
AcDbLine
 10
126.7671615162
 20
128.861560948
 30
0.0
 11
130.8842682102
 21
129.2568962428
 31
0.0
  0
SPLINE
  5
D2
330
1F
100
AcDbEntity
  8
0
  6
Continuous
 62
     7
370
    25
100
AcDbSpline
210
0.0
220
0.0
230
1.0
 70
     8
 71
     3
 72
    16
 73
    12
 74
     0
 42
0.00000001
 43
0.00000001
 40
0.0
 40
0.0
 40
0.0
 40
0.0
 40
0.0481316845569233
 40
0.1826519424861699
 40
0.3165449542384207
 40
0.4471500051125617
 40
0.5778454043755755
 40
0.7050045602187088
 40
0.8317295953925742
 40
0.956188498088745
 40
1.0
 40
1.0
 40
1.0
 40
1.0
 10
124.2789506828244
 20
130.7163602154323
 30
0.0
 10
124.328289566515
 20
130.712125171443
 30
0.0
 10
124.5155226340703
 20
130.6960538658516
 30
0.0
 10
124.8553429830359
 20
130.2957499692246
 30
0.0
 10
125.2383026805769
 20
129.4949209414528
 30
0.0
 10
125.534930070408
 20
128.4126563227053
 30
0.0
 10
125.7104778502628
 20
127.2108054809538
 30
0.0
 10
125.7487972091278
 20
126.0130233682168
 30
0.0
 10
125.6475636963458
 20
124.9801044599735
 30
0.0
 10
125.4791552844383
 20
124.3305594109352
 30
0.0
 10
125.3389309057588
 20
124.1273447057218
 30
0.0
 10
125.3024215703896
 20
124.0744349770822
 30
0.0
  0
SPLINE
  5
D3
330
1F
100
AcDbEntity
  8
0
  6
Continuous
 62
     7
370
    25
100
AcDbSpline
210
0.0
220
0.0
230
1.0
 70
     8
 71
     3
 72
    12
 73
     8
 74
     0
 42
0.00000001
 43
0.00000001
 40
0.0
 40
0.0
 40
0.0
 40
0.0
 40
0.217005575651763
 40
0.4412248343960992
 40
0.6012665849252041
 40
0.7666162356697531
 40
1.0
 40
1.0
 40
1.0
 40
1.0
 10
130.8842682102373
 20
129.2568962428134
 30
0.0
 10
131.044358039687
 20
128.9185306556729
 30
0.0
 10
131.3698593927068
 20
128.2305515578869
 30
0.0
 10
131.5978483658517
 20
127.1891937833753
 30
0.0
 10
131.6017451344961
 20
126.2072591675689
 30
0.0
 10
131.4364359637433
 20
125.2107720622266
 30
0.0
 10
131.1803723388147
 20
124.5349983816274
 30
0.0
 10
131.0304950262181
 20
124.1394594088429
 30
0.0
  0
LINE
  5
D4
330
1F
100
AcDbEntity
  8
0
  6
Continuous
 62
     7
370
    25
100
AcDbLine
 10
124.9942627562
 20
129.2238302861
 30
0.0
 11
123.2237326475
 21
129.0538193793
 31
0.0
  0
ARC
  5
D5
330
1F
100
AcDbEntity
  8
0
  6
Continuous
 62
     7
370
    25
100
AcDbCircle
 10
111.1573604025
 20
125.8978935979
 30
0.0
 40
14.23101266948145
100
AcDbArc
 50
9.7889127115
 51
13.5156217048
  0
LINE
  5
D6
330
1F
100
AcDbEntity
  8
0
  6
Continuous
 62
     7
370
    25
100
AcDbLine
 10
123.8259808918
 20
131.6615014976
 30
0.0
 11
124.9942627562
 21
129.2238302861
 31
0.0
  0
LINE
  5
D7
330
1F
100
AcDbEntity
  8
0
  6
Continuous
 62
     7
370
    25
100
AcDbLine
 10
123.1654717256
 20
122.9876263769
 30
0.0
 11
125.1669658364
 21
123.179815048
 31
0.0
  0
ARC
  5
D8
330
1F
100
AcDbEntity
  8
0
  6
Continuous
 62
     7
370
    25
100
AcDbCircle
 10
117.6848287981
 20
124.9756267058
 30
0.0
 40
7.694628917052811
100
AcDbArc
 50
346.5035515756
 51
352.1206348057
  0
LWPOLYLINE
  5
D9
330
1F
100
AcDbEntity
  8
0
  6
Continuous
 62
     7
370
    25
100
AcDbPolyline
 90
       14
 70
   128
 43
0.0
 10
130.2961594954
 20
131.8323713663
 10
130.5801580458
 20
131.4905815018
 10
130.8688186712
 20
130.9701057065
 10
131.1299526375
 20
130.3108108901
 10
131.3528690895
 20
129.5396886598
 10
131.5284418014
 20
128.6883088504
 10
131.6494828057
 20
127.7915270512
 10
131.7110366695
 20
126.8860576146
 10
131.7105833704
 20
126.0089705656
 10
131.6481414666
 20
125.1961739511
 10
131.5262673368
 20
124.4809437599
 10
131.3499505223
 20
123.8925616002
 10
131.1264094542
 20
123.4551159066
 10
131.1036529433
 20
123.4229611191
  0
SPLINE
  5
DA
330
1F
100
AcDbEntity
  8
0
  6
Continuous
 62
     7
370
    25
100
AcDbSpline
210
0.0
220
0.0
230
1.0
 70
     8
 71
     3
 72
    12
 73
     8
 74
     0
 42
0.00000001
 43
0.00000001
 40
0.0
 40
0.0
 40
0.0
 40
0.0
 40
0.2170055756517637
 40
0.4412248343961013
 40
0.6012665849252057
 40
0.7666162356697551
 40
1.0
 40
1.0
 40
1.0
 40
1.0
 10
131.0040715055159
 20
123.9994549099502
 30
0.0
 10
131.0541605341375
 20
123.8906108052478
 30
0.0
 10
131.1560036471185
 20
123.6693044082668
 30
0.0
 10
131.0533569702023
 20
123.3178323798368
 30
0.0
 10
130.7517880942345
 20
122.9732651927895
 30
0.0
 10
130.2815404006095
 20
122.6130456536392
 30
0.0
 10
129.8229794683919
 20
122.359791462069
 30
0.0
 10
129.5545778935812
 20
122.2115585467263
 30
0.0
  0
SPLINE
  5
DB
330
1F
100
AcDbEntity
  8
0
  6
Continuous
 62
     7
370
    25
100
AcDbSpline
210
0.0
220
0.0
230
1.0
 70
     8
 71
     3
 72
    12
 73
     8
 74
     0
 42
0.00000001
 43
0.00000001
 40
0.0
 40
0.0
 40
0.0
 40
0.0
 40
0.2170055756517627
 40
0.4412248343960999
 40
0.6012665849252042
 40
0.766616235669755
 40
1.0
 40
1.0
 40
1.0
 40
1.0
 10
129.2532300874308
 20
132.7576977940806
 30
0.0
 10
129.5132405892733
 20
132.5425806333636
 30
0.0
 10
130.0419048425865
 20
132.1051954033848
 30
0.0
 10
130.570231051664
 20
131.4342924190451
 30
0.0
 10
130.8516015511607
 20
130.7946113117717
 30
0.0
 10
130.9632872933034
 20
130.1397871108532
 30
0.0
 10
130.8911647574369
 20
129.6908979100984
 30
0.0
 10
130.8489505153463
 20
129.4281573233339
 30
0.0
  0
SPLINE
  5
DC
330
1F
100
AcDbEntity
  8
0
  6
Continuous
 62
     7
370
    25
100
AcDbSpline
210
0.0
220
0.0
230
1.0
 70
     8
 71
     3
 72
    14
 73
    10
 74
     0
 42
0.00000001
 43
0.00000001
 40
0.0
 40
0.0
 40
0.0
 40
0.0
 40
0.0053347360559805
 40
0.1801135965866806
 40
0.3510980292227667
 40
0.5257180526072383
 40
0.6982988544947778
 40
0.8708796563823178
 40
0.9999999999999999
 40
0.9999999999999999
 40
0.9999999999999999
 40
0.9999999999999999
 10
125.4085611938537
 20
124.3529209949759
 30
0.0
 10
125.4110276747919
 20
124.3580629366034
 30
0.0
 10
125.4943020388894
 20
124.5316673268196
 30
0.0
 10
125.580236937285
 20
125.1189184719338
 30
0.0
 10
125.6343523824491
 20
126.0659800632156
 30
0.0
 10
125.561367125756
 20
127.1396958385367
 30
0.0
 10
125.3784638687953
 20
128.1878543224815
 30
0.0
 10
125.1294367948557
 20
129.069357749018
 30
0.0
 10
124.9234651829391
 20
129.4590229513462
 30
0.0
 10
124.8353146216888
 20
129.6257896526666
 30
0.0
  0
SPLINE
  5
DD
330
1F
100
AcDbEntity
  8
0
  6
Continuous
 62
     7
370
    25
100
AcDbSpline
210
0.0
220
0.0
230
1.0
 70
     8
 71
     3
 72
    33
 73
    29
 74
     0
 42
0.00000001
 43
0.00000001
 40
0.0
 40
0.0
 40
0.0
 40
0.0
 40
0.0236407760502303
 40
0.0302463544889526
 40
0.0645122492863657
 40
0.1081118191671373
 40
0.1517112741834727
 40
0.1953092153390008
 40
0.2389085484844236
 40
0.2825066183002066
 40
0.3261050581549319
 40
0.369703809947689
 40
0.4133018152561517
 40
0.4362891629198781
 40
0.4705550577172911
 40
0.5141546275980643
 40
0.5577540826143994
 40
0.6013520237699292
 40
0.6449513569153511
 40
0.6885494267311326
 40
0.7321478665858568
 40
0.775746618378615
 40
0.8193446236870782
 40
0.8423319713508517
 40
0.8765978661482654
 40
0.9201974360290373
 40
0.9637968910453706
 40
1.0
 40
1.0
 40
1.0
 40
1.0
 10
125.0639830098079
 20
128.8857457649192
 30
0.0
 10
124.879141280616
 20
128.7511143897514
 30
0.0
 10
124.6426520700414
 20
128.5788650401526
 30
0.0
 10
124.8355379274893
 20
127.9892584860532
 30
0.0
 10
124.9396816592278
 20
127.2008544504468
 30
0.0
 10
125.0514074507558
 20
126.0150541911225
 30
0.0
 10
124.9990379705416
 20
124.8513042018843
 30
0.0
 10
124.8181616157451
 20
123.9242455361342
 30
0.0
 10
124.5191039910924
 20
123.3404912371378
 30
0.0
 10
124.1438610924464
 20
123.1658312841714
 30
0.0
 10
123.7361540010884
 20
123.4205277225362
 30
0.0
 10
123.3432290729777
 20
124.0750460633003
 30
0.0
 10
123.0673788268867
 20
124.9043829153571
 30
0.0
 10
122.8748815680674
 20
125.7849314399208
 30
0.0
 10
122.7419594991583
 20
126.7420120387142
 30
0.0
 10
122.6971280581736
 20
127.9280364690383
 30
0.0
 10
122.7919058563004
 20
129.0976472634451
 30
0.0
 10
123.02731408864
 20
130.0294631360739
 30
0.0
 10
123.3747844197619
 20
130.617993895307
 30
0.0
 10
123.8011924930033
 20
130.7975349692148
 30
0.0
 10
124.2605100367342
 20
130.5477941253756
 30
0.0
 10
124.7017104624667
 20
129.8979439172701
 30
0.0
 10
125.0226845382345
 20
129.0728302914556
 30
0.0
 10
125.252516219871
 20
128.1961304408324
 30
0.0
 10
125.4241467948893
 20
127.2413729847227
 30
0.0
 10
125.5158037228437
 20
126.0668946516834
 30
0.0
 10
125.4807074560895
 20
124.9427455255668
 30
0.0
 10
125.3559688329031
 20
124.4186406260281
 30
0.0
 10
125.2993801001438
 20
124.1808759999622
 30
0.0
  0
SPLINE
  5
DE
330
1F
100
AcDbEntity
  8
0
  6
Continuous
 62
     7
370
    25
100
AcDbSpline
210
0.0
220
0.0
230
1.0
 70
     8
 71
     3
 72
    15
 73
    11
 74
     0
 42
0.00000001
 43
0.00000001
 40
0.0
 40
0.0
 40
0.0
 40
0.0
 40
0.0501101588840165
 40
0.2254796937282933
 40
0.4008504833061881
 40
0.5762182702398544
 40
0.668682140059839
 40
0.8065126232530219
 40
0.9818867034925753
 40
1.0
 40
1.0
 40
1.0
 40
1.0
 10
125.2873118245917
 20
124.0461026780689
 30
0.0
 10
125.3136774374311
 20
124.1065904029654
 30
0.0
 10
125.4323142655788
 20
124.378765825828
 30
0.0
 10
125.5273372779248
 20
125.2001426199416
 30
0.0
 10
125.5432402375783
 20
126.3852411013181
 30
0.0
 10
125.4243571062264
 20
127.4649921755298
 30
0.0
 10
125.2428600884786
 20
128.4042932844101
 30
0.0
 10
124.9980038606304
 20
129.247769706232
 30
0.0
 10
124.7520868107162
 20
129.8905377578055
 30
0.0
 10
124.5886331295847
 20
130.0840100206413
 30
0.0
 10
124.5733314337256
 20
130.1021219022619
 30
0.0
  0
LINE
  5
DF
330
1F
100
AcDbEntity
  8
0
  6
Continuous
 62
     7
370
    25
100
AcDbLine
 10
123.3542224116
 20
122.161090728
 30
0.0
 11
123.4365279904
 21
122.2626115928
 31
0.0
  0
LINE
  5
E0
330
1F
100
AcDbEntity
  8
0
  6
Continuous
 62
     7
370
    25
100
AcDbLine
 10
123.4365279904
 20
122.2626115928
 30
0.0
 11
123.6326937975
 21
122.2814479439
 31
0.0
  0
SPLINE
  5
E1
330
1F
100
AcDbEntity
  8
0
  6
Continuous
 62
     7
370
    25
100
AcDbSpline
210
0.0
220
0.0
230
1.0
 70
     8
 71
     3
 72
    10
 73
     6
 74
     0
 42
0.00000001
 43
0.00000001
 40
0.0
 40
0.0
 40
0.0
 40
0.0
 40
0.402163503449417
 40
0.877821650639622
 40
1.0
 40
1.0
 40
1.0
 40
1.0
 10
123.6326937974862
 20
122.2814479438596
 30
0.0
 10
123.6466494716691
 20
122.2709529141552
 30
0.0
 10
123.6771111939338
 20
122.2480449072883
 30
0.0
 10
123.6754728523497
 20
122.2124550288834
 30
0.0
 10
123.6584156216974
 20
122.1895017764386
 30
0.0
 10
123.6549296781363
 20
122.1848108776522
 30
0.0
  0
SPLINE
  5
E2
330
1F
100
AcDbEntity
  8
0
  6
Continuous
 62
     7
370
    25
100
AcDbSpline
210
0.0
220
0.0
230
1.0
 70
     8
 71
     3
 72
    12
 73
     8
 74
     0
 42
0.00000001
 43
0.00000001
 40
0.0
 40
0.0
 40
0.0
 40
0.0
 40
0.228116549234907
 40
0.4024684955824901
 40
0.578034893507388
 40
0.7866391940510089
 40
1.0
 40
1.0
 40
1.0
 40
1.0
 10
123.6549296781363
 20
122.1848108776522
 30
0.0
 10
123.6361734345852
 20
122.1669886434164
 30
0.0
 10
123.6030815911828
 20
122.1355446827531
 30
0.0
 10
123.5135325326162
 20
122.0901912589913
 30
0.0
 10
123.4010471290172
 20
122.0531147786393
 30
0.0
 10
123.2684235488764
 20
122.025593601681
 30
0.0
 10
123.1791283843179
 20
122.0156755985652
 30
0.0
 10
123.1339775223523
 20
122.0106606977935
 30
0.0
  0
SPLINE
  5
E3
330
1F
100
AcDbEntity
  8
0
  6
Continuous
 62
     7
370
    25
100
AcDbSpline
210
0.0
220
0.0
230
1.0
 70
     8
 71
     3
 72
    12
 73
     8
 74
     0
 42
0.00000001
 43
0.00000001
 40
0.0
 40
0.0
 40
0.0
 40
0.0
 40
0.225081111002159
 40
0.4200730448767291
 40
0.615912633255934
 40
0.854483078377931
 40
1.0
 40
1.0
 40
1.0
 40
1.0
 10
123.1556716357106
 20
121.9672299458424
 30
0.0
 10
123.2162649268661
 20
121.9751206843177
 30
0.0
 10
123.3293513080441
 20
121.9898473156323
 30
0.0
 10
123.4953916571674
 20
122.0347852996149
 30
0.0
 10
123.6367093015194
 20
122.0919803756063
 30
0.0
 10
123.7308010415181
 20
122.1499972806045
 30
0.0
 10
123.7650198524737
 20
122.1867951850315
 30
0.0
 10
123.777984132122
 20
122.2007365906543
 30
0.0
  0
SPLINE
  5
E4
330
1F
100
AcDbEntity
  8
0
  6
Continuous
 62
     7
370
    25
100
AcDbSpline
210
0.0
220
0.0
230
1.0
 70
     8
 71
     3
 72
    10
 73
     6
 74
     0
 42
0.00000001
 43
0.00000001
 40
0.0
 40
0.0
 40
0.0
 40
0.0
 40
0.2471538600984509
 40
0.7148309598930318
 40
1.0
 40
1.0
 40
1.0
 40
1.0
 10
123.777984132122
 20
122.2007365906543
 30
0.0
 10
123.7871194406059
 20
122.2144830446144
 30
0.0
 10
123.8135410442575
 20
122.2542412376506
 30
0.0
 10
123.799498783943
 20
122.3028285668894
 30
0.0
 10
123.7586662359041
 20
122.3305835493082
 30
0.0
 10
123.7431993590587
 20
122.3410968019837
 30
0.0
  0
LINE
  5
E5
330
1F
100
AcDbEntity
  8
0
  6
Continuous
 62
     7
370
    25
100
AcDbLine
 10
123.7431993591
 20
122.341096802
 30
0.0
 11
123.3601990994
 21
122.3043201207
 31
0.0
  0
LINE
  5
E6
330
1F
100
AcDbEntity
  8
0
  6
Continuous
 62
     7
370
    25
100
AcDbLine
 10
123.3601990994
 20
122.3043201207
 30
0.0
 11
123.2347810746
 21
122.1496216601
 31
0.0
  0
LINE
  5
E7
330
1F
100
AcDbEntity
  8
0
  6
Continuous
 62
     7
370
    25
100
AcDbLine
 10
123.2347810746
 20
122.1496216601
 30
0.0
 11
123.3542224116
 21
122.161090728
 31
0.0
  0
SPLINE
  5
E8
330
1F
100
AcDbEntity
  8
0
  6
Continuous
 62
     7
370
    25
100
AcDbSpline
210
0.0
220
0.0
230
1.0
 70
     8
 71
     3
 72
    12
 73
     8
 74
     0
 42
0.00000001
 43
0.00000001
 40
0.0
 40
0.0
 40
0.0
 40
0.0
 40
0.3325026658980934
 40
0.532835621996576
 40
0.7336360564999641
 40
0.926389510999313
 40
0.9999999999999999
 40
0.9999999999999999
 40
0.9999999999999999
 40
0.9999999999999999
 10
124.0284752922777
 20
122.8116133726248
 30
0.0
 10
124.0790044172477
 20
122.8197776298836
 30
0.0
 10
124.1599773551927
 20
122.8328608545938
 30
0.0
 10
124.2632414877113
 20
122.8662984892627
 30
0.0
 10
124.3291174987199
 20
122.8977423649584
 30
0.0
 10
124.362909330908
 20
122.9233951696492
 30
0.0
 10
124.3750063820003
 20
122.9373957299304
 30
0.0
 10
124.3783494390022
 20
122.9412648275081
 30
0.0
  0
SPLINE
  5
E9
330
1F
100
AcDbEntity
  8
0
  6
Continuous
 62
     7
370
    25
100
AcDbSpline
210
0.0
220
0.0
230
1.0
 70
     8
 71
     3
 72
    12
 73
     8
 74
     0
 42
0.00000001
 43
0.00000001
 40
0.0
 40
0.0
 40
0.0
 40
0.0
 40
0.1922216487370175
 40
0.3585648406283415
 40
0.4987891391997178
 40
0.7303696387362969
 40
1.0
 40
1.0
 40
1.0
 40
1.0
 10
124.3783494390022
 20
122.9412648275081
 30
0.0
 10
124.3875369357912
 20
122.9583571549515
 30
0.0
 10
124.4046750331052
 20
122.9902407003585
 30
0.0
 10
124.3578344751989
 20
123.0204199840318
 30
0.0
 10
124.2680056507167
 20
123.0369799876866
 30
0.0
 10
124.1239813819153
 20
123.0374915313401
 30
0.0
 10
124.0005523631501
 20
123.0267669028326
 30
0.0
 10
123.934152742705
 20
123.0209975037932
 30
0.0
  0
SPLINE
  5
EA
330
1F
100
AcDbEntity
  8
0
  6
Continuous
 62
     7
370
    25
100
AcDbSpline
210
0.0
220
0.0
230
1.0
 70
     8
 71
     3
 72
    12
 73
     8
 74
     0
 42
0.00000001
 43
0.00000001
 40
0.0
 40
0.0
 40
0.0
 40
0.0
 40
0.4178159420779167
 40
0.5917704564616378
 40
0.7666151372021285
 40
0.9284127610051507
 40
1.0
 40
1.0
 40
1.0
 40
1.0
 10
123.934152742705
 20
123.0209975037932
 30
0.0
 10
123.8364888958701
 20
123.0108457538746
 30
0.0
 10
123.6981634434378
 20
122.9964673994889
 30
0.0
 10
123.5170479419351
 20
122.9492616929364
 30
0.0
 10
123.4158257142453
 20
122.9084302541095
 30
0.0
 10
123.3584942299718
 20
122.8726902324448
 30
0.0
 10
123.3407044762999
 20
122.8531555320581
 30
0.0
 10
123.3352477413065
 20
122.8471635613343
 30
0.0
  0
SPLINE
  5
EB
330
1F
100
AcDbEntity
  8
0
  6
Continuous
 62
     7
370
    25
100
AcDbSpline
210
0.0
220
0.0
230
1.0
 70
     8
 71
     3
 72
    12
 73
     8
 74
     0
 42
0.00000001
 43
0.00000001
 40
0.0
 40
0.0
 40
0.0
 40
0.0
 40
0.2515770958900042
 40
0.4738742737271016
 40
0.6646735162352775
 40
0.8679832614149704
 40
1.0
 40
1.0
 40
1.0
 40
1.0
 10
123.3352477413065
 20
122.8471635613343
 30
0.0
 10
123.3266642219463
 20
122.8314563872459
 30
0.0
 10
123.3104961801439
 20
122.8018701258769
 30
0.0
 10
123.3528045180189
 20
122.7733014678348
 30
0.0
 10
123.4229053036184
 20
122.7590082158588
 30
0.0
 10
123.5046496767107
 20
122.7578625252495
 30
0.0
 10
123.5624120449756
 20
122.7626870277783
 30
0.0
 10
123.5851528657592
 20
122.7645864157479
 30
0.0
  0
SPLINE
  5
EC
330
1F
100
AcDbEntity
  8
0
  6
Continuous
 62
     7
370
    25
100
AcDbSpline
210
0.0
220
0.0
230
1.0
 70
     8
 71
     3
 72
    12
 73
     8
 74
     0
 42
0.00000001
 43
0.00000001
 40
0.0
 40
0.0
 40
0.0
 40
0.0
 40
0.288456290088847
 40
0.4978153455862849
 40
0.706993535488952
 40
0.916458820954713
 40
1.0
 40
1.0
 40
1.0
 40
1.0
 10
123.5851528657592
 20
122.7645864157479
 30
0.0
 10
123.6343513322618
 20
122.7705390168229
 30
0.0
 10
123.7192576159722
 20
122.7808119637583
 30
0.0
 10
123.8402860852769
 20
122.8129963955526
 30
0.0
 10
123.9325557068521
 20
122.8486461629026
 30
0.0
 10
123.9845232836104
 20
122.8807707177771
 30
0.0
 10
124.0005830357689
 20
122.8985501234939
 30
0.0
 10
124.0051619471344
 20
122.9036193376452
 30
0.0
  0
SPLINE
  5
ED
330
1F
100
AcDbEntity
  8
0
  6
Continuous
 62
     7
370
    25
100
AcDbSpline
210
0.0
220
0.0
230
1.0
 70
     8
 71
     3
 72
    10
 73
     6
 74
     0
 42
0.00000001
 43
0.00000001
 40
0.0
 40
0.0
 40
0.0
 40
0.0
 40
0.3591934476452773
 40
0.707431406270681
 40
1.0
 40
1.0
 40
1.0
 40
1.0
 10
124.0051619471344
 20
122.9036193376452
 30
0.0
 10
124.0113950282894
 20
122.9156631084541
 30
0.0
 10
124.0236710800819
 20
122.9393833120826
 30
0.0
 10
123.9955908089361
 20
122.964623394879
 30
0.0
 10
123.9573958717613
 20
122.9731033930455
 30
0.0
 10
123.9399574747665
 20
122.9769750468689
 30
0.0
  0
SPLINE
  5
EE
330
1F
100
AcDbEntity
  8
0
  6
Continuous
 62
     7
370
    25
100
AcDbSpline
210
0.0
220
0.0
230
1.0
 70
     8
 71
     3
 72
    10
 73
     6
 74
     0
 42
0.00000001
 43
0.00000001
 40
0.0
 40
0.0
 40
0.0
 40
0.0
 40
0.2500033366638292
 40
0.5000070690713078
 40
1.0
 40
1.0
 40
1.0
 40
1.0
 10
123.9399574747665
 20
122.9769750468689
 30
0.0
 10
123.9420844224791
 20
122.9772009579062
 30
0.0
 10
123.946338321271
 20
122.9776527803384
 30
0.0
 10
123.9548405306231
 20
122.9785488986849
 30
0.0
 10
123.9611999556936
 20
122.9791980829336
 30
0.0
 10
123.9654395313284
 20
122.9796308682393
 30
0.0
  0
SPLINE
  5
EF
330
1F
100
AcDbEntity
  8
0
  6
Continuous
 62
     7
370
    25
100
AcDbSpline
210
0.0
220
0.0
230
1.0
 70
     8
 71
     3
 72
    12
 73
     8
 74
     0
 42
0.00000001
 43
0.00000001
 40
0.0
 40
0.0
 40
0.0
 40
0.0
 40
0.4934044183777951
 40
0.6441714473184635
 40
0.7718384951903083
 40
0.8991514245124947
 40
1.0
 40
1.0
 40
1.0
 40
1.0
 10
123.9654395313284
 20
122.9796308682393
 30
0.0
 10
124.0421615451268
 20
122.9847305872498
 30
0.0
 10
124.142327106741
 20
122.9913886009472
 30
0.0
 10
124.2388371327129
 20
122.9824248492528
 30
0.0
 10
124.2663438217282
 20
122.9681982071023
 30
0.0
 10
124.2732430752644
 20
122.9510501587834
 30
0.0
 10
124.2647035240438
 20
122.9380393186418
 30
0.0
 10
124.2609289978519
 20
122.9322884594192
 30
0.0
  0
SPLINE
  5
F0
330
1F
100
AcDbEntity
  8
0
  6
Continuous
 62
     7
370
    25
100
AcDbSpline
210
0.0
220
0.0
230
1.0
 70
     8
 71
     3
 72
    12
 73
     8
 74
     0
 42
0.00000001
 43
0.00000001
 40
0.0
 40
0.0
 40
0.0
 40
0.0
 40
0.2656839109022954
 40
0.4486938695731392
 40
0.6314722081025956
 40
0.9293372921761068
 40
1.0
 40
1.0
 40
1.0
 40
1.0
 10
124.2609289978519
 20
122.9322884594192
 30
0.0
 10
124.2523771758967
 20
122.9239727963806
 30
0.0
 10
124.2379346374987
 20
122.9099290892769
 30
0.0
 10
124.1951744271413
 20
122.8905979479326
 30
0.0
 10
124.1408050216188
 20
122.8740378981587
 30
0.0
 10
124.0921281014475
 20
122.8644677651613
 30
0.0
 10
124.0604678115123
 20
122.8596131418459
 30
0.0
 10
124.0543971653724
 20
122.8586823007086
 30
0.0
  0
LINE
  5
F1
330
1F
100
AcDbEntity
  8
0
  6
Continuous
 62
     7
370
    25
100
AcDbLine
 10
124.0543971654
 20
122.8586823007
 30
0.0
 11
124.0284752923
 21
122.8116133726
 31
0.0
  0
LINE
  5
F2
330
1F
100
AcDbEntity
  8
0
  6
Continuous
 62
     7
370
    25
100
AcDbLine
 10
123.9216332012
 20
121.6437436427
 30
0.0
 11
123.151854904
 21
121.5698275281
 31
0.0
  0
LINE
  5
F3
330
1F
100
AcDbEntity
  8
0
  6
Continuous
 62
     7
370
    25
100
AcDbLine
 10
123.9819775544
 20
122.4674501398
 30
0.0
 11
124.0967399463
 21
122.6090052742
 31
0.0
  0
SPLINE
  5
F4
330
1F
100
AcDbEntity
  8
0
  6
Continuous
 62
     7
370
    25
100
AcDbSpline
210
0.0
220
0.0
230
1.0
 70
     8
 71
     3
 72
    12
 73
     8
 74
     0
 42
0.00000001
 43
0.00000001
 40
0.0
 40
0.0
 40
0.0
 40
0.0
 40
0.3067724084362969
 40
0.4750195975938241
 40
0.6165294468200722
 40
0.8009361378009966
 40
1.0
 40
1.0
 40
1.0
 40
1.0
 10
124.0967399462628
 20
122.6090052742348
 30
0.0
 10
124.1112379712556
 20
122.6292967042119
 30
0.0
 10
124.1336873370023
 20
122.6607168275256
 30
0.0
 10
124.1255174722923
 20
122.6960113097799
 30
0.0
 10
124.0873088336387
 20
122.7158654226431
 30
0.0
 10
124.0162458150347
 20
122.7256646813078
 30
0.0
 10
123.9481284853994
 20
122.7215194051319
 30
0.0
 10
123.912768016108
 20
122.7193675458076
 30
0.0
  0
SPLINE
  5
F5
330
1F
100
AcDbEntity
  8
0
  6
Continuous
 62
     7
370
    25
100
AcDbSpline
210
0.0
220
0.0
230
1.0
 70
     8
 71
     3
 72
    11
 73
     7
 74
     0
 42
0.00000001
 43
0.00000001
 40
0.0
 40
0.0
 40
0.0
 40
0.0
 40
0.2927394944606399
 40
0.5241326648682928
 40
0.7553978501729358
 40
1.0
 40
1.0
 40
1.0
 40
1.0
 10
123.9127680161079
 20
122.7193675458076
 30
0.0
 10
123.8784016456278
 20
122.7150065779364
 30
0.0
 10
123.8168707019648
 20
122.7071985241721
 30
0.0
 10
123.7288516015248
 20
122.6830348028479
 30
0.0
 10
123.657808242033
 20
122.6553245902254
 30
0.0
 10
123.6246128160147
 20
122.6349739244804
 30
0.0
 10
123.6075499248074
 20
122.6245134111732
 30
0.0
  0
SPLINE
  5
F6
330
1F
100
AcDbEntity
  8
0
  6
Continuous
 62
     7
370
    25
100
AcDbSpline
210
0.0
220
0.0
230
1.0
 70
     8
 71
     3
 72
    11
 73
     7
 74
     0
 42
0.00000001
 43
0.00000001
 40
0.0
 40
0.0
 40
0.0
 40
0.0
 40
0.3582304433516573
 40
0.6337965849703213
 40
0.9092786749577139
 40
1.0
 40
1.0
 40
1.0
 40
1.0
 10
123.6075499248074
 20
122.6245134111732
 30
0.0
 10
123.5995960600912
 20
122.6339061690184
 30
0.0
 10
123.5855237432685
 20
122.6505242369584
 30
0.0
 10
123.5280034450108
 20
122.6622178124911
 30
0.0
 10
123.473779570289
 20
122.6632422087809
 30
0.0
 10
123.4392612101963
 20
122.6604073928137
 30
0.0
 10
123.4307098116092
 20
122.6597051102837
 30
0.0
  0
SPLINE
  5
F7
330
1F
100
AcDbEntity
  8
0
  6
Continuous
 62
     7
370
    25
100
AcDbSpline
210
0.0
220
0.0
230
1.0
 70
     8
 71
     3
 72
    11
 73
     7
 74
     0
 42
0.00000001
 43
0.00000001
 40
0.0
 40
0.0
 40
0.0
 40
0.0
 40
0.3260082931143941
 40
0.6519693982996086
 40
0.9632451813135596
 40
1.0
 40
1.0
 40
1.0
 40
1.0
 10
123.4307098116092
 20
122.6597051102837
 30
0.0
 10
123.3973867559631
 20
122.6552485582037
 30
0.0
 10
123.330745468002
 20
122.6463360991054
 30
0.0
 10
123.2350286396158
 20
122.6194442654073
 30
0.0
 10
123.1724376622568
 20
122.5962559907104
 30
0.0
 10
123.1536199188601
 20
122.5833780669569
 30
0.0
 10
123.1516326144586
 20
122.5820180550778
 30
0.0
  0
LINE
  5
F8
330
1F
100
AcDbEntity
  8
0
  6
Continuous
 62
     7
370
    25
100
AcDbLine
 10
123.159717545
 20
122.3884945947
 30
0.0
 11
123.9819775544
 21
122.4674501398
 31
0.0
  0
LINE
  5
F9
330
1F
100
AcDbEntity
  8
0
  6
Continuous
 62
     7
370
    25
100
AcDbLine
 10
123.314126572
 20
121.6436808367
 30
0.0
 11
123.3572390181
 21
121.6968584326
 31
0.0
  0
LINE
  5
FA
330
1F
100
AcDbEntity
  8
0
  6
Continuous
 62
     7
370
    25
100
AcDbLine
 10
123.3572390181
 20
121.6968584326
 30
0.0
 11
123.152886476
 21
121.6772359699
 31
0.0
  0
LINE
  5
FB
330
1F
100
AcDbEntity
  8
0
  6
Continuous
 62
     7
370
    25
100
AcDbLine
 10
123.1524150722
 20
121.6281528778
 30
0.0
 11
123.314126572
 21
121.6436808367
 31
0.0
  0
LINE
  5
FC
330
1F
100
AcDbEntity
  8
0
  6
Continuous
 62
     7
370
    25
100
AcDbLine
 10
125.1669658364
 20
123.179815048
 30
0.0
 11
123.9216332012
 21
121.6437436427
 31
0.0
  0
LINE
  5
FD
330
1F
100
AcDbEntity
  8
0
  6
Continuous
 62
     7
370
    25
100
AcDbLine
 10
123.9217331863
 20
123.0013284859
 30
0.0
 11
123.8909609363
 21
122.9876917935
 31
0.0
  0
LINE
  5
FE
330
1F
100
AcDbEntity
  8
0
  6
Continuous
 62
     7
370
    25
100
AcDbLine
 10
124.378349439
 20
122.9412648275
 30
0.0
 11
124.3625617054
 21
123.0178220413
 31
0.0
  0
SPLINE
  5
FF
330
1F
100
AcDbEntity
  8
0
  6
Continuous
 62
     7
370
    25
100
AcDbSpline
210
0.0
220
0.0
230
1.0
 70
     8
 71
     3
 72
    12
 73
     8
 74
     0
 42
0.00000001
 43
0.00000001
 40
0.0
 40
0.0
 40
0.0
 40
0.0
 40
0.3275076142910319
 40
0.5151915666444257
 40
0.7027011406689863
 40
0.894543643013603
 40
1.0
 40
1.0
 40
1.0
 40
1.0
 10
123.7390223087773
 20
122.9576807295251
 30
0.0
 10
123.7746420700407
 20
122.9601477875783
 30
0.0
 10
123.8306743569496
 20
122.9640286362913
 30
0.0
 10
123.883549404874
 20
122.9544174877396
 30
0.0
 10
123.9074473169142
 20
122.9399954138257
 30
0.0
 10
123.9090883805463
 20
122.9227898618273
 30
0.0
 10
123.9006540507762
 20
122.9110456922954
 30
0.0
 10
123.897662267716
 20
122.906879859512
 30
0.0
  0
SPLINE
  5
100
330
1F
100
AcDbEntity
  8
0
  6
Continuous
 62
     7
370
    25
100
AcDbSpline
210
0.0
220
0.0
230
1.0
 70
     8
 71
     3
 72
    12
 73
     8
 74
     0
 42
0.00000001
 43
0.00000001
 40
0.0
 40
0.0
 40
0.0
 40
0.0
 40
0.2193986081128132
 40
0.4048844918330579
 40
0.5902427906827873
 40
0.7861257432688364
 40
0.9999999999999999
 40
0.9999999999999999
 40
0.9999999999999999
 40
0.9999999999999999
 10
123.897662267716
 20
122.906879859512
 30
0.0
 10
123.8889975236869
 20
122.898028627054
 30
0.0
 10
123.8730073562321
 20
122.881694308497
 30
0.0
 10
123.8258311212367
 20
122.8576150061864
 30
0.0
 10
123.76829291471
 20
122.8376783932925
 30
0.0
 10
123.7004102208163
 20
122.8216768817831
 30
0.0
 10
123.6550646433286
 20
122.8163743525845
 30
0.0
 10
123.6313963552285
 20
122.8136066782999
 30
0.0
  0
SPLINE
  5
101
330
1F
100
AcDbEntity
  8
0
  6
Continuous
 62
     7
370
    25
100
AcDbSpline
210
0.0
220
0.0
230
1.0
 70
     8
 71
     3
 72
    12
 73
     8
 74
     0
 42
0.00000001
 43
0.00000001
 40
0.0
 40
0.0
 40
0.0
 40
0.0
 40
0.3075303045557548
 40
0.5134394067067763
 40
0.7198672359054898
 40
0.9022816111193334
 40
1.0
 40
1.0
 40
1.0
 40
1.0
 10
123.6313963552285
 20
122.8136066782999
 30
0.0
 10
123.596502602247
 20
122.8112716314656
 30
0.0
 10
123.5382454888401
 20
122.8073731374198
 30
0.0
 10
123.4796080077259
 20
122.8168903312187
 30
0.0
 10
123.4513202345655
 20
122.832243298595
 30
0.0
 10
123.4494834591205
 20
122.8503654019362
 30
0.0
 10
123.4577921987588
 20
122.8619827323311
 30
0.0
 10
123.4606905268202
 20
122.8660351922887
 30
0.0
  0
SPLINE
  5
102
330
1F
100
AcDbEntity
  8
0
  6
Continuous
 62
     7
370
    25
100
AcDbSpline
210
0.0
220
0.0
230
1.0
 70
     8
 71
     3
 72
    12
 73
     8
 74
     0
 42
0.00000001
 43
0.00000001
 40
0.0
 40
0.0
 40
0.0
 40
0.0
 40
0.2159903050044185
 40
0.3921487898002768
 40
0.5674874627894284
 40
0.7572663033857701
 40
1.0
 40
1.0
 40
1.0
 40
1.0
 10
123.4606905268202
 20
122.8660351922887
 30
0.0
 10
123.469774818272
 20
122.8749545573323
 30
0.0
 10
123.4862681229086
 20
122.8911484240319
 30
0.0
 10
123.5354612110963
 20
122.9143850404331
 30
0.0
 10
123.5926093486052
 20
122.9330987973247
 30
0.0
 10
123.6631712932743
 20
122.9490062769706
 30
0.0
 10
123.7117558147745
 20
122.9545624863878
 30
0.0
 10
123.7390223087773
 20
122.9576807295251
 30
0.0
  0
LINE
  5
103
330
1F
100
AcDbEntity
  8
0
  6
Continuous
 62
     7
370
    25
100
AcDbLine
 10
123.956576527
 20
123.0226089759
 30
0.0
 11
123.9654395313
 21
122.9796308682
 31
0.0
  0
LINE
  5
104
330
1F
100
AcDbEntity
  8
0
  6
Continuous
 62
     7
370
    25
100
AcDbLine
 10
123.5754144565
 20
122.8118095002
 30
0.0
 11
123.5851528658
 21
122.7645864157
 31
0.0
  0
LINE
  5
105
330
1F
100
AcDbEntity
  8
0
  6
Continuous
 62
     7
370
    25
100
AcDbLine
 10
123.9312827345
 20
123.0190402323
 30
0.0
 11
123.9399574748
 21
122.9769750469
 31
0.0
  0
LINE
  5
106
330
1F
100
AcDbEntity
  8
0
  6
Continuous
 62
     7
370
    25
100
AcDbLine
 10
123.993871627
 20
122.9583678831
 30
0.0
 11
124.0051619471
 21
122.9036193376
 31
0.0
  0
LINE
  5
107
330
1F
100
AcDbEntity
  8
0
  6
Continuous
 62
     7
370
    25
100
AcDbLine
 10
123.5184004612
 20
122.6150094343
 30
0.0
 11
123.5509599747
 21
122.6551703811
 31
0.0
  0
LINE
  5
108
330
1F
100
AcDbEntity
  8
0
  6
Continuous
 62
     7
370
    25
100
AcDbLine
 10
123.9940078075
 20
122.6582238908
 30
0.0
 11
124.043153793
 21
122.7188436329
 31
0.0
  0
LINE
  5
109
330
1F
100
AcDbEntity
  8
0
  6
Continuous
 62
     7
370
    25
100
AcDbLine
 10
123.5283167476
 20
122.5669237953
 30
0.0
 11
123.5080980113
 21
122.5649823396
 31
0.0
  0
LINE
  5
10A
330
1F
100
AcDbEntity
  8
0
  6
Continuous
 62
     7
370
    25
100
AcDbLine
 10
123.4278833151
 20
122.4632823962
 30
0.0
 11
123.1601889488
 21
122.4375776868
 31
0.0
  0
LINE
  5
10B
330
1F
100
AcDbEntity
  8
0
  6
Continuous
 62
     7
370
    25
100
AcDbLine
 10
123.1607507266
 20
122.4960706242
 30
0.0
 11
123.1676116287
 21
122.5045332914
 31
0.0
  0
SPLINE
  5
10C
330
1F
100
AcDbEntity
  8
0
  6
Continuous
 62
     7
370
    25
100
AcDbSpline
210
0.0
220
0.0
230
1.0
 70
     8
 71
     3
 72
    13
 73
     9
 74
     0
 42
0.00000001
 43
0.00000001
 40
0.0
 40
0.0
 40
0.0
 40
0.0
 40
0.3606975991498074
 40
0.5001541328582613
 40
0.6180402787623088
 40
0.7356336469376796
 40
0.908166558859076
 40
0.9999999999999999
 40
0.9999999999999999
 40
0.9999999999999999
 40
0.9999999999999999
 10
123.1676116286943
 20
122.504533291361
 30
0.0
 10
123.1797644217127
 20
122.5192878352722
 30
0.0
 10
123.1966158498018
 20
122.5397469293528
 30
0.0
 10
123.2338239667811
 20
122.5661170758762
 30
0.0
 10
123.2689022497211
 20
122.5812681717603
 30
0.0
 10
123.3145648857459
 20
122.594566915396
 30
0.0
 10
123.3601805362588
 20
122.6034076385824
 30
0.0
 10
123.3900708451274
 20
122.6066394067259
 30
0.0
 10
123.4004538983729
 20
122.6077620321514
 30
0.0
  0
SPLINE
  5
10D
330
1F
100
AcDbEntity
  8
0
  6
Continuous
 62
     7
370
    25
100
AcDbSpline
210
0.0
220
0.0
230
1.0
 70
     8
 71
     3
 72
    11
 73
     7
 74
     0
 42
0.00000001
 43
0.00000001
 40
0.0
 40
0.0
 40
0.0
 40
0.0
 40
0.311655805895915
 40
0.538352308549294
 40
0.7658191034981026
 40
1.0
 40
1.0
 40
1.0
 40
1.0
 10
123.4004538983729
 20
122.6077620321514
 30
0.0
 10
123.4199293609857
 20
122.6091946359151
 30
0.0
 10
123.4535711544621
 20
122.6116693067822
 30
0.0
 10
123.490744743149
 20
122.6075778565297
 30
0.0
 10
123.5115943069644
 20
122.5986567573777
 30
0.0
 10
123.5141242661767
 20
122.5896999012835
 30
0.0
 10
123.5154076433654
 20
122.585156339973
 30
0.0
  0
SPLINE
  5
10E
330
1F
100
AcDbEntity
  8
0
  6
Continuous
 62
     7
370
    25
100
AcDbSpline
210
0.0
220
0.0
230
1.0
 70
     8
 71
     3
 72
    10
 73
     6
 74
     0
 42
0.00000001
 43
0.00000001
 40
0.0
 40
0.0
 40
0.0
 40
0.0
 40
0.2510868258468873
 40
0.5016634248050544
 40
1.0
 40
1.0
 40
1.0
 40
1.0
 10
123.5154076433654
 20
122.585156339973
 30
0.0
 10
123.5149337586587
 20
122.5816852635798
 30
0.0
 10
123.5139869522137
 20
122.5747501642759
 30
0.0
 10
123.5055366959415
 20
122.5599227216743
 30
0.0
 10
123.496747181341
 20
122.5485661313539
 30
0.0
 10
123.4908985239067
 20
122.5410093083182
 30
0.0
  0
LINE
  5
10F
330
1F
100
AcDbEntity
  8
0
  6
Continuous
 62
     7
370
    25
100
AcDbLine
 10
123.4908985239
 20
122.5410093083
 30
0.0
 11
123.4278833151
 21
122.4632823962
 31
0.0
  0
LINE
  5
110
330
1F
100
AcDbEntity
  8
0
  6
Continuous
 62
     7
370
    25
100
AcDbLine
 10
123.3910325023
 20
122.6534478699
 30
0.0
 11
123.4004538984
 21
122.6077620322
 31
0.0
  0
LINE
  5
111
330
1F
100
AcDbEntity
  8
0
  6
Continuous
 62
     7
370
    25
100
AcDbLine
 10
123.9056486634
 20
122.5091586678
 30
0.0
 11
123.5473246522
 21
122.4747514641
 31
0.0
  0
LINE
  5
112
330
1F
100
AcDbEntity
  8
0
  6
Continuous
 62
     7
370
    25
100
AcDbLine
 10
123.5473246522
 20
122.4747514641
 30
0.0
 11
123.6146878491
 21
122.5578414576
 31
0.0
  0
SPLINE
  5
113
330
1F
100
AcDbEntity
  8
0
  6
Continuous
 62
     7
370
    25
100
AcDbSpline
210
0.0
220
0.0
230
1.0
 70
     8
 71
     3
 72
    12
 73
     8
 74
     0
 42
0.00000001
 43
0.00000001
 40
0.0
 40
0.0
 40
0.0
 40
0.0
 40
0.4038695109167892
 40
0.5516672297518425
 40
0.7000395965012137
 40
0.8389274398615411
 40
1.0
 40
1.0
 40
1.0
 40
1.0
 10
123.6146878491318
 20
122.5578414576133
 30
0.0
 10
123.629281035563
 20
122.5754127645704
 30
0.0
 10
123.6492146589589
 20
122.599414364023
 30
0.0
 10
123.7080041251442
 20
122.6303757689934
 30
0.0
 10
123.7569320061142
 20
122.6467932000455
 30
0.0
 10
123.8122406360646
 20
122.6594818447387
 30
0.0
 10
123.8482471689806
 20
122.6637167677392
 30
0.0
 10
123.8675819357393
 20
122.6659908341884
 30
0.0
  0
SPLINE
  5
114
330
1F
100
AcDbEntity
  8
0
  6
Continuous
 62
     7
370
    25
100
AcDbSpline
210
0.0
220
0.0
230
1.0
 70
     8
 71
     3
 72
    11
 73
     7
 74
     0
 42
0.00000001
 43
0.00000001
 40
0.0
 40
0.0
 40
0.0
 40
0.0
 40
0.268249033762556
 40
0.4928875452886549
 40
0.7187084056001832
 40
1.0
 40
1.0
 40
1.0
 40
1.0
 10
123.8675819357393
 20
122.6659908341884
 30
0.0
 10
123.88937129938
 20
122.6674915943055
 30
0.0
 10
123.9294076261009
 20
122.6702491288241
 30
0.0
 10
123.9744107202236
 20
122.6649035697268
 30
0.0
 10
124.0023864789258
 20
122.6520231095028
 30
0.0
 10
124.0003013132926
 20
122.6379496814836
 30
0.0
 10
123.9991446870647
 20
122.6301432532064
 30
0.0
  0
SPLINE
  5
115
330
1F
100
AcDbEntity
  8
0
  6
Continuous
 62
     7
370
    25
100
AcDbSpline
210
0.0
220
0.0
230
1.0
 70
     8
 71
     3
 72
    10
 73
     6
 74
     0
 42
0.00000001
 43
0.00000001
 40
0.0
 40
0.0
 40
0.0
 40
0.0
 40
0.2504914565496557
 40
0.5009143266308034
 40
1.0
 40
1.0
 40
1.0
 40
1.0
 10
123.9991446870647
 20
122.6301432532064
 30
0.0
 10
123.9980978954177
 20
122.6275791625413
 30
0.0
 10
123.9960045987431
 20
122.6224516832787
 30
0.0
 10
123.9884843989672
 20
122.6117852998095
 30
0.0
 10
123.982174140622
 20
122.6037306007279
 30
0.0
 10
123.9779722411736
 20
122.5983671062754
 30
0.0
  0
LINE
  5
116
330
1F
100
AcDbEntity
  8
0
  6
Continuous
 62
     7
370
    25
100
AcDbLine
 10
123.9779722412
 20
122.5983671063
 30
0.0
 11
123.9056486634
 21
122.5091586678
 31
0.0
  0
LINE
  5
117
330
1F
100
AcDbEntity
  8
0
  6
Continuous
 62
     7
370
    25
100
AcDbLine
 10
123.8583065194
 20
122.710968793
 30
0.0
 11
123.8675819357
 21
122.6659908342
 31
0.0
  0
LINE
  5
118
330
1F
100
AcDbEntity
  8
0
  6
Continuous
 62
     7
370
    25
100
AcDbLine
 10
123.5473246522
 20
122.4747514641
 30
0.0
 11
123.5184004612
 21
122.6150094343
 31
0.0
  0
LINE
  5
119
330
1F
100
AcDbEntity
  8
0
  6
Continuous
 62
     7
370
    25
100
AcDbLine
 10
123.9596422193
 20
122.5757577072
 30
0.0
 11
123.9819775544
 21
122.4674501398
 31
0.0
  0
SPLINE
  5
11A
330
1F
100
AcDbEntity
  8
0
  6
Continuous
 62
     7
370
    25
100
AcDbSpline
210
0.0
220
0.0
230
1.0
 70
     8
 71
     3
 72
     9
 73
     5
 74
     0
 42
0.00000001
 43
0.00000001
 40
0.0
 40
0.0
 40
0.0
 40
0.0
 40
0.9944515513696709
 40
1.0
 40
1.0
 40
1.0
 40
1.0
 10
123.749059941159
 20
122.3409945608526
 30
0.0
 10
123.7239686049587
 20
122.3117112707691
 30
0.0
 10
123.6987372740148
 20
122.2822645973308
 30
0.0
 10
123.6399046106783
 20
122.2543396679864
 30
0.0
 10
123.639578180668
 20
122.2541847279504
 30
0.0
  0
LINE
  5
11B
330
1F
100
AcDbEntity
  8
0
  6
Continuous
 62
     7
370
    25
100
AcDbLine
 10
123.7501582037
 20
122.3356689124
 30
0.0
 11
123.7779841321
 21
122.2007365907
 31
0.0
  0
LINE
  5
11C
330
1F
100
AcDbEntity
  8
0
  6
Continuous
 62
     7
370
    25
100
AcDbLine
 10
123.4365279904
 20
122.2626115928
 30
0.0
 11
123.426611704
 21
122.3106972318
 31
0.0
  0
LINE
  5
11D
330
1F
100
AcDbEntity
  8
0
  6
Continuous
 62
     7
370
    25
100
AcDbLine
 10
123.3318870765
 20
122.2693982954
 30
0.0
 11
123.3542224116
 21
122.161090728
 31
0.0
  0
LINE
  5
11E
330
1F
100
AcDbEntity
  8
0
  6
Continuous
 62
     7
370
    25
100
AcDbLine
 10
123.6227775111
 20
122.3295335829
 30
0.0
 11
123.6326937975
 21
122.2814479439
 31
0.0
  0
LINE
  5
11F
330
1F
100
AcDbEntity
  8
0
  6
Continuous
 62
     7
370
    25
100
AcDbLine
 10
123.3042102856
 20
121.6917664757
 30
0.0
 11
123.314126572
 21
121.6436808367
 31
0.0
  0
ARC
  5
120
330
1F
100
AcDbEntity
  8
0
  6
Continuous
 62
     7
370
    25
100
AcDbCircle
 10
77.4712047727
 20
126.8606497043
 30
0.0
 40
1.614666738365765
100
AcDbArc
 50
96.7115226566
 51
177.9270729378
  0
ARC
  5
121
330
1F
100
AcDbEntity
  8
0
  6
Continuous
 62
     7
370
    25
100
AcDbCircle
 10
76.8952714514
 20
128.1958189239
 30
0.0
 40
0.4711691059001023
100
AcDbArc
 50
355.1234324975
 51
34.7304087508
  0
SPLINE
  5
122
330
1F
100
AcDbEntity
  8
0
  6
Continuous
 62
     7
370
    25
100
AcDbSpline
210
0.0
220
0.0
230
1.0
 70
     8
 71
     3
 72
    13
 73
     9
 74
     0
 42
0.00000001
 43
0.00000001
 40
0.0
 40
0.0
 40
0.0
 40
0.0
 40
0.2396832910637715
 40
0.3697720286455055
 40
0.4999999403308915
 40
0.6300887375505757
 40
0.7603167089362249
 40
1.0
 40
1.0
 40
1.0
 40
1.0
 10
77.36473499400549
 20
128.1557651037012
 30
0.0
 10
77.21816129802808
 20
128.1259817760956
 30
0.0
 10
76.99203434246482
 20
128.080033468979
 30
0.0
 10
76.7188665346423
 20
127.9081858169763
 30
0.0
 10
76.53139404627588
 20
127.7391489301408
 30
0.0
 10
76.37756964922637
 20
127.5381034333453
 30
0.0
 10
76.22678450431408
 20
127.25025096023
 30
0.0
 10
76.19676603844559
 20
127.0183566248015
 30
0.0
 10
76.17731563121981
 20
126.8681011361568
 30
0.0
  0
ARC
  5
123
330
1F
100
AcDbEntity
  8
0
  6
Continuous
 62
     7
370
    25
100
AcDbCircle
 10
76.1012513041
 20
127.4193785433
 30
0.0
 40
0.5565002798298927
100
AcDbArc
 50
244.0340210651
 51
277.855971621
  0
LINE
  5
124
330
1F
100
AcDbEntity
  8
0
  6
Continuous
 62
     7
370
    25
100
AcDbLine
 10
77.0925155435
 20
127.1740325841
 30
0.0
 11
124.1451634757
 21
131.6921502396
 31
0.0
  0
ARC
  5
125
330
1F
100
AcDbEntity
  8
0
  6
Continuous
 62
     7
370
    25
100
AcDbCircle
 10
77.1239007919
 20
126.906869451
 30
0.0
 40
0.2690003225704269
100
AcDbArc
 50
96.7001677992
 51
178.8383085007
  0
LINE
  5
126
330
1F
100
AcDbEntity
  8
0
  6
Continuous
 62
     7
370
    25
100
AcDbLine
 10
76.7171630673
 20
112.5651924411
 30
0.0
 11
76.854955759
 21
126.9123231507
 31
0.0
  0
LINE
  5
127
330
1F
100
AcDbEntity
  8
0
  6
Continuous
 62
     7
370
    25
100
AcDbLine
 10
75.7925720864
 20
112.4764108099
 30
0.0
 11
76.7171630673
 21
112.5651924411
 31
0.0
  0
LINE
  5
128
330
1F
100
AcDbEntity
  8
0
  6
Continuous
 62
     7
370
    25
100
AcDbLine
 10
76.1773156312
 20
126.8681011362
 30
0.0
 11
75.7925720864
 21
112.4764108099
 31
0.0
  0
LINE
  5
129
330
1F
100
AcDbEntity
  8
0
  6
Continuous
 62
     7
370
    25
100
AcDbLine
 10
77.364734994
 20
128.1557651037
 30
0.0
 11
124.1543496552
 21
132.6486256203
 31
0.0
  0
LINE
  5
12A
330
1F
100
AcDbEntity
  8
0
  6
Continuous
 62
     7
370
    25
100
AcDbLine
 10
124.1543496552
 20
132.6486256203
 30
0.0
 11
124.1451634757
 21
131.6921502396
 31
0.0
  0
LINE
  5
12B
330
1F
100
AcDbEntity
  8
0
  6
Continuous
 62
     7
370
    25
100
AcDbLine
 10
65.8826267946
 20
135.104413816
 30
0.0
 11
75.8575946774
 21
126.9190546385
 31
0.0
  0
ARC
  5
12C
330
1F
100
AcDbEntity
  8
0
  6
Continuous
 62
     7
370
    25
100
AcDbCircle
 10
67.4962368899
 20
135.0460088818
 30
0.0
 40
1.614666738365633
100
AcDbArc
 50
96.7115226566
 51
177.9270729378
  0
LINE
  5
12D
330
1F
100
AcDbEntity
  8
0
  6
Continuous
 62
     7
370
    25
100
AcDbLine
 10
67.3075300299
 20
136.6496105771
 30
0.0
 11
77.2824979127
 21
128.4642513995
 31
0.0
  0
LINE
  5
12E
330
1F
100
AcDbEntity
  8
0
  6
Continuous
 62
     7
370
    25
100
AcDbLine
 10
75.4728511325
 20
112.5273643122
 30
0.0
 11
75.8575946774
 21
126.9190546385
 31
0.0
  0
ARC
  5
12F
330
1F
100
AcDbEntity
  8
0
  6
Continuous
 62
     7
370
    25
100
AcDbCircle
 10
75.7165077592
 20
113.027688217
 30
0.0
 40
0.556500279829082
100
AcDbArc
 50
244.0340210652
 51
277.8559716211
  0
LINE
  5
130
330
1F
100
AcDbEntity
  8
0
  6
Continuous
 62
     7
370
    25
100
AcDbLine
 10
77.2824979127
 20
128.4642513995
 30
0.0
 11
124.0721125739
 21
132.9571119161
 31
0.0
  0
ARC
  5
131
330
1F
100
AcDbEntity
  8
0
  6
Continuous
 62
     7
370
    25
100
AcDbCircle
 10
123.6848861125
 20
132.6886794404
 30
0.0
 40
0.4711691059005449
100
AcDbArc
 50
355.1234324976
 51
34.7304087508
  0
LINE
  5
132
330
1F
100
AcDbEntity
  8
0
  6
Continuous
 62
     7
370
    25
100
AcDbLine
 10
65.8826267946
 20
135.104413816
 30
0.0
 11
65.4978832497
 21
120.7127234898
 31
0.0
  0
SPLINE
  5
133
330
1F
100
AcDbEntity
  8
0
  6
Continuous
 62
     7
370
    25
100
AcDbSpline
210
0.0
220
0.0
230
1.0
 70
     8
 71
     3
 72
    13
 73
     9
 74
     0
 42
0.00000001
 43
0.00000001
 40
0.0
 40
0.0
 40
0.0
 40
0.0
 40
0.2394259924026154
 40
0.3695846593149659
 40
0.4999752278747435
 40
0.6301417045486257
 40
0.7605400971976229
 40
1.0
 40
1.0
 40
1.0
 40
1.0
 10
75.20004101419822
 20
112.0169271681556
 30
0.0
 10
75.2321904417562
 20
112.0004080907802
 30
0.0
 10
75.28181719744782
 20
111.9749087808566
 30
0.0
 10
75.3433100187935
 20
112.0158602660832
 30
0.0
 10
75.38613543164114
 20
112.0755745611467
 30
0.0
 10
75.42197809284694
 20
112.1630250548697
 30
0.0
 10
75.45803710957273
 20
112.3045563441025
 30
0.0
 10
75.46702927375786
 20
112.4398015666098
 30
0.0
 10
75.4728511325298
 20
112.5273643122192
 30
0.0
  0
LINE
  5
134
330
1F
100
AcDbEntity
  8
0
  6
Continuous
 62
     7
370
    25
100
AcDbLine
 10
65.7322748881
 20
119.7860816418
 30
0.0
 11
75.2000410142
 21
112.0169271682
 31
0.0
  0
SPLINE
  5
135
330
1F
100
AcDbEntity
  8
0
  6
Continuous
 62
     7
370
    25
100
AcDbSpline
210
0.0
220
0.0
230
1.0
 70
     8
 71
     3
 72
    13
 73
     9
 74
     0
 42
0.00000001
 43
0.00000001
 40
0.0
 40
0.0
 40
0.0
 40
0.0
 40
0.2394599028268714
 40
0.3696300083677745
 40
0.5000245666300004
 40
0.6301870679524907
 40
0.7605740075726591
 40
1.0
 40
1.0
 40
1.0
 40
1.0
 10
65.4978832497127
 20
120.7127234897683
 30
0.0
 10
65.49887353980318
 20
120.6195702914882
 30
0.0
 10
65.50040215035597
 20
120.4757791304074
 30
0.0
 10
65.52749545223263
 20
120.2824159289359
 30
0.0
 10
65.55719917621497
 20
120.1412247730967
 30
0.0
 10
65.59507567056899
 20
120.0152122351499
 30
0.0
 10
65.65178153607366
 20
119.8772319988359
 30
0.0
 10
65.70064164881454
 20
119.8219029982539
 30
0.0
 10
65.73227488813454
 20
119.7860816417616
 30
0.0
  0
LINE
  5
136
330
1F
100
AcDbEntity
  8
0
  6
Continuous
 62
     7
370
    25
100
AcDbLine
 10
124.5243014145
 20
133.2329860329
 30
0.0
 11
115.0565352884
 21
141.0021405065
 31
0.0
  0
SPLINE
  5
137
330
1F
100
AcDbEntity
  8
0
  6
Continuous
 62
     7
370
    25
100
AcDbSpline
210
0.0
220
0.0
230
1.0
 70
     8
 71
     3
 72
    13
 73
     9
 74
     0
 42
0.00000001
 43
0.00000001
 40
0.0
 40
0.0
 40
0.0
 40
0.0
 40
0.23944294786128
 40
0.3696073166373069
 40
0.4999998972369518
 40
0.6301643686854234
 40
0.7605570521388034
 40
1.0
 40
1.0
 40
1.0
 40
1.0
 10
124.0721125738917
 20
132.9571119160887
 30
0.0
 10
124.1574621600889
 20
132.9684293977233
 30
0.0
 10
124.2892089156823
 20
132.9858992127895
 30
0.0
 10
124.4221235231799
 20
133.0275996332028
 30
0.0
 10
124.501644201324
 20
133.0652634230802
 30
0.0
 10
124.5525291953724
 20
133.1071439795725
 30
0.0
 10
124.5813274732281
 20
133.1640796860824
 30
0.0
 10
124.5467123248335
 20
133.2059062382461
 30
0.0
 10
124.5243014144981
 20
133.2329860328926
 30
0.0
  0
SPLINE
  5
138
330
1F
100
AcDbEntity
  8
0
  6
Continuous
 62
     7
370
    25
100
AcDbSpline
210
0.0
220
0.0
230
1.0
 70
     8
 71
     3
 72
    13
 73
     9
 74
     0
 42
0.00000001
 43
0.00000001
 40
0.0
 40
0.0
 40
0.0
 40
0.0
 40
0.239442947861199
 40
0.3696073166343406
 40
0.4999998972369404
 40
0.6301643686846636
 40
0.7605570521388965
 40
1.0
 40
1.0
 40
1.0
 40
1.0
 10
115.0565352884342
 20
141.0021405064985
 30
0.0
 10
115.0151648897925
 20
141.0273999109696
 30
0.0
 10
114.951304992616
 20
141.0663906634211
 30
0.0
 10
114.8043410598106
 20
141.1064523132634
 30
0.0
 10
114.6728242161135
 20
141.1308035913895
 30
0.0
 10
114.5277138278401
 20
141.1469214880383
 30
0.0
 10
114.3316557968328
 20
141.1570445255
 30
0.0
 10
114.1893061954967
 20
141.1481983678352
 30
0.0
 10
114.0971446910749
 20
141.1424710936379
 30
0.0
  0
LINE
  5
139
330
1F
100
AcDbEntity
  8
0
  6
Continuous
 62
     7
370
    25
100
AcDbLine
 10
123.1026934498
 20
116.451081381
 30
0.0
 11
123.2482445442
 21
131.6060257506
 31
0.0
  0
LINE
  5
13A
330
1F
100
AcDbEntity
  8
0
  6
Continuous
 62
     7
370
    25
100
AcDbLine
 10
76.6201951991
 20
111.9877109811
 30
0.0
 11
123.1026934498
 21
116.451081381
 31
0.0
  0
LWPOLYLINE
  5
13B
330
1F
100
AcDbEntity
  8
0
  6
Continuous
 62
     7
370
    25
100
AcDbPolyline
 90
       23
 70
   128
 43
0.0
 10
85.0373574488
 20
117.7172542903
 10
85.6612762471
 20
117.8681289674
 10
86.2363977476
 20
118.1888773509
 10
86.7161290266
 20
118.6535143141
 10
87.0616051091
 20
119.2243977338
 10
87.2448375774
 20
119.8552780303
 10
87.2509820268
 20
120.4950450341
 10
87.0795406703
 20
121.0918686274
 10
86.7444026672
 20
121.597397712
 10
86.2727189054
 20
121.9706773281
 10
85.7027023979
 20
122.1814665811
 10
85.0805324922
 20
122.2126885793
 10
84.4566136939
 20
122.0618139022
 10
83.8814921935
 20
121.7410655188
 10
83.4017609144
 20
121.2764285555
 10
83.056284832
 20
120.7055451358
 10
82.8730523636
 20
120.0746648393
 10
82.8669079143
 20
119.4348978355
 10
83.0383492707
 20
118.8380742422
 10
83.3734872738
 20
118.3325451576
 10
83.8451710357
 20
117.9592655415
 10
84.4151875432
 20
117.7484762885
 10
85.0373574488
 20
117.7172542903
  0
LWPOLYLINE
  5
13C
330
1F
100
AcDbEntity
  8
0
  6
Continuous
 62
     7
370
    25
100
AcDbPolyline
 90
       23
 70
   128
 43
0.0
 10
113.2689462082
 20
120.4281248836
 10
113.8928650064
 20
120.5789995607
 10
114.4679865069
 20
120.8997479442
 10
114.947717786
 20
121.3643849074
 10
115.2931938684
 20
121.9352683271
 10
115.4764263368
 20
122.5661486236
 10
115.4825707861
 20
123.2059156274
 10
115.3111294296
 20
123.8027392207
 10
114.9759914266
 20
124.3082683053
 10
114.5043076647
 20
124.6815479214
 10
113.9342911572
 20
124.8923371744
 10
113.3121212515
 20
124.9235591726
 10
112.6882024533
 20
124.7726844955
 10
112.1130809528
 20
124.4519361121
 10
111.6333496737
 20
123.9872991488
 10
111.2878735913
 20
123.4164157291
 10
111.1046411229
 20
122.7855354326
 10
111.0984966736
 20
122.1457684288
 10
111.2699380301
 20
121.5489448355
 10
111.6050760331
 20
121.0434157509
 10
112.076759795
 20
120.6701361348
 10
112.6467763025
 20
120.4593468818
 10
113.2689462082
 20
120.4281248836
  0
LWPOLYLINE
  5
13D
330
1F
100
AcDbEntity
  8
0
  6
Continuous
 62
     7
370
    25
100
AcDbPolyline
 90
        3
 70
   128
 43
0.0
 10
75.3261531994
 20
111.8121228679
 10
75.3013444897
 20
111.8247214732
 10
75.2768987434
 20
111.8418683488
  0
LWPOLYLINE
  5
13E
330
1F
100
AcDbEntity
  8
0
  6
Continuous
 62
     7
370
    25
100
AcDbPolyline
 90
        8
 70
   128
 43
0.0
 10
76.4746115216
 20
111.8472407762
 10
76.4999401124
 20
111.8528111198
 10
76.5592479992
 20
111.8932280669
 10
76.6116301541
 20
111.970131237
 10
76.6550735603
 20
112.0805652844
 10
76.6879087121
 20
112.2202862906
 10
76.7088737729
 20
112.3839248555
 10
76.7171630673
 20
112.5651924411
  0
LWPOLYLINE
  5
13F
330
1F
100
AcDbEntity
  8
0
  6
Continuous
 62
     7
370
    25
100
AcDbPolyline
 90
       17
 70
   128
 43
0.0
 10
84.6343957506
 20
119.2288371398
 10
85.0403234622
 20
119.3496481094
 10
85.3860256861
 20
119.6158832486
 10
85.6188723924
 20
119.9870106708
 10
85.703414781
 20
120.4065295903
 10
85.6267820395
 20
120.8105720545
 10
85.4006408081
 20
121.1376262609
 10
85.0594190394
 20
121.3379011714
 10
84.6550646544
 20
121.3809067463
 10
84.2491369428
 20
121.2600957766
 10
83.9034347189
 20
120.9938606375
 10
83.6705880126
 20
120.6227332153
 10
83.586045624
 20
120.2032142958
 10
83.6626783656
 20
119.7991718316
 10
83.8888195969
 20
119.4721176252
 10
84.2300413657
 20
119.2718427147
 10
84.6343957506
 20
119.2288371398
  0
ELLIPSE
  5
140
330
1F
100
AcDbEntity
  8
0
  6
Continuous
 62
     7
370
    25
100
AcDbEllipse
 10
84.5920106419
 20
120.3481330888
 30
0.0
 11
0.6862277804222287
 21
0.8915947524469914
 31
0.0
210
0.0
220
0.0
230
1.0
 40
0.9041944122
 41
3.113377379572745
 42
3.843301614969345
  0
ELLIPSE
  5
141
330
1F
100
AcDbEntity
  8
0
  6
Continuous
 62
     7
370
    25
100
AcDbEllipse
 10
84.5920106419
 20
120.3481330888
 30
0.0
 11
0.6862277804222287
 21
0.8915947524469914
 31
0.0
210
0.0
220
0.0
230
1.0
 40
0.9041944122
 41
3.843301614969331
 42
6.254970033162564
  0
LWPOLYLINE
  5
142
330
1F
100
AcDbEntity
  8
0
  6
Continuous
 62
     7
370
    25
100
AcDbPolyline
 90
       17
 70
   128
 43
0.0
 10
112.86598451
 20
121.9397077331
 10
113.2719122215
 20
122.0605187027
 10
113.6176144454
 20
122.3267538419
 10
113.8504611518
 20
122.6978812641
 10
113.9350035403
 20
123.1174001836
 10
113.8583707988
 20
123.5214426478
 10
113.6322295674
 20
123.8484968542
 10
113.2910077987
 20
124.0487717647
 10
112.8866534137
 20
124.0917773396
 10
112.4807257021
 20
123.9709663699
 10
112.1350234783
 20
123.7047312308
 10
111.9021767719
 20
123.3336038086
 10
111.8176343834
 20
122.9140848891
 10
111.8942671249
 20
122.5100424249
 10
112.1204083563
 20
122.1829882185
 10
112.461630125
 20
121.982713308
 10
112.86598451
 20
121.9397077331
  0
ARC
  5
143
330
1F
100
AcDbEntity
  8
0
  6
Continuous
 62
     7
370
    25
100
AcDbCircle
 10
124.5472480465
 20
133.0219287644
 30
0.0
 40
0.2123010091392835
100
AcDbArc
 50
51.0903925894
 51
96.2049569564
  0
LWPOLYLINE
  5
144
330
1F
100
AcDbEntity
  8
0
  6
Continuous
 62
     7
370
    25
100
AcDbPolyline
 90
        8
 70
   128
 43
0.0
 10
124.1451634757
 20
131.6921502396
 10
124.3222566408
 20
131.7151105647
 10
124.4795498954
 20
131.7478515462
 10
124.6109985481
 20
131.7891149666
 10
124.7115511008
 20
131.8373150959
 10
124.7773433753
 20
131.8905996301
 10
124.8058470115
 20
131.9469208744
 10
124.8069828541
 20
131.9600162866
  0
ELLIPSE
  5
145
330
1F
100
AcDbEntity
  8
0
  6
Continuous
 62
     7
370
    25
100
AcDbEllipse
 10
112.8235994012
 20
123.0590036821
 30
0.0
 11
0.6862277804222146
 21
0.8915947524469914
 31
0.0
210
0.0
220
0.0
230
1.0
 40
0.9041944122
 41
3.113377379572734
 42
3.843301614969318
  0
ELLIPSE
  5
146
330
1F
100
AcDbEntity
  8
0
  6
Continuous
 62
     7
370
    25
100
AcDbEllipse
 10
112.8235994012
 20
123.0590036821
 30
0.0
 11
0.6862277804222146
 21
0.8915947524469914
 31
0.0
210
0.0
220
0.0
230
1.0
 40
0.9041944122
 41
3.843301614969304
 42
6.254970033162564
  0
ARC
  5
147
330
1F
100
AcDbEntity
  8
0
  6
Continuous
 62
     7
370
    25
100
AcDbCircle
 10
115.0794819204
 20
140.7910832381
 30
0.0
 40
0.2123010091391084
100
AcDbArc
 50
51.0903925894
 51
96.2049569565
  0
LINE
  5
148
330
1F
100
AcDbEntity
  8
0
  6
Continuous
 62
     7
370
    25
100
AcDbLine
 10
113.1444518041
 20
123.6307469939
 30
0.0
 11
113.1438132914
 21
124.0841940952
 31
0.0
  0
LINE
  5
149
330
1F
100
AcDbEntity
  8
0
  6
Continuous
 62
     7
370
    25
100
AcDbLine
 10
113.1444518041
 20
123.6307469939
 30
0.0
 11
113.8743846189
 21
123.0317714048
 31
0.0
  0
LINE
  5
14A
330
1F
100
AcDbEntity
  8
0
  6
Continuous
 62
     7
370
    25
100
AcDbLine
 10
83.7649147711
 20
120.8096474211
 30
0.0
 11
85.510497696
 21
120.9772628345
 31
0.0
  0
LINE
  5
14B
330
1F
100
AcDbEntity
  8
0
  6
Continuous
 62
     7
370
    25
100
AcDbLine
 10
111.9965035304
 20
123.5205180144
 30
0.0
 11
113.1444518041
 21
123.6307469939
 31
0.0
  0
LWPOLYLINE
  5
14C
330
1F
100
AcDbEntity
  8
0
  6
Continuous
 62
     7
370
    25
100
AcDbPolyline
 90
        3
 70
   128
 43
0.0
 10
67.3075300299
 20
136.6496105771
 10
67.2909942101
 20
136.6585488938
 10
67.2813377454
 20
136.6593470988
  0
LWPOLYLINE
  5
14D
330
1F
100
AcDbEntity
  8
0
  6
Continuous
 62
     7
370
    25
100
AcDbPolyline
 90
        3
 70
   128
 43
0.0
 10
65.867903411
 20
135.1295088095
 10
65.8706541608
 20
135.1183005532
 10
65.8826267946
 20
135.104413816
  0
LWPOLYLINE
  5
14E
330
1F
100
AcDbEntity
  8
0
  6
Continuous
 62
     7
370
    25
100
AcDbPolyline
 90
        3
 70
   128
 43
0.0
 10
114.0971446911
 20
141.1424710936
 10
114.0806088713
 20
141.1514094104
 10
114.0709524065
 20
141.1522076154
  0
SPLINE
  5
14F
330
1F
100
AcDbEntity
  8
0
  6
Continuous
 62
     7
370
    25
100
AcDbSpline
210
0.0
220
0.0
230
1.0
 70
    11
 71
     3
 72
    39
 73
    35
 74
     0
 42
0.00000001
 43
0.00000001
 40
0.0
 40
0.0
 40
0.0
 40
0.0
 40
0.029129008105451
 40
0.0600028324322984
 40
0.0921602034406938
 40
0.125
 40
0.1578397965593062
 40
0.1899971675677016
 40
0.2208709918945491
 40
0.2500000000000001
 40
0.2791290081054509
 40
0.3100028324322984
 40
0.3421602034406938
 40
0.3749999999999999
 40
0.4078397965593061
 40
0.4399971675677017
 40
0.4708709918945491
 40
0.5
 40
0.5291290081054509
 40
0.5600028324322983
 40
0.5921602034406938
 40
0.625
 40
0.6578397965593061
 40
0.6899971675677017
 40
0.7208709918945491
 40
0.7499999999999999
 40
0.7791290081054508
 40
0.8100028324322982
 40
0.8421602034406936
 40
0.875
 40
0.9078397965593061
 40
0.9399971675677017
 40
0.9708709918945491
 40
1.0
 40
1.0
 40
1.0
 40
1.0
 10
107.3331949803384
 20
157.9566350411013
 30
0.0
 10
107.7536699671982
 20
157.9742869531828
 30
0.0
 10
108.6198062285907
 20
158.010648119993
 30
0.0
 10
109.9015923439455
 20
157.7440424444386
 30
0.0
 10
111.1315436465861
 20
157.2159732750575
 30
0.0
 10
112.2258689264607
 20
156.4100189435046
 30
0.0
 10
113.1111551236518
 20
155.3752053150716
 30
0.0
 10
113.739471690505
 20
154.1801950896682
 30
0.0
 10
114.0965010355349
 20
152.9091029876548
 30
0.0
 10
114.2020134145301
 20
151.612059945236
 30
0.0
 10
114.0713691905045
 20
150.2923468940606
 30
0.0
 10
113.6892423418368
 20
148.9502585670676
 30
0.0
 10
113.0367911606974
 20
147.6323454904435
 30
0.0
 10
112.1299721988762
 20
146.4251433421001
 30
0.0
 10
111.0181421986858
 20
145.408486420971
 30
0.0
 10
109.7757280276382
 20
144.6389076537117
 30
0.0
 10
108.4865881634253
 20
144.1398326913304
 30
0.0
 10
107.1981558792453
 20
143.8962112946038
 30
0.0
 10
105.9120288611799
 20
143.8926168097636
 30
0.0
 10
104.6301043396839
 20
144.1448114815555
 30
0.0
 10
103.4001925143743
 20
144.6769910752253
 30
0.0
 10
102.3058562931081
 20
145.4818061767294
 30
0.0
 10
101.4205730367515
 20
146.5169260081736
 30
0.0
 10
100.7922557027788
 20
147.7118563602319
 30
0.0
 10
100.4352265550517
 20
148.9829690056374
 30
0.0
 10
100.3297141148925
 20
150.2800056795884
 30
0.0
 10
100.4603584000821
 20
151.5997250992316
 30
0.0
 10
100.8424850514471
 20
152.9417928828325
 30
0.0
 10
101.4949369997059
 20
154.2597858328017
 30
0.0
 10
102.4017530206926
 20
155.4666817781339
 30
0.0
 10
103.5135939622746
 20
156.4844779293119
 30
0.0
 10
104.7559686559912
 20
157.2499462722824
 30
0.0
 10
106.0452469263453
 20
157.7634322384262
 30
0.0
 10
106.9122831145246
 20
157.8934947988358
 30
0.0
 10
107.3331949803384
 20
157.9566350411013
 30
0.0
  0
ARC
  5
150
330
1F
100
AcDbEntity
  8
0
  6
Continuous
 62
     7
370
    25
100
AcDbCircle
 10
107.8562333832
 20
151.973023246
 30
0.0
 40
6.632060992053336
100
AcDbArc
 50
352.706952817
 51
95.9118302724
  0
ARC
  5
151
330
1F
100
AcDbEntity
  8
0
  6
Continuous
 62
     7
370
    25
100
AcDbCircle
 10
106.3918823372
 20
150.180881781
 30
0.0
 40
6.651809616300842
100
AcDbArc
 50
184.7983071307
 51
291.4346571219
  0
LWPOLYLINE
  5
152
330
1F
100
AcDbEntity
  8
0
  6
Continuous
 62
     7
370
    25
100
AcDbPolyline
 90
       41
 70
   128
 43
0.0
 10
107.1992639737
 20
144.0115873434
 10
106.1327888356
 20
143.9944774358
 10
105.094213763
 20
144.1485379181
 10
104.1091119209
 20
144.4699753099
 10
103.2017397862
 20
144.9508747559
 10
102.3944398721
 20
145.5793949156
 10
101.7070905818
 20
146.3400595368
 10
101.156616736
 20
147.214138532
 10
100.7565728278
 20
148.1801091755
 10
100.5168092657
 20
149.2141860641
 10
100.4432298245
 20
150.290906793
 10
100.5376462742
 20
151.3837589243
 10
100.7977337684
 20
152.4658328116
 10
101.2170880899
 20
153.5104842047
 10
101.7853833434
 20
154.4919903192
 10
102.4886262139
 20
155.3861832171
 10
103.3095005278
 20
156.1710449017
 10
104.2277936353
 20
156.8272494734
 10
105.2208941124
 20
157.3386389979
 10
106.2643485295
 20
157.6926213679
 10
107.3324635757
 20
157.8804803627
 10
108.3989387138
 20
157.8975902703
 10
109.4375137864
 20
157.743529788
 10
110.4226156285
 20
157.4220923962
 10
111.3299877632
 20
156.9411929502
 10
112.1372876773
 20
156.3126727905
 10
112.8246369676
 20
155.5520081693
 10
113.3751108134
 20
154.677929174
 10
113.7751547216
 20
153.7119585306
 10
114.0149182837
 20
152.6778816419
 10
114.0884977249
 20
151.6011609131
 10
113.9940812752
 20
150.5083087818
 10
113.733993781
 20
149.4262348944
 10
113.3146394595
 20
148.3815835014
 10
112.746344206
 20
147.4000773869
 10
112.0431013355
 20
146.505884489
 10
111.2222270216
 20
145.7210228044
 10
110.3039339141
 20
145.0648182327
 10
109.310833437
 20
144.5534287082
 10
108.2673790199
 20
144.1994463382
 10
107.1992639737
 20
144.0115873434
  0
SPLINE
  5
153
330
1F
100
AcDbEntity
  8
0
  6
Continuous
 62
     7
370
    25
100
AcDbSpline
210
0.0
220
0.0
230
1.0
 70
     8
 71
     3
 72
    10
 73
     6
 74
     0
 42
0.00000001
 43
0.00000001
 40
0.0
 40
0.0
 40
0.0
 40
0.0
 40
0.0293904055451649
 40
0.6462902581999513
 40
0.9999999999999999
 40
0.9999999999999999
 40
0.9999999999999999
 40
0.9999999999999999
 10
100.9629964493758
 20
145.8657011177588
 30
0.0
 10
100.9456768294617
 20
145.8777010973831
 30
0.0
 10
100.5648211924403
 20
146.1415787059402
 30
0.0
 10
100.0922981182986
 20
146.5259873650631
 30
0.0
 10
99.78261783952772
 20
146.7522536824618
 30
0.0
 10
99.66976409063587
 20
146.8347096989306
 30
0.0
  0
LWPOLYLINE
  5
154
330
1F
100
AcDbEntity
  8
0
  6
Continuous
 62
     7
370
    25
100
AcDbPolyline
 90
       18
 70
   128
 43
0.0
 10
99.6697640906
 20
146.8347096989
 10
98.9237558173
 20
147.6046321377
 10
98.3101072929
 20
148.4915969943
 10
97.84241184
 20
149.4759565407
 10
97.5310296808
 20
150.5359055963
 10
97.3828584416
 20
151.6479645489
 10
97.4011803587
 20
152.7874994664
 10
97.5855895715
 20
153.9292677791
 10
97.9320011132
 20
155.0479774437
 10
98.4327413991
 20
156.1188472041
 10
99.0767182096
 20
157.1181555363
 10
99.8496664008
 20
158.0237661199
 10
100.734463901
 20
158.8156181931
 10
101.7115109923
 20
159.4761709321
 10
102.7591644774
 20
159.990792009
 10
103.8542171109
 20
160.3480817218
 10
104.9724116788
 20
160.5401255166
 10
105.0664370793
 20
160.548557752
  0
LWPOLYLINE
  5
155
330
1F
100
AcDbEntity
  8
0
  6
Continuous
 62
     7
370
    25
100
AcDbPolyline
 90
        3
 70
   128
 43
0.0
 10
109.9920800704
 20
159.057569572
 10
110.0562344287
 20
159.0038273329
 10
110.2657806519
 20
158.8180224745
  0
LWPOLYLINE
  5
156
330
1F
100
AcDbEntity
  8
0
  6
Continuous
 62
     7
370
    25
100
AcDbPolyline
 90
       36
 70
   128
 43
0.0
 10
107.0439759899
 20
145.5850353156
 10
108.011005929
 20
145.7661935163
 10
108.9486524255
 20
146.1182951014
 10
109.8267787496
 20
146.6300232361
 10
110.6171611986
 20
147.2849305572
 10
111.2943962303
 20
148.0619678044
 10
111.8367169536
 20
148.9361603614
 10
112.2266927342
 20
149.8794109601
 10
112.4517894297
 20
150.86140275
 10
112.504772247
 20
151.8505737071
 10
112.3839382747
 20
152.8151310629
 10
112.0931712163
 20
153.7240731505
 10
111.6418165641
 20
154.5481858231
 10
111.0443812282
 20
155.2609814214
 10
110.3200672716
 20
155.8395501085
 10
109.4921547411
 20
156.2652962106
 10
108.5872534265
 20
156.5245358977
 10
107.6344476006
 20
156.608936993
 10
106.6643612266
 20
156.5157867758
 10
105.7081736789
 20
156.2480791708
 10
104.7966176119
 20
155.8144185206
 10
103.9589911876
 20
155.2287430354
 10
103.2222164086
 20
154.5098768071
 10
102.6099738224
 20
153.6809247879
 10
102.1419414095
 20
152.7685301776
 10
101.8331621169
 20
151.8020180898
 10
101.6935603649
 20
150.8124530183
 10
101.7276230688
 20
149.8316403985
 10
101.9342554253
 20
148.8911043553
 10
102.3068161003
 20
148.0210744907
 10
102.8333306873
 20
147.2495142807
 10
103.4968765742
 20
146.6012223051
 10
104.2761268503
 20
146.0970352015
 10
105.1460357704
 20
145.7531579582
 10
106.0786437462
 20
145.5806430728
 10
107.0439759899
 20
145.5850353156
  0
LWPOLYLINE
  5
157
330
1F
100
AcDbEntity
  8
0
  6
Continuous
 62
     7
370
    25
100
AcDbPolyline
 90
       19
 70
   128
 43
0.0
 10
99.2521970162
 20
137.6375370371
 10
99.2767127256
 20
137.4814571514
 10
99.4612571268
 20
137.1930752293
 10
99.8208062006
 20
136.9176479653
 10
100.3434668265
 20
136.6642859087
 10
101.0119505004
 20
136.4413697388
 10
101.804145201
 20
136.2562730492
 10
102.693846809
 20
136.1151184457
 10
103.6516258833
 20
136.0225750229
 10
104.6458011249
 20
135.9817039209
 10
105.6434873268
 20
135.9938570689
 10
106.6116831468
 20
136.0586324668
 10
107.518362722
 20
136.1738874816
 10
108.3335350164
 20
136.3358097223
 10
109.0302358604
 20
136.5390431446
 10
109.5854198688
 20
136.7768652184
 10
109.9807227329
 20
137.0414092941
 10
110.2030686728
 20
137.3239248151
 10
110.2516897279
 20
137.5318957253
  0
LINE
  5
158
330
1F
100
AcDbEntity
  8
0
  6
Continuous
 62
     7
370
    25
100
AcDbLine
 10
99.3539924164
 20
146.7723689331
 30
0.0
 11
99.3594916786
 21
146.7698807458
 31
0.0
  0
LINE
  5
159
330
1F
100
AcDbEntity
  8
0
  6
Continuous
 62
     7
370
    25
100
AcDbLine
 10
99.357335354
 20
147.1204393777
 30
0.0
 11
99.3539924164
 21
146.7723689331
 31
0.0
  0
LWPOLYLINE
  5
15A
330
1F
100
AcDbEntity
  8
0
  6
Continuous
 62
     7
370
    25
100
AcDbPolyline
 90
       18
 70
   128
 43
0.0
 10
104.4904653923
 20
160.9211762052
 10
104.4648490991
 20
160.9187609366
 10
103.3377964236
 20
160.7240844016
 10
102.2346989
 20
160.3607651474
 10
101.1806293674
 20
159.8370612335
 10
100.1995462843
 20
159.1648761807
 10
99.3137491645
 20
158.3594884095
 10
98.5433717208
 20
157.4392039695
 10
97.9059242363
 20
156.4249404528
 10
97.4158955645
 20
155.3397515474
 10
97.0844238049
 20
154.2083030388
 10
96.9190431402
 20
153.0563121697
 10
96.9235125878
 20
151.9099631001
 10
97.0977305595
 20
150.7953117546
 10
97.4377371704
 20
149.7376935849
 10
97.9358042451
 20
148.761147708
 10
98.5806109752
 20
147.8878705094
 10
99.0512126027
 20
147.4039411709
  0
LWPOLYLINE
  5
15B
330
1F
100
AcDbEntity
  8
0
  6
Continuous
 62
     7
370
    25
100
AcDbPolyline
 90
       25
 70
   128
 43
0.0
 10
111.4196523575
 20
137.6649878464
 10
111.629100395
 20
137.4192589764
 10
111.7452460841
 20
137.0914019451
 10
111.6801499477
 20
136.7639353935
 10
111.4354979417
 20
136.4453405334
 10
111.0176264243
 20
136.1438688043
 10
110.4373580486
 20
135.8673281657
 10
109.7097214605
 20
135.6228808747
 10
108.8535620655
 20
135.4168579879
 10
107.8910539422
 20
135.2545953898
 10
106.8471255454
 20
135.1402955964
 10
105.7488140723
 20
135.0769189124
 10
104.6245652131
 20
135.0661067606
 10
103.5034964226
 20
135.10813917
 10
102.4146427938
 20
135.2019275233
 10
101.3862050636
 20
135.3450427515
 10
100.4448192291
 20
135.5337782452
 10
99.6148666888
 20
135.7632458544
 10
98.9178427776
 20
136.0275024885
 10
98.3718000486
 20
136.3197040394
 10
97.9908807219
 20
136.6322826406
 10
97.7849504077
 20
136.9571426704
 10
97.7593425931
 20
137.2858704246
 10
97.914720507
 20
137.6099520272
 10
98.0870060845
 20
137.7930372282
  0
LWPOLYLINE
  5
15C
330
1F
100
AcDbEntity
  8
0
  6
Continuous
 62
     7
370
    25
100
AcDbPolyline
 90
       28
 70
   128
 43
0.0
 10
110.2613930649
 20
138.5422181346
 10
110.66639646
 20
138.3190018463
 10
111.0293944988
 20
138.0211292753
 10
111.221160035
 20
137.7113524982
 10
111.2364622047
 20
137.398121418
 10
111.0748836044
 20
137.089980162
 10
110.7408316773
 20
136.7953340203
 10
110.2434184891
 20
136.5222201717
 10
109.5962121749
 20
136.27808845
 10
108.8168668358
 20
136.0695981322
 10
107.9266409811
 20
135.9024362905
 10
106.9498176515
 20
135.7811626644
 10
105.9130420409
 20
135.7090852822
 10
104.8445946854
 20
135.688170227
 10
103.7736200436
 20
135.7189880069
 10
102.7293315119
 20
135.8006979933
 10
101.7402145592
 20
135.9310713508
 10
100.8332497175
 20
136.1065518339
 10
100.0331766235
 20
136.3223527927
 10
99.3618191854
 20
136.5725877394
 10
98.8374902841
 20
136.850430917
 10
98.4744922453
 20
137.148303488
 10
98.2827267091
 20
137.4580802651
 10
98.2674245394
 20
137.7713113453
 10
98.4290031397
 20
138.0794526013
 10
98.7630550668
 20
138.374098743
 10
99.260468255
 20
138.6472125916
 10
99.2619003532
 20
138.6478594464
  0
LWPOLYLINE
  5
15D
330
1F
100
AcDbEntity
  8
0
  6
Continuous
 62
     7
370
    25
100
AcDbPolyline
 90
       22
 70
   128
 43
0.0
 10
97.7384869228
 20
136.2172295995
 10
97.7523507573
 20
136.0828191865
 10
97.913519467
 20
135.7561957637
 10
98.251442888
 20
135.4397717495
 10
98.7573689812
 20
135.1417423597
 10
99.4181945264
 20
134.8698263989
 10
100.2168044892
 20
134.6310663477
 10
101.132515291
 20
134.4316459659
 10
102.1416105032
 20
134.2767301367
 10
103.2179550896
 20
134.1703310988
 10
104.3336722909
 20
134.1152045312
 10
105.4598656177
 20
134.1127781832
 10
106.5673672544
 20
134.1631148959
 10
107.6274934903
 20
134.2649109748
 10
108.6127876127
 20
134.4155299551
 10
109.4977310215
 20
134.6110708841
 10
110.2594041472
 20
134.8464693547
 10
110.8780800559
 20
135.1156286699
 10
111.3377353666
 20
135.411577745
 10
111.6264652481
 20
135.7266516544
 10
111.7367917482
 20
136.0526901493
 10
111.737841283
 20
136.082777021
  0
SPLINE
  5
15E
330
1F
100
AcDbEntity
  8
0
  6
Continuous
 62
     7
370
    25
100
AcDbSpline
210
0.0
220
0.0
230
1.0
 70
     8
 71
     3
 72
     9
 73
     5
 74
     0
 42
0.00000001
 43
0.00000001
 40
0.0
 40
0.0
 40
0.0
 40
0.0
 40
0.2862930771489476
 40
1.0
 40
1.0
 40
1.0
 40
1.0
 10
98.97000629324265
 20
157.938771819892
 30
0.0
 10
98.92907462287124
 20
157.9240286449161
 30
0.0
 10
98.78610340338166
 20
157.8725318531573
 30
0.0
 10
98.64829114555697
 20
157.8195393313034
 30
0.0
 10
98.54993358309373
 20
157.7817182015969
 30
0.0
  0
SPLINE
  5
15F
330
1F
100
AcDbEntity
  8
0
  6
Continuous
 62
     7
370
    25
100
AcDbSpline
210
0.0
220
0.0
230
1.0
 70
     8
 71
     3
 72
     9
 73
     5
 74
     0
 42
0.00000001
 43
0.00000001
 40
0.0
 40
0.0
 40
0.0
 40
0.0
 40
0.7860632125065526
 40
1.0
 40
1.0
 40
1.0
 40
1.0
 10
98.54993358309373
 20
157.7817182015969
 30
0.0
 10
98.53977716740853
 20
157.7057032947966
 30
0.0
 10
98.5268565580687
 20
157.6089999946155
 30
0.0
 10
98.51551035111859
 20
157.5099481999124
 30
0.0
 10
98.51308298005345
 20
157.4887573771581
 30
0.0
  0
LINE
  5
160
330
1F
100
AcDbEntity
  8
0
  6
Continuous
 62
     7
370
    25
100
AcDbLine
 10
99.7508388175
 20
158.8520081054
 30
0.0
 11
99.4515022738
 21
158.7749377875
 31
0.0
  0
SPLINE
  5
161
330
1F
100
AcDbEntity
  8
0
  6
Continuous
 62
     7
370
    25
100
AcDbSpline
210
0.0
220
0.0
230
1.0
 70
     8
 71
     3
 72
     9
 73
     5
 74
     0
 42
0.00000001
 43
0.00000001
 40
0.0
 40
0.0
 40
0.0
 40
0.0
 40
0.7861923976234336
 40
1.0
 40
1.0
 40
1.0
 40
1.0
 10
99.45150227383722
 20
158.7749377874592
 30
0.0
 10
99.43445413071419
 20
158.7065132172039
 30
0.0
 10
99.41276968912636
 20
158.6194803605366
 30
0.0
 10
99.39217600233509
 20
158.529781403883
 30
0.0
 10
99.38777291553816
 20
158.5106030850252
 30
0.0
  0
LINE
  5
162
330
1F
100
AcDbEntity
  8
0
  6
Continuous
 62
     7
370
    25
100
AcDbLine
 10
98.0496683285
 20
156.7811381908
 30
0.0
 11
97.8155905856
 21
156.6608922114
 31
0.0
  0
SPLINE
  5
163
330
1F
100
AcDbEntity
  8
0
  6
Continuous
 62
     7
370
    25
100
AcDbSpline
210
0.0
220
0.0
230
1.0
 70
     8
 71
     3
 72
    10
 73
     6
 74
     0
 42
0.00000001
 43
0.00000001
 40
0.0
 40
0.0
 40
0.0
 40
0.0
 40
0.4797318113379627
 40
0.959465028068289
 40
1.0
 40
1.0
 40
1.0
 40
1.0
 10
97.81559058563691
 20
156.6608922114129
 30
0.0
 10
97.8138975233234
 20
156.5784563905068
 30
0.0
 10
97.81051139373653
 20
156.4135845071957
 30
0.0
 10
97.80897748872002
 20
156.2406114309746
 30
0.0
 10
97.80963496421231
 20
156.1482860924336
 30
0.0
 10
97.80968618923664
 20
156.1410928696152
 30
0.0
  0
LINE
  5
164
330
1F
100
AcDbEntity
  8
0
  6
Continuous
 62
     7
370
    25
100
AcDbLine
 10
100.817469541
 20
159.6572248672
 30
0.0
 11
100.4929029494
 21
159.6103724945
 31
0.0
  0
SPLINE
  5
165
330
1F
100
AcDbEntity
  8
0
  6
Continuous
 62
     7
370
    25
100
AcDbSpline
210
0.0
220
0.0
230
1.0
 70
     8
 71
     3
 72
     9
 73
     5
 74
     0
 42
0.00000001
 43
0.00000001
 40
0.0
 40
0.0
 40
0.0
 40
0.0
 40
0.5242987559102259
 40
1.0
 40
1.0
 40
1.0
 40
1.0
 10
100.4929029494095
 20
159.6103724944745
 30
0.0
 10
100.4705298498053
 20
159.5505897521922
 30
0.0
 10
100.4278574242996
 20
159.4365655596715
 30
0.0
 10
100.3860383467172
 20
159.3181944832443
 30
0.0
 10
100.3661449594845
 20
159.2618852149237
 30
0.0
  0
SPLINE
  5
166
330
1F
100
AcDbEntity
  8
0
  6
Continuous
 62
     7
370
    25
100
AcDbSpline
210
0.0
220
0.0
230
1.0
 70
     8
 71
     3
 72
     9
 73
     5
 74
     0
 42
0.00000001
 43
0.00000001
 40
0.0
 40
0.0
 40
0.0
 40
0.0
 40
0.7858816461216048
 40
1.0
 40
1.0
 40
1.0
 40
1.0
 10
97.27078592184525
 20
155.446515547451
 30
0.0
 10
97.27811831864217
 20
155.3599491700588
 30
0.0
 10
97.28744847265851
 20
155.2497972434687
 30
0.0
 10
97.29914849751779
 20
155.1381473331746
 30
0.0
 10
97.301653687581
 20
155.1142410381717
 30
0.0
  0
SPLINE
  5
167
330
1F
100
AcDbEntity
  8
0
  6
Continuous
 62
     7
370
    25
100
AcDbSpline
210
0.0
220
0.0
230
1.0
 70
     8
 71
     3
 72
     9
 73
     5
 74
     0
 42
0.00000001
 43
0.00000001
 40
0.0
 40
0.0
 40
0.0
 40
0.0
 40
0.2222903880416562
 40
0.9999999999999999
 40
0.9999999999999999
 40
0.9999999999999999
 40
0.9999999999999999
 10
97.55216930392703
 20
155.6345405859807
 30
0.0
 10
97.53063912729918
 20
155.6205336090553
 30
0.0
 10
97.43378304270854
 20
155.5575215416026
 30
0.0
 10
97.34209364655136
 20
155.4950782756131
 30
0.0
 10
97.27078592184525
 20
155.446515547451
 30
0.0
  0
LINE
  5
168
330
1F
100
AcDbEntity
  8
0
  6
Continuous
 62
     7
370
    25
100
AcDbLine
 10
101.9862818794
 20
160.2746874003
 30
0.0
 11
101.6424931773
 21
160.2626380618
 31
0.0
  0
SPLINE
  5
169
330
1F
100
AcDbEntity
  8
0
  6
Continuous
 62
     7
370
    25
100
AcDbSpline
210
0.0
220
0.0
230
1.0
 70
     8
 71
     3
 72
     9
 73
     5
 74
     0
 42
0.00000001
 43
0.00000001
 40
0.0
 40
0.0
 40
0.0
 40
0.0
 40
0.786579387884628
 40
0.9999999999999999
 40
0.9999999999999999
 40
0.9999999999999999
 40
0.9999999999999999
 10
101.6424931772633
 20
160.262638061824
 30
0.0
 10
101.6164076455293
 20
160.212877276726
 30
0.0
 10
101.5832443919077
 20
160.1496150226363
 30
0.0
 10
101.5501061070179
 20
160.0833149319025
 30
0.0
 10
101.5430337139723
 20
160.0691651259548
 30
0.0
  0
LINE
  5
16A
330
1F
100
AcDbEntity
  8
0
  6
Continuous
 62
     7
370
    25
100
AcDbLine
 10
103.2217622564
 20
160.6856342617
 30
0.0
 11
102.86534324
 21
160.7119157303
 31
0.0
  0
SPLINE
  5
16B
330
1F
100
AcDbEntity
  8
0
  6
Continuous
 62
     7
370
    25
100
AcDbSpline
210
0.0
220
0.0
230
1.0
 70
     8
 71
     3
 72
     9
 73
     5
 74
     0
 42
0.00000001
 43
0.00000001
 40
0.0
 40
0.0
 40
0.0
 40
0.0
 40
0.7868860346215999
 40
1.0
 40
1.0
 40
1.0
 40
1.0
 10
102.8653432400432
 20
160.7119157303041
 30
0.0
 10
102.8373866907484
 20
160.6726613369964
 30
0.0
 10
102.8018586116304
 20
160.6227755955031
 30
0.0
 10
102.7658059744556
 20
160.5698093397445
 30
0.0
 10
102.7581226539849
 20
160.5585214909485
 30
0.0
  0
SPLINE
  5
16C
330
1F
100
AcDbEntity
  8
0
  6
Continuous
 62
     7
370
    25
100
AcDbSpline
210
0.0
220
0.0
230
1.0
 70
     8
 71
     3
 72
     9
 73
     5
 74
     0
 42
0.00000001
 43
0.00000001
 40
0.0
 40
0.0
 40
0.0
 40
0.0
 40
0.7857827896934243
 40
1.0
 40
1.0
 40
1.0
 40
1.0
 10
96.80974405182053
 20
152.8864244360559
 30
0.0
 10
96.83768882759745
 20
152.7964589766823
 30
0.0
 10
96.8732518052338
 20
152.6819674650921
 30
0.0
 10
96.91167386397923
 20
152.5670263960446
 30
0.0
 10
96.9199045302179
 20
152.5424040408836
 30
0.0
  0
LINE
  5
16D
330
1F
100
AcDbEntity
  8
0
  6
Continuous
 62
     7
370
    25
100
AcDbLine
 10
96.9245937344
 20
153.0199673604
 30
0.0
 11
96.8097440518
 21
152.8864244361
 31
0.0
  0
LINE
  5
16E
330
1F
100
AcDbEntity
  8
0
  6
Continuous
 62
     7
370
    25
100
AcDbLine
 10
104.4699503855
 20
160.8806163355
 30
0.0
 11
104.1242974574
 21
160.9445544253
 31
0.0
  0
SPLINE
  5
16F
330
1F
100
AcDbEntity
  8
0
  6
Continuous
 62
     7
370
    25
100
AcDbSpline
210
0.0
220
0.0
230
1.0
 70
     8
 71
     3
 72
     9
 73
     5
 74
     0
 42
0.00000001
 43
0.00000001
 40
0.0
 40
0.0
 40
0.0
 40
0.0
 40
0.7873427605388228
 40
1.0
 40
1.0
 40
1.0
 40
1.0
 10
104.1242974573837
 20
160.9445544253036
 30
0.0
 10
104.0963291270315
 20
160.9161707488209
 30
0.0
 10
104.0608066941675
 20
160.8801207869678
 30
0.0
 10
104.0242216057372
 20
160.841046019204
 30
0.0
 10
104.0164415218262
 20
160.8327364869588
 30
0.0
  0
LINE
  5
170
330
1F
100
AcDbEntity
  8
0
  6
Continuous
 62
     7
370
    25
100
AcDbLine
 10
96.9075153695
 20
151.6184970616
 30
0.0
 11
96.9945215538
 21
151.4217257992
 31
0.0
  0
LINE
  5
171
330
1F
100
AcDbEntity
  8
0
  6
Continuous
 62
     7
370
    25
100
AcDbLine
 10
96.9816951461
 20
151.7419953535
 30
0.0
 11
96.9075153695
 21
151.6184970616
 31
0.0
  0
LINE
  5
172
330
1F
100
AcDbEntity
  8
0
  6
Continuous
 62
     7
370
    25
100
AcDbLine
 10
97.2224164268
 20
150.4102296384
 30
0.0
 11
97.369365503
 21
150.1574952966
 31
0.0
  0
LINE
  5
173
330
1F
100
AcDbEntity
  8
0
  6
Continuous
 62
     7
370
    25
100
AcDbLine
 10
97.2550828745
 20
150.5093651845
 30
0.0
 11
97.2224164268
 21
150.4102296384
 31
0.0
  0
LWPOLYLINE
  5
174
330
1F
100
AcDbEntity
  8
0
  6
Continuous
 62
     7
370
    25
100
AcDbPolyline
 90
       56
 70
   128
 43
0.0
 10
85.4583608892
 20
208.8568360245
 10
84.8740594645
 20
209.2201429359
 10
84.1983803549
 20
209.4276178303
 10
83.4401320711
 20
209.476555955
 10
82.6091995389
 20
209.3663193269
 10
81.7164152346
 20
209.0983450489
 10
80.7734179671
 20
208.6761265757
 10
79.7925011478
 20
208.1051681706
 10
78.7864525276
 20
207.3929131496
 10
77.7683874888
 20
206.5486468463
 10
76.7515780661
 20
205.583375563
 10
75.7492799253
 20
204.5096830871
 10
74.7745595556
 20
203.3415666419
 10
73.8401239275
 20
202.0942544119
 10
72.9581548386
 20
200.7840070194
 10
72.1401501047
 20
199.4279055429
 10
71.3967736685
 20
198.0436288391
 10
70.7377165786
 20
196.6492230717
 10
70.1715706522
 20
195.2628664525
 10
69.7057164672
 20
193.9026322602
 10
69.3462271454
 20
192.5862532275
 10
69.0977891798
 20
191.3308903685
 10
68.9636413392
 20
190.1529092576
 10
68.9455324459
 20
189.0676666804
 10
69.043698577
 20
188.0893104333
 10
69.2568599869
 20
187.2305948863
 10
69.5822377906
 20
186.5027147097
 10
70.0155901908
 20
185.9151589349
 10
70.5512677762
 20
185.4755872499
 10
71.1822871704
 20
185.1897301438
 10
71.9004220705
 20
185.0613142012
 10
72.6963104899
 20
185.0920135202
 10
73.5595768057
 20
185.2814278884
 10
74.4789670215
 20
185.6270879998
 10
75.4424954797
 20
186.1244876461
 10
76.4376011133
 20
186.7671424623
 10
77.4513111986
 20
187.5466744601
 10
78.4704104744
 20
188.4529212478
 10
79.481613423
 20
189.4740685125
 10
80.4717374677
 20
190.5968040379
 10
81.4278748273
 20
191.8064912496
 10
82.337560789
 20
193.0873600248
 10
83.1889362053
 20
194.42271228
 10
83.9709020954
 20
195.7951396566
 10
84.6732643383
 20
197.1867504648
 10
85.2868665679
 20
198.5794029295
 10
85.8037095407
 20
199.954941696
 10
86.2170554183
 20
201.295434513
 10
86.521515605
 20
202.5834060065
 10
86.7131209966
 20
203.8020654985
 10
86.7893737238
 20
204.9355258986
 10
86.7492797157
 20
205.9690108173
 10
86.5933616591
 20
206.8890471981
 10
86.3236521842
 20
207.6836409597
 10
85.9436673665
 20
208.3424333573
 10
85.4583608892
 20
208.8568360245
  0
LWPOLYLINE
  5
175
330
1F
100
AcDbEntity
  8
0
  6
Continuous
 62
     7
370
    25
100
AcDbPolyline
 90
       20
 70
   128
 43
0.0
 10
81.3839471268
 20
209.7854749765
 10
81.3306631822
 20
209.7604050733
 10
80.3366374642
 20
209.2255615231
 10
79.3136305711
 20
208.5505107089
 10
78.2736363236
 20
207.7431669843
 10
77.2288477033
 20
206.8129957164
 10
76.1915139015
 20
205.7709023126
 10
75.1737967086
 20
204.6291043655
 10
74.1876279281
 20
203.400988412
 10
73.2445694874
 20
202.1009529888
 10
72.3556778844
 20
200.7442398225
 10
71.5313745604
 20
199.3467551346
 10
70.7813237183
 20
197.9248831554
 10
70.1143190184
 20
196.4952940337
 10
69.5381804809
 20
195.0747483949
 10
69.0596628035
 20
193.6799008379
 10
68.6843761684
 20
192.3271046748
 10
68.4167204682
 20
191.0322202039
 10
68.2598337214
 20
189.8104287616
 10
68.2153381028
 20
188.6971111054
  0
LWPOLYLINE
  5
176
330
1F
100
AcDbEntity
  8
0
  6
Continuous
 62
     7
370
    25
100
AcDbPolyline
 90
       25
 70
   128
 43
0.0
 10
72.2400602646
 20
184.1000857625
 10
72.543774072
 20
184.1472012399
 10
73.4453517228
 20
184.3845359257
 10
74.3987422232
 20
184.7729016603
 10
75.3927679412
 20
185.3077452104
 10
76.4157748342
 20
185.9827960246
 10
77.4557690817
 20
186.7901397492
 10
78.5005577021
 20
187.7203110172
 10
79.5378915039
 20
188.7624044209
 10
80.5556086968
 20
189.904202368
 10
81.5417774773
 20
191.1323183215
 10
82.484835918
 20
192.4323537447
 10
83.373727521
 20
193.789066911
 10
84.198030845
 20
195.1865515989
 10
84.9480816871
 20
196.6084235781
 10
85.615086387
 20
198.0380126998
 10
86.1912249244
 20
199.4585583386
 10
86.6697426019
 20
200.8534058956
 10
87.045029237
 20
202.2062020587
 10
87.3126849371
 20
203.5010865296
 10
87.469571684
 20
204.7228779719
 10
87.5138501238
 20
205.8572519979
 10
87.4450011324
 20
206.8909091095
 10
87.2638319013
 20
207.8117306221
 10
87.2190686929
 20
207.9658407023
  0
LWPOLYLINE
  5
177
330
1F
100
AcDbEntity
  8
0
  6
Continuous
 62
     7
370
    25
100
AcDbPolyline
 90
       11
 70
   128
 43
0.0
 10
73.4740606913
 20
184.0217606545
 10
72.6464910478
 20
183.809895896
 10
71.7933098432
 20
183.7249827727
 10
71.0135541483
 20
183.7974423188
 10
70.3163658858
 20
184.0264250124
 10
69.7099189507
 20
184.4092462407
 10
69.2013233788
 20
184.9414177748
 10
68.7965419881
 20
185.6167003901
 10
68.5003204704
 20
186.4271770154
 10
68.3161317521
 20
187.3633455531
 10
68.314382339
 20
187.3771176671
  0
ARC
  5
178
330
1F
100
AcDbEntity
  8
0
  6
Continuous
 62
     7
370
    25
100
AcDbCircle
 10
84.1309091466
 20
206.4158821455
 30
0.0
 40
4.148032522163812
100
AcDbArc
 50
56.7989189531
 51
113.4667808188
  0
LINE
  5
179
330
1F
100
AcDbEntity
  8
0
  6
Continuous
 62
     7
370
    25
100
AcDbLine
 10
90.0388679683
 20
207.6324565143
 30
0.0
 11
89.7275540206
 21
207.8553090322
 31
0.0
  0
LWPOLYLINE
  5
17A
330
1F
100
AcDbEntity
  8
0
  6
Continuous
 62
     7
370
    25
100
AcDbPolyline
 90
       30
 70
   128
 43
0.0
 10
73.6578161726
 20
181.9320853612
 10
73.9529491601
 20
181.7721166509
 10
74.6501374225
 20
181.5431339573
 10
75.4298931174
 20
181.4706744112
 10
76.2830743221
 20
181.5555875344
 10
77.1996782671
 20
181.7968777983
 10
78.1689586091
 20
182.1917162951
 10
79.1795514225
 20
182.7354739045
 10
80.2196084304
 20
183.4217755655
 10
81.2769359153
 20
184.2425750189
 10
82.3391376793
 20
185.1882491413
 10
83.3937603778
 20
186.2477107684
 10
84.428439524
 20
187.4085386813
 10
85.4310444508
 20
188.657123234
 10
86.3898205322
 20
189.9788259143
 10
87.2935269953
 20
191.3581509667
 10
88.1315687079
 20
192.778927066
 10
88.8941203974
 20
194.2244969116
 10
89.5722418423
 20
195.6779125187
 10
90.1579826887
 20
197.1221339181
 10
90.6444756608
 20
198.5402289344
 10
91.0260170732
 20
199.9155717002
 10
91.2981337016
 20
201.2320375789
 10
91.4576352276
 20
202.4741922119
 10
91.5026516414
 20
203.6274724718
 10
91.4326551669
 20
204.6783572019
 10
91.2484664486
 20
205.6145257396
 10
90.9522449309
 20
206.4250023648
 10
90.5474635402
 20
207.1002849801
 10
90.0388679683
 20
207.6324565143
  0
LWPOLYLINE
  5
17B
330
1F
100
AcDbEntity
  8
0
  6
Continuous
 62
     7
370
    25
100
AcDbPolyline
 90
       57
 70
   128
 43
0.0
 10
85.5554348459
 20
209.0049997766
 10
86.0390866218
 20
208.4946298395
 10
86.4199407771
 20
207.8430615835
 10
86.6932078498
 20
207.0584888577
 10
86.8554513478
 20
206.1507781192
 10
86.904630965
 20
205.1313443573
 10
86.8401282393
 20
204.0130075429
 10
86.6627543297
 20
202.8098314105
 10
86.3747398162
 20
201.5369465979
 10
85.9797066484
 20
200.2103603703
 10
85.4826225975
 20
198.8467553191
 10
84.8897387839
 20
197.4632795691
 10
84.2085110656
 20
196.0773311305
 10
83.4475062764
 20
194.7063391091
 10
82.616294493
 20
193.367544525
 10
81.7253286858
 20
192.0777834969
 10
80.785813267
 20
190.853275518
 10
79.809563188
 20
189.7094194868
 10
78.8088553599
 20
188.6606000564
 10
77.7962742643
 20
187.7200067397
 10
76.7845536961
 20
186.8994680434
 10
75.7864166283
 20
186.2093027178
 10
74.8144152138
 20
185.6581899922
 10
73.8807729342
 20
185.2530604289
 10
72.997230883
 20
184.9990087673
 10
72.1749001142
 20
184.8992298544
 10
71.4241219141
 20
184.9549784678
 10
70.7543377545
 20
185.1655535366
 10
70.1739705595
 20
185.5283069569
 10
69.6903187836
 20
186.038676894
 10
69.3094646283
 20
186.69024515
 10
69.0361975556
 20
187.4748178758
 10
68.8739540576
 20
188.3825286143
 10
68.8247744404
 20
189.4019623762
 10
68.8892771661
 20
190.5202991906
 10
69.0666510756
 20
191.723475323
 10
69.3546655891
 20
192.9963601356
 10
69.749698757
 20
194.3229463632
 10
70.2467828079
 20
195.6865514144
 10
70.8396666214
 20
197.0700271644
 10
71.5208943398
 20
198.455975603
 10
72.281899129
 20
199.8269676244
 10
73.1131109124
 20
201.1657622085
 10
74.0040767195
 20
202.4555232366
 10
74.9435921384
 20
203.6800312155
 10
75.9198422174
 20
204.8238872467
 10
76.9205500455
 20
205.8727066771
 10
77.9331311411
 20
206.8132999938
 10
78.9448517093
 20
207.6338386901
 10
79.9429887771
 20
208.3240040157
 10
80.9149901916
 20
208.8751167413
 10
81.8486324712
 20
209.2802463046
 10
82.7321745223
 20
209.5342979662
 10
83.5545052912
 20
209.6340768792
 10
84.3052834912
 20
209.5783282657
 10
84.9750676509
 20
209.3677531969
 10
85.5554348459
 20
209.0049997766
  0
LINE
  5
17C
330
1F
100
AcDbEntity
  8
0
  6
Continuous
 62
     7
370
    25
100
AcDbLine
 10
119.897130641
 20
189.123398388
 30
0.0
 11
119.5858166933
 21
189.3462509059
 31
0.0
  0
LWPOLYLINE
  5
17D
330
1F
100
AcDbEntity
  8
0
  6
Continuous
 62
     7
370
    25
100
AcDbPolyline
 90
       30
 70
   128
 43
0.0
 10
103.5160788453
 20
163.4230272349
 10
103.8112118328
 20
163.2630585246
 10
104.5084000952
 20
163.034075831
 10
105.2881557901
 20
162.9616162849
 10
106.1413369948
 20
163.0465294081
 10
107.0579409398
 20
163.287819672
 10
108.0272212818
 20
163.6826581688
 10
109.0378140952
 20
164.2264157781
 10
110.0778711031
 20
164.9127174392
 10
111.135198588
 20
165.7335168925
 10
112.197400352
 20
166.679191015
 10
113.2520230505
 20
167.7386526421
 10
114.2867021967
 20
168.899480555
 10
115.2893071235
 20
170.1480651077
 10
116.2480832049
 20
171.469767788
 10
117.151789668
 20
172.8490928404
 10
117.9898313806
 20
174.2698689397
 10
118.7523830701
 20
175.7154387853
 10
119.430504515
 20
177.1688543923
 10
120.0162453614
 20
178.6130757918
 10
120.5027383335
 20
180.0311708081
 10
120.8842797458
 20
181.4065135739
 10
121.1563963743
 20
182.7229794526
 10
121.3158979003
 20
183.9651340856
 10
121.3609143141
 20
185.1184143455
 10
121.2909178396
 20
186.1692990756
 10
121.1067291213
 20
187.1054676133
 10
120.8105076036
 20
187.9159442385
 10
120.4057262129
 20
188.5912268538
 10
119.897130641
 20
189.123398388
  0
LINE
  5
17E
330
1F
100
AcDbEntity
  8
0
  6
Continuous
 62
     7
370
    25
100
AcDbLine
 10
90.4216662077
 20
207.3951608973
 30
0.0
 11
89.914307597
 21
207.7291671711
 31
0.0
  0
LWPOLYLINE
  5
17F
330
1F
100
AcDbEntity
  8
0
  6
Continuous
 62
     7
370
    25
100
AcDbPolyline
 90
       30
 70
   128
 43
0.0
 10
73.8538608357
 20
181.8209316053
 10
74.3357473995
 20
181.5348210339
 10
75.0329356619
 20
181.3058383403
 10
75.8126913568
 20
181.2333787942
 10
76.6658725615
 20
181.3182919174
 10
77.5824765065
 20
181.5595821813
 10
78.5517568485
 20
181.9544206781
 10
79.5623496619
 20
182.4981782875
 10
80.6024066698
 20
183.1844799485
 10
81.6597341547
 20
184.0052794018
 10
82.7219359187
 20
184.9509535243
 10
83.7765586172
 20
186.0104151514
 10
84.8112377634
 20
187.1712430643
 10
85.8138426902
 20
188.419827617
 10
86.7726187716
 20
189.7415302973
 10
87.6763252346
 20
191.1208553497
 10
88.5143669473
 20
192.541631449
 10
89.2769186368
 20
193.9872012946
 10
89.9550400817
 20
195.4406169016
 10
90.5407809281
 20
196.8848383011
 10
91.0272739002
 20
198.3029333174
 10
91.4088153125
 20
199.6782760832
 10
91.680931941
 20
200.9947419619
 10
91.840433467
 20
202.2368965949
 10
91.8854498808
 20
203.3901768548
 10
91.8154534063
 20
204.4410615849
 10
91.631264688
 20
205.3772301226
 10
91.3350431703
 20
206.1877067478
 10
90.9302617796
 20
206.8629893631
 10
90.4216662077
 20
207.3951608973
  0
LWPOLYLINE
  5
180
330
1F
100
AcDbEntity
  8
0
  6
Continuous
 62
     7
370
    25
100
AcDbPolyline
 90
       27
 70
   128
 43
0.0
 10
75.5006574888
 20
181.4717968427
 10
75.9153600778
 20
181.453428348
 10
76.7545547053
 20
181.5369494529
 10
77.6561323561
 20
181.7742841387
 10
78.6095228565
 20
182.1626498732
 10
79.6035485746
 20
182.6974934234
 10
80.6265554676
 20
183.3725442376
 10
81.6665497151
 20
184.1798879621
 10
82.7113383354
 20
185.1100592301
 10
83.7486721372
 20
186.1521526338
 10
84.7663893301
 20
187.2939505809
 10
85.7525581106
 20
188.5220665344
 10
86.6956165513
 20
189.8221019577
 10
87.5845081543
 20
191.178815124
 10
88.4088114783
 20
192.5762998118
 10
89.1588623204
 20
193.9981717911
 10
89.8258670203
 20
195.4277609128
 10
90.4020055578
 20
196.8483065515
 10
90.8805232352
 20
198.2431541086
 10
91.2558098703
 20
199.5959502716
 10
91.5234655705
 20
200.8908347426
 10
91.6803523173
 20
202.1126261848
 10
91.7246307571
 20
203.2470002109
 10
91.6557817658
 20
204.2806573225
 10
91.4746125347
 20
205.201478835
 10
91.1832471074
 20
205.9986689582
 10
90.9595012209
 20
206.4095442747
  0
LWPOLYLINE
  5
181
330
1F
100
AcDbEntity
  8
0
  6
Continuous
 62
     7
370
    25
100
AcDbPolyline
 90
       30
 70
   128
 43
0.0
 10
103.5160788453
 20
163.4230272349
 10
103.8112118328
 20
163.2630585246
 10
104.5084000952
 20
163.034075831
 10
105.2881557901
 20
162.9616162849
 10
106.1413369948
 20
163.0465294081
 10
107.0579409398
 20
163.287819672
 10
108.0272212818
 20
163.6826581688
 10
109.0378140952
 20
164.2264157781
 10
110.0778711031
 20
164.9127174392
 10
111.135198588
 20
165.7335168925
 10
112.197400352
 20
166.679191015
 10
113.2520230505
 20
167.7386526421
 10
114.2867021967
 20
168.899480555
 10
115.2893071235
 20
170.1480651077
 10
116.2480832049
 20
171.469767788
 10
117.151789668
 20
172.8490928404
 10
117.9898313806
 20
174.2698689397
 10
118.7523830701
 20
175.7154387853
 10
119.430504515
 20
177.1688543923
 10
120.0162453614
 20
178.6130757918
 10
120.5027383335
 20
180.0311708081
 10
120.8842797458
 20
181.4065135739
 10
121.1563963743
 20
182.7229794526
 10
121.3158979003
 20
183.9651340856
 10
121.3609143141
 20
185.1184143455
 10
121.2909178396
 20
186.1692990756
 10
121.1067291213
 20
187.1054676133
 10
120.8105076036
 20
187.9159442385
 10
120.4057262129
 20
188.5912268538
 10
119.897130641
 20
189.123398388
  0
LINE
  5
182
330
1F
100
AcDbEntity
  8
0
  6
Continuous
 62
     7
370
    25
100
AcDbLine
 10
115.5789652863
 20
156.8074409397
 30
0.0
 11
107.9230004984
 21
161.5533532798
 31
0.0
  0
ARC
  5
183
330
1F
100
AcDbEntity
  8
0
  6
Continuous
 62
     7
370
    25
100
AcDbCircle
 10
107.5313218281
 20
164.9156494723
 30
0.0
 40
3.385032919550953
100
AcDbArc
 50
239.491759209
 51
276.6445189927
  0
ARC
  5
184
330
1F
100
AcDbEntity
  8
0
  6
Continuous
 62
     7
370
    25
100
AcDbCircle
 10
117.4991994999
 20
159.7901033568
 30
0.0
 40
4.297166145851791
100
AcDbArc
 50
243.3868632045
 51
292.9483671127
  0
ARC
  5
185
330
1F
100
AcDbEntity
  8
0
  6
Continuous
 62
     7
370
    25
100
AcDbCircle
 10
129.036511248
 20
178.4257677035
 30
0.0
 40
4.321046853466262
100
AcDbArc
 50
3.5387542763
 51
52.8840383329
  0
LWPOLYLINE
  5
186
330
1F
100
AcDbEntity
  8
0
  6
Continuous
 62
     7
370
    25
100
AcDbPolyline
 90
       20
 70
   128
 43
0.0
 10
133.4478947429
 20
177.4874597514
 10
133.449638851
 20
177.3817779575
 10
133.4053604112
 20
176.2474039314
 10
133.2484736644
 20
175.0256124891
 10
132.9808179642
 20
173.7307280182
 10
132.6055313291
 20
172.3779318552
 10
132.1270136517
 20
170.9830842981
 10
131.5508751142
 20
169.5625386593
 10
130.8838704143
 20
168.1329495376
 10
130.1338195722
 20
166.7110775584
 10
129.3095162482
 20
165.3135928705
 10
128.4206246452
 20
163.9568797043
 10
127.4775662045
 20
162.656844281
 10
126.491397424
 20
161.4287283275
 10
125.4736802311
 20
160.2869303804
 10
124.4363464293
 20
159.2448369767
 10
123.391557809
 20
158.3146657087
 10
122.3515635615
 20
157.5073219841
 10
121.3285566684
 20
156.83227117
 10
120.4328023063
 20
156.3446583152
  0
LINE
  5
187
330
1F
100
AcDbEntity
  8
0
  6
Continuous
 62
     7
370
    25
100
AcDbLine
 10
103.5588991637
 20
161.2409452833
 30
0.0
 11
101.8682266412
 21
162.6282942965
 31
0.0
  0
LINE
  5
188
330
1F
100
AcDbEntity
  8
0
  6
Continuous
 62
     7
370
    25
100
AcDbLine
 10
101.8682266412
 20
162.6282942965
 30
0.0
 11
102.714483462
 21
163.9199340947
 31
0.0
  0
LINE
  5
189
330
1F
100
AcDbEntity
  8
0
  6
Continuous
 62
     7
370
    25
100
AcDbLine
 10
107.9230004984
 20
161.5533532798
 30
0.0
 11
106.5331985905
 21
159.4321018915
 31
0.0
  0
LINE
  5
18A
330
1F
100
AcDbEntity
  8
0
  6
Continuous
 62
     7
370
    25
100
AcDbLine
 10
103.7325021622
 20
161.5059151322
 30
0.0
 11
106.5331985905
 21
159.4321018915
 31
0.0
  0
LINE
  5
18B
330
1F
100
AcDbEntity
  8
0
  6
Continuous
 62
     7
370
    25
100
AcDbLine
 10
103.5588991637
 20
161.2409452833
 30
0.0
 11
103.7325021622
 21
161.5059151322
 31
0.0
  0
ARC
  5
18C
330
1F
100
AcDbEntity
  8
0
  6
Continuous
 62
     7
370
    25
100
AcDbCircle
 10
107.5436042425
 20
152.5139146304
 30
0.0
 40
6.991583122635804
100
AcDbArc
 50
18.1013349646
 51
98.309335862
  0
LINE
  5
18D
330
1F
100
AcDbEntity
  8
0
  6
Continuous
 62
     7
370
    25
100
AcDbLine
 10
115.5789652863
 20
156.8074409397
 30
0.0
 11
114.1891633784
 21
154.6861895514
 31
0.0
  0
LWPOLYLINE
  5
18E
330
1F
100
AcDbEntity
  8
0
  6
Continuous
 62
     7
370
    25
100
AcDbPolyline
 90
        3
 70
   128
 43
0.0
 10
110.5091740306
 20
158.5926146635
 10
110.2671395441
 20
158.9285993539
 10
110.2420883551
 20
158.9610250163
  0
LINE
  5
18F
330
1F
100
AcDbEntity
  8
0
  6
Continuous
 62
     7
370
    25
100
AcDbLine
 10
113.6069095857
 20
155.1173271829
 30
0.0
 11
114.1891633784
 21
154.6861895514
 31
0.0
  0
ARC
  5
190
330
1F
100
AcDbEntity
  8
0
  6
Continuous
 62
     7
370
    25
100
AcDbCircle
 10
105.2049109739
 20
152.6423168839
 30
0.0
 40
8.564628977532708
100
AcDbArc
 50
128.7493435956
 51
137.7785355994
  0
SPLINE
  5
191
330
1F
100
AcDbEntity
  8
0
  6
Continuous
 62
     7
370
    25
100
AcDbSpline
210
0.0
220
0.0
230
1.0
 70
     8
 71
     3
 72
     9
 73
     5
 74
     0
 42
0.00000001
 43
0.00000001
 40
0.0
 40
0.0
 40
0.0
 40
0.0
 40
0.3887165422953495
 40
1.0
 40
1.0
 40
1.0
 40
1.0
 10
99.75083881749687
 20
158.8520081054086
 30
0.0
 10
99.7614836313925
 20
158.9134968117317
 30
0.0
 10
99.78886814616713
 20
159.0716807314588
 30
0.0
 10
99.82319918981602
 20
159.2269102842646
 30
0.0
 10
99.84418518888432
 20
159.3217995420417
 30
0.0
  0
SPLINE
  5
192
330
1F
100
AcDbEntity
  8
0
  6
Continuous
 62
     7
370
    25
100
AcDbSpline
210
0.0
220
0.0
230
1.0
 70
     8
 71
     3
 72
    10
 73
     6
 74
     0
 42
0.00000001
 43
0.00000001
 40
0.0
 40
0.0
 40
0.0
 40
0.0
 40
0.4922287432496958
 40
0.9844457036209076
 40
1.0
 40
1.0
 40
1.0
 40
1.0
 10
98.86235013562448
 20
158.3977309902377
 30
0.0
 10
98.94812635571753
 20
158.4177458325027
 30
0.0
 10
99.11967674260875
 20
158.4577750379213
 30
0.0
 10
99.29478764505855
 20
158.4941545515387
 30
0.0
 10
99.38500920479007
 20
158.5101142012638
 30
0.0
 10
99.38777291553816
 20
158.5106030850252
 30
0.0
  0
ARC
  5
193
330
1F
100
AcDbEntity
  8
0
  6
Continuous
 62
     7
370
    25
100
AcDbCircle
 10
105.238955817
 20
152.6093294066
 30
0.0
 40
8.612008645407213
100
AcDbArc
 50
137.7682174244
 51
146.7642306731
  0
SPLINE
  5
194
330
1F
100
AcDbEntity
  8
0
  6
Continuous
 62
     7
370
    25
100
AcDbSpline
210
0.0
220
0.0
230
1.0
 70
     8
 71
     3
 72
     9
 73
     5
 74
     0
 42
0.00000001
 43
0.00000001
 40
0.0
 40
0.0
 40
0.0
 40
0.0
 40
0.3887209501962895
 40
1.0
 40
1.0
 40
1.0
 40
1.0
 10
98.81879859950214
 20
157.8835033355968
 30
0.0
 10
98.82290204812973
 20
157.9505006665453
 30
0.0
 10
98.83345833182251
 20
158.1228539470017
 30
0.0
 10
98.85138930647615
 20
158.2934495016758
 30
0.0
 10
98.86235013562448
 20
158.3977309902377
 30
0.0
  0
SPLINE
  5
195
330
1F
100
AcDbEntity
  8
0
  6
Continuous
 62
     7
370
    25
100
AcDbSpline
210
0.0
220
0.0
230
1.0
 70
     8
 71
     3
 72
    10
 73
     6
 74
     0
 42
0.00000001
 43
0.00000001
 40
0.0
 40
0.0
 40
0.0
 40
0.0
 40
0.4921928644806406
 40
0.9843739469417967
 40
1.0
 40
1.0
 40
1.0
 40
1.0
 10
98.03567964520836
 20
157.3294464922379
 30
0.0
 10
98.1133369047989
 20
157.3569847621139
 30
0.0
 10
98.26864956503522
 20
157.4120606426599
 30
0.0
 10
98.42793406707827
 20
157.4639090335575
 30
0.0
 10
98.51054102921611
 20
157.4880155794579
 30
0.0
 10
98.51308298005345
 20
157.4887573771581
 30
0.0
  0
LINE
  5
196
330
1F
100
AcDbEntity
  8
0
  6
Continuous
 62
     7
370
    25
100
AcDbLine
 10
98.8623501356
 20
158.3977309902
 30
0.0
 11
99.1235637291
 21
158.1549489732
 31
0.0
  0
LINE
  5
197
330
1F
100
AcDbEntity
  8
0
  6
Continuous
 62
     7
370
    25
100
AcDbLine
 10
98.0356796452
 20
157.3294464922
 30
0.0
 11
98.3367953083
 21
157.1427856884
 31
0.0
  0
LINE
  5
198
330
1F
100
AcDbEntity
  8
0
  6
Continuous
 62
     7
370
    25
100
AcDbLine
 10
99.8441851889
 20
159.321799542
 30
0.0
 11
100.0477567711
 21
159.0419506642
 31
0.0
  0
SPLINE
  5
199
330
1F
100
AcDbEntity
  8
0
  6
Continuous
 62
     7
370
    25
100
AcDbSpline
210
0.0
220
0.0
230
1.0
 70
     8
 71
     3
 72
     9
 73
     5
 74
     0
 42
0.00000001
 43
0.00000001
 40
0.0
 40
0.0
 40
0.0
 40
0.0
 40
0.3887243955686672
 40
1.0
 40
1.0
 40
1.0
 40
1.0
 10
98.04966832851794
 20
156.7811381907584
 30
0.0
 10
98.0462691307738
 20
156.8522946594798
 30
0.0
 10
98.03752463780421
 20
157.0353458637071
 30
0.0
 10
98.036379586895
 20
157.2178724455792
 30
0.0
 10
98.03567964520836
 20
157.3294464922379
 30
0.0
  0
ARC
  5
19A
330
1F
100
AcDbEntity
  8
0
  6
Continuous
 62
     7
370
    25
100
AcDbCircle
 10
105.1537878735
 20
152.6633238747
 30
0.0
 40
8.51117882740013
100
AcDbArc
 50
146.7540175676
 51
155.8210087603
  0
SPLINE
  5
19B
330
1F
100
AcDbEntity
  8
0
  6
Continuous
 62
     7
370
    25
100
AcDbSpline
210
0.0
220
0.0
230
1.0
 70
     8
 71
     3
 72
    10
 73
     6
 74
     0
 42
0.00000001
 43
0.00000001
 40
0.0
 40
0.0
 40
0.0
 40
0.0
 40
0.4921473024135832
 40
0.9842828238982226
 40
1.0
 40
1.0
 40
1.0
 40
1.0
 10
97.38929168217228
 20
156.1494053319359
 30
0.0
 10
97.4575195495492
 20
156.1827693593006
 30
0.0
 10
97.59397365107728
 20
156.2494966153683
 30
0.0
 10
97.73474074173737
 20
156.3134788898927
 30
0.0
 10
97.80831838976033
 20
156.3441048377173
 30
0.0
 10
97.81059549266168
 20
156.3450526586455
 30
0.0
  0
ARC
  5
19C
330
1F
100
AcDbEntity
  8
0
  6
Continuous
 62
     7
370
    25
100
AcDbCircle
 10
105.0876743221
 20
152.7906907274
 30
0.0
 40
8.375533454032979
100
AcDbArc
 50
119.5944570279
 51
128.7591770418
  0
SPLINE
  5
19D
330
1F
100
AcDbEntity
  8
0
  6
Continuous
 62
     7
370
    25
100
AcDbSpline
210
0.0
220
0.0
230
1.0
 70
     8
 71
     3
 72
     9
 73
     5
 74
     0
 42
0.00000001
 43
0.00000001
 40
0.0
 40
0.0
 40
0.0
 40
0.0
 40
0.3887108849944624
 40
1.0
 40
1.0
 40
1.0
 40
1.0
 10
100.8174695409668
 20
159.6572248672126
 30
0.0
 10
100.8334956396425
 20
159.7120228726138
 30
0.0
 10
100.8747244791073
 20
159.8529965564406
 30
0.0
 10
100.9222812855844
 20
159.989892060674
 30
0.0
 10
100.9513522437283
 20
160.073574792305
 30
0.0
  0
SPLINE
  5
19E
330
1F
100
AcDbEntity
  8
0
  6
Continuous
 62
     7
370
    25
100
AcDbSpline
210
0.0
220
0.0
230
1.0
 70
     8
 71
     3
 72
    10
 73
     6
 74
     0
 42
0.00000001
 43
0.00000001
 40
0.0
 40
0.0
 40
0.0
 40
0.0
 40
0.4922566330966573
 40
0.984501482647043
 40
1.0
 40
1.0
 40
1.0
 40
1.0
 10
99.84418518888432
 20
159.3217995420417
 30
0.0
 10
99.93652325100307
 20
159.3328218851678
 30
0.0
 10
100.1211971648695
 20
159.3548663075693
 30
0.0
 10
100.308963090513
 20
159.3729115476534
 30
0.0
 10
100.405153658959
 20
159.3793439154165
 30
0.0
 10
100.4080898099586
 20
159.3795402590221
 30
0.0
  0
LINE
  5
19F
330
1F
100
AcDbEntity
  8
0
  6
Continuous
 62
     7
370
    25
100
AcDbLine
 10
97.3892916822
 20
156.1494053319
 30
0.0
 11
97.7061506024
 21
156.0291081688
 31
0.0
  0
SPLINE
  5
1A0
330
1F
100
AcDbEntity
  8
0
  6
Continuous
 62
     7
370
    25
100
AcDbSpline
210
0.0
220
0.0
230
1.0
 70
     8
 71
     3
 72
     9
 73
     5
 74
     0
 42
0.00000001
 43
0.00000001
 40
0.0
 40
0.0
 40
0.0
 40
0.0
 40
0.3887270170898057
 40
0.9999999999999999
 40
0.9999999999999999
 40
0.9999999999999999
 40
0.9999999999999999
 10
97.46681749893179
 20
155.5784075939713
 30
0.0
 10
97.45518238471301
 20
155.6522473028074
 30
0.0
 10
97.42525106091182
 20
155.842199906022
 30
0.0
 10
97.40293368879614
 20
156.0328599798718
 30
0.0
 10
97.38929168217228
 20
156.1494053319359
 30
0.0
  0
ARC
  5
1A1
330
1F
100
AcDbEntity
  8
0
  6
Continuous
 62
     7
370
    25
100
AcDbCircle
 10
104.9386124359
 20
152.7584299514
 30
0.0
 40
8.275926405838943
100
AcDbArc
 50
155.8115174735
 51
165.0496992012
  0
SPLINE
  5
1A2
330
1F
100
AcDbEntity
  8
0
  6
Continuous
 62
     7
370
    25
100
AcDbSpline
210
0.0
220
0.0
230
1.0
 70
     8
 71
     3
 72
    10
 73
     6
 74
     0
 42
0.00000001
 43
0.00000001
 40
0.0
 40
0.0
 40
0.0
 40
0.0
 40
0.4920888676392259
 40
0.9841659557484626
 40
1.0
 40
1.0
 40
1.0
 40
1.0
 10
96.94282641768538
 20
154.8934624628588
 30
0.0
 10
97.00060096366626
 20
154.9307775610488
 30
0.0
 10
97.11614867263192
 20
155.0054068641869
 30
0.0
 10
97.23626948089453
 20
155.0778197496337
 30
0.0
 10
97.29967696976428
 20
155.1131399372544
 30
0.0
 10
97.301653687581
 20
155.1142410381718
 30
0.0
  0
LINE
  5
1A3
330
1F
100
AcDbEntity
  8
0
  6
Continuous
 62
     7
370
    25
100
AcDbLine
 10
100.9513522437
 20
160.0735747923
 30
0.0
 11
101.0883390381
 21
159.7820421756
 31
0.0
  0
ARC
  5
1A4
330
1F
100
AcDbEntity
  8
0
  6
Continuous
 62
     7
370
    25
100
AcDbCircle
 10
104.9380240148
 20
153.0566468794
 30
0.0
 40
8.070367348811676
100
AcDbArc
 50
110.2085493414
 51
119.6030983717
  0
SPLINE
  5
1A5
330
1F
100
AcDbEntity
  8
0
  6
Continuous
 62
     7
370
    25
100
AcDbSpline
210
0.0
220
0.0
230
1.0
 70
     8
 71
     3
 72
     9
 73
     5
 74
     0
 42
0.00000001
 43
0.00000001
 40
0.0
 40
0.0
 40
0.0
 40
0.0
 40
0.3887034647715247
 40
1.0
 40
1.0
 40
1.0
 40
1.0
 10
101.9862818794244
 20
160.274687400302
 30
0.0
 10
102.0063656262032
 20
160.3218159589968
 30
0.0
 10
102.0580341823109
 20
160.4430614918157
 30
0.0
 10
102.1152405407436
 20
160.5592120169095
 30
0.0
 10
102.1502105894466
 20
160.6302144304643
 30
0.0
  0
SPLINE
  5
1A6
330
1F
100
AcDbEntity
  8
0
  6
Continuous
 62
     7
370
    25
100
AcDbSpline
210
0.0
220
0.0
230
1.0
 70
     8
 71
     3
 72
    10
 73
     6
 74
     0
 42
0.00000001
 43
0.00000001
 40
0.0
 40
0.0
 40
0.0
 40
0.0
 40
0.4922770615232012
 40
0.9845423390110183
 40
1.0
 40
1.0
 40
1.0
 40
1.0
 10
100.9513522437283
 20
160.073574792305
 30
0.0
 10
101.0484956544944
 20
160.0744088000927
 30
0.0
 10
101.242780150626
 20
160.0760767957037
 30
0.0
 10
101.439645830054
 20
160.0734789272973
 30
0.0
 10
101.5399790615987
 20
160.0692925796081
 30
0.0
 10
101.5430337139723
 20
160.0691651259548
 30
0.0
  0
LINE
  5
1A7
330
1F
100
AcDbEntity
  8
0
  6
Continuous
 62
     7
370
    25
100
AcDbLine
 10
96.9428264177
 20
154.8934624629
 30
0.0
 11
97.2479930301
 21
154.8395150304
 31
0.0
  0
LINE
  5
1A8
330
1F
100
AcDbEntity
  8
0
  6
Continuous
 62
     7
370
    25
100
AcDbLine
 10
102.1502105894
 20
160.6302144305
 30
0.0
 11
102.2218186742
 21
160.3554560147
 31
0.0
  0
SPLINE
  5
1A9
330
1F
100
AcDbEntity
  8
0
  6
Continuous
 62
     7
370
    25
100
AcDbSpline
210
0.0
220
0.0
230
1.0
 70
     8
 71
     3
 72
     9
 73
     5
 74
     0
 42
0.00000001
 43
0.00000001
 40
0.0
 40
0.0
 40
0.0
 40
0.0
 40
0.388728823922582
 40
0.9999999999999999
 40
0.9999999999999999
 40
0.9999999999999999
 40
0.9999999999999999
 10
97.08795555480773
 20
154.3118560596712
 30
0.0
 10
97.06760155966532
 20
154.3868215318559
 30
0.0
 10
97.01524116370334
 20
154.5796692641856
 30
0.0
 10
96.97029854504727
 20
154.7744181080377
 30
0.0
 10
96.94282641768538
 20
154.8934624628588
 30
0.0
  0
ARC
  5
1AA
330
1F
100
AcDbEntity
  8
0
  6
Continuous
 62
     7
370
    25
100
AcDbCircle
 10
104.6117748868
 20
152.8445564551
 30
0.0
 40
7.937933386571919
100
AcDbArc
 50
165.041710434
 51
174.5405669133
  0
SPLINE
  5
1AB
330
1F
100
AcDbEntity
  8
0
  6
Continuous
 62
     7
370
    25
100
AcDbSpline
210
0.0
220
0.0
230
1.0
 70
     8
 71
     3
 72
    10
 73
     6
 74
     0
 42
0.00000001
 43
0.00000001
 40
0.0
 40
0.0
 40
0.0
 40
0.0
 40
0.4920119477074407
 40
0.9840121177260741
 40
1.0
 40
1.0
 40
1.0
 40
1.0
 10
96.70984947288592
 20
153.5997790735441
 30
0.0
 10
96.75646438032976
 20
153.6390504991492
 30
0.0
 10
96.84969307935859
 20
153.7175924102873
 30
0.0
 10
96.94766546800209
 20
153.7944769426138
 30
0.0
 10
97.00007040712399
 20
153.8325240698874
 30
0.0
 10
97.00171974512213
 20
153.8337215251995
 30
0.0
  0
LWPOLYLINE
  5
1AC
330
1F
100
AcDbEntity
  8
0
  6
Continuous
 62
     7
370
    25
100
AcDbPolyline
 90
       18
 70
   128
 43
0.0
 10
99.3573616522
 20
147.1204150229
 10
99.1456034503
 20
147.2709015216
 10
98.3384889616
 20
147.9802241642
 10
97.6569553952
 20
148.8160327327
 10
97.1162032928
 20
149.7596858226
 10
96.7282932856
 20
150.7901367255
 10
96.5018771003
 20
151.8844028435
 10
96.4420045963
 20
153.0180782798
 10
96.5500111363
 20
154.1658781746
 10
96.8234878032
 20
155.3022026439
 10
97.256335127
 20
156.4017077452
 10
97.8388991242
 20
157.4398707345
 10
98.5581866148
 20
158.3935370078
 10
99.3981550146
 20
159.2414365284
 10
100.3400701405
 20
159.9646582217
 10
101.3629240468
 20
160.5470717575
 10
102.4439035745
 20
160.9756873116
 10
103.5588991637
 20
161.2409452833
  0
ARC
  5
1AD
330
1F
100
AcDbEntity
  8
0
  6
Continuous
 62
     7
370
    25
100
AcDbCircle
 10
104.7404591711
 20
153.7619322384
 30
0.0
 40
7.335582371393143
100
AcDbArc
 50
93.2055480426
 51
100.4946137607
  0
ARC
  5
1AE
330
1F
100
AcDbEntity
  8
0
  6
Continuous
 62
     7
370
    25
100
AcDbCircle
 10
104.8073010288
 20
153.414309694
 30
0.0
 40
7.689565057154368
100
AcDbArc
 50
100.5125462285
 51
110.2150656084
  0
ARC
  5
1AF
330
1F
100
AcDbEntity
  8
0
  6
Continuous
 62
     7
370
    25
100
AcDbCircle
 10
104.2170395037
 20
152.8815609401
 30
0.0
 40
7.541467990095303
100
AcDbArc
 50
174.5351052838
 51
184.3643684703
  0
ARC
  5
1B0
330
1F
100
AcDbEntity
  8
0
  6
Continuous
 62
     7
370
    25
100
AcDbCircle
 10
103.8131940498
 20
152.8505243409
 30
0.0
 40
7.136431729363233
100
AcDbArc
 50
184.3626472685
 51
194.560792452
  0
ARC
  5
1B1
330
1F
100
AcDbEntity
  8
0
  6
Continuous
 62
     7
370
    25
100
AcDbCircle
 10
103.4597251417
 20
152.7590938952
 30
0.0
 40
6.77132948264412
100
AcDbArc
 50
194.5639296512
 51
205.1258472334
  0
ARC
  5
1B2
330
1F
100
AcDbEntity
  8
0
  6
Continuous
 62
     7
370
    25
100
AcDbCircle
 10
103.2552342798
 20
152.6673805597
 30
0.0
 40
6.547246981762463
100
AcDbArc
 50
205.1590425232
 51
210.5540214043
  0
ARC
  5
1B3
330
1F
100
AcDbEntity
  8
0
  6
Continuous
 62
     7
370
    25
100
AcDbCircle
 10
101.2636889628
 20
154.3852104814
 30
0.0
 40
6.851474991597136
100
AcDbArc
 50
179.8090702907
 51
230.0630831301
  0
SPLINE
  5
1B4
330
1F
100
AcDbEntity
  8
0
  6
Continuous
 62
     7
370
    25
100
AcDbSpline
210
0.0
220
0.0
230
1.0
 70
     8
 71
     3
 72
     9
 73
     5
 74
     0
 42
0.00000001
 43
0.00000001
 40
0.0
 40
0.0
 40
0.0
 40
0.0
 40
0.3886933535586709
 40
1.0
 40
1.0
 40
1.0
 40
1.0
 10
103.2217622563595
 20
160.6856342617368
 30
0.0
 10
103.2444566592876
 20
160.724347709172
 30
0.0
 10
103.3028430523664
 20
160.8239466528657
 30
0.0
 10
103.3658294924194
 20
160.9175716560615
 30
0.0
 10
103.4043335218594
 20
160.9748052427882
 30
0.0
  0
SPLINE
  5
1B5
330
1F
100
AcDbEntity
  8
0
  6
Continuous
 62
     7
370
    25
100
AcDbSpline
210
0.0
220
0.0
230
1.0
 70
     8
 71
     3
 72
    10
 73
     6
 74
     0
 42
0.00000001
 43
0.00000001
 40
0.0
 40
0.0
 40
0.0
 40
0.0
 40
0.4922892481972762
 40
0.9845667120671224
 40
1.0
 40
1.0
 40
1.0
 40
1.0
 10
102.1502105894466
 20
160.6302144304643
 30
0.0
 10
102.2502568509744
 20
160.6199738372005
 30
0.0
 10
102.4503469791412
 20
160.5994928958104
 30
0.0
 10
102.652481562483
 20
160.5745695531653
 30
0.0
 10
102.755006132991
 20
160.558994925311
 30
0.0
 10
102.7581226539849
 20
160.5585214909485
 30
0.0
  0
LINE
  5
1B6
330
1F
100
AcDbEntity
  8
0
  6
Continuous
 62
     7
370
    25
100
AcDbLine
 10
96.7098494729
 20
153.5997790735
 30
0.0
 11
96.9761785035
 21
153.6016716612
 31
0.0
  0
LINE
  5
1B7
330
1F
100
AcDbEntity
  8
0
  6
Continuous
 62
     7
370
    25
100
AcDbLine
 10
103.4043335219
 20
160.9748052428
 30
0.0
 11
103.4220789626
 21
160.7446771201
 31
0.0
  0
SPLINE
  5
1B8
330
1F
100
AcDbEntity
  8
0
  6
Continuous
 62
     7
370
    25
100
AcDbSpline
210
0.0
220
0.0
230
1.0
 70
     8
 71
     3
 72
     9
 73
     5
 74
     0
 42
0.00000001
 43
0.00000001
 40
0.0
 40
0.0
 40
0.0
 40
0.0
 40
0.3887296542173829
 40
1.0
 40
1.0
 40
1.0
 40
1.0
 10
96.92459373438042
 20
153.0199673604104
 30
0.0
 10
96.89530290986072
 20
153.0944668329665
 30
0.0
 10
96.81995279390755
 20
153.2861153777788
 30
0.0
 10
96.75161955528635
 20
153.4807839488143
 30
0.0
 10
96.70984947288592
 20
153.5997790735441
 30
0.0
  0
SPLINE
  5
1B9
330
1F
100
AcDbEntity
  8
0
  6
Continuous
 62
     7
370
    25
100
AcDbSpline
210
0.0
220
0.0
230
1.0
 70
     8
 71
     3
 72
    10
 73
     6
 74
     0
 42
0.00000001
 43
0.00000001
 40
0.0
 40
0.0
 40
0.0
 40
0.0
 40
0.4919063544291746
 40
0.9838009336970307
 40
1.0
 40
1.0
 40
1.0
 40
1.0
 10
96.69743973435044
 20
152.3076630791416
 30
0.0
 10
96.73252775518283
 20
152.3468366380703
 30
0.0
 10
96.8027029569172
 20
152.4251828181985
 30
0.0
 10
96.87769692098708
 20
152.5024448175053
 30
0.0
 10
96.91860044216759
 20
152.5411694211869
 30
0.0
 10
96.91990453021789
 20
152.5424040408836
 30
0.0
  0
LINE
  5
1BA
330
1F
100
AcDbEntity
  8
0
  6
Continuous
 62
     7
370
    25
100
AcDbLine
 10
96.6974397344
 20
152.3076630791
 30
0.0
 11
96.9016804593
 21
152.3454041624
 31
0.0
  0
SPLINE
  5
1BB
330
1F
100
AcDbEntity
  8
0
  6
Continuous
 62
     7
370
    25
100
AcDbSpline
210
0.0
220
0.0
230
1.0
 70
     8
 71
     3
 72
    10
 73
     6
 74
     0
 42
0.00000001
 43
0.00000001
 40
0.0
 40
0.0
 40
0.0
 40
0.0
 40
0.4922902015997333
 40
0.9845686188497065
 40
1.0
 40
1.0
 40
1.0
 40
1.0
 10
103.4043335218594
 20
160.9748052427882
 30
0.0
 10
103.5052919394385
 20
160.9529402831839
 30
0.0
 10
103.7072063578734
 20
160.9092108873745
 30
0.0
 10
103.9106204916614
 20
160.8609567165035
 30
0.0
 10
104.0133200610924
 20
160.8335689144856
 30
0.0
 10
104.0164415218262
 20
160.8327364869588
 30
0.0
  0
SPLINE
  5
1BC
330
1F
100
AcDbEntity
  8
0
  6
Continuous
 62
     7
370
    25
100
AcDbSpline
210
0.0
220
0.0
230
1.0
 70
     8
 71
     3
 72
     9
 73
     5
 74
     0
 42
0.00000001
 43
0.00000001
 40
0.0
 40
0.0
 40
0.0
 40
0.0
 40
0.3887290045950685
 40
1.0
 40
1.0
 40
1.0
 40
1.0
 10
96.98169514610257
 20
151.7419953534805
 30
0.0
 10
96.943521271537
 20
151.8144510668205
 30
0.0
 10
96.84531950600281
 20
152.0008423895251
 30
0.0
 10
96.75354116947588
 20
152.1912639204106
 30
0.0
 10
96.69743973435044
 20
152.3076630791416
 30
0.0
  0
SPLINE
  5
1BD
330
1F
100
AcDbEntity
  8
0
  6
Continuous
 62
     7
370
    25
100
AcDbSpline
210
0.0
220
0.0
230
1.0
 70
     8
 71
     3
 72
     9
 73
     5
 74
     0
 42
0.00000001
 43
0.00000001
 40
0.0
 40
0.0
 40
0.0
 40
0.0
 40
0.6400467842747642
 40
1.0
 40
1.0
 40
1.0
 40
1.0
 10
96.90597426570454
 20
151.0563747702988
 30
0.0
 10
96.92913862485491
 20
151.0934436075309
 30
0.0
 10
96.96533029040108
 20
151.1513594320344
 30
0.0
 10
97.00670629011003
 20
151.2078962890951
 30
0.0
 10
97.02159971425912
 20
151.2282469126012
 30
0.0
  0
LINE
  5
1BE
330
1F
100
AcDbEntity
  8
0
  6
Continuous
 62
     7
370
    25
100
AcDbLine
 10
96.9059742657
 20
151.0563747703
 30
0.0
 11
97.0320076378
 21
151.1026796947
 31
0.0
  0
SPLINE
  5
1BF
330
1F
100
AcDbEntity
  8
0
  6
Continuous
 62
     7
370
    25
100
AcDbSpline
210
0.0
220
0.0
230
1.0
 70
     8
 71
     3
 72
     9
 73
     5
 74
     0
 42
0.00000001
 43
0.00000001
 40
0.0
 40
0.0
 40
0.0
 40
0.0
 40
0.3722962347105056
 40
1.0
 40
1.0
 40
1.0
 40
1.0
 10
97.24814121392475
 20
150.5307381733874
 30
0.0
 10
97.20456624584953
 20
150.5950049550867
 30
0.0
 10
97.08752244037272
 20
150.7676276563323
 30
0.0
 10
96.97598606714581
 20
150.9450230277285
 30
0.0
 10
96.90597426570454
 20
151.0563747702988
 30
0.0
  0
SPLINE
  5
1C0
330
1F
100
AcDbEntity
  8
0
  6
Continuous
 62
     7
370
    25
100
AcDbSpline
210
0.0
220
0.0
230
1.0
 70
     8
 71
     3
 72
     9
 73
     5
 74
     0
 42
0.00000001
 43
0.00000001
 40
0.0
 40
0.0
 40
0.0
 40
0.0
 40
0.564668555247667
 40
0.9999999999999999
 40
0.9999999999999999
 40
0.9999999999999999
 40
0.9999999999999999
 10
97.32911685073617
 20
149.8839339090994
 30
0.0
 10
97.34115235920233
 20
149.9167954412934
 30
0.0
 10
97.362466647654
 20
149.9749915846569
 30
0.0
 10
97.38985822855884
 20
150.0326041494091
 30
0.0
 10
97.40178264504819
 20
150.0576847104586
 30
0.0
  0
LINE
  5
1C1
330
1F
100
AcDbEntity
  8
0
  6
Continuous
 62
     7
370
    25
100
AcDbLine
 10
97.3291168507
 20
149.8839339091
 30
0.0
 11
97.3704415203
 21
149.9073810979
 31
0.0
  0
LWPOLYLINE
  5
1C2
330
1F
100
AcDbEntity
  8
0
  6
Continuous
 62
     8
370
    25
100
AcDbPolyline
 90
        8
 70
   128
 43
0.0
 10
126.0101765801
 20
135.5722738334
 10
126.1979298208
 20
135.5541412441
 10
126.5053918717
 20
135.3769951339
 10
126.8101890495
 20
135.0244567333
 10
127.0998429218
 20
134.5109590059
 10
127.3624950251
 20
133.857524609
 10
127.5873923514
 20
133.0909052235
 10
127.6890128852
 20
132.644682723
  0
LWPOLYLINE
  5
1C3
330
1F
100
AcDbEntity
  8
0
  6
Continuous
 62
     8
370
    25
100
AcDbPolyline
 90
       11
 70
   128
 43
0.0
 10
131.9175984373
 20
129.1670944609
 10
132.0666701341
 20
128.2885059028
 10
132.1584384015
 20
127.3827330574
 10
132.1891462358
 20
126.4868583713
 10
132.1575364548
 20
125.6375590594
 10
132.0649031666
 20
124.8696055354
 10
131.9150387888
 20
124.2144379067
 10
131.7140787867
 20
123.6988788131
 10
131.4702504864
 20
123.3440353044
 10
131.1935362472
 20
123.1644347155
 10
131.0971045153
 20
123.1451080929
  0
LWPOLYLINE
  5
1C4
330
1F
100
AcDbEntity
  8
0
  6
Continuous
 62
     8
370
    25
100
AcDbPolyline
 90
        8
 70
   128
 43
0.0
 10
130.2368578864
 20
132.1039013006
 10
130.287615484
 20
132.1060705429
 10
130.5921222527
 20
132.011352794
 10
130.8996937556
 20
131.7370369685
 10
131.1977379792
 20
131.2943535886
 10
131.4740529579
 20
130.7014261638
 10
131.717326324
 20
129.9825292127
 10
131.9175984373
 20
129.1670944609
  0
LINE
  5
1C5
330
1F
100
AcDbEntity
  8
0
  6
Continuous
 62
     8
370
    25
100
AcDbLine
 10
123.1611336958
 20
122.5359458111
 30
0.0
 11
123.1676116287
 21
122.5045332914
 31
0.0
  0
LINE
  5
1C6
330
1F
100
AcDbEntity
  8
0
  6
Continuous
 62
     8
370
    25
100
AcDbLine
 10
124.0967399463
 20
122.6090052742
 30
0.0
 11
124.0749896109
 21
122.7144760856
 31
0.0
  0
LINE
  5
1C7
330
1F
100
AcDbEntity
  8
0
  6
Continuous
 62
     8
370
    25
100
AcDbLine
 10
123.6008349169
 20
122.625016514
 30
0.0
 11
123.6146878491
 21
122.5578414576
 31
0.0
  0
LINE
  5
1C8
330
1F
100
AcDbEntity
  8
0
  6
Continuous
 62
     8
370
    25
100
AcDbLine
 10
114.0971446911
 20
141.1424710936
 30
0.0
 11
110.2828487901
 21
140.7762124789
 31
0.0
  0
LINE
  5
1C9
330
1F
100
AcDbEntity
  8
0
  6
Continuous
 62
     8
370
    25
100
AcDbLine
 10
99.2721872246
 20
139.7189401126
 30
0.0
 11
67.3075300299
 21
136.6496105771
 31
0.0
  0
SPLINE
  5
1CA
330
1F
100
AcDbEntity
  8
0
  6
Continuous
 62
     8
370
    25
100
AcDbSpline
210
0.0
220
0.0
230
1.0
 70
     8
 71
     3
 72
    12
 73
     8
 74
     0
 42
0.00000001
 43
0.00000001
 40
0.0
 40
0.0
 40
0.0
 40
0.0
 40
0.1976854888620587
 40
0.3845197826955398
 40
0.5604947108405496
 40
0.7256026361003215
 40
1.0
 40
1.0
 40
1.0
 40
1.0
 10
75.79257208635104
 20
112.476410809911
 30
0.0
 10
75.7889174303755
 20
112.4003500345082
 30
0.0
 10
75.78180872690099
 20
112.2524035514462
 30
0.0
 10
75.74886566405135
 20
112.0679701985024
 30
0.0
 10
75.70475856668254
 20
111.9277456242859
 30
0.0
 10
75.6404318164083
 20
111.8027083044516
 30
0.0
 10
75.58249187860608
 20
111.7782571423468
 30
0.0
 10
75.54631810188579
 20
111.7629914911901
 30
0.0
  0
ARC
  5
1CB
330
1F
100
AcDbEntity
  8
0
  6
Continuous
 62
     8
370
    25
100
AcDbCircle
 10
75.4157416485
 20
112.0072270602
 30
0.0
 40
0.215918632178138
100
AcDbArc
 50
177.4251302105
 51
229.9816093462
  0
ARC
  5
1CC
330
1F
100
AcDbEntity
  8
0
  6
Continuous
 62
     8
370
    25
100
AcDbCircle
 10
65.9469464329
 20
119.7759253817
 30
0.0
 40
0.2149116603454759
100
AcDbArc
 50
177.2913165696
 51
230.0244495164
  0
LWPOLYLINE
  5
1CD
330
1F
100
AcDbEntity
  8
0
  6
Continuous
 62
     8
370
    25
100
AcDbPolyline
 90
        8
 70
   128
 43
0.0
 10
124.1543496552
 20
132.6486256203
 10
124.3314428202
 20
132.6715859453
 10
124.4887360749
 20
132.7043269268
 10
124.6201847275
 20
132.7455903473
 10
124.7207372803
 20
132.7937904765
 10
124.7865295548
 20
132.8470750107
 10
124.8150331909
 20
132.903396255
 10
124.8161726128
 20
132.9170667575
  0
LWPOLYLINE
  5
1CE
330
1F
100
AcDbEntity
  8
0
  6
Continuous
 62
     8
370
    25
100
AcDbPolyline
 90
        3
 70
   128
 43
0.0
 10
65.4831598661
 20
120.7378184833
 10
65.4859106159
 20
120.7266102269
 10
65.4978832497
 20
120.7127234898
  0
ARC
  5
1CF
330
1F
100
AcDbEntity
  8
0
  6
Continuous
 62
     8
370
    25
100
AcDbCircle
 10
108.1297500026
 20
150.2358594319
 30
0.0
 40
8.388674527087874
100
AcDbArc
 50
96.5479863034
 51
184.1795881563
  0
LWPOLYLINE
  5
1D0
330
1F
100
AcDbEntity
  8
0
  6
Continuous
 62
     8
370
    25
100
AcDbPolyline
 90
        7
 70
   128
 43
0.0
 10
86.0740629043
 20
209.7965805644
 10
85.4775577223
 20
210.1731260348
 10
84.7917987756
 20
210.3983549137
 10
84.024825961
 20
210.4696265984
 10
83.1856313334
 20
210.3861054936
 10
82.2840536826
 20
210.1487708078
 10
81.3839471268
 20
209.7854749765
  0
LWPOLYLINE
  5
1D1
330
1F
100
AcDbEntity
  8
0
  6
Continuous
 62
     8
370
    25
100
AcDbPolyline
 90
       11
 70
   128
 43
0.0
 10
68.2153381028
 20
188.6971111054
 10
68.2155552816
 20
188.6760547356
 10
68.2844042729
 20
187.642397624
 10
68.465573504
 20
186.7215761114
 10
68.7569389313
 20
185.9243859883
 10
69.1550845615
 20
185.2601735798
 10
69.6553425011
 20
184.7367261692
 10
70.2518476831
 20
184.3601806987
 10
70.9376066298
 20
184.1349518198
 10
71.7045794444
 20
184.0636801351
 10
72.2400602646
 20
184.1000857625
  0
ARC
  5
1D2
330
1F
100
AcDbEntity
  8
0
  6
Continuous
 62
     8
370
    25
100
AcDbCircle
 10
83.607492108
 20
206.9804725549
 30
0.0
 40
3.743585956596439
100
AcDbArc
 50
15.2609174406
 51
48.785552388
  0
LWPOLYLINE
  5
1D3
330
1F
100
AcDbEntity
  8
0
  6
Continuous
 62
     8
370
    25
100
AcDbPolyline
 90
       26
 70
   128
 43
0.0
 10
86.402284694
 20
209.8867648758
 10
86.910880266
 20
209.3545933417
 10
87.3156616566
 20
208.6793107264
 10
87.6118831743
 20
207.8688341012
 10
87.7960718926
 20
206.9326655634
 10
87.8660683672
 20
205.8817808333
 10
87.8210519534
 20
204.7285005735
 10
87.6615504274
 20
203.4863459405
 10
87.3894337989
 20
202.1698800617
 10
87.0078923865
 20
200.7945372959
 10
86.5213994145
 20
199.3764422796
 10
85.9356585681
 20
197.9322208802
 10
85.2575371232
 20
196.4788052731
 10
84.4949854337
 20
195.0332354276
 10
83.656943721
 20
193.6124593282
 10
82.753237258
 20
192.2331342759
 10
81.7944611766
 20
190.9114315956
 10
80.7918562497
 20
189.6628470428
 10
79.7571771036
 20
188.5020191299
 10
78.7025544051
 20
187.4425575028
 10
77.6403526411
 20
186.4968833804
 10
76.5830251561
 20
185.6760839271
 10
75.5429681482
 20
184.989782266
 10
74.5323753349
 20
184.4460246567
 10
73.5630949928
 20
184.0511861599
 10
73.4740606913
 20
184.0217606545
  0
LWPOLYLINE
  5
1D4
330
1F
100
AcDbEntity
  8
0
  6
Continuous
 62
     8
370
    25
100
AcDbPolyline
 90
       21
 70
   128
 43
0.0
 10
119.1746707862
 20
155.8330295827
 10
120.0853658227
 20
156.2078462332
 10
121.0959586361
 20
156.7516038425
 10
122.136015644
 20
157.4379055036
 10
123.1933431289
 20
158.2587049569
 10
124.2555448929
 20
159.2043790794
 10
125.3101675914
 20
160.2638407065
 10
126.3448467376
 20
161.4246686194
 10
127.3474516644
 20
162.6732531721
 10
128.3062277458
 20
163.9949558524
 10
129.2099342088
 20
165.3742809048
 10
130.0479759215
 20
166.7950570041
 10
130.810527611
 20
168.2406268497
 10
131.4886490559
 20
169.6940424567
 10
132.0743899023
 20
171.1382638561
 10
132.5608828744
 20
172.5563588725
 10
132.9424242867
 20
173.9317016382
 10
133.2145409152
 20
175.248167517
 10
133.3740424412
 20
176.49032215
 10
133.419058855
 20
177.6436024098
 10
133.3493190642
 20
178.6924785028
  0
ARC
  5
1D5
330
1F
100
AcDbEntity
  8
0
  6
Continuous
 62
     8
370
    25
100
AcDbCircle
 10
103.0046951659
 20
154.4311471041
 30
0.0
 40
8.592474218344735
100
AcDbArc
 50
96.0730505006
 51
180.1540683696
  0
ENDSEC
  0
SECTION
  2
OBJECTS
  0
DICTIONARY
  5
C
330
0
100
AcDbDictionary
281
     1
  3
ACAD_GROUP
350
D
  3
ACAD_LAYOUT
350
1A
  3
ACAD_MLINESTYLE
350
17
  3
ACAD_PLOTSETTINGS
350
19
  3
ACAD_PLOTSTYLENAME
350
E
  3
ACAD_SCALELIST
350
47
  3
DWGPROPS
350
1D6
  0
DICTIONARY
  5
D
102
{ACAD_REACTORS
330
C
102
}
330
C
100
AcDbDictionary
281
     1
  0
DICTIONARY
  5
1A
102
{ACAD_REACTORS
330
C
102
}
330
C
100
AcDbDictionary
281
     1
  3
Layout1
350
1E
  3
Layout2
350
26
  3
Model
350
22
  0
DICTIONARY
  5
17
102
{ACAD_REACTORS
330
C
102
}
330
C
100
AcDbDictionary
281
     1
  3
Standard
350
18
  0
DICTIONARY
  5
19
102
{ACAD_REACTORS
330
C
102
}
330
C
100
AcDbDictionary
281
     1
  0
ACDBDICTIONARYWDFLT
  5
E
102
{ACAD_REACTORS
330
C
102
}
330
C
100
AcDbDictionary
281
     1
  3
Normal
350
F
100
AcDbDictionaryWithDefault
340
F
  0
DICTIONARY
  5
47
102
{ACAD_REACTORS
330
C
102
}
330
C
100
AcDbDictionary
281
     1
  3
A0
350
48
  3
A1
350
49
  3
A2
350
4A
  3
A3
350
4B
  3
A4
350
4C
  3
A5
350
4D
  3
A6
350
4E
  3
A7
350
4F
  3
A8
350
50
  3
A9
350
51
  3
B0
350
52
  3
B1
350
53
  3
B2
350
54
  3
B3
350
55
  3
B4
350
56
  3
B5
350
57
  3
B6
350
58
  3
B7
350
59
  3
B8
350
5A
  3
B9
350
5B
  3
C0
350
5C
  3
C1
350
5D
  3
C2
350
5E
  3
C3
350
5F
  3
C4
350
60
  3
C5
350
61
  3
C6
350
62
  3
C7
350
63
  3
C8
350
64
  3
C9
350
65
  3
D0
350
66
  3
D1
350
67
  3
D2
350
68
  0
XRECORD
  5
1D6
102
{ACAD_REACTORS
330
C
102
}
330
C
100
AcDbXrecord
280
     1
  1
DWGPROPS COOKIE
  2

  3

  4

  6

  7

  8
9128
  9

300
=
301
=
302
=
303
=
304
=
305
=
306
=
307
=
308
=
309
=
 40
0.0
 41
2460018.22514963
 42
2460018.225149965
  1

 90
        0
  0
LAYOUT
  5
1E
102
{ACAD_REACTORS
330
1A
102
}
330
1A
100
AcDbPlotSettings
  1

  2
none_device
  4

  6

 40
0.0
 41
0.0
 42
0.0
 43
0.0
 44
0.0
 45
0.0
 46
0.0
 47
0.0
 48
0.0
 49
0.0
140
0.0
141
0.0
142
1.0
143
1.0
 70
   688
 72
     1
 73
     0
 74
     5
  7

 75
    16
147
1.0
148
0.0
149
0.0
100
AcDbLayout
  1
Layout1
 70
     1
 71
     1
 10
0.0
 20
0.0
 11
420.0
 21
297.0
 12
0.0
 22
0.0
 32
0.0
 14
1.0000000000E+20
 24
1.0000000000E+20
 34
1.0000000000E+20
 15
-1.0000000000E+20
 25
-1.0000000000E+20
 35
-1.0000000000E+20
146
0.0
 13
0.0
 23
0.0
 33
0.0
 16
1.0
 26
0.0
 36
0.0
 17
0.0
 27
1.0
 37
0.0
 76
     0
330
1B
  0
LAYOUT
  5
26
102
{ACAD_REACTORS
330
1A
102
}
330
1A
100
AcDbPlotSettings
  1

  2
none_device
  4

  6

 40
0.0
 41
0.0
 42
0.0
 43
0.0
 44
0.0
 45
0.0
 46
0.0
 47
0.0
 48
0.0
 49
0.0
140
0.0
141
0.0
142
1.0
143
1.0
 70
   688
 72
     1
 73
     0
 74
     5
  7

 75
    16
147
1.0
148
0.0
149
0.0
100
AcDbLayout
  1
Layout2
 70
     1
 71
     2
 10
0.0
 20
0.0
 11
0.0
 21
0.0
 12
0.0
 22
0.0
 32
0.0
 14
0.0
 24
0.0
 34
0.0
 15
0.0
 25
0.0
 35
0.0
146
0.0
 13
0.0
 23
0.0
 33
0.0
 16
1.0
 26
0.0
 36
0.0
 17
0.0
 27
1.0
 37
0.0
 76
     0
330
23
  0
LAYOUT
  5
22
102
{ACAD_REACTORS
330
1A
102
}
330
1A
100
AcDbPlotSettings
  1

  2
none_device
  4
Letter_(8.50_x_11.00_Inches)
  6

 40
6.35
 41
6.35
 42
6.35000508
 43
6.35000508
 44
215.9
 45
279.4
 46
0.0
 47
0.0
 48
0.0
 49
0.0
140
0.0
141
0.0
142
1.0
143
1.0
 70
  1712
 72
     1
 73
     0
 74
     0
  7

 75
     0
147
1.0
148
0.0
149
0.0
100
AcDbLayout
  1
Model
 70
     1
 71
     0
 10
0.0
 20
0.0
 11
210.0
 21
297.0
 12
0.0
 22
0.0
 32
0.0
 14
0.0
 24
0.0
 34
0.0
 15
210.0
 25
297.0
 35
0.0
146
0.0
 13
0.0
 23
0.0
 33
0.0
 16
1.0
 26
0.0
 36
0.0
 17
0.0
 27
1.0
 37
0.0
 76
     0
330
1F
331
29
  0
MLINESTYLE
  5
18
102
{ACAD_REACTORS
330
17
102
}
330
17
100
AcDbMlineStyle
  2
Standard
 70
     0
  3

 62
   256
 51
90.0
 52
90.0
 71
     2
 49
0.5
 62
   256
  6
BYLAYER
 49
-0.5
 62
   256
  6
BYLAYER
  0
ACDBPLACEHOLDER
  5
F
102
{ACAD_REACTORS
330
E
102
}
330
E
  0
SCALE
  5
48
102
{ACAD_REACTORS
330
47
102
}
330
47
100
AcDbScale
 70
     0
300
1:1
140
1.0
141
1.0
290
     1
  0
SCALE
  5
49
102
{ACAD_REACTORS
330
47
102
}
330
47
100
AcDbScale
 70
     0
300
1:2
140
1.0
141
2.0
290
     0
  0
SCALE
  5
4A
102
{ACAD_REACTORS
330
47
102
}
330
47
100
AcDbScale
 70
     0
300
1:4
140
1.0
141
4.0
290
     0
  0
SCALE
  5
4B
102
{ACAD_REACTORS
330
47
102
}
330
47
100
AcDbScale
 70
     0
300
1:5
140
1.0
141
5.0
290
     0
  0
SCALE
  5
4C
102
{ACAD_REACTORS
330
47
102
}
330
47
100
AcDbScale
 70
     0
300
1:8
140
1.0
141
8.0
290
     0
  0
SCALE
  5
4D
102
{ACAD_REACTORS
330
47
102
}
330
47
100
AcDbScale
 70
     0
300
1:10
140
1.0
141
10.0
290
     0
  0
SCALE
  5
4E
102
{ACAD_REACTORS
330
47
102
}
330
47
100
AcDbScale
 70
     0
300
1:16
140
1.0
141
16.0
290
     0
  0
SCALE
  5
4F
102
{ACAD_REACTORS
330
47
102
}
330
47
100
AcDbScale
 70
     0
300
1:20
140
1.0
141
20.0
290
     0
  0
SCALE
  5
50
102
{ACAD_REACTORS
330
47
102
}
330
47
100
AcDbScale
 70
     0
300
1:30
140
1.0
141
30.0
290
     0
  0
SCALE
  5
51
102
{ACAD_REACTORS
330
47
102
}
330
47
100
AcDbScale
 70
     0
300
1:40
140
1.0
141
40.0
290
     0
  0
SCALE
  5
52
102
{ACAD_REACTORS
330
47
102
}
330
47
100
AcDbScale
 70
     0
300
1:50
140
1.0
141
50.0
290
     0
  0
SCALE
  5
53
102
{ACAD_REACTORS
330
47
102
}
330
47
100
AcDbScale
 70
     0
300
1:100
140
1.0
141
100.0
290
     0
  0
SCALE
  5
54
102
{ACAD_REACTORS
330
47
102
}
330
47
100
AcDbScale
 70
     0
300
2:1
140
2.0
141
1.0
290
     0
  0
SCALE
  5
55
102
{ACAD_REACTORS
330
47
102
}
330
47
100
AcDbScale
 70
     0
300
4:1
140
4.0
141
1.0
290
     0
  0
SCALE
  5
56
102
{ACAD_REACTORS
330
47
102
}
330
47
100
AcDbScale
 70
     0
300
8:1
140
8.0
141
1.0
290
     0
  0
SCALE
  5
57
102
{ACAD_REACTORS
330
47
102
}
330
47
100
AcDbScale
 70
     0
300
10:1
140
10.0
141
1.0
290
     0
  0
SCALE
  5
58
102
{ACAD_REACTORS
330
47
102
}
330
47
100
AcDbScale
 70
     0
300
100:1
140
100.0
141
1.0
290
     0
  0
SCALE
  5
59
102
{ACAD_REACTORS
330
47
102
}
330
47
100
AcDbScale
 70
     0
300
1/128" = 1'-0"
140
0.0078125
141
12.0
290
     0
  0
SCALE
  5
5A
102
{ACAD_REACTORS
330
47
102
}
330
47
100
AcDbScale
 70
     0
300
1/64" = 1'-0"
140
0.015625
141
12.0
290
     0
  0
SCALE
  5
5B
102
{ACAD_REACTORS
330
47
102
}
330
47
100
AcDbScale
 70
     0
300
1/32" = 1'-0"
140
0.03125
141
12.0
290
     0
  0
SCALE
  5
5C
102
{ACAD_REACTORS
330
47
102
}
330
47
100
AcDbScale
 70
     0
300
1/16" = 1'-0"
140
0.0625
141
12.0
290
     0
  0
SCALE
  5
5D
102
{ACAD_REACTORS
330
47
102
}
330
47
100
AcDbScale
 70
     0
300
3/32" = 1'-0"
140
0.09375
141
12.0
290
     0
  0
SCALE
  5
5E
102
{ACAD_REACTORS
330
47
102
}
330
47
100
AcDbScale
 70
     0
300
1/8" = 1'-0"
140
0.125
141
12.0
290
     0
  0
SCALE
  5
5F
102
{ACAD_REACTORS
330
47
102
}
330
47
100
AcDbScale
 70
     0
300
3/16" = 1'-0"
140
0.1875
141
12.0
290
     0
  0
SCALE
  5
60
102
{ACAD_REACTORS
330
47
102
}
330
47
100
AcDbScale
 70
     0
300
1/4" = 1'-0"
140
0.25
141
12.0
290
     0
  0
SCALE
  5
61
102
{ACAD_REACTORS
330
47
102
}
330
47
100
AcDbScale
 70
     0
300
3/8" = 1'-0"
140
0.375
141
12.0
290
     0
  0
SCALE
  5
62
102
{ACAD_REACTORS
330
47
102
}
330
47
100
AcDbScale
 70
     0
300
1/2" = 1'-0"
140
0.5
141
12.0
290
     0
  0
SCALE
  5
63
102
{ACAD_REACTORS
330
47
102
}
330
47
100
AcDbScale
 70
     0
300
3/4" = 1'-0"
140
0.75
141
12.0
290
     0
  0
SCALE
  5
64
102
{ACAD_REACTORS
330
47
102
}
330
47
100
AcDbScale
 70
     0
300
1" = 1'-0"
140
1.0
141
12.0
290
     0
  0
SCALE
  5
65
102
{ACAD_REACTORS
330
47
102
}
330
47
100
AcDbScale
 70
     0
300
1-1/2" = 1'-0"
140
1.5
141
12.0
290
     0
  0
SCALE
  5
66
102
{ACAD_REACTORS
330
47
102
}
330
47
100
AcDbScale
 70
     0
300
3" = 1'-0"
140
3.0
141
12.0
290
     0
  0
SCALE
  5
67
102
{ACAD_REACTORS
330
47
102
}
330
47
100
AcDbScale
 70
     0
300
6" = 1'-0"
140
6.0
141
12.0
290
     0
  0
SCALE
  5
68
102
{ACAD_REACTORS
330
47
102
}
330
47
100
AcDbScale
 70
     0
300
1'-0" = 1'-0"
140
12.0
141
12.0
290
     0
  0
ENDSEC
  0
EOF
