  0
SECTION
  2
HEADER
  9
$ACADVER
  1
AC1015
  9
$ACADMAINTVER
 70
     6
  9
$DWGCODEPAGE
  3
DOS932
  9
$INSBASE
 10
0.0
 20
0.0
 30
0.0
  9
$EXTMIN
 10
0.0
 20
0.0
 30
0.0
  9
$EXTMAX
 10
210.0
 20
297.0
 30
0.0
  9
$LIMMIN
 10
0.0
 20
0.0
  9
$LIMMAX
 10
210.0
 20
297.0
  9
$ORTHOMODE
 70
     0
  9
$REGENMODE
 70
     1
  9
$FILLMODE
 70
     1
  9
$QTEXTMODE
 70
     0
  9
$MIRRTEXT
 70
     1
  9
$LTSCALE
 40
1.0
  9
$ATTMODE
 70
     1
  9
$TEXTSIZE
 40
3.5
  9
$TRACEWID
 40
1.0
  9
$TEXTSTYLE
  7
Standard
  9
$CLAYER
  8
0
  9
$CELTYPE
  6
ByLayer
  9
$CECOLOR
 62
   256
  9
$CELTSCALE
 40
1.0
  9
$DISPSILH
 70
     0
  9
$DIMSCALE
 40
1.0
  9
$DIMASZ
 40
1.5
  9
$DIMEXO
 40
1.0
  9
$DIMDLI
 40
3.75
  9
$DIMRND
 40
0.0
  9
$DIMDLE
 40
0.0
  9
$DIMEXE
 40
1.0
  9
$DIMTP
 40
0.0
  9
$DIMTM
 40
0.0
  9
$DIMTXT
 40
3.5
  9
$DIMCEN
 40
2.5
  9
$DIMTSZ
 40
0.0
  9
$DIMTOL
 70
     0
  9
$DIMLIM
 70
     0
  9
$DIMTIH
 70
     1
  9
$DIMTOH
 70
     1
  9
$DIMSE1
 70
     0
  9
$DIMSE2
 70
     0
  9
$DIMTAD
 70
     1
  9
$DIMZIN
 70
     0
  9
$DIMBLK
  1

  9
$DIMASO
 70
     1
  9
$DIMSHO
 70
     1
  9
$DIMPOST
  1

  9
$DIMAPOST
  1

  9
$DIMALT
 70
     0
  9
$DIMALTD
 70
     3
  9
$DIMALTF
 40
0.0393700787
  9
$DIMLFAC
 40
5.0
  9
$DIMTOFL
 70
     1
  9
$DIMTVP
 40
0.0
  9
$DIMTIX
 70
     0
  9
$DIMSOXD
 70
     0
  9
$DIMSAH
 70
     0
  9
$DIMBLK1
  1

  9
$DIMBLK2
  1

  9
$DIMSTYLE
  2
ISO-25
  9
$DIMCLRD
 70
     0
  9
$DIMCLRE
 70
     0
  9
$DIMCLRT
 70
     0
  9
$DIMTFAC
 40
1.0
  9
$DIMGAP
 40
1.5
  9
$DIMJUST
 70
     0
  9
$DIMSD1
 70
     0
  9
$DIMSD2
 70
     0
  9
$DIMTOLJ
 70
     0
  9
$DIMTZIN
 70
     0
  9
$DIMALTZ
 70
     0
  9
$DIMALTTZ
 70
     0
  9
$DIMUPT
 70
     0
  9
$DIMDEC
 70
     1
  9
$DIMTDEC
 70
     1
  9
$DIMALTU
 70
     2
  9
$DIMALTTD
 70
     3
  9
$DIMTXSTY
  7
Standard
  9
$DIMAUNIT
 70
     0
  9
$DIMADEC
 70
     2
  9
$DIMALTRND
 40
0.0
  9
$DIMAZIN
 70
     0
  9
$DIMDSEP
 70
    44
  9
$DIMATFIT
 70
     3
  9
$DIMFRAC
 70
     0
  9
$DIMLDRBLK
  1

  9
$DIMLUNIT
 70
     2
  9
$DIMLWD
 70
    -2
  9
$DIMLWE
 70
    -2
  9
$DIMTMOVE
 70
     0
  9
$LUNITS
 70
     2
  9
$LUPREC
 70
     4
  9
$SKETCHINC
 40
1.0
  9
$FILLETRAD
 40
10.0
  9
$AUNITS
 70
     0
  9
$AUPREC
 70
     2
  9
$MENU
  1
.
  9
$ELEVATION
 40
0.0
  9
$PELEVATION
 40
0.0
  9
$THICKNESS
 40
0.0
  9
$LIMCHECK
 70
     0
  9
$CHAMFERA
 40
0.0
  9
$CHAMFERB
 40
0.0
  9
$CHAMFERC
 40
0.0
  9
$CHAMFERD
 40
0.0
  9
$SKPOLY
 70
     0
  9
$TDCREATE
 40
2460018.599556505
  9
$TDUCREATE
 40
2460018.224556505
  9
$TDUPDATE
 40
2460018.599556794
  9
$TDUUPDATE
 40
2460018.224556794
  9
$TDINDWG
 40
0.0000000116
  9
$TDUSRTIMER
 40
0.0000000116
  9
$USRTIMER
 70
     1
  9
$ANGBASE
 50
0.0
  9
$ANGDIR
 70
     0
  9
$PDMODE
 70
     0
  9
$PDSIZE
 40
-1.0
  9
$PLINEWID
 40
0.0
  9
$SPLFRAME
 70
     0
  9
$SPLINETYPE
 70
     6
  9
$SPLINESEGS
 70
     8
  9
$HANDSEED
  5
1C4
  9
$SURFTAB1
 70
     6
  9
$SURFTAB2
 70
     6
  9
$SURFTYPE
 70
     6
  9
$SURFU
 70
     6
  9
$SURFV
 70
     6
  9
$UCSBASE
  2

  9
$UCSNAME
  2

  9
$UCSORG
 10
0.0
 20
0.0
 30
0.0
  9
$UCSXDIR
 10
1.0
 20
0.0
 30
0.0
  9
$UCSYDIR
 10
0.0
 20
1.0
 30
0.0
  9
$UCSORTHOREF
  2

  9
$UCSORTHOVIEW
 70
     0
  9
$UCSORGTOP
 10
0.0
 20
0.0
 30
0.0
  9
$UCSORGBOTTOM
 10
0.0
 20
0.0
 30
0.0
  9
$UCSORGLEFT
 10
0.0
 20
0.0
 30
0.0
  9
$UCSORGRIGHT
 10
0.0
 20
0.0
 30
0.0
  9
$UCSORGFRONT
 10
0.0
 20
0.0
 30
0.0
  9
$UCSORGBACK
 10
0.0
 20
0.0
 30
0.0
  9
$PUCSBASE
  2

  9
$PUCSNAME
  2

  9
$PUCSORG
 10
0.0
 20
0.0
 30
0.0
  9
$PUCSXDIR
 10
1.0
 20
0.0
 30
0.0
  9
$PUCSYDIR
 10
0.0
 20
1.0
 30
0.0
  9
$PUCSORTHOREF
  2

  9
$PUCSORTHOVIEW
 70
     0
  9
$PUCSORGTOP
 10
0.0
 20
0.0
 30
0.0
  9
$PUCSORGBOTTOM
 10
0.0
 20
0.0
 30
0.0
  9
$PUCSORGLEFT
 10
0.0
 20
0.0
 30
0.0
  9
$PUCSORGRIGHT
 10
0.0
 20
0.0
 30
0.0
  9
$PUCSORGFRONT
 10
0.0
 20
0.0
 30
0.0
  9
$PUCSORGBACK
 10
0.0
 20
0.0
 30
0.0
  9
$USERI1
 70
     0
  9
$USERI2
 70
     0
  9
$USERI3
 70
     0
  9
$USERI4
 70
     0
  9
$USERI5
 70
     0
  9
$USERR1
 40
0.0
  9
$USERR2
 40
0.0
  9
$USERR3
 40
0.0
  9
$USERR4
 40
0.0
  9
$USERR5
 40
0.0
  9
$WORLDVIEW
 70
     1
  9
$SHADEDGE
 70
     3
  9
$SHADEDIF
 70
    70
  9
$TILEMODE
 70
     1
  9
$MAXACTVP
 70
    64
  9
$PINSBASE
 10
0.0
 20
0.0
 30
0.0
  9
$PLIMCHECK
 70
     0
  9
$PEXTMIN
 10
1.0000000000E+20
 20
1.0000000000E+20
 30
1.0000000000E+20
  9
$PEXTMAX
 10
-1.0000000000E+20
 20
-1.0000000000E+20
 30
-1.0000000000E+20
  9
$PLIMMIN
 10
0.0
 20
0.0
  9
$PLIMMAX
 10
420.0
 20
297.0
  9
$UNITMODE
 70
     0
  9
$VISRETAIN
 70
     1
  9
$PLINEGEN
 70
     0
  9
$PSLTSCALE
 70
     1
  9
$TREEDEPTH
 70
  3020
  9
$CMLSTYLE
  2
Standard
  9
$CMLJUST
 70
     0
  9
$CMLSCALE
 40
20.0
  9
$PROXYGRAPHICS
 70
     1
  9
$MEASUREMENT
 70
     1
  9
$CELWEIGHT
370
    -1
  9
$ENDCAPS
280
     0
  9
$JOINSTYLE
280
     0
  9
$LWDISPLAY
290
     1
  9
$INSUNITS
 70
     4
  9
$HYPERLINKBASE
  1

  9
$STYLESHEET
  1

  9
$XEDIT
290
     1
  9
$CEPSNTYPE
380
     0
  9
$PSTYLEMODE
290
     1
  9
$FINGERPRINTGUID
  2
{cb753b5c-740f-405a-91f8-6737001dc68d}
  9
$VERSIONGUID
  2
{FAEB1C32-E019-11D5-929B-00C0DF256EC4}
  9
$EXTNAMES
290
     1
  9
$PSVPSCALE
 40
0.0
  9
$OLESTARTUP
290
     0
  0
ENDSEC
  0
SECTION
  2
CLASSES
  0
CLASS
  1
ACDBDICTIONARYWDFLT
  2
AcDbDictionaryWithDefault
  3
ObjectDBX Classes
 90
        0
280
     0
281
     0
  0
CLASS
  1
VISUALSTYLE
  2
AcDbVisualStyle
  3
ObjectDBX Classes
 90
     4095
280
     0
281
     0
  0
CLASS
  1
MATERIAL
  2
AcDbMaterial
  3
ObjectDBX Classes
 90
     1153
280
     0
281
     0
  0
CLASS
  1
SCALE
  2
AcDbScale
  3
ObjectDBX Classes
 90
     1153
280
     0
281
     0
  0
CLASS
  1
TABLESTYLE
  2
AcDbTableStyle
  3
ObjectDBX Classes
 90
     4095
280
     0
281
     0
  0
CLASS
  1
MLEADERSTYLE
  2
AcDbMLeaderStyle
  3
ACDB_MLEADERSTYLE_CLASS
 90
     4095
280
     0
281
     0
  0
CLASS
  1
SUN
  2
AcDbSun
  3
SCENEOE
 90
     1153
280
     0
281
     0
  0
CLASS
  1
ACDBPLACEHOLDER
  2
AcDbPlaceHolder
  3
ObjectDBX Classes
 90
        0
280
     0
281
     0
  0
CLASS
  1
LAYOUT
  2
AcDbLayout
  3
ObjectDBX Classes
 90
        0
280
     0
281
     0
  0
ENDSEC
  0
SECTION
  2
TABLES
  0
TABLE
  2
VPORT
  5
8
330
0
100
AcDbSymbolTable
 70
     1
  0
VPORT
  5
29
330
8
100
AcDbSymbolTableRecord
100
AcDbViewportTableRecord
  2
*Active
 70
     0
 10
0.0
 20
0.0
 11
1.0
 21
1.0
 12
105.0
 22
148.5
 13
0.0
 23
0.0
 14
10.0
 24
10.0
 15
10.0
 25
10.0
 16
0.0
 26
0.0
 36
1.0
 17
0.0
 27
0.0
 37
0.0
 40
297.0
 41
0.7070707071
 42
50.0
 43
0.0
 44
0.0
 50
0.0
 51
0.0
 71
     0
 72
  2000
 73
     1
 74
     3
 75
     0
 76
     0
 77
     0
 78
     0
281
     0
 65
     1
110
0.0
120
0.0
130
0.0
111
1.0
121
0.0
131
0.0
112
0.0
122
1.0
132
0.0
 79
     0
146
0.0
  0
ENDTAB
  0
TABLE
  2
LTYPE
  5
5
330
0
100
AcDbSymbolTable
 70
     6
  0
LTYPE
  5
14
330
5
100
AcDbSymbolTableRecord
100
AcDbLinetypeTableRecord
  2
ByBlock
 70
     0
  3

 72
    65
 73
     0
 40
0.0
  0
LTYPE
  5
15
330
5
100
AcDbSymbolTableRecord
100
AcDbLinetypeTableRecord
  2
ByLayer
 70
     0
  3

 72
    65
 73
     0
 40
0.0
  0
LTYPE
  5
16
330
5
100
AcDbSymbolTableRecord
100
AcDbLinetypeTableRecord
  2
Continuous
 70
     0
  3
Solid line
 72
    65
 73
     0
 40
0.0
  0
LTYPE
  5
6E
330
5
100
AcDbSymbolTableRecord
100
AcDbLinetypeTableRecord
  2
HIDDEN
 70
     0
  3
Hidden __ __ __ __ __ __ __ __ __ __ __ __ __ __
 72
    65
 73
     2
 40
1.905
 49
1.27
 74
     0
 49
-0.635
 74
     0
  0
LTYPE
  5
6F
330
5
100
AcDbSymbolTableRecord
100
AcDbLinetypeTableRecord
  2
PHANTOM
 70
     0
  3
Phantom ______  __  __  ______  __  __  ______
 72
    65
 73
     6
 40
12.7
 49
6.35
 74
     0
 49
-1.27
 74
     0
 49
1.27
 74
     0
 49
-1.27
 74
     0
 49
1.27
 74
     0
 49
-1.27
 74
     0
  0
LTYPE
  5
70
330
5
100
AcDbSymbolTableRecord
100
AcDbLinetypeTableRecord
  2
CENTER
 70
     0
  3
Center ____ _ ____ _ ____ _ ____ _ ____ _ ____
 72
    65
 73
     4
 40
10.16
 49
6.35
 74
     0
 49
-1.27
 74
     0
 49
1.27
 74
     0
 49
-1.27
 74
     0
  0
LTYPE
  5
71
330
5
100
AcDbSymbolTableRecord
100
AcDbLinetypeTableRecord
  2
CENTERX2
 70
     0
  3
Center (2x) ________  __  ________  __  _____
 72
    65
 73
     4
 40
20.32
 49
12.7
 74
     0
 49
-2.54
 74
     0
 49
2.54
 74
     0
 49
-2.54
 74
     0
  0
LTYPE
  5
72
330
5
100
AcDbSymbolTableRecord
100
AcDbLinetypeTableRecord
  2
DOT2
 70
     0
  3
Dot (.5x) ........................................
 72
    65
 73
     2
 40
0.635
 49
0.0
 74
     0
 49
-0.635
 74
     0
  0
ENDTAB
  0
TABLE
  2
LAYER
  5
2
330
0
100
AcDbSymbolTable
 70
     1
  0
LAYER
  5
10
330
2
100
AcDbSymbolTableRecord
100
AcDbLayerTableRecord
  2
0
 70
     0
 62
     7
  6
Continuous
370
    -3
390
F
  0
ENDTAB
  0
TABLE
  2
STYLE
  5
3
330
0
100
AcDbSymbolTable
 70
     2
  0
STYLE
  5
11
330
3
100
AcDbSymbolTableRecord
100
AcDbTextStyleTableRecord
  2
Standard
 70
     0
 40
0.0
 41
1.0
 50
0.0
 71
     0
 42
3.5
  3
txt
  4
bigfont
  0
STYLE
  5
76
330
3
100
AcDbSymbolTableRecord
100
AcDbTextStyleTableRecord
  2
SLDTEXTSTYLE0
 70
     0
 40
0.0
 41
0.7
 50
0.0
 71
     0
 42
3.5
  3
TXT
  4
bigfont
  0
ENDTAB
  0
TABLE
  2
VIEW
  5
6
330
0
100
AcDbSymbolTable
 70
     0
  0
ENDTAB
  0
TABLE
  2
UCS
  5
7
330
0
100
AcDbSymbolTable
 70
     0
  0
ENDTAB
  0
TABLE
  2
APPID
  5
9
330
0
100
AcDbSymbolTable
 70
     1
  0
APPID
  5
12
330
9
100
AcDbSymbolTableRecord
100
AcDbRegAppTableRecord
  2
ACAD
 70
     0
  0
ENDTAB
  0
TABLE
  2
DIMSTYLE
  5
A
330
0
100
AcDbSymbolTable
 70
     1
100
AcDbDimStyleTable
  0
DIMSTYLE
105
27
330
A
100
AcDbSymbolTableRecord
100
AcDbDimStyleTableRecord
  2
ISO-25
 70
     0
 41
2.5
 42
0.625
 43
3.75
 44
1.25
 73
     0
 74
     0
 77
     1
 78
     8
140
2.5
141
2.5
143
0.0393700787
147
0.625
171
     3
172
     1
178
     0
271
     2
272
     2
274
     3
278
    44
283
     0
284
     8
340
11
  0
ENDTAB
  0
TABLE
  2
BLOCK_RECORD
  5
1
330
0
100
AcDbSymbolTable
 70
     2
  0
BLOCK_RECORD
  5
1F
330
1
100
AcDbSymbolTableRecord
100
AcDbBlockTableRecord
  2
*Model_Space
340
22
  0
BLOCK_RECORD
  5
1B
330
1
100
AcDbSymbolTableRecord
100
AcDbBlockTableRecord
  2
*Paper_Space
340
1E
  0
BLOCK_RECORD
  5
23
330
1
100
AcDbSymbolTableRecord
100
AcDbBlockTableRecord
  2
*Paper_Space0
340
26
  0
BLOCK_RECORD
  5
73
330
1
100
AcDbSymbolTableRecord
100
AcDbBlockTableRecord
  2
SW_NOTE_0
340
0
102
{BLKREFS
331
79
102
}
  0
ENDTAB
  0
ENDSEC
  0
SECTION
  2
BLOCKS
  0
BLOCK
  5
20
330
1F
100
AcDbEntity
  8
0
100
AcDbBlockBegin
  2
*Model_Space
 70
     0
 10
0.0
 20
0.0
 30
0.0
  3
*Model_Space
  1

  0
ENDBLK
  5
21
330
1F
100
AcDbEntity
  8
0
100
AcDbBlockEnd
  0
BLOCK
  5
1C
330
1B
100
AcDbEntity
 67
     1
  8
0
100
AcDbBlockBegin
  2
*Paper_Space
 70
     0
 10
0.0
 20
0.0
 30
0.0
  3
*Paper_Space
  1

  0
ENDBLK
  5
1D
330
1B
100
AcDbEntity
 67
     1
  8
0
100
AcDbBlockEnd
  0
BLOCK
  5
24
330
23
100
AcDbEntity
  8
0
100
AcDbBlockBegin
  2
*Paper_Space0
 70
     0
 10
0.0
 20
0.0
 30
0.0
  3
*Paper_Space0
  1

  0
ENDBLK
  5
25
330
23
100
AcDbEntity
  8
0
100
AcDbBlockEnd
  0
BLOCK
  5
74
330
73
100
AcDbEntity
  8
0
100
AcDbBlockBegin
  2
SW_NOTE_0
 70
     0
 10
0.0
 20
0.0
 30
0.0
  3
SW_NOTE_0
  1

  0
MTEXT
  5
77
330
73
100
AcDbEntity
  8
0
  6
Continuous
 62
     0
370
     0
100
AcDbMText
 10
0.0
 20
4.5117370892
 30
0.0
 40
3.5
 41
0.0
 71
     1
 72
     1
  1
HFE-D93S/C/K
  7
SLDTEXTSTYLE0
 73
     1
 44
1.0
  0
MTEXT
  5
78
330
73
100
AcDbEntity
  8
0
  6
Continuous
 62
     0
370
     0
100
AcDbMText
 10
0.0
 20
0.0117372829
 30
0.0
 40
3.5
 41
0.0
 71
     1
 72
     1
  1
HFE-D94S/C/K
  7
SLDTEXTSTYLE0
 73
     1
 44
1.0
  0
ENDBLK
  5
75
330
73
100
AcDbEntity
  8
0
100
AcDbBlockEnd
  0
ENDSEC
  0
SECTION
  2
ENTITIES
  0
INSERT
  5
79
330
1F
100
AcDbEntity
  8
0
  6
Continuous
 62
     7
370
     0
100
AcDbBlockReference
  2
SW_NOTE_0
 10
141.0036734694
 20
110.7238775119
 30
0.0
  0
LINE
  5
7A
330
1F
100
AcDbEntity
  8
0
  6
Continuous
 62
     7
370
    25
100
AcDbLine
 10
129.7916504751
 20
123.5051263606
 30
0.0
 11
130.497440194
 21
123.5728981254
 31
0.0
  0
LINE
  5
7B
330
1F
100
AcDbEntity
  8
0
  6
Continuous
 62
     7
370
    25
100
AcDbLine
 10
135.6817459437
 20
125.0360996478
 30
0.0
 11
135.8314080454
 21
125.241328466
 31
0.0
  0
LINE
  5
7C
330
1F
100
AcDbEntity
  8
0
  6
Continuous
 62
     7
370
    25
100
AcDbLine
 10
135.0239145975
 20
133.6507387132
 30
0.0
 11
134.5079003375
 21
134.1307363082
 31
0.0
  0
SPLINE
  5
7D
330
1F
100
AcDbEntity
  8
0
  6
Continuous
 62
     7
370
    25
100
AcDbSpline
210
0.0
220
0.0
230
1.0
 70
     8
 71
     3
 72
     9
 73
     5
 74
     0
 42
0.00000001
 43
0.00000001
 40
0.0
 40
0.0
 40
0.0
 40
0.0
 40
0.477010507779413
 40
0.9999999999999999
 40
0.9999999999999999
 40
0.9999999999999999
 40
0.9999999999999999
 10
130.0315479542896
 20
125.8448121640208
 30
0.0
 10
130.0481386247741
 20
125.8953255207082
 30
0.0
 10
130.0829191384398
 20
126.0012212103493
 30
0.0
 10
130.1178657352321
 20
126.1076004109768
 30
0.0
 10
130.1361424381434
 20
126.1632356150958
 30
0.0
  0
SPLINE
  5
7E
330
1F
100
AcDbEntity
  8
0
  6
Continuous
 62
     7
370
    25
100
AcDbSpline
210
0.0
220
0.0
230
1.0
 70
     8
 71
     3
 72
     9
 73
     5
 74
     0
 42
0.00000001
 43
0.00000001
 40
0.0
 40
0.0
 40
0.0
 40
0.0
 40
0.4999899840041868
 40
0.9999999999999999
 40
0.9999999999999999
 40
0.9999999999999999
 40
0.9999999999999999
 10
129.5692734958659
 20
131.4668931152002
 30
0.0
 10
129.5413585147704
 20
131.5169126462165
 30
0.0
 10
129.4855274341715
 20
131.616953712271
 30
0.0
 10
129.4294823261812
 20
131.7174064312895
 30
0.0
 10
129.4014592108385
 20
131.7676337969328
 30
0.0
  0
LINE
  5
7F
330
1F
100
AcDbEntity
  8
0
  6
Continuous
 62
     7
370
    25
100
AcDbLine
 10
128.6279716109
 20
124.7611774072
 30
0.0
 11
128.5990474199
 21
124.9014353774
 31
0.0
  0
LINE
  5
80
330
1F
100
AcDbEntity
  8
0
  6
Continuous
 62
     7
370
    25
100
AcDbLine
 10
128.9774710235
 20
124.7942924877
 30
0.0
 11
128.9656412334
 21
124.8516570081
 31
0.0
  0
LINE
  5
81
330
1F
100
AcDbEntity
  8
0
  6
Continuous
 62
     7
370
    25
100
AcDbLine
 10
128.1584223458
 20
124.787933399
 30
0.0
 11
128.1819142782
 21
124.6740173086
 31
0.0
  0
LINE
  5
82
330
1F
100
AcDbEntity
  8
0
  6
Continuous
 62
     7
370
    25
100
AcDbLine
 10
128.1868338515
 20
124.6501615207
 30
0.0
 11
128.1873465368
 21
124.6476754288
 31
0.0
  0
LINE
  5
83
330
1F
100
AcDbEntity
  8
0
  6
Continuous
 62
     7
370
    25
100
AcDbLine
 10
135.5877454087
 20
124.9407071167
 30
0.0
 11
135.8248596173
 21
124.9634754399
 31
0.0
  0
LINE
  5
84
330
1F
100
AcDbEntity
  8
0
  6
Continuous
 62
     7
370
    25
100
AcDbLine
 10
134.9646129884
 20
133.9222686475
 30
0.0
 11
134.7537747303
 21
133.9020234095
 31
0.0
  0
SPLINE
  5
85
330
1F
100
AcDbEntity
  8
0
  6
Continuous
 62
     7
370
    25
100
AcDbSpline
210
0.0
220
0.0
230
1.0
 70
     8
 71
     3
 72
    18
 73
    14
 74
     0
 42
0.00000001
 43
0.00000001
 40
0.0
 40
0.0
 40
0.0
 40
0.0
 40
0.1222103665320678
 40
0.1713748963207296
 40
0.2525650130484585
 40
0.3356823660503168
 40
0.425870872318898
 40
0.5228628002758894
 40
0.6239307382106438
 40
0.719097060037148
 40
0.8119016001953022
 40
0.9057942854961416
 40
1.0
 40
1.0
 40
1.0
 40
1.0
 10
138.1967636613928
 20
129.7119299997386
 30
0.0
 10
138.1660087718695
 20
129.9716728390548
 30
0.0
 10
138.1228813666177
 20
130.3359087334474
 30
0.0
 10
138.0193423612845
 20
130.8524005044129
 30
0.0
 10
137.9149838802582
 20
131.2748205639524
 30
0.0
 10
137.7627184014925
 20
131.7499664285073
 30
0.0
 10
137.5684895734421
 20
132.2201139596633
 30
0.0
 10
137.3157776415627
 20
132.6827960334206
 30
0.0
 10
136.9909963757651
 20
133.1134913407812
 30
0.0
 10
136.5831962078087
 20
133.4852540770094
 30
0.0
 10
136.1013099881616
 20
133.7618776000158
 30
0.0
 10
135.5563551881312
 20
133.9323815928364
 30
0.0
 10
135.174213913186
 20
133.9258532759361
 30
0.0
 10
134.9828253001781
 20
133.9225836853456
 30
0.0
  0
SPLINE
  5
86
330
1F
100
AcDbEntity
  8
0
  6
Continuous
 62
     7
370
    25
100
AcDbSpline
210
0.0
220
0.0
230
1.0
 70
     8
 71
     3
 72
    18
 73
    14
 74
     0
 42
0.00000001
 43
0.00000001
 40
0.0
 40
0.0
 40
0.0
 40
0.0
 40
0.0015300749001399
 40
0.0997631323064287
 40
0.2025061205144208
 40
0.2992819491516414
 40
0.4022023341875944
 40
0.5173942918736482
 40
0.6374806881751711
 40
0.7339770006067114
 40
0.8079888229811676
 40
0.8774793207509558
 40
1.0
 40
1.0
 40
1.0
 40
1.0
 10
135.8081132238237
 20
124.9631077507098
 30
0.0
 10
135.8112157370741
 20
124.9629906864334
 30
0.0
 10
136.0135041608918
 20
124.9553579235607
 30
0.0
 10
136.4196256791901
 20
125.0858152780433
 30
0.0
 10
136.953178884574
 20
125.3581920369542
 30
0.0
 10
137.3933429382116
 20
125.768584240021
 30
0.0
 10
137.7328453330518
 20
126.2621305679826
 30
0.0
 10
137.9772872226357
 20
126.8341437938204
 30
0.0
 10
138.1279697953874
 20
127.4322178655354
 30
0.0
 10
138.2059494679397
 20
127.9938658399944
 30
0.0
 10
138.2376026546806
 20
128.4804984333587
 30
0.0
 10
138.2461189372723
 20
129.0368746023097
 30
0.0
 10
138.2159891923041
 20
129.448973341532
 30
0.0
 10
138.1967636613928
 20
129.7119299997386
 30
0.0
  0
LINE
  5
87
330
1F
100
AcDbEntity
  8
0
  6
Continuous
 62
     7
370
    25
100
AcDbLine
 10
128.2424130085
 20
124.4073899677
 30
0.0
 11
128.2275677826
 21
124.4793768128
 31
0.0
  0
LINE
  5
88
330
1F
100
AcDbEntity
  8
0
  6
Continuous
 62
     7
370
    25
100
AcDbLine
 10
128.7228518786
 20
124.4713106546
 30
0.0
 11
128.7086825952
 21
124.540019748
 31
0.0
  0
LINE
  5
89
330
1F
100
AcDbEntity
  8
0
  6
Continuous
 62
     7
370
    25
100
AcDbLine
 10
128.3997310424
 20
124.0554717454
 30
0.0
 11
128.3800849759
 21
124.1507386246
 31
0.0
  0
LINE
  5
8A
330
1F
100
AcDbEntity
  8
0
  6
Continuous
 62
     7
370
    25
100
AcDbLine
 10
130.7972332912
 20
137.1191112461
 30
0.0
 11
130.6117728392
 21
137.2916269649
 31
0.0
  0
LINE
  5
8B
330
1F
100
AcDbEntity
  8
0
  6
Continuous
 62
     7
370
    25
100
AcDbLine
 10
130.7379316822
 20
137.3906411804
 30
0.0
 11
130.5166093272
 21
137.3693892321
 31
0.0
  0
SPLINE
  5
8C
330
1F
100
AcDbEntity
  8
0
  6
Continuous
 62
     7
370
    25
100
AcDbSpline
210
0.0
220
0.0
230
1.0
 70
     8
 71
     3
 72
    17
 73
    13
 74
     0
 42
0.00000001
 43
0.00000001
 40
0.0
 40
0.0
 40
0.0
 40
0.0
 40
0.0319264636328864
 40
0.1391424497476898
 40
0.2554797642383345
 40
0.3805930507604919
 40
0.5109641253785939
 40
0.6337224985827961
 40
0.7534343268548666
 40
0.8745497916756905
 40
0.9983663712944117
 40
1.0
 40
1.0
 40
1.0
 40
1.0
 10
133.7212748028178
 20
134.588312207852
 30
0.0
 10
133.7094011999073
 20
134.6374358562651
 30
0.0
 10
133.6576534643834
 20
134.8515273654075
 30
0.0
 10
133.5347442552306
 20
135.2171049804611
 30
0.0
 10
133.3421928341299
 20
135.6888790878053
 30
0.0
 10
133.0889988442794
 20
136.1509631568438
 30
0.0
 10
132.764286969828
 20
136.582266013988
 30
0.0
 10
132.3567034763124
 20
136.9523267618961
 30
0.0
 10
131.8739150144947
 20
137.2349761395864
 30
0.0
 10
131.3289520832636
 20
137.3837873426116
 30
0.0
 10
130.9316369065623
 20
137.4342006299001
 30
0.0
 10
130.7403882801875
 20
137.3902092355203
 30
0.0
 10
130.7378978160414
 20
137.3896363739395
 30
0.0
  0
SPLINE
  5
8D
330
1F
100
AcDbEntity
  8
0
  6
Continuous
 62
     7
370
    25
100
AcDbSpline
210
0.0
220
0.0
230
1.0
 70
     8
 71
     3
 72
     9
 73
     5
 74
     0
 42
0.00000001
 43
0.00000001
 40
0.0
 40
0.0
 40
0.0
 40
0.0
 40
0.5030015694034804
 40
1.0
 40
1.0
 40
1.0
 40
1.0
 10
80.00462976257636
 20
113.6602553945174
 30
0.0
 10
80.04860586728468
 20
113.6312740877664
 30
0.0
 10
80.13603323805907
 20
113.5736573555058
 30
0.0
 10
80.2289837311588
 20
113.5768926228121
 30
0.0
 10
80.27517998035255
 20
113.5785005455859
 30
0.0
  0
LINE
  5
8E
330
1F
100
AcDbEntity
  8
0
  6
Continuous
 62
     7
370
    25
100
AcDbLine
 10
80.2472192221
 20
113.573892385
 30
0.0
 11
81.2023666236
 21
113.6656081232
 31
0.0
  0
LINE
  5
8F
330
1F
100
AcDbEntity
  8
0
  6
Continuous
 62
     7
370
    25
100
AcDbLine
 10
70.5366292475
 20
121.4296019116
 30
0.0
 11
80.0043953736
 21
113.660447438
 31
0.0
  0
SPLINE
  5
90
330
1F
100
AcDbEntity
  8
0
  6
Continuous
 62
     7
370
    25
100
AcDbSpline
210
0.0
220
0.0
230
1.0
 70
     8
 71
     3
 72
    10
 73
     6
 74
     0
 42
0.00000001
 43
0.00000001
 40
0.0
 40
0.0
 40
0.0
 40
0.0
 40
0.1503531963953973
 40
0.5557031571192617
 40
0.9999999999999999
 40
0.9999999999999999
 40
0.9999999999999999
 40
0.9999999999999999
 10
129.5360132705175
 20
134.736147845689
 30
0.0
 10
129.5379602799928
 20
134.7559743234395
 30
0.0
 10
129.5451563977895
 20
134.8292526876155
 30
0.0
 10
129.4792182406464
 20
134.9536667475248
 30
0.0
 10
129.3964314420023
 20
135.003031739842
 30
0.0
 10
129.3531406144329
 20
135.0288456546856
 30
0.0
  0
LINE
  5
91
330
1F
100
AcDbEntity
  8
0
  6
Continuous
 62
     7
370
    25
100
AcDbLine
 10
129.5347379561
 20
133.7783836336
 30
0.0
 11
129.5439241356
 21
134.7348590142
 31
0.0
  0
LINE
  5
92
330
1F
100
AcDbEntity
  8
0
  6
Continuous
 62
     7
370
    25
100
AcDbLine
 10
129.408348042
 20
135.0054955601
 30
0.0
 11
119.9405819159
 21
142.7746500337
 31
0.0
  0
SPLINE
  5
93
330
1F
100
AcDbEntity
  8
0
  6
Continuous
 62
     7
370
    25
100
AcDbSpline
210
0.0
220
0.0
230
1.0
 70
     8
 71
     3
 72
    11
 73
     7
 74
     0
 42
0.00000001
 43
0.00000001
 40
0.0
 40
0.0
 40
0.0
 40
0.0
 40
0.4767774502005068
 40
0.6708556235671577
 40
0.9923332447694821
 40
1.0
 40
1.0
 40
1.0
 40
1.0
 10
70.959281518198
 20
137.9049155580859
 30
0.0
 10
70.8628255036906
 20
137.7656555437029
 30
0.0
 10
70.72710587237849
 20
137.5697080135761
 30
0.0
 10
70.62821812909426
 20
137.2399470107162
 30
0.0
 10
70.58620370672305
 20
137.059020483113
 30
0.0
 10
70.59626663755725
 20
136.9482750350273
 30
0.0
 10
70.59650103326057
 20
136.9456954428965
 30
0.0
  0
SPLINE
  5
94
330
1F
100
AcDbEntity
  8
0
  6
Continuous
 62
     7
370
    25
100
AcDbSpline
210
0.0
220
0.0
230
1.0
 70
     8
 71
     3
 72
     9
 73
     5
 74
     0
 42
0.00000001
 43
0.00000001
 40
0.0
 40
0.0
 40
0.0
 40
0.0
 40
0.1319650365323776
 40
1.0
 40
1.0
 40
1.0
 40
1.0
 10
71.40034963821098
 20
138.2744725539413
 30
0.0
 10
71.37785366366639
 20
138.2631069636358
 30
0.0
 10
71.2073844610979
 20
138.176981194234
 30
0.0
 10
71.07456952575035
 20
138.0313385047401
 30
0.0
 10
70.959281518198
 20
137.9049155580859
 30
0.0
  0
SPLINE
  5
95
330
1F
100
AcDbEntity
  8
0
  6
Continuous
 62
     7
370
    25
100
AcDbSpline
210
0.0
220
0.0
230
1.0
 70
     8
 71
     3
 72
    10
 73
     6
 74
     0
 42
0.00000001
 43
0.00000001
 40
0.0
 40
0.0
 40
0.0
 40
0.0
 40
0.1862609462195219
 40
0.6838733393061542
 40
1.0
 40
1.0
 40
1.0
 40
1.0
 10
72.00878023010611
 20
138.4654811300518
 30
0.0
 10
71.96945273825483
 20
138.4652860654456
 30
0.0
 10
71.82505841553314
 20
138.4645698686992
 30
0.0
 10
71.61519348066966
 20
138.394115950467
 30
0.0
 10
71.460461088286
 20
138.3079477421281
 30
0.0
 10
71.40034963821098
 20
138.2744725539413
 30
0.0
  0
LINE
  5
96
330
1F
100
AcDbEntity
  8
0
  6
Continuous
 62
     7
370
    25
100
AcDbLine
 10
70.595658513
 20
136.9478761565
 30
0.0
 11
70.2109149681
 21
122.5561858302
 31
0.0
  0
LINE
  5
97
330
1F
100
AcDbEntity
  8
0
  6
Continuous
 62
     7
370
    25
100
AcDbLine
 10
118.7987075086
 20
142.9705749623
 30
0.0
 11
115.0107216673
 21
142.6068427079
 31
0.0
  0
LINE
  5
98
330
1F
100
AcDbEntity
  8
0
  6
Continuous
 62
     7
370
    25
100
AcDbLine
 10
104.0000601018
 20
141.5495703416
 30
0.0
 11
72.0090928474
 21
138.4777144457
 31
0.0
  0
SPLINE
  5
99
330
1F
100
AcDbEntity
  8
0
  6
Continuous
 62
     7
370
    25
100
AcDbSpline
210
0.0
220
0.0
230
1.0
 70
     8
 71
     3
 72
    12
 73
     8
 74
     0
 42
0.00000001
 43
0.00000001
 40
0.0
 40
0.0
 40
0.0
 40
0.0
 40
0.1561055973285347
 40
0.3016831913350399
 40
0.5701962870727072
 40
0.8170345227112435
 40
1.0
 40
1.0
 40
1.0
 40
1.0
 10
70.21093763826242
 20
122.5567460873721
 30
0.0
 10
70.21089717966083
 20
122.4902365071954
 30
0.0
 10
70.21081899104841
 20
122.3617028559656
 30
0.0
 10
70.23664396199156
 20
122.111063723452
 30
0.0
 10
70.29670968767118
 20
121.8362506289518
 30
0.0
 10
70.39302750346414
 20
121.589394373461
 30
0.0
 10
70.475662272904
 20
121.4998255156658
 30
0.0
 10
70.5108395167864
 20
121.4616964620449
 30
0.0
  0
LINE
  5
9A
330
1F
100
AcDbEntity
  8
0
  6
Continuous
 62
     7
370
    25
100
AcDbLine
 10
119.0807058996
 20
142.9823469321
 30
0.0
 11
118.8027732995
 21
142.9668480879
 31
0.0
  0
SPLINE
  5
9B
330
1F
100
AcDbEntity
  8
0
  6
Continuous
 62
     7
370
    25
100
AcDbSpline
210
0.0
220
0.0
230
1.0
 70
     8
 71
     3
 72
    12
 73
     8
 74
     0
 42
0.00000001
 43
0.00000001
 40
0.0
 40
0.0
 40
0.0
 40
0.0
 40
0.1987230938293001
 40
0.382059838621771
 40
0.5629960172363467
 40
0.7652036400245078
 40
1.0
 40
1.0
 40
1.0
 40
1.0
 10
119.9332055585603
 20
142.7617628208507
 30
0.0
 10
119.8954149390298
 20
142.7950992460144
 30
0.0
 10
119.8227596792862
 20
142.8591909878085
 30
0.0
 10
119.6787616505211
 20
142.90472192196
 30
0.0
 10
119.515869473919
 20
142.9451439775736
 30
0.0
 10
119.315187184686
 20
142.9741054791234
 30
0.0
 10
119.1626578557484
 20
142.9794665180473
 30
0.0
 10
119.0807058996185
 20
142.9823469321274
 30
0.0
  0
SPLINE
  5
9C
330
1F
100
AcDbEntity
  8
0
  6
Continuous
 62
     7
370
    25
100
AcDbSpline
210
0.0
220
0.0
230
1.0
 70
     8
 71
     3
 72
    14
 73
    10
 74
     0
 42
0.00000001
 43
0.00000001
 40
0.0
 40
0.0
 40
0.0
 40
0.0
 40
0.2257386023527624
 40
0.3182996820073541
 40
0.4717387065854136
 40
0.6313242550364878
 40
0.8027365653295034
 40
0.9819500845158585
 40
1.0
 40
1.0
 40
1.0
 40
1.0
 10
117.3064104930993
 20
148.404777377011
 30
0.0
 10
117.5348715022607
 20
148.7043745153549
 30
0.0
 10
117.8570098773956
 20
149.1268174332755
 30
0.0
 10
118.2508794179594
 20
149.8056188103449
 30
0.0
 10
118.5488270559962
 20
150.4089377660052
 30
0.0
 10
118.8367667699539
 20
151.1563952375825
 30
0.0
 10
119.0503035090165
 20
151.9637924937032
 30
0.0
 10
119.1678763210727
 20
152.5566300536819
 30
0.0
 10
119.1817234043049
 20
152.8734541584509
 30
0.0
 10
119.1829904342664
 20
152.9024440638734
 30
0.0
  0
SPLINE
  5
9D
330
1F
100
AcDbEntity
  8
0
  6
Continuous
 62
     7
370
    25
100
AcDbSpline
210
0.0
220
0.0
230
1.0
 70
     8
 71
     3
 72
    13
 73
     9
 74
     0
 42
0.00000001
 43
0.00000001
 40
0.0
 40
0.0
 40
0.0
 40
0.0
 40
0.1186838360455702
 40
0.328712438686415
 40
0.5252196346911316
 40
0.6642510817528191
 40
0.8099311328491233
 40
1.0
 40
1.0
 40
1.0
 40
1.0
 10
113.5963234883362
 20
145.8061949386557
 30
0.0
 10
113.7654053672099
 20
145.8627800101917
 30
0.0
 10
114.2337026399822
 20
146.0195007354193
 30
0.0
 10
114.9455415215656
 20
146.3896526821326
 30
0.0
 10
115.6489500396954
 20
146.8401614999869
 30
0.0
 10
116.2302821358478
 20
147.298690900136
 30
0.0
 10
116.7728743710164
 20
147.7915226712672
 30
0.0
 10
117.1135516565889
 20
148.1831024347923
 30
0.0
 10
117.3064104930993
 20
148.404777377011
 30
0.0
  0
LINE
  5
9E
330
1F
100
AcDbEntity
  8
0
  6
Continuous
 62
     7
370
    25
100
AcDbLine
 10
105.6899661729
 20
147.6829184896
 30
0.0
 11
107.1625678803
 21
146.6153259223
 31
0.0
  0
LINE
  5
9F
330
1F
100
AcDbEntity
  8
0
  6
Continuous
 62
     7
370
    25
100
AcDbLine
 10
117.0814201643
 20
158.702789749
 30
0.0
 11
115.1439959013
 21
160.4970479353
 31
0.0
  0
LINE
  5
A0
330
1F
100
AcDbEntity
  8
0
  6
Continuous
 62
     7
370
    25
100
AcDbLine
 10
114.9794448299
 20
139.3502630723
 30
0.0
 11
115.0478366147
 21
146.471292963
 31
0.0
  0
LINE
  5
A1
330
1F
100
AcDbEntity
  8
0
  6
Continuous
 62
     7
370
    25
100
AcDbLine
 10
104.0676635382
 20
148.588516501
 30
0.0
 11
103.9799521183
 21
139.455904384
 31
0.0
  0
LINE
  5
A2
330
1F
100
AcDbEntity
  8
0
  6
Continuous
 62
     7
370
    25
100
AcDbLine
 10
103.7789677047
 20
149.2223085178
 30
0.0
 11
104.2598189365
 21
148.7769898153
 31
0.0
  0
LINE
  5
A3
330
1F
100
AcDbEntity
  8
0
  6
Continuous
 62
     7
370
    25
100
AcDbLine
 10
116.1474074595
 20
139.4833551934
 30
0.0
 11
115.6754075443
 21
139.921699373
 31
0.0
  0
LINE
  5
A4
330
1F
100
AcDbEntity
  8
0
  6
Continuous
 62
     7
370
    25
100
AcDbLine
 10
103.2950931471
 20
140.0406023704
 30
0.0
 11
102.8147611866
 21
139.6114045751
 31
0.0
  0
LINE
  5
A5
330
1F
100
AcDbEntity
  8
0
  6
Continuous
 62
     7
370
    25
100
AcDbLine
 10
116.4655963851
 20
137.9011443679
 30
0.0
 11
116.4747825645
 21
138.8576197485
 31
0.0
  0
LINE
  5
A6
330
1F
100
AcDbEntity
  8
0
  6
Continuous
 62
     7
370
    25
100
AcDbLine
 10
102.4754282042
 20
138.9920723271
 30
0.0
 11
102.4662420248
 21
138.0355969465
 31
0.0
  0
LINE
  5
A7
330
1F
100
AcDbEntity
  8
0
  6
Continuous
 62
     7
370
    25
100
AcDbLine
 10
119.2577778212
 20
157.9896195117
 30
0.0
 11
120.1511962233
 21
157.5687558688
 31
0.0
  0
LINE
  5
A8
330
1F
100
AcDbEntity
  8
0
  6
Continuous
 62
     7
370
    25
100
AcDbLine
 10
108.9008188704
 20
162.8684841775
 30
0.0
 11
109.7190281325
 21
162.4830493914
 31
0.0
  0
LINE
  5
A9
330
1F
100
AcDbEntity
  8
0
  6
Continuous
 62
     7
370
    25
100
AcDbLine
 10
136.1319964841
 20
191.493142717
 30
0.0
 11
124.8816191312
 21
196.7928710257
 31
0.0
  0
LINE
  5
AA
330
1F
100
AcDbEntity
  8
0
  6
Continuous
 62
     7
370
    25
100
AcDbLine
 10
138.6840408171
 20
187.7853536518
 30
0.0
 11
138.673219013
 21
187.8329691827
 31
0.0
  0
LINE
  5
AB
330
1F
100
AcDbEntity
  8
0
  6
Continuous
 62
     7
370
    25
100
AcDbLine
 10
124.5665812412
 20
157.9212144213
 30
0.0
 11
124.7211951686
 21
158.002682945
 31
0.0
  0
LINE
  5
AC
330
1F
100
AcDbEntity
  8
0
  6
Continuous
 62
     7
370
    25
100
AcDbLine
 10
101.7622494325
 20
150.8114628764
 30
0.0
 11
103.7910564595
 21
149.1466440606
 31
0.0
  0
SPLINE
  5
AD
330
1F
100
AcDbEntity
  8
0
  6
Continuous
 62
     7
370
    25
100
AcDbSpline
210
0.0
220
0.0
230
1.0
 70
     8
 71
     3
 72
    14
 73
    10
 74
     0
 42
0.00000001
 43
0.00000001
 40
0.0
 40
0.0
 40
0.0
 40
0.0
 40
0.2057602134366263
 40
0.2901037902921733
 40
0.42992614055382
 40
0.5753444702061813
 40
0.7315347364520256
 40
0.8948249527131527
 40
1.0
 40
1.0
 40
1.0
 40
1.0
 10
101.2367657171658
 20
161.591367638944
 30
0.0
 10
101.0056496519745
 20
161.2885369434991
 30
0.0
 10
100.6797963424858
 20
160.8615723175489
 30
0.0
 10
100.2804659337791
 20
160.1759902977769
 30
0.0
 10
99.97750864858861
 20
159.5668325711954
 30
0.0
 10
99.6849277620512
 20
158.812207821652
 30
0.0
 10
99.46053284665614
 20
157.9968805159409
 30
0.0
 10
99.32223963304394
 20
157.2400512462369
 30
0.0
 10
99.30472136924746
 20
156.7616466085844
 30
0.0
 10
99.2978583427284
 20
156.5742248553103
 30
0.0
  0
SPLINE
  5
AE
330
1F
100
AcDbEntity
  8
0
  6
Continuous
 62
     7
370
    25
100
AcDbSpline
210
0.0
220
0.0
230
1.0
 70
     8
 71
     3
 72
    13
 73
     9
 74
     0
 42
0.00000001
 43
0.00000001
 40
0.0
 40
0.0
 40
0.0
 40
0.0
 40
0.1746977643485082
 40
0.3614035969950777
 40
0.5341240740727528
 40
0.6705513883160036
 40
0.7936304970678
 40
1.0
 40
1.0
 40
1.0
 40
1.0
 10
105.5856944670082
 20
164.4301436753265
 30
0.0
 10
105.2965878180413
 20
164.3441763048357
 30
0.0
 10
104.6985024147078
 20
164.1663324896302
 30
0.0
 10
103.8522881453779
 20
163.7644582991225
 30
0.0
 10
103.1048411804235
 20
163.3116849701619
 30
0.0
 10
102.4926744642293
 20
162.8519338084615
 30
0.0
 10
101.8679126776249
 20
162.3081439031144
 30
0.0
 10
101.4798509749317
 20
161.8674328881683
 30
0.0
 10
101.2367657171658
 20
161.591367638944
 30
0.0
  0
LINE
  5
AF
330
1F
100
AcDbEntity
  8
0
  6
Continuous
 62
     7
370
    25
100
AcDbLine
 10
86.1276200111
 20
213.5288380391
 30
0.0
 11
85.0216118777
 21
214.0498465734
 31
0.0
  0
LINE
  5
B0
330
1F
100
AcDbEntity
  8
0
  6
Continuous
 62
     7
370
    25
100
AcDbLine
 10
70.2127369694
 20
182.613248094
 30
0.0
 11
71.3549575125
 21
182.0751809379
 31
0.0
  0
SPLINE
  5
B1
330
1F
100
AcDbEntity
  8
0
  6
Continuous
 62
     7
370
    25
100
AcDbSpline
210
0.0
220
0.0
230
1.0
 70
     8
 71
     3
 72
     9
 73
     5
 74
     0
 42
0.00000001
 43
0.00000001
 40
0.0
 40
0.0
 40
0.0
 40
0.0
 40
0.976145775056278
 40
0.9999999999999999
 40
0.9999999999999999
 40
0.9999999999999999
 40
0.9999999999999999
 10
67.20414195807625
 20
185.2921031440288
 30
0.0
 10
67.26078777403993
 20
184.9943537777802
 30
0.0
 10
67.31881785254993
 20
184.6893282643198
 30
0.0
 10
67.41572955529583
 20
184.4327294626144
 30
0.0
 10
67.41804130885282
 20
184.4266084970782
 30
0.0
  0
LINE
  5
B2
330
1F
100
AcDbEntity
  8
0
  6
Continuous
 62
     7
370
    25
100
AcDbLine
 10
69.8313266087
 20
181.2729952131
 30
0.0
 11
73.7178206033
 21
179.4421799792
 31
0.0
  0
LINE
  5
B3
330
1F
100
AcDbEntity
  8
0
  6
Continuous
 62
     7
370
    25
100
AcDbLine
 10
89.698620864
 20
213.3665668274
 30
0.0
 11
85.8121268694
 21
215.1973820613
 31
0.0
  0
SPLINE
  5
B4
330
1F
100
AcDbEntity
  8
0
  6
Continuous
 62
     7
370
    25
100
AcDbSpline
210
0.0
220
0.0
230
1.0
 70
     8
 71
     3
 72
    11
 73
     7
 74
     0
 42
0.00000001
 43
0.00000001
 40
0.0
 40
0.0
 40
0.0
 40
0.0
 40
0.2032299724325906
 40
0.6005632084633566
 40
0.9937409685797378
 40
1.0
 40
1.0
 40
1.0
 40
1.0
 10
85.93773327817277
 20
213.7028403051346
 30
0.0
 10
86.02838174126148
 20
213.6237434826082
 30
0.0
 10
86.29625626381936
 20
213.3900051174098
 30
0.0
 10
86.68074255327181
 20
212.8850498331956
 30
0.0
 10
86.96668705946375
 20
212.4319625357638
 30
0.0
 10
87.07274386380321
 20
212.144521182941
 30
0.0
 10
87.07440573593108
 20
212.1400170799216
 30
0.0
  0
LINE
  5
B5
330
1F
100
AcDbEntity
  8
0
  6
Continuous
 62
     7
370
    25
100
AcDbLine
 10
74.5360298653
 20
179.0567451931
 30
0.0
 11
108.9008188705
 21
162.8684841775
 31
0.0
  0
LINE
  5
B6
330
1F
100
AcDbEntity
  8
0
  6
Continuous
 62
     7
370
    25
100
AcDbLine
 10
124.8816191312
 20
196.7928710257
 30
0.0
 11
90.5168301261
 21
212.9811320413
 31
0.0
  0
LINE
  5
B7
330
1F
100
AcDbEntity
  8
0
  6
Continuous
 62
     7
370
    25
100
AcDbLine
 10
130.0345670485
 20
125.7391542273
 30
0.0
 11
127.9002207493
 21
125.5342087434
 31
0.0
  0
LINE
  5
B8
330
1F
100
AcDbEntity
  8
0
  6
Continuous
 62
     7
370
    25
100
AcDbLine
 10
127.9426019597
 20
129.9469882494
 30
0.0
 11
129.9089362595
 21
130.135800784
 31
0.0
  0
LINE
  5
B9
330
1F
100
AcDbEntity
  8
0
  6
Continuous
 62
     7
370
    25
100
AcDbLine
 10
129.9089362595
 20
130.135800784
 30
0.0
 11
130.0345670485
 21
125.7391542273
 31
0.0
  0
LWPOLYLINE
  5
BA
330
1F
100
AcDbEntity
  8
0
  6
Continuous
 62
     7
370
    25
100
AcDbPolyline
 90
       19
 70
   128
 43
0.0
 10
129.534870596
 20
133.792194247
 10
129.6835663104
 20
133.6031026694
 10
130.0023196083
 20
133.0678749239
 10
130.2964033952
 20
132.389200373
 10
130.5558030006
 20
131.5901904644
 10
130.771684882
 20
130.6980545223
 10
130.9366974408
 20
129.7431731662
 10
131.0452213723
 20
128.7580637354
 10
131.0935610242
 20
127.7762729501
 10
131.0800702475
 20
126.8312345179
 10
131.0052084545
 20
125.9551305892
 10
130.8715249738
 20
125.1777958326
 10
130.683572236
 20
124.5257014508
 10
130.4477507461
 20
124.0210537359
 10
130.1720911222
 20
123.6810378606
 10
129.865980622
 20
123.5172326578
 10
129.5398434716
 20
123.5352163171
 10
129.2047858805
 20
123.7343764265
 10
129.0202699504
 20
123.9195796826
  0
ARC
  5
BB
330
1F
100
AcDbEntity
  8
0
  6
Continuous
 62
     7
370
    25
100
AcDbCircle
 10
117.2445776045
 20
127.7119282572
 30
0.0
 40
14.55613912509215
100
AcDbArc
 50
351.5083479925
 51
11.7651268238
  0
LINE
  5
BC
330
1F
100
AcDbEntity
  8
0
  6
Continuous
 62
     7
370
    25
100
AcDbLine
 10
135.7582501283
 20
125.9578267558
 30
0.0
 11
131.6411434342
 21
125.5624914609
 31
0.0
  0
ARC
  5
BD
330
1F
100
AcDbEntity
  8
0
  6
Continuous
 62
     7
370
    25
100
AcDbCircle
 10
128.1188645068
 20
127.3271379891
 30
0.0
 40
7.761135608082132
100
AcDbArc
 50
348.7861779833
 51
349.838008398
  0
LINE
  5
BE
330
1F
100
AcDbEntity
  8
0
  6
Continuous
 62
     7
370
    25
100
AcDbLine
 10
131.6147199135
 20
125.422486962
 30
0.0
 11
135.7318266076
 21
125.8178222569
 31
0.0
  0
LWPOLYLINE
  5
BF
330
1F
100
AcDbEntity
  8
0
  6
Continuous
 62
     7
370
    25
100
AcDbPolyline
 90
        8
 70
   128
 43
0.0
 10
130.497440194
 20
123.5728981254
 10
130.6127490799
 20
123.5960215838
 10
130.8231632062
 20
123.7049102569
 10
131.0201319669
 20
123.8973779145
 10
131.2005006558
 20
124.1703419416
 10
131.3613804384
 20
124.519430471
 10
131.5001946197
 20
124.9390524047
 10
131.6147199135
 20
125.422486962
  0
LINE
  5
C0
330
1F
100
AcDbEntity
  8
0
  6
Continuous
 62
     7
370
    25
100
AcDbLine
 10
134.2823329956
 20
124.0299258937
 30
0.0
 11
130.8118443051
 21
123.6966805416
 31
0.0
  0
LWPOLYLINE
  5
C1
330
1F
100
AcDbEntity
  8
0
  6
Continuous
 62
     7
370
    25
100
AcDbPolyline
 90
        3
 70
   128
 43
0.0
 10
129.8021372798
 20
134.2119864278
 10
129.5751039429
 20
134.2741211404
 10
129.5395182248
 20
134.2761106115
  0
LINE
  5
C2
330
1F
100
AcDbEntity
  8
0
  6
Continuous
 62
     7
370
    25
100
AcDbLine
 10
133.9192439739
 20
134.6073217226
 30
0.0
 11
129.8021372798
 21
134.2119864278
 31
0.0
  0
ARC
  5
C3
330
1F
100
AcDbEntity
  8
0
  6
Continuous
 62
     7
370
    25
100
AcDbCircle
 10
133.5485951829
 20
133.7985710085
 30
0.0
 40
0.8896393898163912
100
AcDbArc
 50
60.9201278225
 51
65.3781108043
  0
LINE
  5
C4
330
1F
100
AcDbEntity
  8
0
  6
Continuous
 62
     7
370
    25
100
AcDbLine
 10
129.8638784954
 20
134.1807298462
 30
0.0
 11
133.9809851895
 21
134.576065141
 31
0.0
  0
LWPOLYLINE
  5
C5
330
1F
100
AcDbEntity
  8
0
  6
Continuous
 62
     7
370
    25
100
AcDbPolyline
 90
        9
 70
   128
 43
0.0
 10
131.4595989233
 20
130.8511893754
 10
131.3136785483
 20
131.4664749375
 10
131.1464565787
 20
132.0410281248
 10
130.9606112875
 20
132.5656467351
 10
130.7591192243
 20
133.0319283322
 10
130.5452075414
 20
133.4324048215
 10
130.3223023072
 20
133.7606620612
 10
130.0939736336
 20
134.0114425928
 10
129.8638784954
 20
134.1807298462
  0
LINE
  5
C6
330
1F
100
AcDbEntity
  8
0
  6
Continuous
 62
     7
370
    25
100
AcDbLine
 10
135.5767056174
 20
131.2465246703
 30
0.0
 11
131.4595989233
 21
130.8511893754
 31
0.0
  0
ARC
  5
C7
330
1F
100
AcDbEntity
  8
0
  6
Continuous
 62
     7
370
    25
100
AcDbCircle
 10
121.5416643441
 20
128.2629270394
 30
0.0
 40
14.34866678009379
100
AcDbArc
 50
11.3031380167
 51
12.0013963996
  0
LINE
  5
C8
330
1F
100
AcDbEntity
  8
0
  6
Continuous
 62
     7
370
    25
100
AcDbLine
 10
131.4949166182
 20
130.6799282949
 30
0.0
 11
135.6120233123
 21
131.0752635898
 31
0.0
  0
SPLINE
  5
C9
330
1F
100
AcDbEntity
  8
0
  6
Continuous
 62
     7
370
    25
100
AcDbSpline
210
0.0
220
0.0
230
1.0
 70
     8
 71
     3
 72
    16
 73
    12
 74
     0
 42
0.00000001
 43
0.00000001
 40
0.0
 40
0.0
 40
0.0
 40
0.0
 40
0.0481316845569233
 40
0.1826519424861699
 40
0.3165449542384207
 40
0.4471500051125617
 40
0.5778454043755755
 40
0.7050045602187088
 40
0.8317295953925742
 40
0.956188498088745
 40
1.0
 40
1.0
 40
1.0
 40
1.0
 10
129.0067057848653
 20
132.5347275623711
 30
0.0
 10
129.0560446685559
 20
132.5304925183818
 30
0.0
 10
129.2432777361112
 20
132.5144212127904
 30
0.0
 10
129.5830980850768
 20
132.1141173161634
 30
0.0
 10
129.9660577826178
 20
131.3132882883916
 30
0.0
 10
130.2626851724489
 20
130.2310236696441
 30
0.0
 10
130.4382329523037
 20
129.0291728278926
 30
0.0
 10
130.4765523111687
 20
127.8313907151556
 30
0.0
 10
130.3753187983867
 20
126.7984718069123
 30
0.0
 10
130.2069103864792
 20
126.148926757874
 30
0.0
 10
130.0666860077997
 20
125.9457120526606
 30
0.0
 10
130.0301766724305
 20
125.892802324021
 30
0.0
  0
SPLINE
  5
CA
330
1F
100
AcDbEntity
  8
0
  6
Continuous
 62
     7
370
    25
100
AcDbSpline
210
0.0
220
0.0
230
1.0
 70
     8
 71
     3
 72
    12
 73
     8
 74
     0
 42
0.00000001
 43
0.00000001
 40
0.0
 40
0.0
 40
0.0
 40
0.0
 40
0.217005575651763
 40
0.4412248343960992
 40
0.6012665849252041
 40
0.7666162356697531
 40
1.0
 40
1.0
 40
1.0
 40
1.0
 10
135.6120233122782
 20
131.0752635897522
 30
0.0
 10
135.7721131417279
 20
130.7368980026117
 30
0.0
 10
136.0976144947477
 20
130.0489189048257
 30
0.0
 10
136.3256034678926
 20
129.0075611303141
 30
0.0
 10
136.329500236537
 20
128.0256265145077
 30
0.0
 10
136.1641910657842
 20
127.0291394091654
 30
0.0
 10
135.9081274408556
 20
126.3533657285662
 30
0.0
 10
135.758250128259
 20
125.9578267557817
 30
0.0
  0
LINE
  5
CB
330
1F
100
AcDbEntity
  8
0
  6
Continuous
 62
     7
370
    25
100
AcDbLine
 10
129.7220178582
 20
131.042197633
 30
0.0
 11
127.9514877496
 21
130.8721867262
 31
0.0
  0
ARC
  5
CC
330
1F
100
AcDbEntity
  8
0
  6
Continuous
 62
     7
370
    25
100
AcDbCircle
 10
115.8851155046
 20
127.7162609448
 30
0.0
 40
14.23101266945777
100
AcDbArc
 50
9.7889127115
 51
13.5156217048
  0
LINE
  5
CD
330
1F
100
AcDbEntity
  8
0
  6
Continuous
 62
     7
370
    25
100
AcDbLine
 10
128.5537359938
 20
133.4798688446
 30
0.0
 11
129.7220178582
 21
131.042197633
 31
0.0
  0
LINE
  5
CE
330
1F
100
AcDbEntity
  8
0
  6
Continuous
 62
     7
370
    25
100
AcDbLine
 10
127.8932268277
 20
124.8059937238
 30
0.0
 11
129.8947209385
 21
124.9981823949
 31
0.0
  0
ARC
  5
CF
330
1F
100
AcDbEntity
  8
0
  6
Continuous
 62
     7
370
    25
100
AcDbCircle
 10
122.4125839001
 20
126.7939940528
 30
0.0
 40
7.694628917046359
100
AcDbArc
 50
346.5035515756
 51
352.1206348057
  0
LWPOLYLINE
  5
D0
330
1F
100
AcDbEntity
  8
0
  6
Continuous
 62
     7
370
    25
100
AcDbPolyline
 90
       14
 70
   128
 43
0.0
 10
135.0239145975
 20
133.6507387132
 10
135.3079131478
 20
133.3089488487
 10
135.5965737732
 20
132.7884730534
 10
135.8577077396
 20
132.129178237
 10
136.0806241915
 20
131.3580560067
 10
136.2561969034
 20
130.5066761973
 10
136.3772379077
 20
129.6098943982
 10
136.4387917716
 20
128.7044249615
 10
136.4383384725
 20
127.8273379125
 10
136.3758965686
 20
127.014541298
 10
136.2540224389
 20
126.2993111068
 10
136.0777056244
 20
125.7109289471
 10
135.8541645563
 20
125.2734832536
 10
135.8314080454
 20
125.241328466
  0
SPLINE
  5
D1
330
1F
100
AcDbEntity
  8
0
  6
Continuous
 62
     7
370
    25
100
AcDbSpline
210
0.0
220
0.0
230
1.0
 70
     8
 71
     3
 72
    12
 73
     8
 74
     0
 42
0.00000001
 43
0.00000001
 40
0.0
 40
0.0
 40
0.0
 40
0.0
 40
0.2170055756517637
 40
0.4412248343961013
 40
0.6012665849252057
 40
0.7666162356697551
 40
1.0
 40
1.0
 40
1.0
 40
1.0
 10
135.7318266075568
 20
125.817822256889
 30
0.0
 10
135.7819156361784
 20
125.7089781521866
 30
0.0
 10
135.8837587491594
 20
125.4876717552056
 30
0.0
 10
135.7811120722432
 20
125.1361997267756
 30
0.0
 10
135.4795431962754
 20
124.7916325397283
 30
0.0
 10
135.0092955026504
 20
124.431413000578
 30
0.0
 10
134.5507345704328
 20
124.1781588090078
 30
0.0
 10
134.2823329956221
 20
124.0299258936651
 30
0.0
  0
SPLINE
  5
D2
330
1F
100
AcDbEntity
  8
0
  6
Continuous
 62
     7
370
    25
100
AcDbSpline
210
0.0
220
0.0
230
1.0
 70
     8
 71
     3
 72
    12
 73
     8
 74
     0
 42
0.00000001
 43
0.00000001
 40
0.0
 40
0.0
 40
0.0
 40
0.0
 40
0.2170055756517627
 40
0.4412248343960999
 40
0.6012665849252042
 40
0.766616235669755
 40
1.0
 40
1.0
 40
1.0
 40
1.0
 10
133.9809851894717
 20
134.5760651410194
 30
0.0
 10
134.2409956913142
 20
134.3609479803024
 30
0.0
 10
134.7696599446274
 20
133.9235627503236
 30
0.0
 10
135.2979861537049
 20
133.2526597659839
 30
0.0
 10
135.5793566532016
 20
132.6129786587105
 30
0.0
 10
135.6910423953443
 20
131.958154457792
 30
0.0
 10
135.6189198594778
 20
131.5092652570372
 30
0.0
 10
135.5767056173872
 20
131.2465246702727
 30
0.0
  0
SPLINE
  5
D3
330
1F
100
AcDbEntity
  8
0
  6
Continuous
 62
     7
370
    25
100
AcDbSpline
210
0.0
220
0.0
230
1.0
 70
     8
 71
     3
 72
    14
 73
    10
 74
     0
 42
0.00000001
 43
0.00000001
 40
0.0
 40
0.0
 40
0.0
 40
0.0
 40
0.0053347360559805
 40
0.1801135965866806
 40
0.3510980292227667
 40
0.5257180526072383
 40
0.6982988544947778
 40
0.8708796563823178
 40
0.9999999999999999
 40
0.9999999999999999
 40
0.9999999999999999
 40
0.9999999999999999
 10
130.1363162958947
 20
126.1712883419147
 30
0.0
 10
130.1387827768328
 20
126.1764302835422
 30
0.0
 10
130.2220571409303
 20
126.3500346737584
 30
0.0
 10
130.3079920393259
 20
126.9372858188726
 30
0.0
 10
130.36210748449
 20
127.8843474101544
 30
0.0
 10
130.289122227797
 20
128.9580631854755
 30
0.0
 10
130.1062189708362
 20
130.0062216694203
 30
0.0
 10
129.8571918968966
 20
130.8877250959568
 30
0.0
 10
129.65122028498
 20
131.277390298285
 30
0.0
 10
129.5630697237297
 20
131.4441569996054
 30
0.0
  0
SPLINE
  5
D4
330
1F
100
AcDbEntity
  8
0
  6
Continuous
 62
     7
370
    25
100
AcDbSpline
210
0.0
220
0.0
230
1.0
 70
     8
 71
     3
 72
    33
 73
    29
 74
     0
 42
0.00000001
 43
0.00000001
 40
0.0
 40
0.0
 40
0.0
 40
0.0
 40
0.0236407760502303
 40
0.0302463544889526
 40
0.0645122492863657
 40
0.1081118191671373
 40
0.1517112741834727
 40
0.1953092153390008
 40
0.2389085484844236
 40
0.2825066183002066
 40
0.3261050581549319
 40
0.369703809947689
 40
0.4133018152561517
 40
0.4362891629198781
 40
0.4705550577172911
 40
0.5141546275980643
 40
0.5577540826143994
 40
0.6013520237699292
 40
0.6449513569153511
 40
0.6885494267311326
 40
0.7321478665858568
 40
0.775746618378615
 40
0.8193446236870782
 40
0.8423319713508517
 40
0.8765978661482654
 40
0.9201974360290373
 40
0.9637968910453706
 40
1.0
 40
1.0
 40
1.0
 40
1.0
 10
129.7917381118488
 20
130.704113111858
 30
0.0
 10
129.6068963826569
 20
130.5694817366902
 30
0.0
 10
129.3704071720823
 20
130.3972323870914
 30
0.0
 10
129.5632930295302
 20
129.807625832992
 30
0.0
 10
129.6674367612687
 20
129.0192217973856
 30
0.0
 10
129.7791625527967
 20
127.8334215380613
 30
0.0
 10
129.7267930725825
 20
126.6696715488231
 30
0.0
 10
129.545916717786
 20
125.742612883073
 30
0.0
 10
129.2468590931333
 20
125.1588585840766
 30
0.0
 10
128.8716161944873
 20
124.9841986311102
 30
0.0
 10
128.4639091031293
 20
125.238895069475
 30
0.0
 10
128.0709841750186
 20
125.8934134102391
 30
0.0
 10
127.7951339289276
 20
126.7227502622959
 30
0.0
 10
127.6026366701083
 20
127.6032987868596
 30
0.0
 10
127.4697146011992
 20
128.560379385653
 30
0.0
 10
127.4248831602145
 20
129.7464038159771
 30
0.0
 10
127.5196609583413
 20
130.9160146103839
 30
0.0
 10
127.7550691906809
 20
131.8478304830126
 30
0.0
 10
128.1025395218028
 20
132.4363612422458
 30
0.0
 10
128.5289475950442
 20
132.6159023161536
 30
0.0
 10
128.9882651387751
 20
132.3661614723144
 30
0.0
 10
129.4294655645077
 20
131.7163112642089
 30
0.0
 10
129.7504396402754
 20
130.8911976383944
 30
0.0
 10
129.9802713219119
 20
130.0144977877712
 30
0.0
 10
130.1519018969302
 20
129.0597403316615
 30
0.0
 10
130.2435588248846
 20
127.8852619986222
 30
0.0
 10
130.2084625581305
 20
126.7611128725056
 30
0.0
 10
130.0837239349441
 20
126.2370079729669
 30
0.0
 10
130.0271352021847
 20
125.999243346901
 30
0.0
  0
SPLINE
  5
D5
330
1F
100
AcDbEntity
  8
0
  6
Continuous
 62
     7
370
    25
100
AcDbSpline
210
0.0
220
0.0
230
1.0
 70
     8
 71
     3
 72
    15
 73
    11
 74
     0
 42
0.00000001
 43
0.00000001
 40
0.0
 40
0.0
 40
0.0
 40
0.0
 40
0.0501101588840165
 40
0.2254796937282933
 40
0.4008504833061881
 40
0.5762182702398544
 40
0.668682140059839
 40
0.8065126232530219
 40
0.9818867034925753
 40
1.0
 40
1.0
 40
1.0
 40
1.0
 10
130.0150669266326
 20
125.8644700250077
 30
0.0
 10
130.0414325394719
 20
125.9249577499042
 30
0.0
 10
130.1600693676197
 20
126.1971331727668
 30
0.0
 10
130.2550923799657
 20
127.0185099668804
 30
0.0
 10
130.2709953396192
 20
128.2036084482569
 30
0.0
 10
130.1521122082673
 20
129.2833595224685
 30
0.0
 10
129.9706151905195
 20
130.2226606313489
 30
0.0
 10
129.7257589626714
 20
131.0661370531708
 30
0.0
 10
129.4798419127571
 20
131.7089051047443
 30
0.0
 10
129.3163882316256
 20
131.9023773675801
 30
0.0
 10
129.3010865357665
 20
131.9204892492007
 30
0.0
  0
LINE
  5
D6
330
1F
100
AcDbEntity
  8
0
  6
Continuous
 62
     7
370
    25
100
AcDbLine
 10
128.0819775137
 20
123.9794580749
 30
0.0
 11
128.1642830925
 21
124.0809789397
 31
0.0
  0
LINE
  5
D7
330
1F
100
AcDbEntity
  8
0
  6
Continuous
 62
     7
370
    25
100
AcDbLine
 10
128.1642830925
 20
124.0809789397
 30
0.0
 11
128.3604488995
 21
124.0998152908
 31
0.0
  0
SPLINE
  5
D8
330
1F
100
AcDbEntity
  8
0
  6
Continuous
 62
     7
370
    25
100
AcDbSpline
210
0.0
220
0.0
230
1.0
 70
     8
 71
     3
 72
    10
 73
     6
 74
     0
 42
0.00000001
 43
0.00000001
 40
0.0
 40
0.0
 40
0.0
 40
0.0
 40
0.402163503449417
 40
0.877821650639622
 40
1.0
 40
1.0
 40
1.0
 40
1.0
 10
128.3604488995271
 20
124.0998152907984
 30
0.0
 10
128.37440457371
 20
124.089320261094
 30
0.0
 10
128.4048662959747
 20
124.0664122542271
 30
0.0
 10
128.4032279543906
 20
124.0308223758222
 30
0.0
 10
128.3861707237383
 20
124.0078691233774
 30
0.0
 10
128.3826847801772
 20
124.003178224591
 30
0.0
  0
SPLINE
  5
D9
330
1F
100
AcDbEntity
  8
0
  6
Continuous
 62
     7
370
    25
100
AcDbSpline
210
0.0
220
0.0
230
1.0
 70
     8
 71
     3
 72
    12
 73
     8
 74
     0
 42
0.00000001
 43
0.00000001
 40
0.0
 40
0.0
 40
0.0
 40
0.0
 40
0.228116549234907
 40
0.4024684955824901
 40
0.578034893507388
 40
0.7866391940510089
 40
1.0
 40
1.0
 40
1.0
 40
1.0
 10
128.3826847801772
 20
124.003178224591
 30
0.0
 10
128.3639285366261
 20
123.9853559903552
 30
0.0
 10
128.3308366932237
 20
123.9539120296919
 30
0.0
 10
128.2412876346571
 20
123.9085586059301
 30
0.0
 10
128.1288022310581
 20
123.8714821255781
 30
0.0
 10
127.9961786509173
 20
123.8439609486198
 30
0.0
 10
127.9068834863588
 20
123.834042945504
 30
0.0
 10
127.8617326243932
 20
123.8290280447323
 30
0.0
  0
SPLINE
  5
DA
330
1F
100
AcDbEntity
  8
0
  6
Continuous
 62
     7
370
    25
100
AcDbSpline
210
0.0
220
0.0
230
1.0
 70
     8
 71
     3
 72
    12
 73
     8
 74
     0
 42
0.00000001
 43
0.00000001
 40
0.0
 40
0.0
 40
0.0
 40
0.0
 40
0.225081111002159
 40
0.4200730448767291
 40
0.615912633255934
 40
0.854483078377931
 40
1.0
 40
1.0
 40
1.0
 40
1.0
 10
127.8834267377515
 20
123.7855972927812
 30
0.0
 10
127.944020028907
 20
123.7934880312565
 30
0.0
 10
128.057106410085
 20
123.8082146625711
 30
0.0
 10
128.2231467592083
 20
123.8531526465537
 30
0.0
 10
128.3644644035603
 20
123.9103477225451
 30
0.0
 10
128.458556143559
 20
123.9683646275433
 30
0.0
 10
128.4927749545146
 20
124.0051625319703
 30
0.0
 10
128.5057392341629
 20
124.0191039375931
 30
0.0
  0
SPLINE
  5
DB
330
1F
100
AcDbEntity
  8
0
  6
Continuous
 62
     7
370
    25
100
AcDbSpline
210
0.0
220
0.0
230
1.0
 70
     8
 71
     3
 72
    10
 73
     6
 74
     0
 42
0.00000001
 43
0.00000001
 40
0.0
 40
0.0
 40
0.0
 40
0.0
 40
0.2471538600984509
 40
0.7148309598930318
 40
1.0
 40
1.0
 40
1.0
 40
1.0
 10
128.5057392341629
 20
124.0191039375931
 30
0.0
 10
128.5148745426468
 20
124.0328503915532
 30
0.0
 10
128.5412961462984
 20
124.0726085845894
 30
0.0
 10
128.5272538859839
 20
124.1211959138282
 30
0.0
 10
128.486421337945
 20
124.148950896247
 30
0.0
 10
128.4709544610997
 20
124.1594641489225
 30
0.0
  0
LINE
  5
DC
330
1F
100
AcDbEntity
  8
0
  6
Continuous
 62
     7
370
    25
100
AcDbLine
 10
128.4709544611
 20
124.1594641489
 30
0.0
 11
128.0879542015
 21
124.1226874677
 31
0.0
  0
LINE
  5
DD
330
1F
100
AcDbEntity
  8
0
  6
Continuous
 62
     7
370
    25
100
AcDbLine
 10
128.0879542015
 20
124.1226874677
 30
0.0
 11
127.9625361766
 21
123.967989007
 31
0.0
  0
LINE
  5
DE
330
1F
100
AcDbEntity
  8
0
  6
Continuous
 62
     7
370
    25
100
AcDbLine
 10
127.9625361766
 20
123.967989007
 30
0.0
 11
128.0819775137
 21
123.9794580749
 31
0.0
  0
SPLINE
  5
DF
330
1F
100
AcDbEntity
  8
0
  6
Continuous
 62
     7
370
    25
100
AcDbSpline
210
0.0
220
0.0
230
1.0
 70
     8
 71
     3
 72
    12
 73
     8
 74
     0
 42
0.00000001
 43
0.00000001
 40
0.0
 40
0.0
 40
0.0
 40
0.0
 40
0.3325026658980934
 40
0.532835621996576
 40
0.7336360564999641
 40
0.926389510999313
 40
0.9999999999999999
 40
0.9999999999999999
 40
0.9999999999999999
 40
0.9999999999999999
 10
128.7562303943186
 20
124.6299807195636
 30
0.0
 10
128.8067595192886
 20
124.6381449768224
 30
0.0
 10
128.8877324572336
 20
124.6512282015326
 30
0.0
 10
128.9909965897523
 20
124.6846658362015
 30
0.0
 10
129.0568726007608
 20
124.7161097118972
 30
0.0
 10
129.0906644329489
 20
124.741762516588
 30
0.0
 10
129.1027614840412
 20
124.7557630768692
 30
0.0
 10
129.1061045410431
 20
124.7596321744469
 30
0.0
  0
SPLINE
  5
E0
330
1F
100
AcDbEntity
  8
0
  6
Continuous
 62
     7
370
    25
100
AcDbSpline
210
0.0
220
0.0
230
1.0
 70
     8
 71
     3
 72
    12
 73
     8
 74
     0
 42
0.00000001
 43
0.00000001
 40
0.0
 40
0.0
 40
0.0
 40
0.0
 40
0.1922216487370175
 40
0.3585648406283415
 40
0.4987891391997178
 40
0.7303696387362969
 40
1.0
 40
1.0
 40
1.0
 40
1.0
 10
129.1061045410431
 20
124.7596321744469
 30
0.0
 10
129.1152920378321
 20
124.7767245018903
 30
0.0
 10
129.1324301351461
 20
124.8086080472973
 30
0.0
 10
129.0855895772398
 20
124.8387873309706
 30
0.0
 10
128.9957607527576
 20
124.8553473346254
 30
0.0
 10
128.8517364839562
 20
124.8558588782789
 30
0.0
 10
128.728307465191
 20
124.8451342497714
 30
0.0
 10
128.6619078447459
 20
124.839364850732
 30
0.0
  0
SPLINE
  5
E1
330
1F
100
AcDbEntity
  8
0
  6
Continuous
 62
     7
370
    25
100
AcDbSpline
210
0.0
220
0.0
230
1.0
 70
     8
 71
     3
 72
    12
 73
     8
 74
     0
 42
0.00000001
 43
0.00000001
 40
0.0
 40
0.0
 40
0.0
 40
0.0
 40
0.4178159420779167
 40
0.5917704564616378
 40
0.7666151372021285
 40
0.9284127610051507
 40
1.0
 40
1.0
 40
1.0
 40
1.0
 10
128.6619078447459
 20
124.839364850732
 30
0.0
 10
128.564243997911
 20
124.8292131008134
 30
0.0
 10
128.4259185454787
 20
124.8148347464277
 30
0.0
 10
128.244803043976
 20
124.7676290398752
 30
0.0
 10
128.1435808162862
 20
124.7267976010483
 30
0.0
 10
128.0862493320127
 20
124.6910575793836
 30
0.0
 10
128.0684595783408
 20
124.6715228789969
 30
0.0
 10
128.0630028433474
 20
124.6655309082731
 30
0.0
  0
SPLINE
  5
E2
330
1F
100
AcDbEntity
  8
0
  6
Continuous
 62
     7
370
    25
100
AcDbSpline
210
0.0
220
0.0
230
1.0
 70
     8
 71
     3
 72
    12
 73
     8
 74
     0
 42
0.00000001
 43
0.00000001
 40
0.0
 40
0.0
 40
0.0
 40
0.0
 40
0.2515770958900042
 40
0.4738742737271016
 40
0.6646735162352775
 40
0.8679832614149704
 40
1.0
 40
1.0
 40
1.0
 40
1.0
 10
128.0630028433474
 20
124.6655309082731
 30
0.0
 10
128.0544193239871
 20
124.6498237341847
 30
0.0
 10
128.0382512821849
 20
124.6202374728157
 30
0.0
 10
128.0805596200598
 20
124.5916688147736
 30
0.0
 10
128.1506604056593
 20
124.5773755627976
 30
0.0
 10
128.2324047787516
 20
124.5762298721883
 30
0.0
 10
128.2901671470165
 20
124.5810543747171
 30
0.0
 10
128.3129079678001
 20
124.5829537626867
 30
0.0
  0
SPLINE
  5
E3
330
1F
100
AcDbEntity
  8
0
  6
Continuous
 62
     7
370
    25
100
AcDbSpline
210
0.0
220
0.0
230
1.0
 70
     8
 71
     3
 72
    12
 73
     8
 74
     0
 42
0.00000001
 43
0.00000001
 40
0.0
 40
0.0
 40
0.0
 40
0.0
 40
0.288456290088847
 40
0.4978153455862849
 40
0.706993535488952
 40
0.916458820954713
 40
1.0
 40
1.0
 40
1.0
 40
1.0
 10
128.3129079678001
 20
124.5829537626867
 30
0.0
 10
128.3621064343027
 20
124.5889063637617
 30
0.0
 10
128.4470127180131
 20
124.5991793106971
 30
0.0
 10
128.5680411873178
 20
124.6313637424914
 30
0.0
 10
128.6603108088931
 20
124.6670135098414
 30
0.0
 10
128.7122783856513
 20
124.6991380647159
 30
0.0
 10
128.7283381378099
 20
124.7169174704327
 30
0.0
 10
128.7329170491753
 20
124.721986684584
 30
0.0
  0
SPLINE
  5
E4
330
1F
100
AcDbEntity
  8
0
  6
Continuous
 62
     7
370
    25
100
AcDbSpline
210
0.0
220
0.0
230
1.0
 70
     8
 71
     3
 72
    10
 73
     6
 74
     0
 42
0.00000001
 43
0.00000001
 40
0.0
 40
0.0
 40
0.0
 40
0.0
 40
0.3591934476452773
 40
0.707431406270681
 40
1.0
 40
1.0
 40
1.0
 40
1.0
 10
128.7329170491753
 20
124.721986684584
 30
0.0
 10
128.7391501303302
 20
124.7340304553929
 30
0.0
 10
128.7514261821228
 20
124.7577506590214
 30
0.0
 10
128.723345910977
 20
124.7829907418178
 30
0.0
 10
128.6851509738022
 20
124.7914707399843
 30
0.0
 10
128.6677125768074
 20
124.7953423938077
 30
0.0
  0
SPLINE
  5
E5
330
1F
100
AcDbEntity
  8
0
  6
Continuous
 62
     7
370
    25
100
AcDbSpline
210
0.0
220
0.0
230
1.0
 70
     8
 71
     3
 72
    10
 73
     6
 74
     0
 42
0.00000001
 43
0.00000001
 40
0.0
 40
0.0
 40
0.0
 40
0.0
 40
0.2500033366638292
 40
0.5000070690713078
 40
1.0
 40
1.0
 40
1.0
 40
1.0
 10
128.6677125768074
 20
124.7953423938077
 30
0.0
 10
128.66983952452
 20
124.795568304845
 30
0.0
 10
128.6740934233119
 20
124.7960201272772
 30
0.0
 10
128.6825956326639
 20
124.7969162456237
 30
0.0
 10
128.6889550577345
 20
124.7975654298724
 30
0.0
 10
128.6931946333693
 20
124.7979982151781
 30
0.0
  0
SPLINE
  5
E6
330
1F
100
AcDbEntity
  8
0
  6
Continuous
 62
     7
370
    25
100
AcDbSpline
210
0.0
220
0.0
230
1.0
 70
     8
 71
     3
 72
    12
 73
     8
 74
     0
 42
0.00000001
 43
0.00000001
 40
0.0
 40
0.0
 40
0.0
 40
0.0
 40
0.4934044183777951
 40
0.6441714473184635
 40
0.7718384951903083
 40
0.8991514245124947
 40
1.0
 40
1.0
 40
1.0
 40
1.0
 10
128.6931946333693
 20
124.7979982151781
 30
0.0
 10
128.7699166471677
 20
124.8030979341886
 30
0.0
 10
128.8700822087819
 20
124.809755947886
 30
0.0
 10
128.9665922347538
 20
124.8007921961916
 30
0.0
 10
128.9940989237691
 20
124.7865655540411
 30
0.0
 10
129.0009981773053
 20
124.7694175057222
 30
0.0
 10
128.9924586260847
 20
124.7564066655806
 30
0.0
 10
128.9886840998928
 20
124.750655806358
 30
0.0
  0
SPLINE
  5
E7
330
1F
100
AcDbEntity
  8
0
  6
Continuous
 62
     7
370
    25
100
AcDbSpline
210
0.0
220
0.0
230
1.0
 70
     8
 71
     3
 72
    12
 73
     8
 74
     0
 42
0.00000001
 43
0.00000001
 40
0.0
 40
0.0
 40
0.0
 40
0.0
 40
0.2656839109022954
 40
0.4486938695731392
 40
0.6314722081025956
 40
0.9293372921761068
 40
1.0
 40
1.0
 40
1.0
 40
1.0
 10
128.9886840998928
 20
124.750655806358
 30
0.0
 10
128.9801322779377
 20
124.7423401433194
 30
0.0
 10
128.9656897395396
 20
124.7282964362157
 30
0.0
 10
128.9229295291822
 20
124.7089652948714
 30
0.0
 10
128.8685601236596
 20
124.6924052450975
 30
0.0
 10
128.8198832034884
 20
124.6828351121
 30
0.0
 10
128.7882229135532
 20
124.6779804887847
 30
0.0
 10
128.7821522674133
 20
124.6770496476474
 30
0.0
  0
LINE
  5
E8
330
1F
100
AcDbEntity
  8
0
  6
Continuous
 62
     7
370
    25
100
AcDbLine
 10
128.7821522674
 20
124.6770496476
 30
0.0
 11
128.7562303943
 21
124.6299807196
 31
0.0
  0
LINE
  5
E9
330
1F
100
AcDbEntity
  8
0
  6
Continuous
 62
     7
370
    25
100
AcDbLine
 10
128.6493883033
 20
123.4621109896
 30
0.0
 11
127.879610006
 21
123.3881948751
 31
0.0
  0
LINE
  5
EA
330
1F
100
AcDbEntity
  8
0
  6
Continuous
 62
     7
370
    25
100
AcDbLine
 10
128.7097326564
 20
124.2858174867
 30
0.0
 11
128.8244950483
 21
124.4273726212
 31
0.0
  0
SPLINE
  5
EB
330
1F
100
AcDbEntity
  8
0
  6
Continuous
 62
     7
370
    25
100
AcDbSpline
210
0.0
220
0.0
230
1.0
 70
     8
 71
     3
 72
    12
 73
     8
 74
     0
 42
0.00000001
 43
0.00000001
 40
0.0
 40
0.0
 40
0.0
 40
0.0
 40
0.3067724084362969
 40
0.4750195975938241
 40
0.6165294468200722
 40
0.8009361378009966
 40
1.0
 40
1.0
 40
1.0
 40
1.0
 10
128.8244950483037
 20
124.4273726211736
 30
0.0
 10
128.8389930732965
 20
124.4476640511507
 30
0.0
 10
128.8614424390431
 20
124.4790841744644
 30
0.0
 10
128.8532725743332
 20
124.5143786567187
 30
0.0
 10
128.8150639356796
 20
124.5342327695819
 30
0.0
 10
128.7440009170756
 20
124.5440320282466
 30
0.0
 10
128.6758835874403
 20
124.5398867520707
 30
0.0
 10
128.6405231181488
 20
124.5377348927464
 30
0.0
  0
SPLINE
  5
EC
330
1F
100
AcDbEntity
  8
0
  6
Continuous
 62
     7
370
    25
100
AcDbSpline
210
0.0
220
0.0
230
1.0
 70
     8
 71
     3
 72
    11
 73
     7
 74
     0
 42
0.00000001
 43
0.00000001
 40
0.0
 40
0.0
 40
0.0
 40
0.0
 40
0.2927394944606399
 40
0.5241326648682928
 40
0.7553978501729358
 40
1.0
 40
1.0
 40
1.0
 40
1.0
 10
128.6405231181488
 20
124.5377348927464
 30
0.0
 10
128.6061567476687
 20
124.5333739248752
 30
0.0
 10
128.5446258040057
 20
124.5255658711109
 30
0.0
 10
128.4566067035657
 20
124.5014021497867
 30
0.0
 10
128.3855633440739
 20
124.4736919371642
 30
0.0
 10
128.3523679180556
 20
124.4533412714192
 30
0.0
 10
128.3353050268483
 20
124.442880758112
 30
0.0
  0
SPLINE
  5
ED
330
1F
100
AcDbEntity
  8
0
  6
Continuous
 62
     7
370
    25
100
AcDbSpline
210
0.0
220
0.0
230
1.0
 70
     8
 71
     3
 72
    11
 73
     7
 74
     0
 42
0.00000001
 43
0.00000001
 40
0.0
 40
0.0
 40
0.0
 40
0.0
 40
0.3582304433516573
 40
0.6337965849703213
 40
0.9092786749577139
 40
1.0
 40
1.0
 40
1.0
 40
1.0
 10
128.3353050268483
 20
124.442880758112
 30
0.0
 10
128.3273511621321
 20
124.4522735159572
 30
0.0
 10
128.3132788453094
 20
124.4688915838972
 30
0.0
 10
128.2557585470517
 20
124.4805851594299
 30
0.0
 10
128.2015346723299
 20
124.4816095557197
 30
0.0
 10
128.1670163122373
 20
124.4787747397525
 30
0.0
 10
128.1584649136501
 20
124.4780724572225
 30
0.0
  0
SPLINE
  5
EE
330
1F
100
AcDbEntity
  8
0
  6
Continuous
 62
     7
370
    25
100
AcDbSpline
210
0.0
220
0.0
230
1.0
 70
     8
 71
     3
 72
    11
 73
     7
 74
     0
 42
0.00000001
 43
0.00000001
 40
0.0
 40
0.0
 40
0.0
 40
0.0
 40
0.3260082931143941
 40
0.6519693982996086
 40
0.9632451813135596
 40
1.0
 40
1.0
 40
1.0
 40
1.0
 10
128.1584649136501
 20
124.4780724572225
 30
0.0
 10
128.125141858004
 20
124.4736159051425
 30
0.0
 10
128.0585005700429
 20
124.4647034460442
 30
0.0
 10
127.9627837416567
 20
124.4378116123461
 30
0.0
 10
127.9001927642977
 20
124.4146233376492
 30
0.0
 10
127.881375020901
 20
124.4017454138957
 30
0.0
 10
127.8793877164995
 20
124.4003854020166
 30
0.0
  0
LINE
  5
EF
330
1F
100
AcDbEntity
  8
0
  6
Continuous
 62
     7
370
    25
100
AcDbLine
 10
127.8874726471
 20
124.2068619417
 30
0.0
 11
128.7097326564
 21
124.2858174867
 31
0.0
  0
LINE
  5
F0
330
1F
100
AcDbEntity
  8
0
  6
Continuous
 62
     7
370
    25
100
AcDbLine
 10
128.0418816741
 20
123.4620481837
 30
0.0
 11
128.0849941201
 21
123.5152257795
 31
0.0
  0
LINE
  5
F1
330
1F
100
AcDbEntity
  8
0
  6
Continuous
 62
     7
370
    25
100
AcDbLine
 10
128.0849941201
 20
123.5152257795
 30
0.0
 11
127.880641578
 21
123.4956033168
 31
0.0
  0
LINE
  5
F2
330
1F
100
AcDbEntity
  8
0
  6
Continuous
 62
     7
370
    25
100
AcDbLine
 10
127.8801701743
 20
123.4465202248
 30
0.0
 11
128.0418816741
 21
123.4620481837
 31
0.0
  0
LINE
  5
F3
330
1F
100
AcDbEntity
  8
0
  6
Continuous
 62
     7
370
    25
100
AcDbLine
 10
129.8947209385
 20
124.9981823949
 30
0.0
 11
128.6493883033
 21
123.4621109896
 31
0.0
  0
LINE
  5
F4
330
1F
100
AcDbEntity
  8
0
  6
Continuous
 62
     7
370
    25
100
AcDbLine
 10
128.6494882884
 20
124.8196958328
 30
0.0
 11
128.6187160383
 21
124.8060591404
 31
0.0
  0
LINE
  5
F5
330
1F
100
AcDbEntity
  8
0
  6
Continuous
 62
     7
370
    25
100
AcDbLine
 10
129.106104541
 20
124.7596321744
 30
0.0
 11
129.0903168074
 21
124.8361893882
 31
0.0
  0
SPLINE
  5
F6
330
1F
100
AcDbEntity
  8
0
  6
Continuous
 62
     7
370
    25
100
AcDbSpline
210
0.0
220
0.0
230
1.0
 70
     8
 71
     3
 72
    12
 73
     8
 74
     0
 42
0.00000001
 43
0.00000001
 40
0.0
 40
0.0
 40
0.0
 40
0.0
 40
0.3275076142910319
 40
0.5151915666444257
 40
0.7027011406689863
 40
0.894543643013603
 40
1.0
 40
1.0
 40
1.0
 40
1.0
 10
128.4667774108182
 20
124.7760480764639
 30
0.0
 10
128.5023971720816
 20
124.7785151345171
 30
0.0
 10
128.5584294589905
 20
124.7823959832301
 30
0.0
 10
128.6113045069149
 20
124.7727848346784
 30
0.0
 10
128.6352024189551
 20
124.7583627607645
 30
0.0
 10
128.6368434825872
 20
124.7411572087661
 30
0.0
 10
128.6284091528171
 20
124.7294130392342
 30
0.0
 10
128.6254173697569
 20
124.7252472064508
 30
0.0
  0
SPLINE
  5
F7
330
1F
100
AcDbEntity
  8
0
  6
Continuous
 62
     7
370
    25
100
AcDbSpline
210
0.0
220
0.0
230
1.0
 70
     8
 71
     3
 72
    12
 73
     8
 74
     0
 42
0.00000001
 43
0.00000001
 40
0.0
 40
0.0
 40
0.0
 40
0.0
 40
0.2193986081128132
 40
0.4048844918330579
 40
0.5902427906827873
 40
0.7861257432688364
 40
0.9999999999999999
 40
0.9999999999999999
 40
0.9999999999999999
 40
0.9999999999999999
 10
128.6254173697569
 20
124.7252472064508
 30
0.0
 10
128.6167526257278
 20
124.7163959739928
 30
0.0
 10
128.600762458273
 20
124.7000616554358
 30
0.0
 10
128.5535862232776
 20
124.6759823531252
 30
0.0
 10
128.496048016751
 20
124.6560457402313
 30
0.0
 10
128.4281653228572
 20
124.6400442287219
 30
0.0
 10
128.3828197453695
 20
124.6347416995233
 30
0.0
 10
128.3591514572694
 20
124.6319740252387
 30
0.0
  0
SPLINE
  5
F8
330
1F
100
AcDbEntity
  8
0
  6
Continuous
 62
     7
370
    25
100
AcDbSpline
210
0.0
220
0.0
230
1.0
 70
     8
 71
     3
 72
    12
 73
     8
 74
     0
 42
0.00000001
 43
0.00000001
 40
0.0
 40
0.0
 40
0.0
 40
0.0
 40
0.3075303045557548
 40
0.5134394067067763
 40
0.7198672359054898
 40
0.9022816111193334
 40
1.0
 40
1.0
 40
1.0
 40
1.0
 10
128.3591514572694
 20
124.6319740252387
 30
0.0
 10
128.3242577042879
 20
124.6296389784044
 30
0.0
 10
128.266000590881
 20
124.6257404843586
 30
0.0
 10
128.2073631097668
 20
124.6352576781575
 30
0.0
 10
128.1790753366064
 20
124.6506106455338
 30
0.0
 10
128.1772385611614
 20
124.668732748875
 30
0.0
 10
128.1855473007997
 20
124.6803500792699
 30
0.0
 10
128.1884456288611
 20
124.6844025392275
 30
0.0
  0
SPLINE
  5
F9
330
1F
100
AcDbEntity
  8
0
  6
Continuous
 62
     7
370
    25
100
AcDbSpline
210
0.0
220
0.0
230
1.0
 70
     8
 71
     3
 72
    12
 73
     8
 74
     0
 42
0.00000001
 43
0.00000001
 40
0.0
 40
0.0
 40
0.0
 40
0.0
 40
0.2159903050044185
 40
0.3921487898002768
 40
0.5674874627894284
 40
0.7572663033857701
 40
1.0
 40
1.0
 40
1.0
 40
1.0
 10
128.1884456288611
 20
124.6844025392275
 30
0.0
 10
128.1975299203129
 20
124.6933219042711
 30
0.0
 10
128.2140232249495
 20
124.7095157709707
 30
0.0
 10
128.2632163131373
 20
124.7327523873719
 30
0.0
 10
128.3203644506461
 20
124.7514661442635
 30
0.0
 10
128.3909263953152
 20
124.7673736239094
 30
0.0
 10
128.4395109168154
 20
124.7729298333266
 30
0.0
 10
128.4667774108182
 20
124.7760480764639
 30
0.0
  0
LINE
  5
FA
330
1F
100
AcDbEntity
  8
0
  6
Continuous
 62
     7
370
    25
100
AcDbLine
 10
128.6843316291
 20
124.8409763228
 30
0.0
 11
128.6931946334
 21
124.7979982152
 31
0.0
  0
LINE
  5
FB
330
1F
100
AcDbEntity
  8
0
  6
Continuous
 62
     7
370
    25
100
AcDbLine
 10
128.3031695586
 20
124.6301768471
 30
0.0
 11
128.3129079678
 21
124.5829537627
 31
0.0
  0
LINE
  5
FC
330
1F
100
AcDbEntity
  8
0
  6
Continuous
 62
     7
370
    25
100
AcDbLine
 10
128.6590378366
 20
124.8374075793
 30
0.0
 11
128.6677125768
 21
124.7953423938
 31
0.0
  0
LINE
  5
FD
330
1F
100
AcDbEntity
  8
0
  6
Continuous
 62
     7
370
    25
100
AcDbLine
 10
128.7216267291
 20
124.77673523
 30
0.0
 11
128.7329170492
 21
124.7219866846
 31
0.0
  0
LINE
  5
FE
330
1F
100
AcDbEntity
  8
0
  6
Continuous
 62
     7
370
    25
100
AcDbLine
 10
128.2461555633
 20
124.4333767812
 30
0.0
 11
128.2787150768
 21
124.473537728
 31
0.0
  0
LINE
  5
FF
330
1F
100
AcDbEntity
  8
0
  6
Continuous
 62
     7
370
    25
100
AcDbLine
 10
128.7217629095
 20
124.4765912378
 30
0.0
 11
128.7709088951
 21
124.5372109798
 31
0.0
  0
LINE
  5
100
330
1F
100
AcDbEntity
  8
0
  6
Continuous
 62
     7
370
    25
100
AcDbLine
 10
128.2560718497
 20
124.3852911422
 30
0.0
 11
128.2358531133
 21
124.3833496865
 31
0.0
  0
LINE
  5
101
330
1F
100
AcDbEntity
  8
0
  6
Continuous
 62
     7
370
    25
100
AcDbLine
 10
128.1556384172
 20
124.2816497431
 30
0.0
 11
127.8879440508
 21
124.2559450337
 31
0.0
  0
LINE
  5
102
330
1F
100
AcDbEntity
  8
0
  6
Continuous
 62
     7
370
    25
100
AcDbLine
 10
127.8885058286
 20
124.3144379712
 30
0.0
 11
127.8953667307
 21
124.3229006383
 31
0.0
  0
SPLINE
  5
103
330
1F
100
AcDbEntity
  8
0
  6
Continuous
 62
     7
370
    25
100
AcDbSpline
210
0.0
220
0.0
230
1.0
 70
     8
 71
     3
 72
    13
 73
     9
 74
     0
 42
0.00000001
 43
0.00000001
 40
0.0
 40
0.0
 40
0.0
 40
0.0
 40
0.3606975991498074
 40
0.5001541328582613
 40
0.6180402787623088
 40
0.7356336469376796
 40
0.908166558859076
 40
0.9999999999999999
 40
0.9999999999999999
 40
0.9999999999999999
 40
0.9999999999999999
 10
127.8953667307352
 20
124.3229006382998
 30
0.0
 10
127.9075195237536
 20
124.337655182211
 30
0.0
 10
127.9243709518427
 20
124.3581142762916
 30
0.0
 10
127.961579068822
 20
124.384484422815
 30
0.0
 10
127.996657351762
 20
124.3996355186991
 30
0.0
 10
128.0423199877868
 20
124.4129342623348
 30
0.0
 10
128.0879356382997
 20
124.4217749855212
 30
0.0
 10
128.1178259471683
 20
124.4250067536647
 30
0.0
 10
128.1282090004138
 20
124.4261293790902
 30
0.0
  0
SPLINE
  5
104
330
1F
100
AcDbEntity
  8
0
  6
Continuous
 62
     7
370
    25
100
AcDbSpline
210
0.0
220
0.0
230
1.0
 70
     8
 71
     3
 72
    11
 73
     7
 74
     0
 42
0.00000001
 43
0.00000001
 40
0.0
 40
0.0
 40
0.0
 40
0.0
 40
0.311655805895915
 40
0.538352308549294
 40
0.7658191034981026
 40
1.0
 40
1.0
 40
1.0
 40
1.0
 10
128.1282090004138
 20
124.4261293790902
 30
0.0
 10
128.1476844630266
 20
124.4275619828539
 30
0.0
 10
128.181326256503
 20
124.430036653721
 30
0.0
 10
128.2184998451899
 20
124.4259452034685
 30
0.0
 10
128.2393494090053
 20
124.4170241043165
 30
0.0
 10
128.2418793682176
 20
124.4080672482223
 30
0.0
 10
128.2431627454063
 20
124.4035236869118
 30
0.0
  0
SPLINE
  5
105
330
1F
100
AcDbEntity
  8
0
  6
Continuous
 62
     7
370
    25
100
AcDbSpline
210
0.0
220
0.0
230
1.0
 70
     8
 71
     3
 72
    10
 73
     6
 74
     0
 42
0.00000001
 43
0.00000001
 40
0.0
 40
0.0
 40
0.0
 40
0.0
 40
0.2510868258468873
 40
0.5016634248050544
 40
1.0
 40
1.0
 40
1.0
 40
1.0
 10
128.2431627454063
 20
124.4035236869118
 30
0.0
 10
128.2426888606996
 20
124.4000526105186
 30
0.0
 10
128.2417420542546
 20
124.3931175112147
 30
0.0
 10
128.2332917979824
 20
124.3782900686131
 30
0.0
 10
128.2245022833819
 20
124.3669334782927
 30
0.0
 10
128.2186536259476
 20
124.359376655257
 30
0.0
  0
LINE
  5
106
330
1F
100
AcDbEntity
  8
0
  6
Continuous
 62
     7
370
    25
100
AcDbLine
 10
128.2186536259
 20
124.3593766553
 30
0.0
 11
128.1556384172
 21
124.2816497431
 31
0.0
  0
LINE
  5
107
330
1F
100
AcDbEntity
  8
0
  6
Continuous
 62
     7
370
    25
100
AcDbLine
 10
128.1187876043
 20
124.4718152168
 30
0.0
 11
128.1282090004
 21
124.4261293791
 31
0.0
  0
LINE
  5
108
330
1F
100
AcDbEntity
  8
0
  6
Continuous
 62
     7
370
    25
100
AcDbLine
 10
128.6334037654
 20
124.3275260147
 30
0.0
 11
128.2750797542
 21
124.293118811
 31
0.0
  0
LINE
  5
109
330
1F
100
AcDbEntity
  8
0
  6
Continuous
 62
     7
370
    25
100
AcDbLine
 10
128.2750797542
 20
124.293118811
 30
0.0
 11
128.3424429512
 21
124.3762088046
 31
0.0
  0
SPLINE
  5
10A
330
1F
100
AcDbEntity
  8
0
  6
Continuous
 62
     7
370
    25
100
AcDbSpline
210
0.0
220
0.0
230
1.0
 70
     8
 71
     3
 72
    12
 73
     8
 74
     0
 42
0.00000001
 43
0.00000001
 40
0.0
 40
0.0
 40
0.0
 40
0.0
 40
0.4038695109167892
 40
0.5516672297518425
 40
0.7000395965012137
 40
0.8389274398615411
 40
1.0
 40
1.0
 40
1.0
 40
1.0
 10
128.3424429511727
 20
124.3762088045521
 30
0.0
 10
128.3570361376038
 20
124.3937801115092
 30
0.0
 10
128.3769697609998
 20
124.4177817109618
 30
0.0
 10
128.4357592271851
 20
124.4487431159322
 30
0.0
 10
128.4846871081551
 20
124.4651605469843
 30
0.0
 10
128.5399957381055
 20
124.4778491916775
 30
0.0
 10
128.5760022710215
 20
124.482084114678
 30
0.0
 10
128.5953370377802
 20
124.4843581811272
 30
0.0
  0
SPLINE
  5
10B
330
1F
100
AcDbEntity
  8
0
  6
Continuous
 62
     7
370
    25
100
AcDbSpline
210
0.0
220
0.0
230
1.0
 70
     8
 71
     3
 72
    11
 73
     7
 74
     0
 42
0.00000001
 43
0.00000001
 40
0.0
 40
0.0
 40
0.0
 40
0.0
 40
0.268249033762556
 40
0.4928875452886549
 40
0.7187084056001832
 40
1.0
 40
1.0
 40
1.0
 40
1.0
 10
128.5953370377802
 20
124.4843581811272
 30
0.0
 10
128.617126401421
 20
124.4858589412443
 30
0.0
 10
128.6571627281418
 20
124.4886164757629
 30
0.0
 10
128.7021658222645
 20
124.4832709166656
 30
0.0
 10
128.7301415809668
 20
124.4703904564416
 30
0.0
 10
128.7280564153335
 20
124.4563170284224
 30
0.0
 10
128.7268997891057
 20
124.4485106001452
 30
0.0
  0
SPLINE
  5
10C
330
1F
100
AcDbEntity
  8
0
  6
Continuous
 62
     7
370
    25
100
AcDbSpline
210
0.0
220
0.0
230
1.0
 70
     8
 71
     3
 72
    10
 73
     6
 74
     0
 42
0.00000001
 43
0.00000001
 40
0.0
 40
0.0
 40
0.0
 40
0.0
 40
0.2504914565496557
 40
0.5009143266308034
 40
1.0
 40
1.0
 40
1.0
 40
1.0
 10
128.7268997891057
 20
124.4485106001452
 30
0.0
 10
128.7258529974586
 20
124.4459465094801
 30
0.0
 10
128.723759700784
 20
124.4408190302175
 30
0.0
 10
128.7162395010081
 20
124.4301526467483
 30
0.0
 10
128.709929242663
 20
124.4220979476667
 30
0.0
 10
128.7057273432145
 20
124.4167344532142
 30
0.0
  0
LINE
  5
10D
330
1F
100
AcDbEntity
  8
0
  6
Continuous
 62
     7
370
    25
100
AcDbLine
 10
128.7057273432
 20
124.4167344532
 30
0.0
 11
128.6334037654
 21
124.3275260147
 31
0.0
  0
LINE
  5
10E
330
1F
100
AcDbEntity
  8
0
  6
Continuous
 62
     7
370
    25
100
AcDbLine
 10
128.5860616214
 20
124.5293361399
 30
0.0
 11
128.5953370378
 21
124.4843581811
 31
0.0
  0
LINE
  5
10F
330
1F
100
AcDbEntity
  8
0
  6
Continuous
 62
     7
370
    25
100
AcDbLine
 10
128.2750797542
 20
124.293118811
 30
0.0
 11
128.2461555633
 21
124.4333767812
 31
0.0
  0
LINE
  5
110
330
1F
100
AcDbEntity
  8
0
  6
Continuous
 62
     7
370
    25
100
AcDbLine
 10
128.6873973213
 20
124.3941250542
 30
0.0
 11
128.7097326564
 21
124.2858174867
 31
0.0
  0
LINE
  5
111
330
1F
100
AcDbEntity
  8
0
  6
Continuous
 62
     7
370
    25
100
AcDbLine
 10
128.4768150432
 20
124.1593619078
 30
0.0
 11
128.3683115383
 21
124.0730169418
 31
0.0
  0
LINE
  5
112
330
1F
100
AcDbEntity
  8
0
  6
Continuous
 62
     7
370
    25
100
AcDbLine
 10
128.4779133057
 20
124.1540362594
 30
0.0
 11
128.5057392342
 21
124.0191039376
 31
0.0
  0
LINE
  5
113
330
1F
100
AcDbEntity
  8
0
  6
Continuous
 62
     7
370
    25
100
AcDbLine
 10
128.1642830925
 20
124.0809789397
 30
0.0
 11
128.1543668061
 21
124.1290645787
 31
0.0
  0
LINE
  5
114
330
1F
100
AcDbEntity
  8
0
  6
Continuous
 62
     7
370
    25
100
AcDbLine
 10
128.0596421786
 20
124.0877656423
 30
0.0
 11
128.0819775137
 21
123.9794580749
 31
0.0
  0
LINE
  5
115
330
1F
100
AcDbEntity
  8
0
  6
Continuous
 62
     7
370
    25
100
AcDbLine
 10
128.3505326131
 20
124.1479009298
 30
0.0
 11
128.3604488995
 21
124.0998152908
 31
0.0
  0
LINE
  5
116
330
1F
100
AcDbEntity
  8
0
  6
Continuous
 62
     7
370
    25
100
AcDbLine
 10
128.0319653876
 20
123.5101338227
 30
0.0
 11
128.0418816741
 21
123.4620481837
 31
0.0
  0
LINE
  5
117
330
1F
100
AcDbEntity
  8
0
  6
Continuous
 62
     7
370
    25
100
AcDbLine
 10
126.0336838849
 20
137.7747113164
 30
0.0
 11
129.1441900487
 21
138.0733902098
 31
0.0
  0
LINE
  5
118
330
1F
100
AcDbEntity
  8
0
  6
Continuous
 62
     7
370
    25
100
AcDbLine
 10
130.9007183589
 20
136.2989642877
 30
0.0
 11
128.1535459476
 21
136.0351736463
 31
0.0
  0
ARC
  5
119
330
1F
100
AcDbEntity
  8
0
  6
Continuous
 62
     7
370
    25
100
AcDbCircle
 10
122.6559490893
 20
133.2374496426
 30
0.0
 40
8.794833269125698
100
AcDbArc
 50
19.4036724129
 51
20.3713771906
  0
LINE
  5
11A
330
1F
100
AcDbEntity
  8
0
  6
Continuous
 62
     7
370
    25
100
AcDbLine
 10
128.3112277647
 20
135.9057815195
 30
0.0
 11
130.9512478416
 21
136.159283115
 31
0.0
  0
SPLINE
  5
11B
330
1F
100
AcDbEntity
  8
0
  6
Continuous
 62
     7
370
    25
100
AcDbSpline
210
0.0
220
0.0
230
1.0
 70
     8
 71
     3
 72
     9
 73
     5
 74
     0
 42
0.00000001
 43
0.00000001
 40
0.0
 40
0.0
 40
0.0
 40
0.0
 40
0.605458392454883
 40
1.0
 40
1.0
 40
1.0
 40
1.0
 10
130.9512478416471
 20
136.1592831149637
 30
0.0
 10
131.159516000808
 20
135.8232054924354
 30
0.0
 10
131.5035002642294
 20
135.2681258590263
 30
0.0
 10
131.6859887748887
 20
134.6454599275685
 30
0.0
 10
131.7579880852428
 20
134.3997923100076
 30
0.0
  0
ARC
  5
11C
330
1F
100
AcDbEntity
  8
0
  6
Continuous
 62
     7
370
    25
100
AcDbCircle
 10
126.3416006
 20
133.6288566126
 30
0.0
 40
5.659906367221831
100
AcDbArc
 50
8.0133464183
 51
38.072853799
  0
SPLINE
  5
11D
330
1F
100
AcDbEntity
  8
0
  6
Continuous
 62
     7
370
    25
100
AcDbSpline
210
0.0
220
0.0
230
1.0
 70
     8
 71
     3
 72
    12
 73
     8
 74
     0
 42
0.00000001
 43
0.00000001
 40
0.0
 40
0.0
 40
0.0
 40
0.0
 40
0.2170055756517634
 40
0.4412248343961003
 40
0.6012665849252044
 40
0.7666162356697535
 40
1.0
 40
1.0
 40
1.0
 40
1.0
 10
129.1441900487215
 20
138.0733902097993
 30
0.0
 10
129.4152858230966
 20
137.9654746883751
 30
0.0
 10
129.9664891172741
 20
137.7460563258462
 30
0.0
 10
130.5281349591388
 20
137.3973753928762
 30
0.0
 10
130.8402885974341
 20
137.0553868260527
 30
0.0
 10
130.9827043579608
 20
136.6977414573726
 30
0.0
 10
130.9309883811511
 20
136.446196668025
 30
0.0
 10
130.9007183589068
 20
136.2989642876522
 30
0.0
  0
ARC
  5
11E
330
1F
100
AcDbEntity
  8
0
  6
Continuous
 62
     7
370
    25
100
AcDbCircle
 10
82.1989598747
 20
128.6790170512
 30
0.0
 40
1.614666738365782
100
AcDbArc
 50
96.7115226566
 51
177.9270729378
  0
ARC
  5
11F
330
1F
100
AcDbEntity
  8
0
  6
Continuous
 62
     7
370
    25
100
AcDbCircle
 10
81.6230265534
 20
130.0141862708
 30
0.0
 40
0.4711691059000457
100
AcDbArc
 50
355.1234324975
 51
34.7304087508
  0
SPLINE
  5
120
330
1F
100
AcDbEntity
  8
0
  6
Continuous
 62
     7
370
    25
100
AcDbSpline
210
0.0
220
0.0
230
1.0
 70
     8
 71
     3
 72
    13
 73
     9
 74
     0
 42
0.00000001
 43
0.00000001
 40
0.0
 40
0.0
 40
0.0
 40
0.0
 40
0.2396832910637715
 40
0.3697720286455055
 40
0.4999999403308915
 40
0.6300887375505757
 40
0.7603167089362249
 40
1.0
 40
1.0
 40
1.0
 40
1.0
 10
82.09249009604639
 20
129.97413245064
 30
0.0
 10
81.94591640006898
 20
129.9443491230344
 30
0.0
 10
81.71978944450572
 20
129.8984008159178
 30
0.0
 10
81.4466216366832
 20
129.7265531639151
 30
0.0
 10
81.25914914831678
 20
129.5575162770796
 30
0.0
 10
81.10532475126728
 20
129.3564707802841
 30
0.0
 10
80.95453960635498
 20
129.0686183071688
 30
0.0
 10
80.92452114048649
 20
128.8367239717404
 30
0.0
 10
80.90507073326071
 20
128.6864684830956
 30
0.0
  0
ARC
  5
121
330
1F
100
AcDbEntity
  8
0
  6
Continuous
 62
     7
370
    25
100
AcDbCircle
 10
80.8290064061
 20
129.2377458902
 30
0.0
 40
0.5565002798299009
100
AcDbArc
 50
244.0340210651
 51
277.855971621
  0
LINE
  5
122
330
1F
100
AcDbEntity
  8
0
  6
Continuous
 62
     7
370
    25
100
AcDbLine
 10
81.8202706456
 20
128.9923999311
 30
0.0
 11
128.8729185778
 21
133.5105175866
 31
0.0
  0
ARC
  5
123
330
1F
100
AcDbEntity
  8
0
  6
Continuous
 62
     7
370
    25
100
AcDbCircle
 10
81.8516558939
 20
128.7252367979
 30
0.0
 40
0.2690003225704442
100
AcDbArc
 50
96.7001677992
 51
178.8383085007
  0
LINE
  5
124
330
1F
100
AcDbEntity
  8
0
  6
Continuous
 62
     7
370
    25
100
AcDbLine
 10
81.4449181694
 20
114.383559788
 30
0.0
 11
81.582710861
 21
128.7306904976
 31
0.0
  0
LINE
  5
125
330
1F
100
AcDbEntity
  8
0
  6
Continuous
 62
     7
370
    25
100
AcDbLine
 10
80.5203271884
 20
114.2947781568
 30
0.0
 11
81.4449181694
 21
114.383559788
 31
0.0
  0
LINE
  5
126
330
1F
100
AcDbEntity
  8
0
  6
Continuous
 62
     7
370
    25
100
AcDbLine
 10
80.9050707333
 20
128.6864684831
 30
0.0
 11
80.5203271884
 21
114.2947781568
 31
0.0
  0
LINE
  5
127
330
1F
100
AcDbEntity
  8
0
  6
Continuous
 62
     7
370
    25
100
AcDbLine
 10
82.092490096
 20
129.9741324506
 30
0.0
 11
128.8821047572
 21
134.4669929672
 31
0.0
  0
LINE
  5
128
330
1F
100
AcDbEntity
  8
0
  6
Continuous
 62
     7
370
    25
100
AcDbLine
 10
128.8821047572
 20
134.4669929672
 30
0.0
 11
128.8729185778
 21
133.5105175866
 31
0.0
  0
LINE
  5
129
330
1F
100
AcDbEntity
  8
0
  6
Continuous
 62
     7
370
    25
100
AcDbLine
 10
70.6103818966
 20
136.922781163
 30
0.0
 11
80.5853497794
 21
128.7374219854
 31
0.0
  0
ARC
  5
12A
330
1F
100
AcDbEntity
  8
0
  6
Continuous
 62
     7
370
    25
100
AcDbCircle
 10
72.2239919919
 20
136.8643762288
 30
0.0
 40
1.614666738365634
100
AcDbArc
 50
96.7115226566
 51
177.9270729378
  0
LINE
  5
12B
330
1F
100
AcDbEntity
  8
0
  6
Continuous
 62
     7
370
    25
100
AcDbLine
 10
72.035285132
 20
138.467977924
 30
0.0
 11
82.0102530148
 21
130.2826187465
 31
0.0
  0
LINE
  5
12C
330
1F
100
AcDbEntity
  8
0
  6
Continuous
 62
     7
370
    25
100
AcDbLine
 10
80.2006062346
 20
114.3457316592
 30
0.0
 11
80.5853497794
 21
128.7374219854
 31
0.0
  0
ARC
  5
12D
330
1F
100
AcDbEntity
  8
0
  6
Continuous
 62
     7
370
    25
100
AcDbCircle
 10
80.4442628613
 20
114.846055564
 30
0.0
 40
0.5565002798291083
100
AcDbArc
 50
244.0340210652
 51
277.8559716211
  0
LINE
  5
12E
330
1F
100
AcDbEntity
  8
0
  6
Continuous
 62
     7
370
    25
100
AcDbLine
 10
82.0102530148
 20
130.2826187465
 30
0.0
 11
128.7998676759
 21
134.775479263
 31
0.0
  0
ARC
  5
12F
330
1F
100
AcDbEntity
  8
0
  6
Continuous
 62
     7
370
    25
100
AcDbCircle
 10
128.4126412146
 20
134.5070467874
 30
0.0
 40
0.4711691059005962
100
AcDbArc
 50
355.1234324976
 51
34.7304087508
  0
LINE
  5
130
330
1F
100
AcDbEntity
  8
0
  6
Continuous
 62
     7
370
    25
100
AcDbLine
 10
70.6103818966
 20
136.922781163
 30
0.0
 11
70.2256383518
 21
122.5310908367
 31
0.0
  0
SPLINE
  5
131
330
1F
100
AcDbEntity
  8
0
  6
Continuous
 62
     7
370
    25
100
AcDbSpline
210
0.0
220
0.0
230
1.0
 70
     8
 71
     3
 72
    13
 73
     9
 74
     0
 42
0.00000001
 43
0.00000001
 40
0.0
 40
0.0
 40
0.0
 40
0.0
 40
0.2394259924026154
 40
0.3695846593149659
 40
0.4999752278747435
 40
0.6301417045486257
 40
0.7605400971976229
 40
1.0
 40
1.0
 40
1.0
 40
1.0
 10
79.92779611623912
 20
113.8352945150944
 30
0.0
 10
79.9599455437971
 20
113.818775437719
 30
0.0
 10
80.00957229948872
 20
113.7932761277954
 30
0.0
 10
80.0710651208344
 20
113.834227613022
 30
0.0
 10
80.11389053368204
 20
113.8939419080855
 30
0.0
 10
80.14973319488784
 20
113.9813924018085
 30
0.0
 10
80.18579221161363
 20
114.1229236910413
 30
0.0
 10
80.19478437579876
 20
114.2581689135486
 30
0.0
 10
80.2006062345707
 20
114.345731659158
 30
0.0
  0
LINE
  5
132
330
1F
100
AcDbEntity
  8
0
  6
Continuous
 62
     7
370
    25
100
AcDbLine
 10
70.4600299902
 20
121.6044489887
 30
0.0
 11
79.9277961162
 21
113.8352945151
 31
0.0
  0
SPLINE
  5
133
330
1F
100
AcDbEntity
  8
0
  6
Continuous
 62
     7
370
    25
100
AcDbSpline
210
0.0
220
0.0
230
1.0
 70
     8
 71
     3
 72
    13
 73
     9
 74
     0
 42
0.00000001
 43
0.00000001
 40
0.0
 40
0.0
 40
0.0
 40
0.0
 40
0.2394599028268714
 40
0.3696300083677745
 40
0.5000245666300004
 40
0.6301870679524907
 40
0.7605740075726591
 40
1.0
 40
1.0
 40
1.0
 40
1.0
 10
70.2256383517536
 20
122.5310908367071
 30
0.0
 10
70.22662864184409
 20
122.437937638427
 30
0.0
 10
70.22815725239687
 20
122.2941464773462
 30
0.0
 10
70.25525055427353
 20
122.1007832758747
 30
0.0
 10
70.28495427825587
 20
121.9595921200355
 30
0.0
 10
70.32283077260989
 20
121.8335795820887
 30
0.0
 10
70.37953663811456
 20
121.6955993457747
 30
0.0
 10
70.42839675085544
 20
121.6402703451927
 30
0.0
 10
70.46002999017544
 20
121.6044489887004
 30
0.0
  0
LINE
  5
134
330
1F
100
AcDbEntity
  8
0
  6
Continuous
 62
     7
370
    25
100
AcDbLine
 10
129.2520565165
 20
135.0513533798
 30
0.0
 11
119.7842903905
 21
142.8205078534
 31
0.0
  0
SPLINE
  5
135
330
1F
100
AcDbEntity
  8
0
  6
Continuous
 62
     7
370
    25
100
AcDbSpline
210
0.0
220
0.0
230
1.0
 70
     8
 71
     3
 72
    13
 73
     9
 74
     0
 42
0.00000001
 43
0.00000001
 40
0.0
 40
0.0
 40
0.0
 40
0.0
 40
0.23944294786128
 40
0.3696073166373069
 40
0.4999998972369518
 40
0.6301643686854234
 40
0.7605570521388034
 40
1.0
 40
1.0
 40
1.0
 40
1.0
 10
128.7998676759326
 20
134.7754792630275
 30
0.0
 10
128.8852172621298
 20
134.7867967446621
 30
0.0
 10
129.0169640177232
 20
134.8042665597283
 30
0.0
 10
129.1498786252208
 20
134.8459669801416
 30
0.0
 10
129.2293993033649
 20
134.883630770019
 30
0.0
 10
129.2802842974133
 20
134.9255113265113
 30
0.0
 10
129.309082575269
 20
134.9824470330212
 30
0.0
 10
129.2744674268744
 20
135.0242735851849
 30
0.0
 10
129.252056516539
 20
135.0513533798314
 30
0.0
  0
SPLINE
  5
136
330
1F
100
AcDbEntity
  8
0
  6
Continuous
 62
     7
370
    25
100
AcDbSpline
210
0.0
220
0.0
230
1.0
 70
     8
 71
     3
 72
    13
 73
     9
 74
     0
 42
0.00000001
 43
0.00000001
 40
0.0
 40
0.0
 40
0.0
 40
0.0
 40
0.239442947861199
 40
0.3696073166343406
 40
0.4999998972369404
 40
0.6301643686846636
 40
0.7605570521388965
 40
1.0
 40
1.0
 40
1.0
 40
1.0
 10
119.7842903904751
 20
142.8205078534373
 30
0.0
 10
119.7429199918334
 20
142.8457672579084
 30
0.0
 10
119.6790600946569
 20
142.8847580103599
 30
0.0
 10
119.5320961618515
 20
142.9248196602022
 30
0.0
 10
119.4005793181544
 20
142.9491709383283
 30
0.0
 10
119.255468929881
 20
142.9652888349771
 30
0.0
 10
119.0594108988738
 20
142.9754118724388
 30
0.0
 10
118.9170612975376
 20
142.966565714774
 30
0.0
 10
118.8248997931158
 20
142.9608384405767
 30
0.0
  0
LINE
  5
137
330
1F
100
AcDbEntity
  8
0
  6
Continuous
 62
     7
370
    25
100
AcDbLine
 10
127.8304485518
 20
118.2694487279
 30
0.0
 11
127.9759996463
 21
133.4243930976
 31
0.0
  0
LINE
  5
138
330
1F
100
AcDbEntity
  8
0
  6
Continuous
 62
     7
370
    25
100
AcDbLine
 10
81.3479503011
 20
113.806078328
 30
0.0
 11
127.8304485518
 21
118.2694487279
 31
0.0
  0
LWPOLYLINE
  5
139
330
1F
100
AcDbEntity
  8
0
  6
Continuous
 62
     7
370
    25
100
AcDbPolyline
 90
       23
 70
   128
 43
0.0
 10
89.7651125509
 20
119.5356216372
 10
90.3890313492
 20
119.6864963144
 10
90.9641528496
 20
120.0072446978
 10
91.4438841287
 20
120.4718816611
 10
91.7893602112
 20
121.0427650807
 10
91.9725926795
 20
121.6736453773
 10
91.9787371288
 20
122.3134123811
 10
91.8072957724
 20
122.9102359743
 10
91.4721577693
 20
123.415765059
 10
91.0004740074
 20
123.789044675
 10
90.4304574999
 20
123.999833928
 10
89.8082875943
 20
124.0310559263
 10
89.184368796
 20
123.8801812491
 10
88.6092472955
 20
123.5594328657
 10
88.1295160165
 20
123.0947959024
 10
87.784039934
 20
122.5239124828
 10
87.6008074657
 20
121.8930321862
 10
87.5946630164
 20
121.2532651824
 10
87.7661043728
 20
120.6564415892
 10
88.1012423759
 20
120.1509125045
 10
88.5729261377
 20
119.7776328885
 10
89.1429426452
 20
119.5668436355
 10
89.7651125509
 20
119.5356216372
  0
LWPOLYLINE
  5
13A
330
1F
100
AcDbEntity
  8
0
  6
Continuous
 62
     7
370
    25
100
AcDbPolyline
 90
       23
 70
   128
 43
0.0
 10
117.9967013102
 20
122.2464922305
 10
118.6206201085
 20
122.3973669077
 10
119.1957416089
 20
122.7181152911
 10
119.675472888
 20
123.1827522544
 10
120.0209489705
 20
123.753635674
 10
120.2041814388
 20
124.3845159706
 10
120.2103258881
 20
125.0242829744
 10
120.0388845317
 20
125.6211065676
 10
119.7037465286
 20
126.1266356523
 10
119.2320627667
 20
126.4999152683
 10
118.6620462593
 20
126.7107045213
 10
118.0398763536
 20
126.7419265196
 10
117.4159575553
 20
126.5910518424
 10
116.8408360548
 20
126.270303459
 10
116.3611047758
 20
125.8056664957
 10
116.0156286933
 20
125.2347830761
 10
115.832396225
 20
124.6039027795
 10
115.8262517757
 20
123.9641357757
 10
115.9976931321
 20
123.3673121825
 10
116.3328311352
 20
122.8617830978
 10
116.804514897
 20
122.4885034818
 10
117.3745314045
 20
122.2777142288
 10
117.9967013102
 20
122.2464922305
  0
LWPOLYLINE
  5
13B
330
1F
100
AcDbEntity
  8
0
  6
Continuous
 62
     7
370
    25
100
AcDbPolyline
 90
        3
 70
   128
 43
0.0
 10
80.0539083015
 20
113.6304902149
 10
80.0290995918
 20
113.6430888201
 10
80.0046538455
 20
113.6602356957
  0
LWPOLYLINE
  5
13C
330
1F
100
AcDbEntity
  8
0
  6
Continuous
 62
     7
370
    25
100
AcDbPolyline
 90
        8
 70
   128
 43
0.0
 10
81.2023666236
 20
113.6656081232
 10
81.2276952145
 20
113.6711784667
 10
81.2870031012
 20
113.7115954138
 10
81.3393852562
 20
113.788498584
 10
81.3828286624
 20
113.8989326314
 10
81.4156638141
 20
114.0386536375
 10
81.436628875
 20
114.2022922025
 10
81.4449181694
 20
114.383559788
  0
LWPOLYLINE
  5
13D
330
1F
100
AcDbEntity
  8
0
  6
Continuous
 62
     7
370
    25
100
AcDbPolyline
 90
       17
 70
   128
 43
0.0
 10
89.3621508527
 20
121.0472044868
 10
89.7680785643
 20
121.1680154564
 10
90.1137807881
 20
121.4342505955
 10
90.3466274945
 20
121.8053780177
 10
90.431169883
 20
122.2248969372
 10
90.3545371415
 20
122.6289394014
 10
90.1283959101
 20
122.9559936078
 10
89.7871741414
 20
123.1562685183
 10
89.3828197564
 20
123.1992740932
 10
88.9768920448
 20
123.0784631236
 10
88.631189821
 20
122.8122279844
 10
88.3983431146
 20
122.4411005622
 10
88.3138007261
 20
122.0215816427
 10
88.3904334676
 20
121.6175391785
 10
88.616574699
 20
121.2904849721
 10
88.9577964677
 20
121.0902100616
 10
89.3621508527
 20
121.0472044868
  0
ELLIPSE
  5
13E
330
1F
100
AcDbEntity
  8
0
  6
Continuous
 62
     7
370
    25
100
AcDbEllipse
 10
89.319765744
 20
122.1665004357
 30
0.0
 11
0.6862277804222287
 21
0.8915947524469914
 31
0.0
210
0.0
220
0.0
230
1.0
 40
0.9041944122
 41
3.113377379572745
 42
3.843301614969345
  0
ELLIPSE
  5
13F
330
1F
100
AcDbEntity
  8
0
  6
Continuous
 62
     7
370
    25
100
AcDbEllipse
 10
89.319765744
 20
122.1665004357
 30
0.0
 11
0.6862277804222287
 21
0.8915947524469914
 31
0.0
210
0.0
220
0.0
230
1.0
 40
0.9041944122
 41
3.843301614969331
 42
6.254970033162564
  0
LWPOLYLINE
  5
140
330
1F
100
AcDbEntity
  8
0
  6
Continuous
 62
     7
370
    25
100
AcDbPolyline
 90
       17
 70
   128
 43
0.0
 10
117.593739612
 20
123.7580750801
 10
117.9996673236
 20
123.8788860497
 10
118.3453695475
 20
124.1451211889
 10
118.5782162538
 20
124.516248611
 10
118.6627586423
 20
124.9357675305
 10
118.5861259008
 20
125.3398099947
 10
118.3599846695
 20
125.6668642011
 10
118.0187629007
 20
125.8671391116
 10
117.6144085158
 20
125.9101446865
 10
117.2084808042
 20
125.7893337169
 10
116.8627785803
 20
125.5230985777
 10
116.629931874
 20
125.1519711555
 10
116.5453894854
 20
124.732452236
 10
116.6220222269
 20
124.3284097718
 10
116.8481634583
 20
124.0013555654
 10
117.189385227
 20
123.8010806549
 10
117.593739612
 20
123.7580750801
  0
ARC
  5
141
330
1F
100
AcDbEntity
  8
0
  6
Continuous
 62
     7
370
    25
100
AcDbCircle
 10
129.2750031485
 20
134.8402961114
 30
0.0
 40
0.2123010091393833
100
AcDbArc
 50
51.0903925894
 51
96.2049569564
  0
LWPOLYLINE
  5
142
330
1F
100
AcDbEntity
  8
0
  6
Continuous
 62
     7
370
    25
100
AcDbPolyline
 90
        8
 70
   128
 43
0.0
 10
128.8729185778
 20
133.5105175866
 10
129.0500117428
 20
133.5334779116
 10
129.2073049974
 20
133.5662188931
 10
129.3387536501
 20
133.6074823136
 10
129.4393062028
 20
133.6556824428
 10
129.5050984774
 20
133.708966977
 10
129.5336021135
 20
133.7652882213
 10
129.5347379561
 20
133.7783836336
  0
ELLIPSE
  5
143
330
1F
100
AcDbEntity
  8
0
  6
Continuous
 62
     7
370
    25
100
AcDbEllipse
 10
117.5513545033
 20
124.877371029
 30
0.0
 11
0.6862277804222147
 21
0.8915947524469773
 31
0.0
210
0.0
220
0.0
230
1.0
 40
0.9041944122
 41
3.113377379572743
 42
3.84330161496932
  0
ELLIPSE
  5
144
330
1F
100
AcDbEntity
  8
0
  6
Continuous
 62
     7
370
    25
100
AcDbEllipse
 10
117.5513545033
 20
124.877371029
 30
0.0
 11
0.6862277804222147
 21
0.8915947524469773
 31
0.0
210
0.0
220
0.0
230
1.0
 40
0.9041944122
 41
3.84330161496932
 42
6.254970033162572
  0
ARC
  5
145
330
1F
100
AcDbEntity
  8
0
  6
Continuous
 62
     7
370
    25
100
AcDbCircle
 10
119.8072370224
 20
142.609450585
 30
0.0
 40
0.2123010091393056
100
AcDbArc
 50
51.0903925894
 51
96.2049569564
  0
LINE
  5
146
330
1F
100
AcDbEntity
  8
0
  6
Continuous
 62
     7
370
    25
100
AcDbLine
 10
117.8722069062
 20
125.4491143408
 30
0.0
 11
117.8715683934
 21
125.9025614421
 31
0.0
  0
LINE
  5
147
330
1F
100
AcDbEntity
  8
0
  6
Continuous
 62
     7
370
    25
100
AcDbLine
 10
117.8722069062
 20
125.4491143408
 30
0.0
 11
118.6021397209
 21
124.8501387517
 31
0.0
  0
LINE
  5
148
330
1F
100
AcDbEntity
  8
0
  6
Continuous
 62
     7
370
    25
100
AcDbLine
 10
88.4926698731
 20
122.6280147681
 30
0.0
 11
90.238252798
 21
122.7956301814
 31
0.0
  0
LINE
  5
149
330
1F
100
AcDbEntity
  8
0
  6
Continuous
 62
     7
370
    25
100
AcDbLine
 10
116.7242586324
 20
125.3388853614
 30
0.0
 11
117.8722069062
 21
125.4491143408
 31
0.0
  0
LWPOLYLINE
  5
14A
330
1F
100
AcDbEntity
  8
0
  6
Continuous
 62
     7
370
    25
100
AcDbPolyline
 90
        3
 70
   128
 43
0.0
 10
72.035285132
 20
138.467977924
 10
72.0187493122
 20
138.4769162407
 10
72.0090928474
 20
138.4777144457
  0
LWPOLYLINE
  5
14B
330
1F
100
AcDbEntity
  8
0
  6
Continuous
 62
     7
370
    25
100
AcDbPolyline
 90
        3
 70
   128
 43
0.0
 10
70.595658513
 20
136.9478761565
 10
70.5984092628
 20
136.9366679001
 10
70.6103818966
 20
136.922781163
  0
LWPOLYLINE
  5
14C
330
1F
100
AcDbEntity
  8
0
  6
Continuous
 62
     7
370
    25
100
AcDbPolyline
 90
        3
 70
   128
 43
0.0
 10
118.8248997931
 20
142.9608384406
 10
118.8083639733
 20
142.9697767573
 10
118.7987075086
 20
142.9705749623
  0
SPLINE
  5
14D
330
1F
100
AcDbEntity
  8
0
  6
Continuous
 62
     7
370
    25
100
AcDbSpline
210
0.0
220
0.0
230
1.0
 70
    11
 71
     3
 72
    39
 73
    35
 74
     0
 42
0.00000001
 43
0.00000001
 40
0.0
 40
0.0
 40
0.0
 40
0.0
 40
0.029129008105451
 40
0.0600028324322984
 40
0.0921602034406938
 40
0.125
 40
0.1578397965593062
 40
0.1899971675677016
 40
0.2208709918945491
 40
0.2500000000000001
 40
0.2791290081054509
 40
0.3100028324322984
 40
0.3421602034406938
 40
0.3749999999999999
 40
0.4078397965593061
 40
0.4399971675677017
 40
0.4708709918945491
 40
0.5
 40
0.5291290081054509
 40
0.5600028324322983
 40
0.5921602034406938
 40
0.625
 40
0.6578397965593061
 40
0.6899971675677017
 40
0.7208709918945491
 40
0.7499999999999999
 40
0.7791290081054508
 40
0.8100028324322982
 40
0.8421602034406936
 40
0.875
 40
0.9078397965593061
 40
0.9399971675677017
 40
0.9708709918945491
 40
1.0
 40
1.0
 40
1.0
 40
1.0
 10
112.0609500823793
 20
159.7750023880401
 30
0.0
 10
112.4814250692392
 20
159.7926543001216
 30
0.0
 10
113.3475613306316
 20
159.8290154669318
 30
0.0
 10
114.6293474459864
 20
159.5624097913774
 30
0.0
 10
115.859298748627
 20
159.0343406219963
 30
0.0
 10
116.9536240285016
 20
158.2283862904434
 30
0.0
 10
117.8389102256927
 20
157.1935726620103
 30
0.0
 10
118.4672267925459
 20
155.998562436607
 30
0.0
 10
118.8242561375758
 20
154.7274703345936
 30
0.0
 10
118.929768516571
 20
153.4304272921748
 30
0.0
 10
118.7991242925454
 20
152.1107142409994
 30
0.0
 10
118.4169974438777
 20
150.7686259140064
 30
0.0
 10
117.7645462627383
 20
149.4507128373823
 30
0.0
 10
116.8577273009171
 20
148.2435106890389
 30
0.0
 10
115.7458973007267
 20
147.2268537679098
 30
0.0
 10
114.5034831296791
 20
146.4572750006505
 30
0.0
 10
113.2143432654662
 20
145.9582000382692
 30
0.0
 10
111.9259109812862
 20
145.7145786415426
 30
0.0
 10
110.6397839632208
 20
145.7109841567024
 30
0.0
 10
109.3578594417248
 20
145.9631788284943
 30
0.0
 10
108.1279476164152
 20
146.4953584221641
 30
0.0
 10
107.033611395149
 20
147.3001735236682
 30
0.0
 10
106.1483281387925
 20
148.3352933551124
 30
0.0
 10
105.5200108048197
 20
149.5302237071707
 30
0.0
 10
105.1629816570926
 20
150.8013363525762
 30
0.0
 10
105.0574692169334
 20
152.0983730265272
 30
0.0
 10
105.188113502123
 20
153.4180924461704
 30
0.0
 10
105.570240153488
 20
154.7601602297713
 30
0.0
 10
106.2226921017468
 20
156.0781531797405
 30
0.0
 10
107.1295081227335
 20
157.2850491250727
 30
0.0
 10
108.2413490643155
 20
158.3028452762507
 30
0.0
 10
109.4837237580321
 20
159.0683136192212
 30
0.0
 10
110.7730020283862
 20
159.5817995853649
 30
0.0
 10
111.6400382165655
 20
159.7118621457746
 30
0.0
 10
112.0609500823793
 20
159.7750023880401
 30
0.0
  0
ARC
  5
14E
330
1F
100
AcDbEntity
  8
0
  6
Continuous
 62
     7
370
    25
100
AcDbCircle
 10
112.5839884852
 20
153.7913905929
 30
0.0
 40
6.63206099205336
100
AcDbArc
 50
352.706952817
 51
95.9118302724
  0
ARC
  5
14F
330
1F
100
AcDbEntity
  8
0
  6
Continuous
 62
     7
370
    25
100
AcDbCircle
 10
111.1196374393
 20
151.9992491279
 30
0.0
 40
6.651809616300824
100
AcDbArc
 50
184.7983071307
 51
291.4346571219
  0
LWPOLYLINE
  5
150
330
1F
100
AcDbEntity
  8
0
  6
Continuous
 62
     7
370
    25
100
AcDbPolyline
 90
       41
 70
   128
 43
0.0
 10
111.9270190758
 20
145.8299546903
 10
110.8605439377
 20
145.8128447828
 10
109.821968865
 20
145.9669052651
 10
108.836867023
 20
146.2883426569
 10
107.9294948882
 20
146.7692421028
 10
107.1221949741
 20
147.3977622625
 10
106.4348456838
 20
148.1584268838
 10
105.8843718381
 20
149.032505879
 10
105.4843279298
 20
149.9984765225
 10
105.2445643678
 20
151.0325534111
 10
105.1709849266
 20
152.1092741399
 10
105.2654013763
 20
153.2021262713
 10
105.5254888705
 20
154.2842001586
 10
105.9448431919
 20
155.3288515516
 10
106.5131384455
 20
156.3103576661
 10
107.2163813159
 20
157.204550564
 10
108.0372556299
 20
157.9894122486
 10
108.9555487374
 20
158.6456168203
 10
109.9486492145
 20
159.1570063448
 10
110.9921036315
 20
159.5109887149
 10
112.0602186777
 20
159.6988477096
 10
113.1266938158
 20
159.7159576172
 10
114.1652688885
 20
159.5618971349
 10
115.1503707305
 20
159.2404597431
 10
116.0577428653
 20
158.7595602971
 10
116.8650427794
 20
158.1310401374
 10
117.5523920697
 20
157.3703755162
 10
118.1028659154
 20
156.496296521
 10
118.5029098237
 20
155.5303258775
 10
118.7426733857
 20
154.4962489889
 10
118.8162528269
 20
153.41952826
 10
118.7218363772
 20
152.3266761287
 10
118.461748883
 20
151.2446022414
 10
118.0423945616
 20
150.1999508483
 10
117.474099308
 20
149.2184447339
 10
116.7708564376
 20
148.3242518359
 10
115.9499821236
 20
147.5393901514
 10
115.0316890161
 20
146.8831855796
 10
114.038588539
 20
146.3717960551
 10
112.995134122
 20
146.0178136851
 10
111.9270190758
 20
145.8299546903
  0
SPLINE
  5
151
330
1F
100
AcDbEntity
  8
0
  6
Continuous
 62
     7
370
    25
100
AcDbSpline
210
0.0
220
0.0
230
1.0
 70
     8
 71
     3
 72
    10
 73
     6
 74
     0
 42
0.00000001
 43
0.00000001
 40
0.0
 40
0.0
 40
0.0
 40
0.0
 40
0.0293904055451649
 40
0.6462902581999513
 40
0.9999999999999999
 40
0.9999999999999999
 40
0.9999999999999999
 40
0.9999999999999999
 10
105.6907515514167
 20
147.6840684646976
 30
0.0
 10
105.6734319315026
 20
147.6960684443219
 30
0.0
 10
105.2925762944812
 20
147.959946052879
 30
0.0
 10
104.8200532203395
 20
148.3443547120019
 30
0.0
 10
104.5103729415686
 20
148.5706210294006
 30
0.0
 10
104.3975191926768
 20
148.6530770458694
 30
0.0
  0
LWPOLYLINE
  5
152
330
1F
100
AcDbEntity
  8
0
  6
Continuous
 62
     7
370
    25
100
AcDbPolyline
 90
       17
 70
   128
 43
0.0
 10
104.3975191927
 20
148.6530770459
 10
103.6515109194
 20
149.4229994846
 10
103.0378623949
 20
150.3099643413
 10
102.570166942
 20
151.2943238876
 10
102.2587847828
 20
152.3542729433
 10
102.1106135437
 20
153.4663318958
 10
102.1289354608
 20
154.6058668134
 10
102.3133446736
 20
155.747635126
 10
102.6597562152
 20
156.8663447906
 10
103.1604965011
 20
157.937214551
 10
103.8044733116
 20
158.9365228833
 10
104.5774215028
 20
159.8421334668
 10
105.462219003
 20
160.63398554
 10
106.4392660944
 20
161.294538279
 10
107.4869195794
 20
161.8091593559
 10
108.581972213
 20
162.1664490687
 10
108.9615900958
 20
162.2507304591
  0
LWPOLYLINE
  5
153
330
1F
100
AcDbEntity
  8
0
  6
Continuous
 62
     7
370
    25
100
AcDbPolyline
 90
       36
 70
   128
 43
0.0
 10
111.771731092
 20
147.4034026625
 10
112.738761031
 20
147.5845608633
 10
113.6764075276
 20
147.9366624483
 10
114.5545338516
 20
148.4483905831
 10
115.3449163006
 20
149.1032979041
 10
116.0221513324
 20
149.8803351514
 10
116.5644720557
 20
150.7545277084
 10
116.9544478363
 20
151.697778307
 10
117.1795445317
 20
152.6797700969
 10
117.232527349
 20
153.668941054
 10
117.1116933768
 20
154.6334984099
 10
116.8209263183
 20
155.5424404974
 10
116.3695716662
 20
156.36655317
 10
115.7721363302
 20
157.0793487684
 10
115.0478223737
 20
157.6579174554
 10
114.2199098431
 20
158.0836635575
 10
113.3150085285
 20
158.3429032446
 10
112.3622027026
 20
158.4273043399
 10
111.3921163287
 20
158.3341541227
 10
110.4359287809
 20
158.0664465177
 10
109.5243727139
 20
157.6327858675
 10
108.6867462896
 20
157.0471103823
 10
107.9499715106
 20
156.3282441541
 10
107.3377289244
 20
155.4992921348
 10
106.8696965116
 20
154.5868975246
 10
106.5609172189
 20
153.6203854368
 10
106.4213154669
 20
152.6308203652
 10
106.4553781708
 20
151.6500077455
 10
106.6620105273
 20
150.7094717022
 10
107.0345712023
 20
149.8394418377
 10
107.5610857893
 20
149.0678816276
 10
108.2246316762
 20
148.419589652
 10
109.0038819523
 20
147.9154025484
 10
109.8737908724
 20
147.5715253051
 10
110.8063988482
 20
147.3990104197
 10
111.771731092
 20
147.4034026625
  0
LWPOLYLINE
  5
154
330
1F
100
AcDbEntity
  8
0
  6
Continuous
 62
     7
370
    25
100
AcDbPolyline
 90
       19
 70
   128
 43
0.0
 10
103.9799521183
 20
139.455904384
 10
104.0044678276
 20
139.2998244984
 10
104.1890122289
 20
139.0114425763
 10
104.5485613026
 20
138.7360153122
 10
105.0712219286
 20
138.4826532557
 10
105.7397056025
 20
138.2597370857
 10
106.5319003031
 20
138.0746403961
 10
107.421601911
 20
137.9334857926
 10
108.3793809853
 20
137.8409423698
 10
109.373556227
 20
137.8000712678
 10
110.3712424289
 20
137.8122244159
 10
111.3394382489
 20
137.8769998137
 10
112.2461178241
 20
137.9922548286
 10
113.0612901184
 20
138.1541770692
 10
113.7579909624
 20
138.3574104915
 10
114.3131749709
 20
138.5952325653
 10
114.7084778349
 20
138.859776641
 10
114.9308237749
 20
139.1422921621
 10
114.9794448299
 20
139.3502630723
  0
LINE
  5
155
330
1F
100
AcDbEntity
  8
0
  6
Continuous
 62
     7
370
    25
100
AcDbLine
 10
104.0817475184
 20
148.59073628
 30
0.0
 11
104.0872467806
 21
148.5882480928
 31
0.0
  0
LINE
  5
156
330
1F
100
AcDbEntity
  8
0
  6
Continuous
 62
     7
370
    25
100
AcDbLine
 10
104.0850904561
 20
148.9388067247
 30
0.0
 11
104.0817475184
 21
148.59073628
 31
0.0
  0
LWPOLYLINE
  5
157
330
1F
100
AcDbEntity
  8
0
  6
Continuous
 62
     7
370
    25
100
AcDbPolyline
 90
       17
 70
   128
 43
0.0
 10
108.4694543435
 20
162.632198118
 10
108.0655515257
 20
162.5424517486
 10
106.962454002
 20
162.1791324943
 10
105.9083844695
 20
161.6554285805
 10
104.9273013864
 20
160.9832435277
 10
104.0415042665
 20
160.1778557564
 10
103.2711268228
 20
159.2575713165
 10
102.6336793383
 20
158.2433077997
 10
102.1436506665
 20
157.1581188943
 10
101.8121789069
 20
156.0266703857
 10
101.6467982422
 20
154.8746795167
 10
101.6512676899
 20
153.728330447
 10
101.8254856615
 20
152.6136791015
 10
102.1654922724
 20
151.5560609318
 10
102.6635593471
 20
150.5795150549
 10
103.3083660772
 20
149.7062378563
 10
103.7789677047
 20
149.2223085178
  0
LWPOLYLINE
  5
158
330
1F
100
AcDbEntity
  8
0
  6
Continuous
 62
     7
370
    25
100
AcDbPolyline
 90
       25
 70
   128
 43
0.0
 10
116.1474074595
 20
139.4833551934
 10
116.3568554971
 20
139.2376263233
 10
116.4730011861
 20
138.909769292
 10
116.4079050498
 20
138.5823027404
 10
116.1632530437
 20
138.2637078804
 10
115.7453815264
 20
137.9622361513
 10
115.1651131506
 20
137.6856955126
 10
114.4374765625
 20
137.4412482217
 10
113.5813171675
 20
137.2352253349
 10
112.6188090442
 20
137.0729627367
 10
111.5748806475
 20
136.9586629434
 10
110.4765691744
 20
136.8952862594
 10
109.3523203151
 20
136.8844741075
 10
108.2312515247
 20
136.9265065169
 10
107.1423978959
 20
137.0202948703
 10
106.1139601657
 20
137.1634100984
 10
105.1725743311
 20
137.3521455921
 10
104.3426217908
 20
137.5816132013
 10
103.6455978796
 20
137.8458698354
 10
103.0995551507
 20
138.1380713864
 10
102.7186358239
 20
138.4506499875
 10
102.5127055097
 20
138.7755100173
 10
102.4870976951
 20
139.1042377716
 10
102.642475609
 20
139.4283193742
 10
102.8147611866
 20
139.6114045751
  0
LWPOLYLINE
  5
159
330
1F
100
AcDbEntity
  8
0
  6
Continuous
 62
     7
370
    25
100
AcDbPolyline
 90
       28
 70
   128
 43
0.0
 10
114.9891481669
 20
140.3605854815
 10
115.394151562
 20
140.1373691932
 10
115.7571496009
 20
139.8394966222
 10
115.9489151371
 20
139.5297198451
 10
115.9642173067
 20
139.2164887649
 10
115.8026387065
 20
138.9083475089
 10
115.4685867794
 20
138.6137013673
 10
114.9711735911
 20
138.3405875187
 10
114.3239672769
 20
138.096455797
 10
113.5446219379
 20
137.8879654791
 10
112.6543960832
 20
137.7208036375
 10
111.6775727535
 20
137.5995300114
 10
110.640797143
 20
137.5274526291
 10
109.5723497875
 20
137.5065375739
 10
108.5013751457
 20
137.5373553538
 10
107.457086614
 20
137.6190653402
 10
106.4679696612
 20
137.7494386977
 10
105.5610048196
 20
137.9249191809
 10
104.7609317255
 20
138.1407201396
 10
104.0895742874
 20
138.3909550863
 10
103.5652453862
 20
138.668798264
 10
103.2022473473
 20
138.9666708349
 10
103.0104818111
 20
139.276447612
 10
102.9951796415
 20
139.5896786922
 10
103.1567582417
 20
139.8978199483
 10
103.4908101688
 20
140.1924660899
 10
103.9882233571
 20
140.4655799385
 10
103.9896554553
 20
140.4662267933
  0
LWPOLYLINE
  5
15A
330
1F
100
AcDbEntity
  8
0
  6
Continuous
 62
     7
370
    25
100
AcDbPolyline
 90
       22
 70
   128
 43
0.0
 10
102.4662420248
 20
138.0355969465
 10
102.4801058593
 20
137.9011865334
 10
102.6412745691
 20
137.5745631106
 10
102.9791979901
 20
137.2581390965
 10
103.4851240832
 20
136.9601097067
 10
104.1459496284
 20
136.6881937459
 10
104.9445595912
 20
136.4494336946
 10
105.8602703931
 20
136.2500133128
 10
106.8693656052
 20
136.0950974837
 10
107.9457101916
 20
135.9886984457
 10
109.061427393
 20
135.9335718782
 10
110.1876207198
 20
135.9311455301
 10
111.2951223565
 20
135.9814822428
 10
112.3552485923
 20
136.0832783218
 10
113.3405427148
 20
136.233897302
 10
114.2254861236
 20
136.4294382311
 10
114.9871592492
 20
136.6648367016
 10
115.6058351579
 20
136.9339960169
 10
116.0654904686
 20
137.229945092
 10
116.3542203501
 20
137.5450190014
 10
116.4645468503
 20
137.8710574963
 10
116.4655963851
 20
137.9011443679
  0
LWPOLYLINE
  5
15B
330
1F
100
AcDbEntity
  8
0
  6
Continuous
 62
     7
370
    25
100
AcDbPolyline
 90
        3
 70
   128
 43
0.0
 10
125.6094379443
 20
196.3312159554
 10
124.9568377357
 20
196.7563047635
 10
124.8816191312
 20
196.7928710257
  0
LWPOLYLINE
  5
15C
330
1F
100
AcDbEntity
  8
0
  6
Continuous
 62
     7
370
    25
100
AcDbPolyline
 90
       33
 70
   128
 43
0.0
 10
108.9008188704
 20
162.8684841775
 10
109.1805493116
 20
162.7515765298
 10
109.9436022219
 20
162.5645610887
 10
110.7715231582
 20
162.5387547254
 10
111.6565820457
 20
162.674398387
 10
112.590515328
 20
162.970225605
 10
113.5646031218
 20
163.4234743206
 10
114.5697506317
 20
164.0299126725
 10
115.5965730664
 20
164.7838785092
 10
116.6354832612
 20
165.678332255
 10
117.6767811918
 20
166.7049226361
 10
118.7107445398
 20
167.8540646548
 10
119.7277194682
 20
169.1150290816
 10
120.7182107559
 20
170.4760426315
 10
121.6729704528
 20
171.9243978876
 10
122.5830842247
 20
173.4465719472
 10
123.4400545846
 20
175.0283526812
 10
124.2358802311
 20
176.6549714291
 10
124.9631307546
 20
178.3112408898
 10
125.615016013
 20
179.9816969218
 10
126.1854495291
 20
181.650742927
 10
126.669105319
 20
183.3027954727
 10
127.0614676189
 20
184.9224297893
 10
127.3588730476
 20
186.4945237876
 10
127.5585448109
 20
188.0043992496
 10
127.6586186272
 20
189.4379588748
 10
127.6581601343
 20
190.7818179034
 10
127.5571736131
 20
192.0234290855
 10
127.3566019474
 20
193.1511998322
 10
127.0583178209
 20
194.1546004519
 10
126.6651062321
 20
195.0242624633
 10
126.1806384916
 20
195.7520660665
 10
125.6094379443
 20
196.3312159554
  0
ARC
  5
15D
330
1F
100
AcDbEntity
  8
0
  6
Continuous
 62
     7
370
    25
100
AcDbCircle
 10
111.2460684552
 20
165.757201648
 30
0.0
 40
3.612744821689946
100
AcDbArc
 50
244.99600344
 51
269.8159218845
  0
LINE
  5
15E
330
1F
100
AcDbEntity
  8
0
  6
Continuous
 62
     7
370
    25
100
AcDbLine
 10
117.188356739
 20
159.3397671636
 30
0.0
 11
119.4165541802
 21
158.2901276106
 31
0.0
  0
SPLINE
  5
15F
330
1F
100
AcDbEntity
  8
0
  6
Continuous
 62
     7
370
    25
100
AcDbSpline
210
0.0
220
0.0
230
1.0
 70
     8
 71
     3
 72
     9
 73
     5
 74
     0
 42
0.00000001
 43
0.00000001
 40
0.0
 40
0.0
 40
0.0
 40
0.0
 40
0.7640940040455921
 40
1.0
 40
1.0
 40
1.0
 40
1.0
 10
116.4858095476703
 20
159.8649582245714
 30
0.0
 10
116.7088450759527
 20
159.7168983710067
 30
0.0
 10
117.0007404803159
 20
159.5231265932141
 30
0.0
 10
117.1525451153507
 20
159.3747662566059
 30
0.0
 10
117.1883567389691
 20
159.3397671636382
 30
0.0
  0
LINE
  5
160
330
1F
100
AcDbEntity
  8
0
  6
Continuous
 62
     7
370
    25
100
AcDbLine
 10
114.9427110091
 20
160.5918674429
 30
0.0
 11
116.4858095477
 21
159.8649582246
 31
0.0
  0
SPLINE
  5
161
330
1F
100
AcDbEntity
  8
0
  6
Continuous
 62
     7
370
    25
100
AcDbSpline
210
0.0
220
0.0
230
1.0
 70
     8
 71
     3
 72
     9
 73
     5
 74
     0
 42
0.00000001
 43
0.00000001
 40
0.0
 40
0.0
 40
0.0
 40
0.0
 40
0.7643143614262677
 40
0.9999999999999999
 40
0.9999999999999999
 40
0.9999999999999999
 40
0.9999999999999999
 10
113.4626590011219
 20
161.0948359183615
 30
0.0
 10
113.840111258964
 20
160.9756358849193
 30
0.0
 10
114.333955515845
 20
160.8196790699515
 30
0.0
 10
114.8266014398954
 20
160.6353185660368
 30
0.0
 10
114.9427110090959
 20
160.5918674429439
 30
0.0
  0
LINE
  5
162
330
1F
100
AcDbEntity
  8
0
  6
Continuous
 62
     7
370
    25
100
AcDbLine
 10
111.2344615599
 20
162.1444754714
 30
0.0
 11
113.4626590011
 21
161.0948359184
 31
0.0
  0
LWPOLYLINE
  5
163
330
1F
100
AcDbEntity
  8
0
  6
Continuous
 62
     7
370
    25
100
AcDbPolyline
 90
        3
 70
   128
 43
0.0
 10
136.8598152972
 20
191.0314876467
 10
136.2072150885
 20
191.4565764548
 10
136.1319964841
 20
191.493142717
  0
ARC
  5
164
330
1F
100
AcDbEntity
  8
0
  6
Continuous
 62
     7
370
    25
100
AcDbCircle
 10
121.9122660069
 20
162.2273719417
 30
0.0
 40
4.980368510247762
100
AcDbArc
 50
249.2921928392
 51
300.0827999473
  0
ARC
  5
165
330
1F
100
AcDbEntity
  8
0
  6
Continuous
 62
     7
370
    25
100
AcDbCircle
 10
133.0489554541
 20
186.878509213
 30
0.0
 40
5.636477855457134
100
AcDbArc
 50
11.1041110294
 51
47.45985738
  0
LWPOLYLINE
  5
166
330
1F
100
AcDbEntity
  8
0
  6
Continuous
 62
     7
370
    25
100
AcDbPolyline
 90
       24
 70
   128
 43
0.0
 10
138.6762038599
 20
187.5594387334
 10
138.6872100036
 20
187.5114528438
 10
138.8812310279
 20
186.3729675839
 10
138.9737934501
 20
185.1195092275
 10
138.9640058433
 20
183.7631492636
 10
138.8519624676
 20
182.3169501803
 10
138.638742362
 20
180.7948396653
 10
138.3263989527
 20
179.2114764748
 10
137.9179402773
 20
177.5821092621
 10
137.4173000163
 20
175.922429724
 10
136.829299609
 20
174.2484214817
 10
136.1596018208
 20
172.5762061498
 10
135.4146562074
 20
170.921888076
 10
134.6016370025
 20
169.3013992477
 10
133.7283740253
 20
167.7303458582
 10
132.8032772757
 20
166.2238580104
 10
131.8352559411
 20
164.7964440059
 10
130.8336325961
 20
163.4618506218
 10
129.8080534211
 20
162.232930722
 10
128.7683953042
 20
161.1215194768
 10
127.7246707214
 20
160.1383203842
 10
126.686931311
 20
159.2928021889
 10
125.6651710707
 20
158.5931076933
 10
124.8855237591
 20
158.1529094687
  0
LINE
  5
167
330
1F
100
AcDbEntity
  8
0
  6
Continuous
 62
     7
370
    25
100
AcDbLine
 10
117.7910446816
 20
157.8567708953
 30
0.0
 11
118.7944732511
 21
157.1127460496
 31
0.0
  0
LWPOLYLINE
  5
168
330
1F
100
AcDbEntity
  8
0
  6
Continuous
 62
     7
370
    25
100
AcDbPolyline
 90
        3
 70
   128
 43
0.0
 10
115.4373872887
 20
160.2253367213
 10
115.4203833662
 20
160.2508512667
 10
115.3012566616
 20
160.4229669265
  0
LINE
  5
169
330
1F
100
AcDbEntity
  8
0
  6
Continuous
 62
     7
370
    25
100
AcDbLine
 10
107.8260666426
 20
163.0330973093
 30
0.0
 11
110.6123806309
 21
160.9670939104
 31
0.0
  0
ARC
  5
16A
330
1F
100
AcDbEntity
  8
0
  6
Continuous
 62
     7
370
    25
100
AcDbCircle
 10
112.3789999483
 20
153.4115963848
 30
0.0
 40
7.759283902064586
100
AcDbArc
 50
81.971846522
 51
103.1604125118
  0
ARC
  5
16B
330
1F
100
AcDbEntity
  8
0
  6
Continuous
 62
     7
370
    25
100
AcDbCircle
 10
112.4840700721
 20
154.2543869359
 30
0.0
 40
6.927582919387003
100
AcDbArc
 50
24.3686163829
 51
47.2292927099
  0
LINE
  5
16C
330
1F
100
AcDbEntity
  8
0
  6
Continuous
 62
     7
370
    25
100
AcDbLine
 10
111.2344615599
 20
162.1444754714
 30
0.0
 11
110.6123806309
 21
160.9670939104
 31
0.0
  0
LINE
  5
16D
330
1F
100
AcDbEntity
  8
0
  6
Continuous
 62
     7
370
    25
100
AcDbLine
 10
107.8260666426
 20
163.0330973093
 30
0.0
 11
107.6785755921
 21
162.753948351
 31
0.0
  0
LINE
  5
16E
330
1F
100
AcDbEntity
  8
0
  6
Continuous
 62
     7
370
    25
100
AcDbLine
 10
107.6785755921
 20
162.753948351
 30
0.0
 11
105.9879030695
 21
164.1412973641
 31
0.0
  0
LINE
  5
16F
330
1F
100
AcDbEntity
  8
0
  6
Continuous
 62
     7
370
    25
100
AcDbLine
 10
105.9879030695
 20
164.1412973641
 30
0.0
 11
106.0299458595
 21
164.2208696566
 31
0.0
  0
LINE
  5
170
330
1F
100
AcDbEntity
  8
0
  6
Continuous
 62
     7
370
    25
100
AcDbLine
 10
118.7944732511
 20
157.1127460496
 30
0.0
 11
119.4165541802
 21
158.2901276106
 31
0.0
  0
ARC
  5
171
330
1F
100
AcDbEntity
  8
0
  6
Continuous
 62
     7
370
    25
100
AcDbCircle
 10
110.134802609
 20
154.2897216847
 30
0.0
 40
8.610773659336079
100
AcDbArc
 50
134.1260021007
 51
143.122876312
  0
LINE
  5
172
330
1F
100
AcDbEntity
  8
0
  6
Continuous
 62
     7
370
    25
100
AcDbLine
 10
104.1201837204
 20
160.3491300035
 30
0.0
 11
104.1396493822
 21
160.4706245961
 31
0.0
  0
SPLINE
  5
173
330
1F
100
AcDbEntity
  8
0
  6
Continuous
 62
     7
370
    25
100
AcDbSpline
210
0.0
220
0.0
230
1.0
 70
     8
 71
     3
 72
     9
 73
     5
 74
     0
 42
0.00000001
 43
0.00000001
 40
0.0
 40
0.0
 40
0.0
 40
0.0
 40
0.9874164700850051
 40
1.0
 40
1.0
 40
1.0
 40
1.0
 10
103.2468353215747
 20
159.4570546196498
 30
0.0
 10
103.3281404931549
 20
159.4840431147183
 30
0.0
 10
103.4104818091482
 20
159.5113755482822
 30
0.0
 10
103.4943746932601
 20
159.5353741582144
 30
0.0
 10
103.495430361877
 20
159.5356761454404
 30
0.0
  0
ARC
  5
174
330
1F
100
AcDbEntity
  8
0
  6
Continuous
 62
     7
370
    25
100
AcDbCircle
 10
110.0616051514
 20
154.3673607309
 30
0.0
 40
8.504080781616402
100
AcDbArc
 50
125.0641579709
 51
134.1361985936
  0
LINE
  5
175
330
1F
100
AcDbEntity
  8
0
  6
Continuous
 62
     7
370
    25
100
AcDbLine
 10
105.1113093127
 20
161.0967512192
 30
0.0
 11
105.1760674078
 21
161.3280295851
 31
0.0
  0
SPLINE
  5
176
330
1F
100
AcDbEntity
  8
0
  6
Continuous
 62
     7
370
    25
100
AcDbSpline
210
0.0
220
0.0
230
1.0
 70
     8
 71
     3
 72
     9
 73
     5
 74
     0
 42
0.00000001
 43
0.00000001
 40
0.0
 40
0.0
 40
0.0
 40
0.0
 40
0.6930890596205621
 40
1.0
 40
1.0
 40
1.0
 40
1.0
 10
104.1396493822038
 20
160.4706245961251
 30
0.0
 10
104.2290802350982
 20
160.4892247315782
 30
0.0
 10
104.3581125025293
 20
160.5160613050242
 30
0.0
 10
104.4885543210746
 20
160.5378288659633
 30
0.0
 10
104.5285883422691
 20
160.544509568561
 30
0.0
  0
LINE
  5
177
330
1F
100
AcDbEntity
  8
0
  6
Continuous
 62
     7
370
    25
100
AcDbLine
 10
103.2468353216
 20
159.4570546196
 30
0.0
 11
103.2753335192
 21
159.4361284077
 31
0.0
  0
ARC
  5
178
330
1F
100
AcDbEntity
  8
0
  6
Continuous
 62
     7
370
    25
100
AcDbCircle
 10
110.1008013041
 20
154.3132988458
 30
0.0
 40
8.569426652356649
100
AcDbArc
 50
143.1125512244
 51
152.1383696214
  0
LINE
  5
179
330
1F
100
AcDbEntity
  8
0
  6
Continuous
 62
     7
370
    25
100
AcDbLine
 10
103.2389407862
 20
159.2907514537
 30
0.0
 11
103.2468353216
 21
159.4570546196
 31
0.0
  0
SPLINE
  5
17A
330
1F
100
AcDbEntity
  8
0
  6
Continuous
 62
     7
370
    25
100
AcDbSpline
210
0.0
220
0.0
230
1.0
 70
     8
 71
     3
 72
     9
 73
     5
 74
     0
 42
0.00000001
 43
0.00000001
 40
0.0
 40
0.0
 40
0.0
 40
0.0
 40
0.6982440212202685
 40
0.9999999999999999
 40
0.9999999999999999
 40
0.9999999999999999
 40
0.9999999999999999
 10
102.5247529293939
 20
158.318116466467
 30
0.0
 10
102.5968268216967
 20
158.3511623813534
 30
0.0
 10
102.7000484607116
 20
158.3984895533479
 30
0.0
 10
102.8062073276167
 20
158.4415504445567
 30
0.0
 10
102.8382414004058
 20
158.4545443259305
 30
0.0
  0
LINE
  5
17B
330
1F
100
AcDbEntity
  8
0
  6
Continuous
 62
     7
370
    25
100
AcDbLine
 10
104.1396493822
 20
160.4706245961
 30
0.0
 11
104.1636194764
 21
160.4445578405
 31
0.0
  0
LINE
  5
17C
330
1F
100
AcDbEntity
  8
0
  6
Continuous
 62
     7
370
    25
100
AcDbLine
 10
102.5247529294
 20
158.3181164665
 30
0.0
 11
102.5569133272
 21
158.3029666306
 31
0.0
  0
LINE
  5
17D
330
1F
100
AcDbEntity
  8
0
  6
Continuous
 62
     7
370
    25
100
AcDbLine
 10
105.1760674078
 20
161.3280295851
 30
0.0
 11
105.1947810794
 21
161.2976143109
 31
0.0
  0
ARC
  5
17E
330
1F
100
AcDbEntity
  8
0
  6
Continuous
 62
     7
370
    25
100
AcDbCircle
 10
109.9247560362
 20
154.5647082419
 30
0.0
 40
8.263931224313565
100
AcDbArc
 50
115.8264770237
 51
125.073604936
  0
SPLINE
  5
17F
330
1F
100
AcDbEntity
  8
0
  6
Continuous
 62
     7
370
    25
100
AcDbSpline
210
0.0
220
0.0
230
1.0
 70
     8
 71
     3
 72
     9
 73
     5
 74
     0
 42
0.00000001
 43
0.00000001
 40
0.0
 40
0.0
 40
0.0
 40
0.0
 40
0.2154048105933126
 40
1.0
 40
1.0
 40
1.0
 40
1.0
 10
106.2171028931273
 20
161.7376834662864
 30
0.0
 10
106.2243020332607
 20
161.757153213569
 30
0.0
 10
106.257723478741
 20
161.8475399938316
 30
0.0
 10
106.2951968972919
 20
161.9347742174798
 30
0.0
 10
106.3245983612176
 20
162.0032177697057
 30
0.0
  0
SPLINE
  5
180
330
1F
100
AcDbEntity
  8
0
  6
Continuous
 62
     7
370
    25
100
AcDbSpline
210
0.0
220
0.0
230
1.0
 70
     8
 71
     3
 72
     9
 73
     5
 74
     0
 42
0.00000001
 43
0.00000001
 40
0.0
 40
0.0
 40
0.0
 40
0.0
 40
0.904894262923303
 40
0.9999999999999999
 40
0.9999999999999999
 40
0.9999999999999999
 40
0.9999999999999999
 10
105.1760674078365
 20
161.3280295850506
 30
0.0
 10
105.2718002029042
 20
161.3373759892314
 30
0.0
 10
105.3775946575607
 20
161.3477047144359
 30
0.0
 10
105.4838338822531
 20
161.3540148573856
 30
0.0
 10
105.4939378420239
 20
161.3546149881818
 30
0.0
  0
LWPOLYLINE
  5
181
330
1F
100
AcDbEntity
  8
0
  6
Continuous
 62
     7
370
    25
100
AcDbPolyline
 90
       17
 70
   128
 43
0.0
 10
104.0849032395
 20
148.9193135249
 10
103.7837903592
 20
149.1526153934
 10
103.0132188846
 20
149.9023591579
 10
102.3731817571
 20
150.7731802077
 10
101.8779540052
 20
151.7456562397
 10
101.5385809104
 20
152.7980976946
 10
101.3626316596
 20
153.9070315097
 10
101.3540305259
 20
155.0477246482
 10
101.5129693442
 20
156.1947357313
 10
101.8359032325
 20
157.3224824682
 10
102.3156296547
 20
158.4058122294
 10
102.9414490622
 20
159.4205630365
 10
103.6994035306
 20
160.3441024578
 10
104.5725880693
 20
161.1558323888
 10
105.541527661
 20
161.8376484613
 10
106.5846116215
 20
162.3743438327
 10
107.6785755921
 20
162.753948351
  0
ARC
  5
182
330
1F
100
AcDbEntity
  8
0
  6
Continuous
 62
     7
370
    25
100
AcDbCircle
 10
109.6817400187
 20
155.1893905365
 30
0.0
 40
7.591625069438715
100
AcDbArc
 50
100.0583651829
 51
106.3053383443
  0
ARC
  5
183
330
1F
100
AcDbEntity
  8
0
  6
Continuous
 62
     7
370
    25
100
AcDbCircle
 10
109.777056762
 20
154.8723888517
 30
0.0
 40
7.922637822570799
100
AcDbArc
 50
106.3232941148
 51
115.8343848002
  0
ARC
  5
184
330
1F
100
AcDbEntity
  8
0
  6
Continuous
 62
     7
370
    25
100
AcDbCircle
 10
109.9377041564
 20
154.3978812952
 30
0.0
 40
8.385707465194981
100
AcDbArc
 50
152.1285039345
 51
161.2858024492
  0
ARC
  5
185
330
1F
100
AcDbEntity
  8
0
  6
Continuous
 62
     7
370
    25
100
AcDbCircle
 10
109.6520735688
 20
154.4933437704
 30
0.0
 40
8.084549115808455
100
AcDbArc
 50
161.2770962331
 51
170.6606445699
  0
ARC
  5
186
330
1F
100
AcDbEntity
  8
0
  6
Continuous
 62
     7
370
    25
100
AcDbCircle
 10
109.2783014968
 20
154.5539120919
 30
0.0
 40
7.705902511811341
100
AcDbArc
 50
170.6540205522
 51
180.3428072424
  0
ARC
  5
187
330
1F
100
AcDbEntity
  8
0
  6
Continuous
 62
     7
370
    25
100
AcDbCircle
 10
108.8706746313
 20
154.5510419349
 30
0.0
 40
7.298265782695504
100
AcDbArc
 50
180.3394217349
 51
190.3860843716
  0
ARC
  5
188
330
1F
100
AcDbEntity
  8
0
  6
Continuous
 62
     7
370
    25
100
AcDbCircle
 10
108.6113395066
 20
154.5086870723
 30
0.0
 40
7.035545887405397
100
AcDbArc
 50
190.4275533049
 51
193.555239874
  0
LINE
  5
189
330
1F
100
AcDbEntity
  8
0
  6
Continuous
 62
     7
370
    25
100
AcDbLine
 10
102.538023892
 20
158.1068919159
 30
0.0
 11
102.5247529294
 21
158.3181164665
 31
0.0
  0
SPLINE
  5
18A
330
1F
100
AcDbEntity
  8
0
  6
Continuous
 62
     7
370
    25
100
AcDbSpline
210
0.0
220
0.0
230
1.0
 70
     8
 71
     3
 72
     9
 73
     5
 74
     0
 42
0.00000001
 43
0.00000001
 40
0.0
 40
0.0
 40
0.0
 40
0.0
 40
0.8568070399340679
 40
1.0
 40
1.0
 40
1.0
 40
1.0
 10
101.9953423137575
 20
157.0884161960311
 30
0.0
 10
102.0567865258372
 20
157.1260894233507
 30
0.0
 10
102.128499536137
 20
157.170058748489
 30
0.0
 10
102.2031510761167
 20
157.2110123601565
 30
0.0
 10
102.2138406510999
 20
157.2168766290366
 30
0.0
  0
ARC
  5
18B
330
1F
100
AcDbEntity
  8
0
  6
Continuous
 62
     7
370
    25
100
AcDbCircle
 10
106.2115242719
 20
156.0979655804
 30
0.0
 40
6.909642352211494
100
AcDbArc
 50
176.4382369335
 51
229.9150566109
  0
LINE
  5
18C
330
1F
100
AcDbEntity
  8
0
  6
Continuous
 62
     7
370
    25
100
AcDbLine
 10
101.9953423138
 20
157.088416196
 30
0.0
 11
102.0301877342
 21
157.0795030563
 31
0.0
  0
LINE
  5
18D
330
1F
100
AcDbEntity
  8
0
  6
Continuous
 62
     7
370
    25
100
AcDbLine
 10
106.3245983612
 20
162.0032177697
 30
0.0
 11
106.3374870048
 21
161.9693781297
 31
0.0
  0
LINE
  5
18E
330
1F
100
AcDbEntity
  8
0
  6
Continuous
 62
     7
370
    25
100
AcDbLine
 10
102.0394547676
 20
156.8354294691
 30
0.0
 11
101.9953423138
 21
157.088416196
 31
0.0
  0
SPLINE
  5
18F
330
1F
100
AcDbEntity
  8
0
  6
Continuous
 62
     7
370
    25
100
AcDbSpline
210
0.0
220
0.0
230
1.0
 70
     8
 71
     3
 72
     9
 73
     5
 74
     0
 42
0.00000001
 43
0.00000001
 40
0.0
 40
0.0
 40
0.0
 40
0.0
 40
0.8393687152418015
 40
1.0
 40
1.0
 40
1.0
 40
1.0
 10
101.6746893483274
 20
155.8053176288035
 30
0.0
 10
101.7248340240918
 20
155.8454242697169
 30
0.0
 10
101.7845749637454
 20
155.8932061803184
 30
0.0
 10
101.8477928166295
 20
155.9384637970502
 30
0.0
 10
101.8579475815579
 20
155.945733586171
 30
0.0
  0
LINE
  5
190
330
1F
100
AcDbEntity
  8
0
  6
Continuous
 62
     7
370
    25
100
AcDbLine
 10
107.4746674459
 20
162.3434224796
 30
0.0
 11
107.5503447105
 21
162.4756738988
 31
0.0
  0
SPLINE
  5
191
330
1F
100
AcDbEntity
  8
0
  6
Continuous
 62
     7
370
    25
100
AcDbSpline
210
0.0
220
0.0
230
1.0
 70
     8
 71
     3
 72
     9
 73
     5
 74
     0
 42
0.00000001
 43
0.00000001
 40
0.0
 40
0.0
 40
0.0
 40
0.0
 40
0.804964604247495
 40
0.9999999999999999
 40
0.9999999999999999
 40
0.9999999999999999
 40
0.9999999999999999
 10
106.3245983612176
 20
162.0032177697057
 30
0.0
 10
106.4248590533068
 20
162.0017772662232
 30
0.0
 10
106.5494119734728
 20
161.9999877422181
 30
0.0
 10
106.6737488285206
 20
161.9936545695774
 30
0.0
 10
106.6979989162515
 20
161.9924193767451
 30
0.0
  0
LINE
  5
192
330
1F
100
AcDbEntity
  8
0
  6
Continuous
 62
     7
370
    25
100
AcDbLine
 10
101.6746893483
 20
155.8053176288
 30
0.0
 11
101.711161031
 21
155.8029120065
 31
0.0
  0
LINE
  5
193
330
1F
100
AcDbEntity
  8
0
  6
Continuous
 62
     7
370
    25
100
AcDbLine
 10
107.5503447105
 20
162.4756738988
 30
0.0
 11
107.5570167111
 21
162.4394380933
 31
0.0
  0
LINE
  5
194
330
1F
100
AcDbEntity
  8
0
  6
Continuous
 62
     7
370
    25
100
AcDbLine
 10
101.7480037947
 20
155.5530474347
 30
0.0
 11
101.6746893483
 21
155.8053176288
 31
0.0
  0
SPLINE
  5
195
330
1F
100
AcDbEntity
  8
0
  6
Continuous
 62
     7
370
    25
100
AcDbSpline
210
0.0
220
0.0
230
1.0
 70
     8
 71
     3
 72
     9
 73
     5
 74
     0
 42
0.00000001
 43
0.00000001
 40
0.0
 40
0.0
 40
0.0
 40
0.0
 40
0.9075898034528569
 40
1.0
 40
1.0
 40
1.0
 40
1.0
 10
107.5503447105078
 20
162.475673898759
 30
0.0
 10
107.6531705670091
 20
162.4628541110106
 30
0.0
 10
107.7664660845546
 20
162.4487290209098
 30
0.0
 10
107.8789520668225
 20
162.4306639467353
 30
0.0
 10
107.8893469185527
 20
162.4289945496802
 30
0.0
  0
LINE
  5
196
330
1F
100
AcDbEntity
  8
0
  6
Continuous
 62
     7
370
    25
100
AcDbLine
 10
101.5725369112
 20
154.5078070655
 30
0.0
 11
101.6095266825
 21
154.5119820542
 31
0.0
  0
LINE
  5
197
330
1F
100
AcDbEntity
  8
0
  6
Continuous
 62
     7
370
    25
100
AcDbLine
 10
101.6919888525
 20
153.2353087079
 30
0.0
 11
101.7061340124
 21
153.2394408958
 31
0.0
  0
LWPOLYLINE
  5
198
330
1F
100
AcDbEntity
  8
0
  6
Continuous
 62
     7
370
    25
100
AcDbPolyline
 90
       63
 70
   128
 43
0.0
 10
85.6960573112
 20
213.6220462082
 10
85.0602344808
 20
214.0313319099
 10
84.3480357822
 20
214.2795165766
 10
83.5667693377
 20
214.3640534978
 10
82.7244519983
 20
214.2840752103
 10
81.8297270798
 20
214.0404023996
 10
80.8917756705
 20
213.6355354785
 10
79.9202224212
 20
213.0736289293
 10
78.9250367829
 20
212.3604486738
 10
77.9164307069
 20
211.5033129064
 10
76.9047538566
 20
210.5110169999
 10
75.9003874053
 20
209.3937432533
 10
74.913637512
 20
208.1629564069
 10
73.9546295659
 20
206.8312859995
 10
73.0332042862
 20
205.4123967713
 10
72.1588167433
 20
203.920848446
 10
71.3404393365
 20
202.3719463278
 10
70.5864697254
 20
200.7815842483
 10
69.9046446587
 20
199.1660814747
 10
69.301960584
 20
197.5420152514
 10
68.7846018556
 20
195.9260506958
 10
68.3578772742
 20
194.3347697908
 10
68.0261656113
 20
192.7845012319
 10
67.7928706775
 20
191.2911528723
 10
67.6603863946
 20
189.8700484871
 10
67.6300722306
 20
188.5357705304
 10
67.7022392497
 20
187.3020104994
 10
67.8761469208
 20
186.1814284417
 10
68.1500107158
 20
185.1855230455
 10
68.5210204216
 20
184.324513648
 10
68.9853689765
 20
183.6072353706
 10
69.5382915359
 20
183.0410484591
 10
70.1741143663
 20
182.6317627575
 10
70.8863130649
 20
182.3835780908
 10
71.6675795094
 20
182.2990411696
 10
72.5098968487
 20
182.379019457
 10
73.4046217673
 20
182.6226922677
 10
74.3425731766
 20
183.0275591889
 10
75.3141264259
 20
183.589465738
 10
76.3093120642
 20
184.3026459936
 10
77.3179181402
 20
185.159781761
 10
78.3295949905
 20
186.1520776674
 10
79.3339614418
 20
187.2693514141
 10
80.3207113351
 20
188.5001382604
 10
81.2797192812
 20
189.8318086679
 10
82.2011445609
 20
191.250697896
 10
83.0755321038
 20
192.7422462214
 10
83.8939095106
 20
194.2911483396
 10
84.6478791216
 20
195.8815104191
 10
85.3297041884
 20
197.4970131927
 10
85.9323882631
 20
199.1210794159
 10
86.4497469915
 20
200.7370439716
 10
86.8764715729
 20
202.3283248766
 10
87.2081832358
 20
203.8785934355
 10
87.4414781695
 20
205.371941795
 10
87.5739624525
 20
206.7930461802
 10
87.6042766165
 20
208.127324137
 10
87.5321095973
 20
209.361084168
 10
87.3582019262
 20
210.4816662257
 10
87.0843381312
 20
211.4775716219
 10
86.7133284255
 20
212.3385810194
 10
86.2489798706
 20
213.0558592968
 10
85.6960573112
 20
213.6220462082
  0
LWPOLYLINE
  5
199
330
1F
100
AcDbEntity
  8
0
  6
Continuous
 62
     7
370
    25
100
AcDbPolyline
 90
       24
 70
   128
 43
0.0
 10
81.3465365585
 20
214.7450615051
 10
81.2940929825
 20
214.7201625922
 10
80.298152022
 20
214.1730302368
 10
79.2763917818
 20
213.4733357411
 10
78.2386523713
 20
212.6278175458
 10
77.1949277885
 20
211.6446184532
 10
76.1552696716
 20
210.5332072081
 10
75.1296904966
 20
209.3042873082
 10
74.1280671517
 20
207.9696939241
 10
73.1600458171
 20
206.5422799196
 10
72.2349490674
 20
205.0357920718
 10
71.3616860902
 20
203.4647386823
 10
70.5486668853
 20
201.844249854
 10
69.803721272
 20
200.1899317802
 10
69.1340234838
 20
198.5177164483
 10
68.5460230765
 20
196.8437082061
 10
68.0453828154
 20
195.184028668
 10
67.6369241401
 20
193.5546614552
 10
67.3245807307
 20
191.9712982648
 10
67.1113606251
 20
190.4491877497
 10
66.9993172494
 20
189.0029886664
 10
66.9895296427
 20
187.6466287026
 10
67.0820920648
 20
186.3931703461
 10
67.2181765698
 20
185.5279341118
  0
LWPOLYLINE
  5
19A
330
1F
100
AcDbEntity
  8
0
  6
Continuous
 62
     7
370
    25
100
AcDbPolyline
 90
       26
 70
   128
 43
0.0
 10
72.5183199323
 20
181.4200648188
 10
72.9797256399
 20
181.5536310436
 10
73.9402558646
 20
181.9429320752
 10
74.936196825
 20
182.4900644306
 10
75.9579570653
 20
183.1897589262
 10
76.9956964758
 20
184.0352771215
 10
78.0394210586
 20
185.0184762142
 10
79.0790791755
 20
186.1298874593
 10
80.1046583505
 20
187.3588073591
 10
81.1062816954
 20
188.6934007433
 10
82.07430303
 20
190.1208147478
 10
82.9993997796
 20
191.6273025955
 10
83.8726627568
 20
193.1983559851
 10
84.6856819618
 20
194.8188448133
 10
85.4306275751
 20
196.4731628871
 10
86.1003253633
 20
198.145378219
 10
86.6883257706
 20
199.8193864613
 10
87.1889660316
 20
201.4790659994
 10
87.597424707
 20
203.1084332122
 10
87.9097681164
 20
204.6917964026
 10
88.122988222
 20
206.2139069177
 10
88.2350315977
 20
207.660106001
 10
88.2448192044
 20
209.0164659648
 10
88.1522567823
 20
210.2699243212
 10
87.958235758
 20
211.4084095811
 10
87.667997801
 20
212.4116200933
  0
LWPOLYLINE
  5
19B
330
1F
100
AcDbEntity
  8
0
  6
Continuous
 62
     7
370
    25
100
AcDbPolyline
 90
       11
 70
   128
 43
0.0
 10
74.049430924
 20
181.6033887228
 10
73.5210230663
 20
181.3747366406
 10
72.5870897839
 20
181.0789094226
 10
71.7020308964
 20
180.943265761
 10
70.8741099602
 20
180.9690721243
 10
70.1110570498
 20
181.1560875654
 10
69.4199965848
 20
181.5025659715
 10
68.8073808106
 20
182.005272367
 10
68.2789295555
 20
182.6595131179
 10
67.8395768265
 20
183.4591797544
 10
67.5195631756
 20
184.3105726237
  0
LWPOLYLINE
  5
19C
330
1F
100
AcDbEntity
  8
0
  6
Continuous
 62
     7
370
    25
100
AcDbPolyline
 90
        8
 70
   128
 43
0.0
 10
81.5818243924
 20
214.8612202317
 10
81.6398452112
 20
214.8884635235
 10
82.5949711197
 20
215.263439377
 10
83.5055305315
 20
215.4794270414
 10
84.3630217986
 20
215.534409898
 10
85.1594387563
 20
215.4278745868
 10
85.8873454739
 20
215.1608157991
 10
86.5399456825
 20
214.735726991
  0
LWPOLYLINE
  5
19D
330
1F
100
AcDbEntity
  8
0
  6
Continuous
 62
     7
370
    25
100
AcDbPolyline
 90
       34
 70
   128
 43
0.0
 10
73.7178206033
 20
179.4421799792
 10
74.3705087164
 20
179.2116874536
 10
75.1669256741
 20
179.1051521424
 10
76.0244169412
 20
179.160134999
 10
76.934976353
 20
179.3761226634
 10
77.8901022615
 20
179.7510985169
 10
78.8808769134
 20
180.2815615111
 10
79.8980497128
 20
180.9625588559
 10
80.9321235912
 20
181.7877322625
 10
81.9734436796
 20
182.7493773092
 10
83.0122874528
 20
183.8385153753
 10
84.0389555064
 20
185.0449774721
 10
85.0438621174
 20
186.3574991881
 10
86.0176247436
 20
187.7638258617
 10
86.9511516256
 20
189.2508269996
 10
87.8357266745
 20
190.8046188728
 10
88.6630908514
 20
192.4106941454
 10
89.4255192799
 20
194.0540573251
 10
90.1158933712
 20
195.7193647728
 10
90.7277672884
 20
197.3910679615
 10
91.2554281296
 20
199.053558649
 10
91.6939492677
 20
200.6913146076
 10
92.039236349
 20
202.2890445512
 10
92.288065521
 20
203.8318309059
 10
92.4381135328
 20
205.3052690911
 10
92.4879794266
 20
206.6956020114
 10
92.4371976179
 20
207.9898485031
 10
92.2862422428
 20
209.1759245353
 10
92.036522731
 20
210.2427560357
 10
91.6903706462
 20
211.180382286
 10
91.2510179172
 20
211.9800489225
 10
90.7225666621
 20
212.6342896734
 10
90.1099508879
 20
213.1369960689
 10
89.698620864
 20
213.3665668274
  0
LWPOLYLINE
  5
19E
330
1F
100
AcDbEntity
  8
0
  6
Continuous
 62
     7
370
    25
100
AcDbPolyline
 90
       27
 70
   128
 43
0.0
 10
87.100707304
 20
212.334962702
 10
87.2978152077
 20
211.8412392847
 10
87.5793885558
 20
210.8446816509
 10
87.7619529442
 20
209.7237628666
 10
87.8436939659
 20
208.4896231261
 10
87.8237992419
 20
207.1545278647
 10
87.702466495
 20
205.7317458589
 10
87.4809015845
 20
204.2354173554
 10
87.1613065219
 20
202.6804135392
 10
86.7468575867
 20
201.0821887369
 10
86.2416737585
 20
199.4566268246
 10
85.6507757812
 20
197.8198833668
 10
84.9800362644
 20
196.1882250553
 10
84.2361213186
 20
194.5778680436
 10
83.426424305
 20
193.0048167831
 10
82.5589923561
 20
191.484704964
 10
81.6424464004
 20
190.0326401404
 10
80.6858954833
 20
188.6630535849
 10
79.6988462377
 20
187.389556864
 10
78.6911084024
 20
186.2248065604
 10
77.6726973286
 20
185.1803784857
 10
76.6537344434
 20
184.2666526355
 10
75.6443466574
 20
183.4927100277
 10
74.6545657202
 20
182.8662424516
 10
73.6942285192
 20
182.3934760236
 10
72.7728793172
 20
182.0791093088
 10
72.6539709794
 20
182.0494661156
  0
LWPOLYLINE
  5
19F
330
1F
100
AcDbEntity
  8
0
  6
Continuous
 62
     7
370
    25
100
AcDbPolyline
 90
       22
 70
   128
 43
0.0
 10
67.5994851519
 20
186.0898397241
 10
67.5511652547
 20
186.3639957992
 10
67.4188480689
 20
187.5429906451
 10
67.3878864323
 20
188.8292070144
 10
67.4585880554
 20
190.2098619108
 10
67.6302502738
 20
191.6712337658
 10
67.9011670313
 20
193.1987988093
 10
68.2686458353
 20
194.7773754136
 10
68.7290345164
 20
196.3912749752
 10
69.277757525
 20
198.0244578353
 10
69.9093614055
 20
199.6606926887
 10
70.6175689946
 20
201.2837178985
 10
71.3953418072
 20
202.8774031108
 10
72.2349499876
 20
204.4259095662
 10
73.1280491324
 20
205.9138475117
 10
74.0657632213
 20
207.3264291515
 10
75.0387728303
 20
208.6496156146
 10
76.0374077526
 20
209.8702564797
 10
77.0517431059
 20
210.9762204692
 10
78.0716979696
 20
211.9565160162
 10
79.0871355742
 20
212.8014005032
 10
79.9068020449
 20
213.3855580389
  0
ARC
  5
1A0
330
1F
100
AcDbEntity
  8
0
  6
Continuous
 62
     7
370
    25
100
AcDbCircle
 10
83.7151011557
 20
210.6617596546
 30
0.0
 40
3.769344126311615
100
AcDbArc
 50
53.1670291164
 51
106.7418258718
  0
ARC
  5
1A1
330
1F
100
AcDbEntity
  8
0
  6
Continuous
 62
     7
370
    25
100
AcDbCircle
 10
71.9596773026
 20
185.7349295303
 30
0.0
 40
3.712434994723885
100
AcDbArc
 50
206.0023031354
 51
293.8001917524
  0
LINE
  5
1A2
330
1F
100
AcDbEntity
  8
0
  6
Continuous
 62
     7
370
    25
100
AcDbLine
 10
71.1165886003
 20
182.1601752979
 30
0.0
 11
71.1938436965
 21
182.098629149
 31
0.0
  0
LWPOLYLINE
  5
1A3
330
1F
100
AcDbEntity
  8
0
  6
Continuous
 62
     7
370
    25
100
AcDbPolyline
 90
        3
 70
   128
 43
0.0
 10
86.1798907093
 20
213.5871285167
 10
86.0328777692
 20
213.6233805961
 10
85.8522863982
 20
213.6585397635
  0
LINE
  5
1A4
330
1F
100
AcDbEntity
  8
0
  6
Continuous
 62
     7
370
    25
100
AcDbLine
 10
71.0434114899
 20
182.2219412842
 30
0.0
 11
71.1165886003
 21
182.1601752979
 31
0.0
  0
LINE
  5
1A5
330
1F
100
AcDbEntity
  8
0
  6
Continuous
 62
     7
370
    25
100
AcDbLine
 10
91.1284060199
 20
212.2994697929
 30
0.0
 11
90.833812937
 21
212.5168686689
 31
0.0
  0
LWPOLYLINE
  5
1A6
330
1F
100
AcDbEntity
  8
0
  6
Continuous
 62
     7
370
    25
100
AcDbPolyline
 90
       32
 70
   128
 43
0.0
 10
75.095846093
 20
179.1079738254
 10
75.3101237621
 20
179.0497973296
 10
76.110724583
 20
178.949354854
 10
76.9731121543
 20
179.0133018012
 10
77.8889812121
 20
179.2410223271
 10
78.8495114368
 20
179.6303233587
 10
79.8454523972
 20
180.1774557141
 10
80.8672126375
 20
180.8771502097
 10
81.9049520479
 20
181.722668405
 10
82.9486766307
 20
182.7058674976
 10
83.9883347476
 20
183.8172787428
 10
85.0139139226
 20
185.0461986426
 10
86.0155372676
 20
186.3807920267
 10
86.9835586022
 20
187.8082060313
 10
87.9086553518
 20
189.314693879
 10
88.781918329
 20
190.8857472685
 10
89.5949375339
 20
192.5062360968
 10
90.3398831473
 20
194.1605541706
 10
91.0095809355
 20
195.8327695025
 10
91.5975813428
 20
197.5067777448
 10
92.0982216038
 20
199.1664572829
 10
92.5066802792
 20
200.7958244957
 10
92.8190236885
 20
202.3791876861
 10
93.0322437941
 20
203.9012982011
 10
93.1442871698
 20
205.3474972844
 10
93.1540747766
 20
206.7038572483
 10
93.0615123545
 20
207.9573156047
 10
92.8674913301
 20
209.0958008646
 10
92.5738802322
 20
210.1083487925
 10
92.183506696
 20
210.9852079983
 10
91.700130232
 20
211.7179338487
 10
91.1284060199
 20
212.2994697929
  0
LWPOLYLINE
  5
1A7
330
1F
100
AcDbEntity
  8
0
  6
Continuous
 62
     7
370
    25
100
AcDbPolyline
 90
       34
 70
   128
 43
0.0
 10
108.9008188705
 20
162.8684841775
 10
109.5535069836
 20
162.6379916519
 10
110.3499239412
 20
162.5314563407
 10
111.2074152084
 20
162.5864391973
 10
112.1179746202
 20
162.8024268617
 10
113.0731005286
 20
163.1774027152
 10
114.0638751805
 20
163.7078657094
 10
115.0810479799
 20
164.3888630542
 10
116.1151218584
 20
165.2140364608
 10
117.1564419468
 20
166.1756815075
 10
118.19528572
 20
167.2648195736
 10
119.2219537736
 20
168.4712816704
 10
120.2268603846
 20
169.7838033864
 10
121.2006230107
 20
171.19013006
 10
122.1341498927
 20
172.6771311979
 10
123.0187249416
 20
174.2309230711
 10
123.8460891185
 20
175.8369983437
 10
124.608517547
 20
177.4803615234
 10
125.2988916383
 20
179.1456689711
 10
125.9107655555
 20
180.8173721598
 10
126.4384263967
 20
182.4798628473
 10
126.8769475348
 20
184.1176188059
 10
127.2222346161
 20
185.7153487495
 10
127.4710637881
 20
187.2581351042
 10
127.6211118
 20
188.7315732894
 10
127.6709776937
 20
190.1219062097
 10
127.620195885
 20
191.4161527014
 10
127.4692405099
 20
192.6022287336
 10
127.2195209981
 20
193.669060234
 10
126.8733689133
 20
194.6066864843
 10
126.4340161844
 20
195.4063531208
 10
125.9055649293
 20
196.0605938717
 10
125.292949155
 20
196.5633002672
 10
124.8816191312
 20
196.7928710257
  0
LWPOLYLINE
  5
1A8
330
1F
100
AcDbEntity
  8
0
  6
Continuous
 62
     7
370
    25
100
AcDbPolyline
 90
       36
 70
   128
 43
0.0
 10
74.1397067493
 20
179.2765954613
 10
74.4608112608
 20
179.0933114552
 10
75.1887179784
 20
178.8262526676
 10
75.9851349361
 20
178.7197173563
 10
76.8426262033
 20
178.7747002129
 10
77.753185615
 20
178.9906878773
 10
78.7083115235
 20
179.3656637308
 10
79.6990861754
 20
179.896126725
 10
80.7162589748
 20
180.5771240698
 10
81.7503328533
 20
181.4022974764
 10
82.7916529416
 20
182.3639425231
 10
83.8304967148
 20
183.4530805892
 10
84.8571647684
 20
184.659542686
 10
85.8620713794
 20
185.972064402
 10
86.8358340056
 20
187.3783910756
 10
87.7693608876
 20
188.8653922135
 10
88.6539359365
 20
190.4191840868
 10
89.4813001134
 20
192.0252593593
 10
90.2437285419
 20
193.668622539
 10
90.9341026332
 20
195.3339299867
 10
91.5459765504
 20
197.0056331754
 10
92.0736373916
 20
198.6681238629
 10
92.5121585297
 20
200.3058798215
 10
92.857445611
 20
201.9036097651
 10
93.106274783
 20
203.4463961198
 10
93.2563227948
 20
204.919834305
 10
93.3061886886
 20
206.3101672253
 10
93.2554068799
 20
207.604413717
 10
93.1044515048
 20
208.7904897492
 10
92.854731993
 20
209.8573212496
 10
92.5085799082
 20
210.7949474999
 10
92.0692271793
 20
211.5946141364
 10
91.5407759242
 20
212.2488548873
 10
90.9281601499
 20
212.7515612828
 10
90.2370996849
 20
213.0980396889
 10
90.0949439801
 20
213.1467165591
  0
LWPOLYLINE
  5
1A9
330
1F
100
AcDbEntity
  8
0
  6
Continuous
 62
     8
370
    25
100
AcDbPolyline
 90
       11
 70
   128
 43
0.0
 10
136.6453535394
 20
130.9854618078
 10
136.7944252362
 20
130.1068732498
 10
136.8861935035
 20
129.2011004043
 10
136.9169013379
 20
128.3052257182
 10
136.8852915569
 20
127.4559264063
 10
136.7926582686
 20
126.6879728823
 10
136.6427938908
 20
126.0328052536
 10
136.4418338887
 20
125.51724616
 10
136.1980055885
 20
125.1624026513
 10
135.9212913493
 20
124.9828020624
 10
135.8248596173
 20
124.9634754399
  0
LWPOLYLINE
  5
1AA
330
1F
100
AcDbEntity
  8
0
  6
Continuous
 62
     8
370
    25
100
AcDbPolyline
 90
        8
 70
   128
 43
0.0
 10
134.9646129884
 20
133.9222686475
 10
135.015370586
 20
133.9244378899
 10
135.3198773548
 20
133.8297201409
 10
135.6274488577
 20
133.5554043154
 10
135.9254930812
 20
133.1127209355
 10
136.2018080599
 20
132.5197935108
 10
136.445081426
 20
131.8008965597
 10
136.6453535394
 20
130.9854618078
  0
LINE
  5
1AB
330
1F
100
AcDbEntity
  8
0
  6
Continuous
 62
     8
370
    25
100
AcDbLine
 10
127.8888887978
 20
124.3543131581
 30
0.0
 11
127.8953667307
 21
124.3229006383
 31
0.0
  0
LINE
  5
1AC
330
1F
100
AcDbEntity
  8
0
  6
Continuous
 62
     8
370
    25
100
AcDbLine
 10
128.8244950483
 20
124.4273726212
 30
0.0
 11
128.8027447129
 21
124.5328434326
 31
0.0
  0
LINE
  5
1AD
330
1F
100
AcDbEntity
  8
0
  6
Continuous
 62
     8
370
    25
100
AcDbLine
 10
128.3285900189
 20
124.4433838609
 30
0.0
 11
128.3424429512
 21
124.3762088046
 31
0.0
  0
LWPOLYLINE
  5
1AE
330
1F
100
AcDbEntity
  8
0
  6
Continuous
 62
     8
370
    25
100
AcDbPolyline
 90
        8
 70
   128
 43
0.0
 10
130.7379316822
 20
137.3906411804
 10
130.9256849228
 20
137.3725085911
 10
131.2331469738
 20
137.1953624809
 10
131.5379441516
 20
136.8428240803
 10
131.8275980239
 20
136.3293263529
 10
132.0902501272
 20
135.6758919559
 10
132.3151474534
 20
134.9092725704
 10
132.4167679872
 20
134.4630500699
  0
LINE
  5
1AF
330
1F
100
AcDbEntity
  8
0
  6
Continuous
 62
     8
370
    25
100
AcDbLine
 10
118.8248997931
 20
142.9608384406
 30
0.0
 11
115.0106038921
 21
142.5945798258
 31
0.0
  0
LINE
  5
1B0
330
1F
100
AcDbEntity
  8
0
  6
Continuous
 62
     8
370
    25
100
AcDbLine
 10
103.9999423266
 20
141.5373074595
 30
0.0
 11
72.035285132
 21
138.467977924
 31
0.0
  0
SPLINE
  5
1B1
330
1F
100
AcDbEntity
  8
0
  6
Continuous
 62
     8
370
    25
100
AcDbSpline
210
0.0
220
0.0
230
1.0
 70
     8
 71
     3
 72
    12
 73
     8
 74
     0
 42
0.00000001
 43
0.00000001
 40
0.0
 40
0.0
 40
0.0
 40
0.0
 40
0.1976854888620587
 40
0.3845197826955398
 40
0.5604947108405496
 40
0.7256026361003215
 40
1.0
 40
1.0
 40
1.0
 40
1.0
 10
80.52032718839195
 20
114.2947781568498
 30
0.0
 10
80.51667253241641
 20
114.218717381447
 30
0.0
 10
80.50956382894189
 20
114.070770898385
 30
0.0
 10
80.47662076609225
 20
113.8863375454412
 30
0.0
 10
80.43251366872344
 20
113.7461129712247
 30
0.0
 10
80.3681869184492
 20
113.6210756513904
 30
0.0
 10
80.31024698064698
 20
113.5966244892856
 30
0.0
 10
80.27407320392669
 20
113.5813588381289
 30
0.0
  0
ARC
  5
1B2
330
1F
100
AcDbEntity
  8
0
  6
Continuous
 62
     8
370
    25
100
AcDbCircle
 10
80.1434967505
 20
113.8255944072
 30
0.0
 40
0.2159186321781671
100
AcDbArc
 50
177.4251302105
 51
229.9816093462
  0
ARC
  5
1B3
330
1F
100
AcDbEntity
  8
0
  6
Continuous
 62
     8
370
    25
100
AcDbCircle
 10
70.6747015349
 20
121.5942927286
 30
0.0
 40
0.2149116603453868
100
AcDbArc
 50
177.2913165696
 51
230.0244495164
  0
LWPOLYLINE
  5
1B4
330
1F
100
AcDbEntity
  8
0
  6
Continuous
 62
     8
370
    25
100
AcDbPolyline
 90
        8
 70
   128
 43
0.0
 10
128.8821047572
 20
134.4669929672
 10
129.0591979222
 20
134.4899532922
 10
129.2164911769
 20
134.5226942737
 10
129.3479398296
 20
134.5639576942
 10
129.4484923823
 20
134.6121578235
 10
129.5142846568
 20
134.6654423576
 10
129.542788293
 20
134.7217636019
 10
129.5439277149
 20
134.7354341045
  0
LWPOLYLINE
  5
1B5
330
1F
100
AcDbEntity
  8
0
  6
Continuous
 62
     8
370
    25
100
AcDbPolyline
 90
        3
 70
   128
 43
0.0
 10
70.2109149681
 20
122.5561858302
 10
70.213665718
 20
122.5449775738
 10
70.2256383518
 20
122.5310908367
  0
ARC
  5
1B6
330
1F
100
AcDbEntity
  8
0
  6
Continuous
 62
     8
370
    25
100
AcDbCircle
 10
112.8575051047
 20
152.0542267788
 30
0.0
 40
8.38867452708785
100
AcDbArc
 50
96.5479863034
 51
184.1795881563
  0
LWPOLYLINE
  5
1B7
330
1F
100
AcDbEntity
  8
0
  6
Continuous
 62
     8
370
    25
100
AcDbPolyline
 90
       25
 70
   128
 43
0.0
 10
124.4086806942
 20
157.9178494384
 10
124.8149804747
 20
158.1237460119
 10
125.8201279846
 20
158.7301843638
 10
126.8469504192
 20
159.4841502005
 10
127.8858606141
 20
160.3786039463
 10
128.9271585447
 20
161.4051943274
 10
129.9611218927
 20
162.5543363461
 10
130.9780968211
 20
163.8153007729
 10
131.9685881088
 20
165.1763143228
 10
132.9233478056
 20
166.6246695789
 10
133.8334615775
 20
168.1468436386
 10
134.6904319374
 20
169.7286243725
 10
135.486257584
 20
171.3552431204
 10
136.2135081075
 20
173.0115125811
 10
136.8653933659
 20
174.6819686131
 10
137.435826882
 20
176.3510146183
 10
137.9194826719
 20
178.003067164
 10
138.3118449718
 20
179.6227014806
 10
138.6092504005
 20
181.1947954789
 10
138.8089221638
 20
182.7046709409
 10
138.9089959801
 20
184.1382305662
 10
138.9085374872
 20
185.4820895947
 10
138.807550966
 20
186.7237007768
 10
138.6069793003
 20
187.8514715236
 10
138.5799119498
 20
187.9640518684
  0
ARC
  5
1B8
330
1F
100
AcDbEntity
  8
0
  6
Continuous
 62
     8
370
    25
100
AcDbCircle
 10
112.5880488149
 20
154.350740761
 30
0.0
 40
6.786252090984857
100
AcDbArc
 50
47.3213020142
 51
50.6278748313
  0
ARC
  5
1B9
330
1F
100
AcDbEntity
  8
0
  6
Continuous
 62
     8
370
    25
100
AcDbCircle
 10
107.9627092725
 20
156.0742717961
 30
0.0
 40
8.659335343901882
100
AcDbArc
 50
105.6663481803
 51
177.0016100313
  0
LWPOLYLINE
  5
1BA
330
1F
100
AcDbEntity
  8
0
  6
Continuous
 62
     8
370
    25
100
AcDbPolyline
 90
        7
 70
   128
 43
0.0
 10
86.2191504478
 20
214.6120785095
 10
85.5645845043
 20
215.0368240387
 10
84.8334806572
 20
215.3006886212
 10
84.0328798362
 20
215.4011310969
 10
83.170492265
 20
215.3371841497
 10
82.2546232072
 20
215.1094636237
 10
81.3465365585
 20
214.7450615051
  0
LWPOLYLINE
  5
1BB
330
1F
100
AcDbEntity
  8
0
  6
Continuous
 62
     8
370
    25
100
AcDbPolyline
 90
       11
 70
   128
 43
0.0
 10
67.2181765698
 20
185.5279341118
 10
67.2761130891
 20
185.2546850863
 10
67.5697241871
 20
184.2421371584
 10
67.9600977233
 20
183.3652779525
 10
68.4434741872
 20
182.6325521022
 10
69.0151983993
 20
182.0510161579
 10
69.6697643428
 20
181.6262706287
 10
70.4008681899
 20
181.3624060462
 10
71.2014690108
 20
181.2619635705
 10
72.0638565821
 20
181.3259105177
 10
72.5183199323
 20
181.4200648188
  0
ARC
  5
1BC
330
1F
100
AcDbEntity
  8
0
  6
Continuous
 62
     8
370
    25
100
AcDbCircle
 10
82.7603644959
 20
210.7574995015
 30
0.0
 40
5.178897526509441
100
AcDbArc
 50
18.6264182476
 51
48.0977765968
  0
LWPOLYLINE
  5
1BD
330
1F
100
AcDbEntity
  8
0
  6
Continuous
 62
     8
370
    25
100
AcDbPolyline
 90
       28
 70
   128
 43
0.0
 10
86.5399456825
 20
214.735726991
 10
87.1111462299
 20
214.1565771021
 10
87.5956139703
 20
213.4287734989
 10
87.9888255591
 20
212.5591114875
 10
88.2871096856
 20
211.5557108678
 10
88.4876813513
 20
210.4279401211
 10
88.5886678726
 20
209.186328939
 10
88.5891263654
 20
207.8424699104
 10
88.4890525491
 20
206.4089102852
 10
88.2893807859
 20
204.8990348232
 10
87.9919753571
 20
203.3269408249
 10
87.5996130573
 20
201.7073065083
 10
87.1159572674
 20
200.0552539626
 10
86.5455237512
 20
198.3862079574
 10
85.8936384929
 20
196.7157519254
 10
85.1663879693
 20
195.0594824647
 10
84.3705623228
 20
193.4328637168
 10
83.5135919629
 20
191.8510829828
 10
82.603478191
 20
190.3289089232
 10
81.6487184941
 20
188.8805536671
 10
80.6582272064
 20
187.5195401172
 10
79.6412522781
 20
186.2585756904
 10
78.60728893
 20
185.1094336717
 10
77.5659909995
 20
184.0828432906
 10
76.5270808046
 20
183.1883895448
 10
75.50025837
 20
182.4344237081
 10
74.49511086
 20
181.8279853562
 10
74.049430924
 20
181.6033887228
  0
ARC
  5
1BE
330
1F
100
AcDbEntity
  8
0
  6
Continuous
 62
     8
370
    25
100
AcDbCircle
 10
82.8997488102
 20
210.5405194229
 30
0.0
 40
4.568159251615094
100
AcDbArc
 50
23.1297952936
 51
49.0824096906
  0
LWPOLYLINE
  5
1BF
330
1F
100
AcDbEntity
  8
0
  6
Continuous
 62
     8
370
    25
100
AcDbPolyline
 90
       10
 70
   128
 43
0.0
 10
72.6539709794
 20
182.0494661156
 10
71.8996748962
 20
181.9262666247
 10
71.0832935543
 20
181.9364669907
 10
70.3318488559
 20
182.109609031
 10
69.6528089961
 20
182.4439719822
 10
69.052922578
 20
182.9362327949
 10
68.5381515425
 20
183.5814991603
 10
68.1136119152
 20
184.3733581311
 10
67.7835229618
 20
185.3039398571
 10
67.5994851519
 20
186.0898397241
  0
LWPOLYLINE
  5
1C0
330
1F
100
AcDbEntity
  8
0
  6
Continuous
 62
     8
370
    25
100
AcDbPolyline
 90
        9
 70
   128
 43
0.0
 10
79.9068020449
 20
213.3855580389
 10
80.0879640444
 20
213.5024770886
 10
81.0642366973
 20
214.0527781582
 10
82.0062508967
 20
214.4468345728
 10
82.9046444822
 20
214.6807300227
 10
83.7504888148
 20
214.7521399499
 10
84.5353775134
 20
214.6603546504
 10
85.2515100016
 20
214.4062863277
 10
85.891769033
 20
213.9924600271
  0
LINE
  5
1C1
330
1F
100
AcDbEntity
  8
0
  6
Continuous
 62
     8
370
    25
100
AcDbLine
 10
82.6293051952
 20
214.2713305812
 30
0.0
 11
82.5045418123
 21
214.2382520859
 31
0.0
  0
LINE
  5
1C2
330
1F
100
AcDbEntity
  8
0
  6
Continuous
 62
     8
370
    25
100
AcDbLine
 10
68.4646374959
 20
184.4340409491
 30
0.0
 11
68.6230282528
 21
184.1073710187
 31
0.0
  0
ENDSEC
  0
SECTION
  2
OBJECTS
  0
DICTIONARY
  5
C
330
0
100
AcDbDictionary
281
     1
  3
ACAD_GROUP
350
D
  3
ACAD_LAYOUT
350
1A
  3
ACAD_MLINESTYLE
350
17
  3
ACAD_PLOTSETTINGS
350
19
  3
ACAD_PLOTSTYLENAME
350
E
  3
ACAD_SCALELIST
350
47
  3
DWGPROPS
350
1C3
  0
DICTIONARY
  5
D
102
{ACAD_REACTORS
330
C
102
}
330
C
100
AcDbDictionary
281
     1
  0
DICTIONARY
  5
1A
102
{ACAD_REACTORS
330
C
102
}
330
C
100
AcDbDictionary
281
     1
  3
Layout1
350
1E
  3
Layout2
350
26
  3
Model
350
22
  0
DICTIONARY
  5
17
102
{ACAD_REACTORS
330
C
102
}
330
C
100
AcDbDictionary
281
     1
  3
Standard
350
18
  0
DICTIONARY
  5
19
102
{ACAD_REACTORS
330
C
102
}
330
C
100
AcDbDictionary
281
     1
  0
ACDBDICTIONARYWDFLT
  5
E
102
{ACAD_REACTORS
330
C
102
}
330
C
100
AcDbDictionary
281
     1
  3
Normal
350
F
100
AcDbDictionaryWithDefault
340
F
  0
DICTIONARY
  5
47
102
{ACAD_REACTORS
330
C
102
}
330
C
100
AcDbDictionary
281
     1
  3
A0
350
48
  3
A1
350
49
  3
A2
350
4A
  3
A3
350
4B
  3
A4
350
4C
  3
A5
350
4D
  3
A6
350
4E
  3
A7
350
4F
  3
A8
350
50
  3
A9
350
51
  3
B0
350
52
  3
B1
350
53
  3
B2
350
54
  3
B3
350
55
  3
B4
350
56
  3
B5
350
57
  3
B6
350
58
  3
B7
350
59
  3
B8
350
5A
  3
B9
350
5B
  3
C0
350
5C
  3
C1
350
5D
  3
C2
350
5E
  3
C3
350
5F
  3
C4
350
60
  3
C5
350
61
  3
C6
350
62
  3
C7
350
63
  3
C8
350
64
  3
C9
350
65
  3
D0
350
66
  3
D1
350
67
  3
D2
350
68
  0
XRECORD
  5
1C3
102
{ACAD_REACTORS
330
C
102
}
330
C
100
AcDbXrecord
280
     1
  1
DWGPROPS COOKIE
  2

  3

  4

  6

  7

  8
9128
  9

300
=
301
=
302
=
303
=
304
=
305
=
306
=
307
=
308
=
309
=
 40
0.0
 41
2460018.224556505
 42
2460018.224556794
  1

 90
        0
  0
LAYOUT
  5
1E
102
{ACAD_REACTORS
330
1A
102
}
330
1A
100
AcDbPlotSettings
  1

  2
none_device
  4

  6

 40
0.0
 41
0.0
 42
0.0
 43
0.0
 44
0.0
 45
0.0
 46
0.0
 47
0.0
 48
0.0
 49
0.0
140
0.0
141
0.0
142
1.0
143
1.0
 70
   688
 72
     1
 73
     0
 74
     5
  7

 75
    16
147
1.0
148
0.0
149
0.0
100
AcDbLayout
  1
Layout1
 70
     1
 71
     1
 10
0.0
 20
0.0
 11
420.0
 21
297.0
 12
0.0
 22
0.0
 32
0.0
 14
1.0000000000E+20
 24
1.0000000000E+20
 34
1.0000000000E+20
 15
-1.0000000000E+20
 25
-1.0000000000E+20
 35
-1.0000000000E+20
146
0.0
 13
0.0
 23
0.0
 33
0.0
 16
1.0
 26
0.0
 36
0.0
 17
0.0
 27
1.0
 37
0.0
 76
     0
330
1B
  0
LAYOUT
  5
26
102
{ACAD_REACTORS
330
1A
102
}
330
1A
100
AcDbPlotSettings
  1

  2
none_device
  4

  6

 40
0.0
 41
0.0
 42
0.0
 43
0.0
 44
0.0
 45
0.0
 46
0.0
 47
0.0
 48
0.0
 49
0.0
140
0.0
141
0.0
142
1.0
143
1.0
 70
   688
 72
     1
 73
     0
 74
     5
  7

 75
    16
147
1.0
148
0.0
149
0.0
100
AcDbLayout
  1
Layout2
 70
     1
 71
     2
 10
0.0
 20
0.0
 11
0.0
 21
0.0
 12
0.0
 22
0.0
 32
0.0
 14
0.0
 24
0.0
 34
0.0
 15
0.0
 25
0.0
 35
0.0
146
0.0
 13
0.0
 23
0.0
 33
0.0
 16
1.0
 26
0.0
 36
0.0
 17
0.0
 27
1.0
 37
0.0
 76
     0
330
23
  0
LAYOUT
  5
22
102
{ACAD_REACTORS
330
1A
102
}
330
1A
100
AcDbPlotSettings
  1

  2
none_device
  4
Letter_(8.50_x_11.00_Inches)
  6

 40
6.35
 41
6.35
 42
6.35000508
 43
6.35000508
 44
215.9
 45
279.4
 46
0.0
 47
0.0
 48
0.0
 49
0.0
140
0.0
141
0.0
142
1.0
143
1.0
 70
  1712
 72
     1
 73
     0
 74
     0
  7

 75
     0
147
1.0
148
0.0
149
0.0
100
AcDbLayout
  1
Model
 70
     1
 71
     0
 10
0.0
 20
0.0
 11
210.0
 21
297.0
 12
0.0
 22
0.0
 32
0.0
 14
0.0
 24
0.0
 34
0.0
 15
210.0
 25
297.0
 35
0.0
146
0.0
 13
0.0
 23
0.0
 33
0.0
 16
1.0
 26
0.0
 36
0.0
 17
0.0
 27
1.0
 37
0.0
 76
     0
330
1F
331
29
  0
MLINESTYLE
  5
18
102
{ACAD_REACTORS
330
17
102
}
330
17
100
AcDbMlineStyle
  2
Standard
 70
     0
  3

 62
   256
 51
90.0
 52
90.0
 71
     2
 49
0.5
 62
   256
  6
BYLAYER
 49
-0.5
 62
   256
  6
BYLAYER
  0
ACDBPLACEHOLDER
  5
F
102
{ACAD_REACTORS
330
E
102
}
330
E
  0
SCALE
  5
48
102
{ACAD_REACTORS
330
47
102
}
330
47
100
AcDbScale
 70
     0
300
1:1
140
1.0
141
1.0
290
     1
  0
SCALE
  5
49
102
{ACAD_REACTORS
330
47
102
}
330
47
100
AcDbScale
 70
     0
300
1:2
140
1.0
141
2.0
290
     0
  0
SCALE
  5
4A
102
{ACAD_REACTORS
330
47
102
}
330
47
100
AcDbScale
 70
     0
300
1:4
140
1.0
141
4.0
290
     0
  0
SCALE
  5
4B
102
{ACAD_REACTORS
330
47
102
}
330
47
100
AcDbScale
 70
     0
300
1:5
140
1.0
141
5.0
290
     0
  0
SCALE
  5
4C
102
{ACAD_REACTORS
330
47
102
}
330
47
100
AcDbScale
 70
     0
300
1:8
140
1.0
141
8.0
290
     0
  0
SCALE
  5
4D
102
{ACAD_REACTORS
330
47
102
}
330
47
100
AcDbScale
 70
     0
300
1:10
140
1.0
141
10.0
290
     0
  0
SCALE
  5
4E
102
{ACAD_REACTORS
330
47
102
}
330
47
100
AcDbScale
 70
     0
300
1:16
140
1.0
141
16.0
290
     0
  0
SCALE
  5
4F
102
{ACAD_REACTORS
330
47
102
}
330
47
100
AcDbScale
 70
     0
300
1:20
140
1.0
141
20.0
290
     0
  0
SCALE
  5
50
102
{ACAD_REACTORS
330
47
102
}
330
47
100
AcDbScale
 70
     0
300
1:30
140
1.0
141
30.0
290
     0
  0
SCALE
  5
51
102
{ACAD_REACTORS
330
47
102
}
330
47
100
AcDbScale
 70
     0
300
1:40
140
1.0
141
40.0
290
     0
  0
SCALE
  5
52
102
{ACAD_REACTORS
330
47
102
}
330
47
100
AcDbScale
 70
     0
300
1:50
140
1.0
141
50.0
290
     0
  0
SCALE
  5
53
102
{ACAD_REACTORS
330
47
102
}
330
47
100
AcDbScale
 70
     0
300
1:100
140
1.0
141
100.0
290
     0
  0
SCALE
  5
54
102
{ACAD_REACTORS
330
47
102
}
330
47
100
AcDbScale
 70
     0
300
2:1
140
2.0
141
1.0
290
     0
  0
SCALE
  5
55
102
{ACAD_REACTORS
330
47
102
}
330
47
100
AcDbScale
 70
     0
300
4:1
140
4.0
141
1.0
290
     0
  0
SCALE
  5
56
102
{ACAD_REACTORS
330
47
102
}
330
47
100
AcDbScale
 70
     0
300
8:1
140
8.0
141
1.0
290
     0
  0
SCALE
  5
57
102
{ACAD_REACTORS
330
47
102
}
330
47
100
AcDbScale
 70
     0
300
10:1
140
10.0
141
1.0
290
     0
  0
SCALE
  5
58
102
{ACAD_REACTORS
330
47
102
}
330
47
100
AcDbScale
 70
     0
300
100:1
140
100.0
141
1.0
290
     0
  0
SCALE
  5
59
102
{ACAD_REACTORS
330
47
102
}
330
47
100
AcDbScale
 70
     0
300
1/128" = 1'-0"
140
0.0078125
141
12.0
290
     0
  0
SCALE
  5
5A
102
{ACAD_REACTORS
330
47
102
}
330
47
100
AcDbScale
 70
     0
300
1/64" = 1'-0"
140
0.015625
141
12.0
290
     0
  0
SCALE
  5
5B
102
{ACAD_REACTORS
330
47
102
}
330
47
100
AcDbScale
 70
     0
300
1/32" = 1'-0"
140
0.03125
141
12.0
290
     0
  0
SCALE
  5
5C
102
{ACAD_REACTORS
330
47
102
}
330
47
100
AcDbScale
 70
     0
300
1/16" = 1'-0"
140
0.0625
141
12.0
290
     0
  0
SCALE
  5
5D
102
{ACAD_REACTORS
330
47
102
}
330
47
100
AcDbScale
 70
     0
300
3/32" = 1'-0"
140
0.09375
141
12.0
290
     0
  0
SCALE
  5
5E
102
{ACAD_REACTORS
330
47
102
}
330
47
100
AcDbScale
 70
     0
300
1/8" = 1'-0"
140
0.125
141
12.0
290
     0
  0
SCALE
  5
5F
102
{ACAD_REACTORS
330
47
102
}
330
47
100
AcDbScale
 70
     0
300
3/16" = 1'-0"
140
0.1875
141
12.0
290
     0
  0
SCALE
  5
60
102
{ACAD_REACTORS
330
47
102
}
330
47
100
AcDbScale
 70
     0
300
1/4" = 1'-0"
140
0.25
141
12.0
290
     0
  0
SCALE
  5
61
102
{ACAD_REACTORS
330
47
102
}
330
47
100
AcDbScale
 70
     0
300
3/8" = 1'-0"
140
0.375
141
12.0
290
     0
  0
SCALE
  5
62
102
{ACAD_REACTORS
330
47
102
}
330
47
100
AcDbScale
 70
     0
300
1/2" = 1'-0"
140
0.5
141
12.0
290
     0
  0
SCALE
  5
63
102
{ACAD_REACTORS
330
47
102
}
330
47
100
AcDbScale
 70
     0
300
3/4" = 1'-0"
140
0.75
141
12.0
290
     0
  0
SCALE
  5
64
102
{ACAD_REACTORS
330
47
102
}
330
47
100
AcDbScale
 70
     0
300
1" = 1'-0"
140
1.0
141
12.0
290
     0
  0
SCALE
  5
65
102
{ACAD_REACTORS
330
47
102
}
330
47
100
AcDbScale
 70
     0
300
1-1/2" = 1'-0"
140
1.5
141
12.0
290
     0
  0
SCALE
  5
66
102
{ACAD_REACTORS
330
47
102
}
330
47
100
AcDbScale
 70
     0
300
3" = 1'-0"
140
3.0
141
12.0
290
     0
  0
SCALE
  5
67
102
{ACAD_REACTORS
330
47
102
}
330
47
100
AcDbScale
 70
     0
300
6" = 1'-0"
140
6.0
141
12.0
290
     0
  0
SCALE
  5
68
102
{ACAD_REACTORS
330
47
102
}
330
47
100
AcDbScale
 70
     0
300
1'-0" = 1'-0"
140
12.0
141
12.0
290
     0
  0
ENDSEC
  0
EOF
