  0
SECTION
  2
HEADER
  9
$ACADVER
  1
AC1015
  9
$ACADMAINTVER
 70
     6
  9
$DWGCODEPAGE
  3
DOS932
  9
$INSBASE
 10
0.0
 20
0.0
 30
0.0
  9
$EXTMIN
 10
0.0
 20
0.0
 30
0.0
  9
$EXTMAX
 10
420.0
 20
594.0
 30
0.0
  9
$LIMMIN
 10
0.0
 20
0.0
  9
$LIMMAX
 10
420.0
 20
594.0
  9
$ORTHOMODE
 70
     0
  9
$REGENMODE
 70
     1
  9
$FILLMODE
 70
     1
  9
$QTEXTMODE
 70
     0
  9
$MIRRTEXT
 70
     1
  9
$LTSCALE
 40
2.0
  9
$ATTMODE
 70
     1
  9
$TEXTSIZE
 40
7.0
  9
$TRACEWID
 40
1.0
  9
$TEXTSTYLE
  7
Standard
  9
$CLAYER
  8
0
  9
$CELTYPE
  6
ByLayer
  9
$CECOLOR
 62
   256
  9
$CELTSCALE
 40
1.0
  9
$DISPSILH
 70
     0
  9
$DIMSCALE
 40
1.0
  9
$DIMASZ
 40
3.0
  9
$DIMEXO
 40
2.0
  9
$DIMDLI
 40
3.75
  9
$DIMRND
 40
0.0
  9
$DIMDLE
 40
0.0
  9
$DIMEXE
 40
2.0
  9
$DIMTP
 40
0.0
  9
$DIMTM
 40
0.0
  9
$DIMTXT
 40
7.0
  9
$DIMCEN
 40
2.5
  9
$DIMTSZ
 40
0.0
  9
$DIMTOL
 70
     0
  9
$DIMLIM
 70
     0
  9
$DIMTIH
 70
     1
  9
$DIMTOH
 70
     1
  9
$DIMSE1
 70
     0
  9
$DIMSE2
 70
     0
  9
$DIMTAD
 70
     1
  9
$DIMZIN
 70
     0
  9
$DIMBLK
  1

  9
$DIMASO
 70
     1
  9
$DIMSHO
 70
     1
  9
$DIMPOST
  1

  9
$DIMAPOST
  1

  9
$DIMALT
 70
     0
  9
$DIMALTD
 70
     3
  9
$DIMALTF
 40
0.0393700787
  9
$DIMLFAC
 40
1.0
  9
$DIMTOFL
 70
     1
  9
$DIMTVP
 40
0.0
  9
$DIMTIX
 70
     0
  9
$DIMSOXD
 70
     0
  9
$DIMSAH
 70
     0
  9
$DIMBLK1
  1

  9
$DIMBLK2
  1

  9
$DIMSTYLE
  2
ISO-25
  9
$DIMCLRD
 70
     0
  9
$DIMCLRE
 70
     0
  9
$DIMCLRT
 70
     0
  9
$DIMTFAC
 40
1.0
  9
$DIMGAP
 40
3.0
  9
$DIMJUST
 70
     0
  9
$DIMSD1
 70
     0
  9
$DIMSD2
 70
     0
  9
$DIMTOLJ
 70
     0
  9
$DIMTZIN
 70
     0
  9
$DIMALTZ
 70
     0
  9
$DIMALTTZ
 70
     0
  9
$DIMUPT
 70
     0
  9
$DIMDEC
 70
     1
  9
$DIMTDEC
 70
     1
  9
$DIMALTU
 70
     2
  9
$DIMALTTD
 70
     3
  9
$DIMTXSTY
  7
Standard
  9
$DIMAUNIT
 70
     0
  9
$DIMADEC
 70
     2
  9
$DIMALTRND
 40
0.0
  9
$DIMAZIN
 70
     0
  9
$DIMDSEP
 70
    44
  9
$DIMATFIT
 70
     3
  9
$DIMFRAC
 70
     0
  9
$DIMLDRBLK
  1

  9
$DIMLUNIT
 70
     2
  9
$DIMLWD
 70
    -2
  9
$DIMLWE
 70
    -2
  9
$DIMTMOVE
 70
     0
  9
$LUNITS
 70
     2
  9
$LUPREC
 70
     2
  9
$SKETCHINC
 40
1.0
  9
$FILLETRAD
 40
0.0
  9
$AUNITS
 70
     0
  9
$AUPREC
 70
     2
  9
$MENU
  1
.
  9
$ELEVATION
 40
0.0
  9
$PELEVATION
 40
0.0
  9
$THICKNESS
 40
0.0
  9
$LIMCHECK
 70
     0
  9
$CHAMFERA
 40
0.0
  9
$CHAMFERB
 40
0.0
  9
$CHAMFERC
 40
0.0
  9
$CHAMFERD
 40
0.0
  9
$SKPOLY
 70
     0
  9
$TDCREATE
 40
2460116.369158171
  9
$TDUCREATE
 40
2460115.994158171
  9
$TDUPDATE
 40
2460116.36915875
  9
$TDUUPDATE
 40
2460115.99415875
  9
$TDINDWG
 40
0.0000000116
  9
$TDUSRTIMER
 40
0.0000000116
  9
$USRTIMER
 70
     1
  9
$ANGBASE
 50
0.0
  9
$ANGDIR
 70
     0
  9
$PDMODE
 70
     0
  9
$PDSIZE
 40
-1.0
  9
$PLINEWID
 40
0.0
  9
$SPLFRAME
 70
     0
  9
$SPLINETYPE
 70
     6
  9
$SPLINESEGS
 70
     8
  9
$HANDSEED
  5
14C
  9
$SURFTAB1
 70
     6
  9
$SURFTAB2
 70
     6
  9
$SURFTYPE
 70
     6
  9
$SURFU
 70
     6
  9
$SURFV
 70
     6
  9
$UCSBASE
  2

  9
$UCSNAME
  2

  9
$UCSORG
 10
0.0
 20
0.0
 30
0.0
  9
$UCSXDIR
 10
1.0
 20
0.0
 30
0.0
  9
$UCSYDIR
 10
0.0
 20
1.0
 30
0.0
  9
$UCSORTHOREF
  2

  9
$UCSORTHOVIEW
 70
     0
  9
$UCSORGTOP
 10
0.0
 20
0.0
 30
0.0
  9
$UCSORGBOTTOM
 10
0.0
 20
0.0
 30
0.0
  9
$UCSORGLEFT
 10
0.0
 20
0.0
 30
0.0
  9
$UCSORGRIGHT
 10
0.0
 20
0.0
 30
0.0
  9
$UCSORGFRONT
 10
0.0
 20
0.0
 30
0.0
  9
$UCSORGBACK
 10
0.0
 20
0.0
 30
0.0
  9
$PUCSBASE
  2

  9
$PUCSNAME
  2

  9
$PUCSORG
 10
0.0
 20
0.0
 30
0.0
  9
$PUCSXDIR
 10
1.0
 20
0.0
 30
0.0
  9
$PUCSYDIR
 10
0.0
 20
1.0
 30
0.0
  9
$PUCSORTHOREF
  2

  9
$PUCSORTHOVIEW
 70
     0
  9
$PUCSORGTOP
 10
0.0
 20
0.0
 30
0.0
  9
$PUCSORGBOTTOM
 10
0.0
 20
0.0
 30
0.0
  9
$PUCSORGLEFT
 10
0.0
 20
0.0
 30
0.0
  9
$PUCSORGRIGHT
 10
0.0
 20
0.0
 30
0.0
  9
$PUCSORGFRONT
 10
0.0
 20
0.0
 30
0.0
  9
$PUCSORGBACK
 10
0.0
 20
0.0
 30
0.0
  9
$USERI1
 70
     0
  9
$USERI2
 70
     0
  9
$USERI3
 70
     0
  9
$USERI4
 70
     0
  9
$USERI5
 70
     0
  9
$USERR1
 40
0.0
  9
$USERR2
 40
0.0
  9
$USERR3
 40
0.0
  9
$USERR4
 40
0.0
  9
$USERR5
 40
0.0
  9
$WORLDVIEW
 70
     1
  9
$SHADEDGE
 70
     3
  9
$SHADEDIF
 70
    70
  9
$TILEMODE
 70
     1
  9
$MAXACTVP
 70
    64
  9
$PINSBASE
 10
0.0
 20
0.0
 30
0.0
  9
$PLIMCHECK
 70
     0
  9
$PEXTMIN
 10
1.0000000000E+20
 20
1.0000000000E+20
 30
1.0000000000E+20
  9
$PEXTMAX
 10
-1.0000000000E+20
 20
-1.0000000000E+20
 30
-1.0000000000E+20
  9
$PLIMMIN
 10
0.0
 20
0.0
  9
$PLIMMAX
 10
420.0
 20
297.0
  9
$UNITMODE
 70
     0
  9
$VISRETAIN
 70
     1
  9
$PLINEGEN
 70
     0
  9
$PSLTSCALE
 70
     1
  9
$TREEDEPTH
 70
  3020
  9
$CMLSTYLE
  2
Standard
  9
$CMLJUST
 70
     0
  9
$CMLSCALE
 40
20.0
  9
$PROXYGRAPHICS
 70
     1
  9
$MEASUREMENT
 70
     1
  9
$CELWEIGHT
370
    -1
  9
$ENDCAPS
280
     0
  9
$JOINSTYLE
280
     0
  9
$LWDISPLAY
290
     1
  9
$INSUNITS
 70
     4
  9
$HYPERLINKBASE
  1

  9
$STYLESHEET
  1

  9
$XEDIT
290
     1
  9
$CEPSNTYPE
380
     0
  9
$PSTYLEMODE
290
     1
  9
$FINGERPRINTGUID
  2
{43c18e56-4800-4311-b68a-f99216f0ea2c}
  9
$VERSIONGUID
  2
{FAEB1C32-E019-11D5-929B-00C0DF256EC4}
  9
$EXTNAMES
290
     1
  9
$PSVPSCALE
 40
0.0
  9
$OLESTARTUP
290
     0
  0
ENDSEC
  0
SECTION
  2
CLASSES
  0
CLASS
  1
ACDBDICTIONARYWDFLT
  2
AcDbDictionaryWithDefault
  3
ObjectDBX Classes
 90
        0
280
     0
281
     0
  0
CLASS
  1
VISUALSTYLE
  2
AcDbVisualStyle
  3
ObjectDBX Classes
 90
     4095
280
     0
281
     0
  0
CLASS
  1
MATERIAL
  2
AcDbMaterial
  3
ObjectDBX Classes
 90
     1153
280
     0
281
     0
  0
CLASS
  1
SCALE
  2
AcDbScale
  3
ObjectDBX Classes
 90
     1153
280
     0
281
     0
  0
CLASS
  1
TABLESTYLE
  2
AcDbTableStyle
  3
ObjectDBX Classes
 90
     4095
280
     0
281
     0
  0
CLASS
  1
MLEADERSTYLE
  2
AcDbMLeaderStyle
  3
ACDB_MLEADERSTYLE_CLASS
 90
     4095
280
     0
281
     0
  0
CLASS
  1
SUN
  2
AcDbSun
  3
SCENEOE
 90
     1153
280
     0
281
     0
  0
CLASS
  1
ACDBPLACEHOLDER
  2
AcDbPlaceHolder
  3
ObjectDBX Classes
 90
        0
280
     0
281
     0
  0
CLASS
  1
LAYOUT
  2
AcDbLayout
  3
ObjectDBX Classes
 90
        0
280
     0
281
     0
  0
ENDSEC
  0
SECTION
  2
TABLES
  0
TABLE
  2
VPORT
  5
8
330
0
100
AcDbSymbolTable
 70
     1
  0
VPORT
  5
29
330
8
100
AcDbSymbolTableRecord
100
AcDbViewportTableRecord
  2
*Active
 70
     0
 10
0.0
 20
0.0
 11
1.0
 21
1.0
 12
210.0
 22
297.0
 13
0.0
 23
0.0
 14
10.0
 24
10.0
 15
10.0
 25
10.0
 16
0.0
 26
0.0
 36
1.0
 17
0.0
 27
0.0
 37
0.0
 40
594.0
 41
0.7070707071
 42
50.0
 43
0.0
 44
0.0
 50
0.0
 51
0.0
 71
     0
 72
  2000
 73
     1
 74
     3
 75
     0
 76
     0
 77
     0
 78
     0
281
     0
 65
     1
110
0.0
120
0.0
130
0.0
111
1.0
121
0.0
131
0.0
112
0.0
122
1.0
132
0.0
 79
     0
146
0.0
  0
ENDTAB
  0
TABLE
  2
LTYPE
  5
5
330
0
100
AcDbSymbolTable
 70
     6
  0
LTYPE
  5
14
330
5
100
AcDbSymbolTableRecord
100
AcDbLinetypeTableRecord
  2
ByBlock
 70
     0
  3

 72
    65
 73
     0
 40
0.0
  0
LTYPE
  5
15
330
5
100
AcDbSymbolTableRecord
100
AcDbLinetypeTableRecord
  2
ByLayer
 70
     0
  3

 72
    65
 73
     0
 40
0.0
  0
LTYPE
  5
16
330
5
100
AcDbSymbolTableRecord
100
AcDbLinetypeTableRecord
  2
Continuous
 70
     0
  3
Solid line
 72
    65
 73
     0
 40
0.0
  0
LTYPE
  5
5E
330
5
100
AcDbSymbolTableRecord
100
AcDbLinetypeTableRecord
  2
HIDDEN
 70
     0
  3
Hidden __ __ __ __ __ __ __ __ __ __ __ __ __ __
 72
    65
 73
     2
 40
1.905
 49
1.27
 74
     0
 49
-0.635
 74
     0
  0
LTYPE
  5
5F
330
5
100
AcDbSymbolTableRecord
100
AcDbLinetypeTableRecord
  2
PHANTOM
 70
     0
  3
Phantom ______  __  __  ______  __  __  ______
 72
    65
 73
     6
 40
12.7
 49
6.35
 74
     0
 49
-1.27
 74
     0
 49
1.27
 74
     0
 49
-1.27
 74
     0
 49
1.27
 74
     0
 49
-1.27
 74
     0
  0
LTYPE
  5
60
330
5
100
AcDbSymbolTableRecord
100
AcDbLinetypeTableRecord
  2
CENTER
 70
     0
  3
Center ____ _ ____ _ ____ _ ____ _ ____ _ ____
 72
    65
 73
     4
 40
10.16
 49
6.35
 74
     0
 49
-1.27
 74
     0
 49
1.27
 74
     0
 49
-1.27
 74
     0
  0
LTYPE
  5
61
330
5
100
AcDbSymbolTableRecord
100
AcDbLinetypeTableRecord
  2
CENTERX2
 70
     0
  3
Center (2x) ________  __  ________  __  _____
 72
    65
 73
     4
 40
20.32
 49
12.7
 74
     0
 49
-2.54
 74
     0
 49
2.54
 74
     0
 49
-2.54
 74
     0
  0
LTYPE
  5
62
330
5
100
AcDbSymbolTableRecord
100
AcDbLinetypeTableRecord
  2
DOT2
 70
     0
  3
Dot (.5x) ........................................
 72
    65
 73
     2
 40
0.635
 49
0.0
 74
     0
 49
-0.635
 74
     0
  0
ENDTAB
  0
TABLE
  2
LAYER
  5
2
330
0
100
AcDbSymbolTable
 70
     2
  0
LAYER
  5
10
330
2
100
AcDbSymbolTableRecord
100
AcDbLayerTableRecord
  2
0
 70
     0
 62
     7
  6
Continuous
370
    -3
390
F
  0
LAYER
  5
63
330
2
100
AcDbSymbolTableRecord
100
AcDbLayerTableRecord
  2
FORMAT
 70
     0
 62
     7
  6
Continuous
370
    -3
390
F
  0
ENDTAB
  0
TABLE
  2
STYLE
  5
3
330
0
100
AcDbSymbolTable
 70
     2
  0
STYLE
  5
11
330
3
100
AcDbSymbolTableRecord
100
AcDbTextStyleTableRecord
  2
Standard
 70
     0
 40
0.0
 41
1.0
 50
0.0
 71
     0
 42
7.0
  3
txt
  4
bigfont
  0
STYLE
  5
64
330
3
100
AcDbSymbolTableRecord
100
AcDbTextStyleTableRecord
  2
SLDTEXTSTYLE0
 70
     0
 40
0.0
 41
0.7
 50
0.0
 71
     0
 42
7.0
  3
TXT
  4
bigfont
  0
ENDTAB
  0
TABLE
  2
VIEW
  5
6
330
0
100
AcDbSymbolTable
 70
     0
  0
ENDTAB
  0
TABLE
  2
UCS
  5
7
330
0
100
AcDbSymbolTable
 70
     0
  0
ENDTAB
  0
TABLE
  2
APPID
  5
9
330
0
100
AcDbSymbolTable
 70
     1
  0
APPID
  5
12
330
9
100
AcDbSymbolTableRecord
100
AcDbRegAppTableRecord
  2
ACAD
 70
     0
  0
ENDTAB
  0
TABLE
  2
DIMSTYLE
  5
A
330
0
100
AcDbSymbolTable
 70
     1
100
AcDbDimStyleTable
  0
DIMSTYLE
105
27
330
A
100
AcDbSymbolTableRecord
100
AcDbDimStyleTableRecord
  2
ISO-25
 70
     0
 41
2.5
 42
0.625
 43
3.75
 44
1.25
 73
     0
 74
     0
 77
     1
 78
     8
140
2.5
141
2.5
143
0.0393700787
147
0.625
171
     3
172
     1
178
     0
271
     2
272
     2
274
     3
278
    44
283
     0
284
     8
340
11
  0
ENDTAB
  0
TABLE
  2
BLOCK_RECORD
  5
1
330
0
100
AcDbSymbolTable
 70
     1
  0
BLOCK_RECORD
  5
1F
330
1
100
AcDbSymbolTableRecord
100
AcDbBlockTableRecord
  2
*Model_Space
340
22
  0
BLOCK_RECORD
  5
1B
330
1
100
AcDbSymbolTableRecord
100
AcDbBlockTableRecord
  2
*Paper_Space
340
1E
  0
BLOCK_RECORD
  5
23
330
1
100
AcDbSymbolTableRecord
100
AcDbBlockTableRecord
  2
*Paper_Space0
340
26
  0
ENDTAB
  0
ENDSEC
  0
SECTION
  2
BLOCKS
  0
BLOCK
  5
20
330
1F
100
AcDbEntity
  8
0
100
AcDbBlockBegin
  2
*Model_Space
 70
     0
 10
0.0
 20
0.0
 30
0.0
  3
*Model_Space
  1

  0
ENDBLK
  5
21
330
1F
100
AcDbEntity
  8
0
100
AcDbBlockEnd
  0
BLOCK
  5
1C
330
1B
100
AcDbEntity
 67
     1
  8
0
100
AcDbBlockBegin
  2
*Paper_Space
 70
     0
 10
0.0
 20
0.0
 30
0.0
  3
*Paper_Space
  1

  0
ENDBLK
  5
1D
330
1B
100
AcDbEntity
 67
     1
  8
0
100
AcDbBlockEnd
  0
BLOCK
  5
24
330
23
100
AcDbEntity
  8
0
100
AcDbBlockBegin
  2
*Paper_Space0
 70
     0
 10
0.0
 20
0.0
 30
0.0
  3
*Paper_Space0
  1

  0
ENDBLK
  5
25
330
23
100
AcDbEntity
  8
0
100
AcDbBlockEnd
  0
ENDSEC
  0
SECTION
  2
ENTITIES
  0
MTEXT
  5
65
330
1F
100
AcDbEntity
  8
0
  6
Continuous
 62
     7
370
     0
100
AcDbMText
 10
290.7049349428
 20
215.1761638181
 30
0.0
 40
6.35
 41
0.0
 71
     2
 72
     1
  1
HBB-D96K
  7
SLDTEXTSTYLE0
 73
     1
 44
1.0
  0
MTEXT
  5
66
330
1F
100
AcDbEntity
  8
0
  6
Continuous
 62
     7
370
     0
100
AcDbMText
 10
290.7049349428
 20
206.7094972538
 30
0.0
 40
6.35
 41
0.0
 71
     2
 72
     1
  1
HBB-D99K
  7
SLDTEXTSTYLE0
 73
     1
 44
1.0
  0
MTEXT
  5
67
330
1F
100
AcDbEntity
  8
0
  6
Continuous
 62
     7
370
     0
100
AcDbMText
 10
290.7159599394
 20
190.0928906617
 30
0.0
 40
6.35
 41
0.0
 71
     2
 72
     1
  1
HBB-D97K
  7
SLDTEXTSTYLE0
 73
     1
 44
1.0
  0
MTEXT
  5
68
330
1F
100
AcDbEntity
  8
0
  6
Continuous
 62
     7
370
     0
100
AcDbMText
 10
290.4881228507
 20
181.6262240974
 30
0.0
 40
6.35
 41
0.0
 71
     2
 72
     1
  1
HBB-D100K
  7
SLDTEXTSTYLE0
 73
     1
 44
1.0
  0
MTEXT
  5
69
330
1F
100
AcDbEntity
  8
0
  6
Continuous
 62
     7
370
     0
100
AcDbMText
 10
347.4020111499
 20
215.1761628868
 30
0.0
 40
6.35
 41
0.0
 71
     2
 72
     1
  1
HFE-D96K
  7
SLDTEXTSTYLE0
 73
     1
 44
1.0
  0
MTEXT
  5
6A
330
1F
100
AcDbEntity
  8
0
  6
Continuous
 62
     7
370
     0
100
AcDbMText
 10
347.4020111499
 20
206.7094963225
 30
0.0
 40
6.35
 41
0.0
 71
     2
 72
     1
  1
HFE-D99K
  7
SLDTEXTSTYLE0
 73
     1
 44
1.0
  0
MTEXT
  5
6B
330
1F
100
AcDbEntity
  8
0
  6
Continuous
 62
     7
370
     0
100
AcDbMText
 10
347.4130361466
 20
190.0928897304
 30
0.0
 40
6.35
 41
0.0
 71
     2
 72
     1
  1
HFE-D97K
  7
SLDTEXTSTYLE0
 73
     1
 44
1.0
  0
MTEXT
  5
6C
330
1F
100
AcDbEntity
  8
0
  6
Continuous
 62
     7
370
     0
100
AcDbMText
 10
347.1852009205
 20
181.626223166
 30
0.0
 40
6.35
 41
0.0
 71
     2
 72
     1
  1
HFE-D100K
  7
SLDTEXTSTYLE0
 73
     1
 44
1.0
  0
SPLINE
  5
6D
330
1F
100
AcDbEntity
  8
0
  6
Continuous
 62
     7
370
    25
100
AcDbSpline
210
0.0
220
0.0
230
1.0
 70
     8
 71
     3
 72
    22
 73
    18
 74
     0
 42
0.00000001
 43
0.00000001
 40
0.0
 40
0.0
 40
0.0
 40
0.0
 40
0.0856921687940683
 40
0.1205558385066679
 40
0.1782433870391481
 40
0.2379090881870314
 40
0.3016664507492948
 40
0.367926129455196
 40
0.4360809928016557
 40
0.5056773246826163
 40
0.5764342353708948
 40
0.6482023929910197
 40
0.7209399424460837
 40
0.7947098758682085
 40
0.8696932557426211
 40
0.9462143602269306
 40
1.0
 40
1.0
 40
1.0
 40
1.0
 10
245.5671877700992
 20
370.4392880383746
 30
0.0
 10
245.7291790346351
 20
371.08848086745
 30
0.0
 10
245.9570760875595
 20
372.0017963659732
 30
0.0
 10
246.1699521926847
 20
373.3686638925235
 30
0.0
 10
246.2955114141776
 20
374.5369338379417
 30
0.0
 10
246.3503452134202
 20
375.9193964504883
 30
0.0
 10
246.3053793565486
 20
377.346963901963
 30
0.0
 10
246.1450684577106
 20
378.8026015024107
 30
0.0
 10
245.8606794948281
 20
380.2484626267469
 30
0.0
 10
245.4471570924651
 20
381.6559713290608
 30
0.0
 10
244.9025247560089
 20
382.9997544429033
 30
0.0
 10
244.2268606619247
 20
384.257529584364
 30
0.0
 10
243.4212522245207
 20
385.4081549113469
 30
0.0
 10
242.4886603169367
 20
386.4347376224139
 30
0.0
 10
241.4283268671644
 20
387.3085204633147
 30
0.0
 10
240.3819982244651
 20
387.9667455312144
 30
0.0
 10
239.659399177101
 20
388.2360382352468
 30
0.0
 10
239.3611379298924
 20
388.347191962977
 30
0.0
  0
SPLINE
  5
6E
330
1F
100
AcDbEntity
  8
0
  6
Continuous
 62
     7
370
    25
100
AcDbSpline
210
0.0
220
0.0
230
1.0
 70
     8
 71
     3
 72
    22
 73
    18
 74
     0
 42
0.00000001
 43
0.00000001
 40
0.0
 40
0.0
 40
0.0
 40
0.0
 40
0.0524616776018137
 40
0.1346848096394305
 40
0.2101457416629597
 40
0.2857733432860694
 40
0.3614529715107316
 40
0.437017285996072
 40
0.512264894633576
 40
0.5869398962504374
 40
0.6606289065824846
 40
0.7324522779630616
 40
0.799998073824212
 40
0.8580508938718783
 40
0.9043000552233847
 40
0.9583274815082352
 40
1.0
 40
1.0
 40
1.0
 40
1.0
 10
230.5256209877535
 20
358.3846795303934
 30
0.0
 10
230.8351646954385
 20
358.306462412677
 30
0.0
 10
231.629855930078
 20
358.1056556887647
 30
0.0
 10
232.9275859128564
 20
358.069723462454
 30
0.0
 10
234.3757854206837
 20
358.2303369050761
 30
0.0
 10
235.7796506311767
 20
358.6089599045421
 30
0.0
 10
237.1580102389283
 20
359.1915662913369
 30
0.0
 10
238.4909660019671
 20
359.9691255212655
 30
0.0
 10
239.7586895022241
 20
360.9248575527166
 30
0.0
 10
240.9423645556332
 20
362.0383428987904
 30
0.0
 10
242.0224709732628
 20
363.2814553522326
 30
0.0
 10
242.9744405087686
 20
364.608194303747
 30
0.0
 10
243.7639814052144
 20
365.9330061783153
 30
0.0
 10
244.3725758861943
 20
367.1493687431898
 30
0.0
 10
244.8678160457429
 20
368.3106325683352
 30
0.0
 10
245.2583602258507
 20
369.3800909945521
 30
0.0
 10
245.4735036266962
 20
370.1179761295324
 30
0.0
 10
245.5671877700992
 20
370.4392880383746
 30
0.0
  0
LINE
  5
6F
330
1F
100
AcDbEntity
  8
0
  6
Continuous
 62
     7
370
    25
100
AcDbLine
 10
228.4984804525
 20
358.8359660091
 30
0.0
 11
230.6356683634
 21
358.3298208376
 31
0.0
  0
LINE
  5
70
330
1F
100
AcDbEntity
  8
0
  6
Continuous
 62
     7
370
    25
100
AcDbLine
 10
238.9856544264
 20
388.5023134363
 30
0.0
 11
233.6216822561
 21
390.2053311866
 31
0.0
  0
LINE
  5
71
330
1F
100
AcDbEntity
  8
0
  6
Continuous
 62
     7
370
    25
100
AcDbLine
 10
235.7573294802
 20
344.417483173
 30
0.0
 11
236.2104007279
 21
358.826864664
 31
0.0
  0
LINE
  5
72
330
1F
100
AcDbEntity
  8
0
  6
Continuous
 62
     7
370
    25
100
AcDbLine
 10
214.3032805417
 20
362.1265797982
 30
0.0
 11
213.7681965669
 21
345.1088830011
 31
0.0
  0
LINE
  5
73
330
1F
100
AcDbEntity
  8
0
  6
Continuous
 62
     7
370
    25
100
AcDbLine
 10
238.3691188458
 20
344.0898483146
 30
0.0
 11
237.425668938
 21
345.042209602
 31
0.0
  0
LINE
  5
74
330
1F
100
AcDbEntity
  8
0
  6
Continuous
 62
     7
370
    25
100
AcDbLine
 10
212.1424001465
 20
345.8371862737
 30
0.0
 11
211.1409832261
 21
344.9459770379
 31
0.0
  0
LINE
  5
75
330
1F
100
AcDbEntity
  8
0
  6
Continuous
 62
     7
370
    25
100
AcDbLine
 10
238.663988274
 20
341.4017267847
 30
0.0
 11
238.7252278278
 21
343.3493765137
 31
0.0
  0
LINE
  5
76
330
1F
100
AcDbEntity
  8
0
  6
Continuous
 62
     7
370
    25
100
AcDbLine
 10
210.7390586655
 20
344.2293399313
 30
0.0
 11
210.6778191117
 21
342.2816902023
 31
0.0
  0
LINE
  5
77
330
1F
100
AcDbEntity
  8
0
  6
Continuous
 62
     7
370
    25
100
AcDbLine
 10
238.6333684971
 20
340.4279019202
 30
0.0
 11
238.663988274
 21
341.4017267847
 31
0.0
  0
LINE
  5
78
330
1F
100
AcDbEntity
  8
0
  6
Continuous
 62
     7
370
    25
100
AcDbLine
 10
210.6778191117
 20
342.2816902023
 30
0.0
 11
210.6471993348
 21
341.3078653377
 31
0.0
  0
LINE
  5
79
330
1F
100
AcDbEntity
  8
0
  6
Continuous
 62
     7
370
    25
100
AcDbLine
 10
269.6479760057
 20
299.8997311527
 30
0.0
 11
250.1844091199
 21
336.9955750576
 31
0.0
  0
LINE
  5
7A
330
1F
100
AcDbEntity
  8
0
  6
Continuous
 62
     7
370
    25
100
AcDbLine
 10
291.7393548619
 20
297.4509876897
 30
0.0
 11
291.7852845272
 21
298.9117249865
 31
0.0
  0
LINE
  5
7B
330
1F
100
AcDbEntity
  8
0
  6
Continuous
 62
     7
370
    25
100
AcDbLine
 10
250.1845250308
 20
336.9953541071
 30
0.0
 11
249.1917233194
 21
338.8881379788
 31
0.0
  0
LINE
  5
7C
330
1F
100
AcDbEntity
  8
0
  6
Continuous
 62
     7
370
    25
100
AcDbLine
 10
200.0129675834
 20
340.4344555801
 30
0.0
 11
198.9032157247
 21
338.6077818721
 31
0.0
  0
LINE
  5
7D
330
1F
100
AcDbEntity
  8
0
  6
Continuous
 62
     7
370
    25
100
AcDbLine
 10
158.147507242
 20
299.7901329947
 30
0.0
 11
158.1015775766
 21
298.3293956979
 31
0.0
  0
LINE
  5
7E
330
1F
100
AcDbEntity
  8
0
  6
Continuous
 62
     7
370
    25
100
AcDbLine
 10
249.1913014843
 20
338.8883507265
 30
0.0
 11
248.8234787013
 21
339.5893885487
 31
0.0
  0
SPLINE
  5
7F
330
1F
100
AcDbEntity
  8
0
  6
Continuous
 62
     7
370
    25
100
AcDbSpline
210
0.0
220
0.0
230
1.0
 70
     8
 71
     3
 72
    14
 73
    10
 74
     0
 42
0.00000001
 43
0.00000001
 40
0.0
 40
0.0
 40
0.0
 40
0.0
 40
0.0984308808801136
 40
0.2355764155783676
 40
0.3958306606779968
 40
0.5731444416068775
 40
0.749776382106642
 40
0.9220216714833869
 40
1.0
 40
1.0
 40
1.0
 40
1.0
 10
248.7942893122883
 20
339.6141065949747
 30
0.0
 10
248.6866998068827
 20
339.7992824594619
 30
0.0
 10
248.4292038888265
 20
340.2424672203566
 30
0.0
 10
247.8136709104043
 20
340.8366315117249
 30
0.0
 10
246.9431941170753
 20
341.4689521069641
 30
0.0
 10
245.798442906717
 20
342.0794321101229
 30
0.0
 10
244.4107546565802
 20
342.6552046746163
 30
0.0
 10
243.1203826281322
 20
343.0893505280551
 30
0.0
 10
242.2844628075792
 20
343.3269592497347
 30
0.0
 10
242.0239612972524
 20
343.401006340547
 30
0.0
  0
LINE
  5
80
330
1F
100
AcDbEntity
  8
0
  6
Continuous
 62
     7
370
    25
100
AcDbLine
 10
198.9033452876
 20
338.6079951043
 30
0.0
 11
177.147735587
 21
302.8081973745
 31
0.0
  0
LINE
  5
81
330
1F
100
AcDbEntity
  8
0
  6
Continuous
 62
     7
370
    25
100
AcDbLine
 10
200.4245397937
 20
341.1111865283
 30
0.0
 11
200.0134019508
 21
340.4346414065
 31
0.0
  0
SPLINE
  5
82
330
1F
100
AcDbEntity
  8
0
  6
Continuous
 62
     7
370
    25
100
AcDbSpline
210
0.0
220
0.0
230
1.0
 70
     8
 71
     3
 72
    16
 73
    12
 74
     0
 42
0.00000001
 43
0.00000001
 40
0.0
 40
0.0
 40
0.0
 40
0.0
 40
0.0887918940388959
 40
0.2125732343802119
 40
0.3371137102779591
 40
0.4628024843406612
 40
0.5902784441289185
 40
0.7205764192462761
 40
0.8549625465695753
 40
0.9604209622691627
 40
1.0
 40
1.0
 40
1.0
 40
1.0
 10
211.3326845862262
 20
345.1165813278154
 30
0.0
 10
210.8471780108038
 20
345.0551299181109
 30
0.0
 10
209.6848455235029
 20
344.9080114783083
 30
0.0
 10
208.0133038440107
 20
344.6140667563231
 30
0.0
 10
206.3101399056331
 20
344.244492684538
 30
0.0
 10
204.7803254610579
 20
343.819295731299
 30
0.0
 10
203.4249319514092
 20
343.3341678177619
 30
0.0
 10
202.2417271069809
 20
342.777298903764
 30
0.0
 10
201.3305840173396
 20
342.1540541825556
 30
0.0
 10
200.7342342223067
 20
341.6083996794609
 30
0.0
 10
200.5248210479529
 20
341.2361774291583
 30
0.0
 10
200.4676746231293
 20
341.1346022970766
 30
0.0
  0
SPLINE
  5
83
330
1F
100
AcDbEntity
  8
0
  6
Continuous
 62
     7
370
    25
100
AcDbSpline
210
0.0
220
0.0
230
1.0
 70
     8
 71
     3
 72
    10
 73
     6
 74
     0
 42
0.00000001
 43
0.00000001
 40
0.0
 40
0.0
 40
0.0
 40
0.0
 40
0.2544369480917471
 40
0.7448521208599066
 40
1.0
 40
1.0
 40
1.0
 40
1.0
 10
242.0239612972524
 20
343.401006340547
 30
0.0
 10
241.7246566864543
 20
343.4811504762057
 30
0.0
 10
240.8484566069918
 20
343.7157686394385
 30
0.0
 10
239.5833653611386
 20
344.0117014678559
 30
0.0
 10
238.545780809887
 20
344.2041094348728
 30
0.0
 10
238.1906968273816
 20
344.2699556226477
 30
0.0
  0
LINE
  5
84
330
1F
100
AcDbEntity
  8
0
  6
Continuous
 62
     7
370
    25
100
AcDbLine
 10
241.1036036216
 20
393.1768276842
 30
0.0
 11
243.9093658096
 21
393.670645461
 31
0.0
  0
LINE
  5
85
330
1F
100
AcDbEntity
  8
0
  6
Continuous
 62
     7
370
    25
100
AcDbLine
 10
220.658587192
 20
389.5784783287
 30
0.0
 11
225.0873069287
 21
390.3579387348
 31
0.0
  0
LINE
  5
86
330
1F
100
AcDbEntity
  8
0
  6
Continuous
 62
     7
370
    25
100
AcDbLine
 10
233.3358036411
 20
453.7472614032
 30
0.0
 11
210.0850250234
 21
449.6550942709
 31
0.0
  0
SPLINE
  5
87
330
1F
100
AcDbEntity
  8
0
  6
Continuous
 62
     7
370
    25
100
AcDbSpline
210
0.0
220
0.0
230
1.0
 70
     8
 71
     3
 72
    30
 73
    26
 74
     0
 42
0.00000001
 43
0.00000001
 40
0.0
 40
0.0
 40
0.0
 40
0.0
 40
0.0130639613611919
 40
0.0597402409169204
 40
0.1064543682269434
 40
0.1531895312975872
 40
0.1999335400946885
 40
0.2466768021115358
 40
0.2934156692189835
 40
0.3401488490684748
 40
0.3868765547217961
 40
0.433599978521216
 40
0.4803209249197933
 40
0.5270415589554307
 40
0.5737640781575668
 40
0.6204902368724726
 40
0.6672223812520395
 40
0.7139626502589754
 40
0.7607127618154517
 40
0.807473701135665
 40
0.8542452629457249
 40
0.9010254001505689
 40
0.9478082055039018
 40
0.994582613969207
 40
0.9999999999999999
 40
0.9999999999999999
 40
0.9999999999999999
 40
0.9999999999999999
 10
254.5231668582281
 20
401.2500842344322
 30
0.0
 10
254.6390625912926
 20
401.4150546011495
 30
0.0
 10
255.1690426504103
 20
402.1694482478671
 30
0.0
 10
255.9809545573397
 20
403.6946316192279
 30
0.0
 10
256.9444670869231
 20
405.8113828694933
 30
0.0
 10
257.74884053206
 20
408.0875353377272
 30
0.0
 10
258.4002187922413
 20
410.486569134043
 30
0.0
 10
258.8901074837376
 20
412.9935400938993
 30
0.0
 10
259.2156482969789
 20
415.5867156555616
 30
0.0
 10
259.3741681360277
 20
418.2454128314496
 30
0.0
 10
259.3646205479802
 20
420.9480495664164
 30
0.0
 10
259.1871917556586
 20
423.6728457847396
 30
0.0
 10
258.8433975144661
 20
426.3978359906958
 30
0.0
 10
258.3360407071198
 20
429.1010705282056
 30
0.0
 10
257.6691978177349
 20
431.7607616284991
 30
0.0
 10
256.8481841187319
 20
434.3554718399249
 30
0.0
 10
255.8795041976463
 20
436.8642647994034
 30
0.0
 10
254.7708085615351
 20
439.2669347714134
 30
0.0
 10
253.5307776442273
 20
441.5439087976139
 30
0.0
 10
252.1692770454047
 20
443.6772617404275
 30
0.0
 10
250.6964722549399
 20
445.6475713880305
 30
0.0
 10
249.1258449820674
 20
447.4462338229729
 30
0.0
 10
247.4627317088722
 20
449.0299728696075
 30
0.0
 10
246.2524086229574
 20
450.0606800421492
 30
0.0
 10
245.5854135992517
 20
450.4944526908877
 30
0.0
 10
245.5161810779537
 20
450.5394772758921
 30
0.0
  0
LINE
  5
88
330
1F
100
AcDbEntity
  8
0
  6
Continuous
 62
     7
370
    25
100
AcDbLine
 10
210.0175655833
 20
363.6759643306
 30
0.0
 11
214.5151343388
 21
362.4312996313
 31
0.0
  0
SPLINE
  5
89
330
1F
100
AcDbEntity
  8
0
  6
Continuous
 62
     7
370
    25
100
AcDbSpline
210
0.0
220
0.0
230
1.0
 70
     8
 71
     3
 72
    23
 73
    19
 74
     0
 42
0.00000001
 43
0.00000001
 40
0.0
 40
0.0
 40
0.0
 40
0.0
 40
0.08145447347115
 40
0.1145870413729849
 40
0.169414660650306
 40
0.2261264828475894
 40
0.2867314398756045
 40
0.3497189817528659
 40
0.4145104668215652
 40
0.4806727473902511
 40
0.5479352277285802
 40
0.6161511548092805
 40
0.6852737741504277
 40
0.7553524079246762
 40
0.8265428449636983
 40
0.8991290218192879
 40
0.9735453000742974
 40
1.0
 40
1.0
 40
1.0
 40
1.0
 10
202.9873480830505
 20
382.2229040849274
 30
0.0
 10
202.8233789265511
 20
381.5665582041972
 30
0.0
 10
202.5927133815048
 20
380.6432358943812
 30
0.0
 10
202.375723170503
 20
379.2614374846534
 30
0.0
 10
202.2466297532991
 20
378.0803236415384
 30
0.0
 10
202.1875515260194
 20
376.6821736636622
 30
0.0
 10
202.2280658194308
 20
375.2376266358014
 30
0.0
 10
202.3837738712103
 20
373.7635615119463
 30
0.0
 10
202.6635395726057
 20
372.2979229067607
 30
0.0
 10
203.0725293866938
 20
370.8693320620321
 30
0.0
 10
203.6127858687564
 20
369.5031065136209
 30
0.0
 10
204.2843741031992
 20
368.2217743129146
 30
0.0
 10
205.0859241142965
 20
367.0454269153801
 30
0.0
 10
206.0156833447188
 20
365.9945882976114
 30
0.0
 10
207.0698054300035
 20
365.0833696044061
 30
0.0
 10
208.2504013059108
 20
364.3500241860904
 30
0.0
 10
209.2458717450217
 20
363.8804880672127
 30
0.0
 10
209.8632791117836
 20
363.7391878391201
 30
0.0
 10
210.0252020643929
 20
363.7021300530151
 30
0.0
  0
SPLINE
  5
8A
330
1F
100
AcDbEntity
  8
0
  6
Continuous
 62
     7
370
    25
100
AcDbSpline
210
0.0
220
0.0
230
1.0
 70
     8
 71
     3
 72
    31
 73
    27
 74
     0
 42
0.00000001
 43
0.00000001
 40
0.0
 40
0.0
 40
0.0
 40
0.0
 40
0.0423758226345628
 40
0.0773648067537005
 40
0.1091707730013823
 40
0.1429977657395341
 40
0.176824758477686
 40
0.2086307247253678
 40
0.2436197088445054
 40
0.2859955314790683
 40
0.3441543895184891
 40
0.3678111910539724
 40
0.406958356216344
 40
0.4474508506831689
 40
0.4907230608156908
 40
0.5356964471772048
 40
0.5819578570383632
 40
0.6291980210119406
 40
0.6772237325373087
 40
0.7259302092972268
 40
0.7752840683826773
 40
0.8253205260453327
 40
0.8761508162071525
 40
0.9279776708348939
 40
0.9811112260396679
 40
1.0
 40
1.0
 40
1.0
 40
1.0
 10
202.9873480830505
 20
382.2229040849273
 30
0.0
 10
203.1250451787234
 20
382.6903410931761
 30
0.0
 10
203.3764363856656
 20
383.5437327576766
 30
0.0
 10
203.8640899742762
 20
384.7783526906422
 30
0.0
 10
204.2270085012691
 20
385.6526902320028
 30
0.0
 10
205.163346190322
 20
387.3841509894996
 30
0.0
 10
204.2271786470111
 20
385.6525894917457
 30
0.0
 10
203.863430305097
 20
384.7787432689896
 30
0.0
 10
203.379442276532
 20
383.5419530233435
 30
0.0
 10
202.9199991400249
 20
382.05831610126
 30
0.0
 10
202.5952193998002
 20
380.6417521256757
 30
0.0
 10
202.3749833082612
 20
379.2618755438817
 30
0.0
 10
202.24687619069
 20
378.0801777303576
 30
0.0
 10
202.1874795163196
 20
376.6822162993203
 30
0.0
 10
202.2280865003719
 20
375.2376143909852
 30
0.0
 10
202.3837680644008
 20
373.7635649500546
 30
0.0
 10
202.663541183217
 20
372.2979219531465
 30
0.0
 10
203.0725289434797
 20
370.8693323244514
 30
0.0
 10
203.612785990172
 20
369.5031064417329
 30
0.0
 10
204.2843740700047
 20
368.2217743325684
 30
0.0
 10
205.0859241233732
 20
367.0454269100059
 30
0.0
 10
206.0156833422308
 20
365.9945882990845
 30
0.0
 10
207.06980543069
 20
365.0833696039996
 30
0.0
 10
208.2504013057149
 20
364.3500241862064
 30
0.0
 10
209.2458717450365
 20
363.8804880672039
 30
0.0
 10
209.8632791117867
 20
363.7391878391183
 30
0.0
 10
210.0252020643929
 20
363.7021300530151
 30
0.0
  0
LINE
  5
8B
330
1F
100
AcDbEntity
  8
0
  6
Continuous
 62
     7
370
    25
100
AcDbLine
 10
241.1036036216
 20
393.1768276842
 30
0.0
 11
243.9093658096
 21
393.670645461
 31
0.0
  0
LINE
  5
8C
330
1F
100
AcDbEntity
  8
0
  6
Continuous
 62
     7
370
    25
100
AcDbLine
 10
220.658587192
 20
389.5784783287
 30
0.0
 11
225.0873069287
 21
390.3579387348
 31
0.0
  0
LINE
  5
8D
330
1F
100
AcDbEntity
  8
0
  6
Continuous
 62
     7
370
    25
100
AcDbLine
 10
233.3358036411
 20
453.7472614032
 30
0.0
 11
210.0850250234
 21
449.6550942709
 31
0.0
  0
SPLINE
  5
8E
330
1F
100
AcDbEntity
  8
0
  6
Continuous
 62
     7
370
    25
100
AcDbSpline
210
0.0
220
0.0
230
1.0
 70
     8
 71
     3
 72
    30
 73
    26
 74
     0
 42
0.00000001
 43
0.00000001
 40
0.0
 40
0.0
 40
0.0
 40
0.0
 40
0.0130639613611919
 40
0.0597402409169204
 40
0.1064543682269434
 40
0.1531895312975872
 40
0.1999335400946885
 40
0.2466768021115358
 40
0.2934156692189835
 40
0.3401488490684748
 40
0.3868765547217961
 40
0.433599978521216
 40
0.4803209249197933
 40
0.5270415589554307
 40
0.5737640781575668
 40
0.6204902368724726
 40
0.6672223812520395
 40
0.7139626502589754
 40
0.7607127618154517
 40
0.807473701135665
 40
0.8542452629457249
 40
0.9010254001505689
 40
0.9478082055039018
 40
0.994582613969207
 40
0.9999999999999999
 40
0.9999999999999999
 40
0.9999999999999999
 40
0.9999999999999999
 10
254.5231668582281
 20
401.2500842344322
 30
0.0
 10
254.6390625912926
 20
401.4150546011495
 30
0.0
 10
255.1690426504103
 20
402.1694482478671
 30
0.0
 10
255.9809545573397
 20
403.6946316192279
 30
0.0
 10
256.9444670869231
 20
405.8113828694933
 30
0.0
 10
257.74884053206
 20
408.0875353377272
 30
0.0
 10
258.4002187922413
 20
410.486569134043
 30
0.0
 10
258.8901074837376
 20
412.9935400938993
 30
0.0
 10
259.2156482969789
 20
415.5867156555616
 30
0.0
 10
259.3741681360277
 20
418.2454128314496
 30
0.0
 10
259.3646205479802
 20
420.9480495664164
 30
0.0
 10
259.1871917556586
 20
423.6728457847396
 30
0.0
 10
258.8433975144661
 20
426.3978359906958
 30
0.0
 10
258.3360407071198
 20
429.1010705282056
 30
0.0
 10
257.6691978177349
 20
431.7607616284991
 30
0.0
 10
256.8481841187319
 20
434.3554718399249
 30
0.0
 10
255.8795041976463
 20
436.8642647994034
 30
0.0
 10
254.7708085615351
 20
439.2669347714134
 30
0.0
 10
253.5307776442273
 20
441.5439087976139
 30
0.0
 10
252.1692770454047
 20
443.6772617404275
 30
0.0
 10
250.6964722549399
 20
445.6475713880305
 30
0.0
 10
249.1258449820674
 20
447.4462338229729
 30
0.0
 10
247.4627317088722
 20
449.0299728696075
 30
0.0
 10
246.2524086229574
 20
450.0606800421492
 30
0.0
 10
245.5854135992517
 20
450.4944526908877
 30
0.0
 10
245.5161810779537
 20
450.5394772758921
 30
0.0
  0
LINE
  5
8F
330
1F
100
AcDbEntity
  8
0
  6
Continuous
 62
     7
370
    25
100
AcDbLine
 10
210.0175655833
 20
363.6759643306
 30
0.0
 11
214.5151343388
 21
362.4312996313
 31
0.0
  0
LINE
  5
90
330
1F
100
AcDbEntity
  8
0
  6
Continuous
 62
     7
370
    25
100
AcDbLine
 10
148.5094964608
 20
436.0254537448
 30
0.0
 11
145.6071458682
 21
435.5146362837
 31
0.0
  0
LINE
  5
91
330
1F
100
AcDbEntity
  8
0
  6
Continuous
 62
     7
370
    25
100
AcDbLine
 10
155.2273540707
 20
380.8547644018
 30
0.0
 11
158.1297046633
 21
381.3655818629
 31
0.0
  0
SPLINE
  5
92
330
1F
100
AcDbEntity
  8
0
  6
Continuous
 62
     7
370
    25
100
AcDbSpline
210
0.0
220
0.0
230
1.0
 70
     8
 71
     3
 72
    29
 73
    25
 74
     0
 42
0.00000001
 43
0.00000001
 40
0.0
 40
0.0
 40
0.0
 40
0.0
 40
0.0100532473562731
 40
0.0575077658640042
 40
0.1050007631659707
 40
0.152515146960202
 40
0.2000385239667008
 40
0.2475611417417939
 40
0.2950792913306587
 40
0.342591658837265
 40
0.3900984608758016
 40
0.437600909668597
 40
0.4851008397545615
 40
0.5326004522695225
 40
0.5801019813825783
 40
0.6276072106904197
 40
0.6751185254625914
 40
0.7226381003249751
 40
0.7701676818428552
 40
0.8177082716570162
 40
0.8652596610710118
 40
0.9128197688583323
 40
0.960382589280487
 40
1.0
 40
1.0
 40
1.0
 40
1.0
 10
134.8020763700147
 20
430.5870417314613
 30
0.0
 10
134.7145277420933
 20
430.4619331074067
 30
0.0
 10
134.2137218017047
 20
429.7462720672742
 30
0.0
 10
133.4287083867682
 20
428.2629282553842
 30
0.0
 10
132.4642215558293
 20
426.1475072357557
 30
0.0
 10
131.660109368598
 20
423.8709980675541
 30
0.0
 10
131.0086610814124
 20
421.4720598802948
 30
0.0
 10
130.518791154166
 20
418.9650633014088
 30
0.0
 10
130.1932453135767
 20
416.3718946031941
 30
0.0
 10
130.0347268216999
 20
413.7131955897736
 30
0.0
 10
130.0442740476022
 20
411.01055934259
 30
0.0
 10
130.2217029415511
 20
408.2857630103655
 30
0.0
 10
130.5654971383329
 20
405.5607727723008
 30
0.0
 10
131.0728540217024
 20
402.8575384771161
 30
0.0
 10
131.7396966513879
 20
400.1978464395709
 30
0.0
 10
132.5607113132822
 20
397.6031397352552
 30
0.0
 10
133.5293876418245
 20
395.0943336821175
 30
0.0
 10
134.6380966885722
 20
392.6917125898622
 30
0.0
 10
135.8780775410085
 20
390.4145560841077
 30
0.0
 10
137.239765048372
 20
388.2818843973225
 30
0.0
 10
138.7118720583801
 20
386.3090314354932
 30
0.0
 10
140.2851041126062
 20
384.5198630719573
 30
0.0
 10
141.8465207367838
 20
382.9907621649419
 30
0.0
 10
142.9122489324375
 20
382.1637782425247
 30
0.0
 10
143.3965489978269
 20
381.7879710063681
 30
0.0
  0
LINE
  5
93
330
1F
100
AcDbEntity
  8
0
  6
Continuous
 62
     7
370
    25
100
AcDbLine
 10
156.0730910318
 20
378.2113474055
 30
0.0
 11
163.0852306149
 21
379.4454930486
 31
0.0
  0
LINE
  5
94
330
1F
100
AcDbEntity
  8
0
  6
Continuous
 62
     7
370
    25
100
AcDbLine
 10
152.5116684464
 20
439.5221089908
 30
0.0
 11
145.4995288632
 21
438.2879633477
 31
0.0
  0
LINE
  5
95
330
1F
100
AcDbEntity
  8
0
  6
Continuous
 62
     7
370
    25
100
AcDbLine
 10
163.823350571
 20
379.5754031163
 30
0.0
 11
220.658587192
 21
389.5784783287
 31
0.0
  0
LINE
  5
96
330
1F
100
AcDbEntity
  8
0
  6
Continuous
 62
     7
370
    25
100
AcDbLine
 10
210.0850250234
 20
449.6550942709
 30
0.0
 11
153.2497884025
 21
439.6520190585
 31
0.0
  0
SPLINE
  5
97
330
1F
100
AcDbEntity
  8
0
  6
Continuous
 62
     7
370
    25
100
AcDbSpline
210
0.0
220
0.0
230
1.0
 70
    11
 71
     3
 72
    39
 73
    35
 74
     0
 42
0.00000001
 43
0.00000001
 40
0.0
 40
0.0
 40
0.0
 40
0.0
 40
0.029129008105451
 40
0.0600028324322984
 40
0.0921602034406938
 40
0.1250000000000001
 40
0.1578397965593062
 40
0.1899971675677017
 40
0.2208709918945491
 40
0.2500000000000001
 40
0.279129008105451
 40
0.3100028324322984
 40
0.3421602034406939
 40
0.3750000000000001
 40
0.4078397965593062
 40
0.4399971675677018
 40
0.4708709918945492
 40
0.5000000000000001
 40
0.529129008105451
 40
0.5600028324322984
 40
0.592160203440694
 40
0.6250000000000001
 40
0.6578397965593062
 40
0.6899971675677017
 40
0.7208709918945491
 40
0.7499999999999999
 40
0.7791290081054508
 40
0.8100028324322982
 40
0.8421602034406936
 40
0.8749999999999998
 40
0.907839796559306
 40
0.9399971675677017
 40
0.9708709918945491
 40
1.0
 40
1.0
 40
1.0
 40
1.0
 10
235.6270987763096
 20
387.5898765234887
 30
0.0
 10
236.2855888613381
 20
387.6597144862194
 30
0.0
 10
237.6420123305909
 20
387.8035736784022
 30
0.0
 10
239.6336673476993
 20
387.364261146239
 30
0.0
 10
241.5314393646376
 20
386.3885587671077
 30
0.0
 10
243.2034737485577
 20
384.836283188978
 30
0.0
 10
244.5373546201578
 20
382.8013066433072
 30
0.0
 10
245.4614831888975
 20
380.4195271362834
 30
0.0
 10
245.9575887313142
 20
377.861005890507
 30
0.0
 10
246.0590487088573
 20
375.2293788891808
 30
0.0
 10
245.7900475914178
 20
372.5325631518219
 30
0.0
 10
245.1266298455816
 20
369.7699227058761
 30
0.0
 10
244.0416081635998
 20
367.0346918983585
 30
0.0
 10
242.5641793779139
 20
364.5043011501392
 30
0.0
 10
240.7754499884449
 20
362.3452336196875
 30
0.0
 10
238.79459441052
 20
360.678564116209
 30
0.0
 10
236.7539157158934
 20
359.5587380472058
 30
0.0
 10
234.7268622477005
 20
358.9589456552029
 30
0.0
 10
232.7151768080838
 20
358.8479147717184
 30
0.0
 10
230.7225991081151
 20
359.2578824946564
 30
0.0
 10
228.8250902663242
 20
360.2419548401394
 30
0.0
 10
227.1529829417501
 20
361.7919106292388
 30
0.0
 10
225.8191216751875
 20
363.8275106893499
 30
0.0
 10
224.8949879924552
 20
366.2091275520424
 30
0.0
 10
224.3988837653554
 20
368.7676906298749
 30
0.0
 10
224.297423380063
 20
371.3993046632306
 30
0.0
 10
224.5664249052517
 20
374.0961333685602
 30
0.0
 10
225.229841335771
 20
376.8587319824496
 30
0.0
 10
226.3148681317454
 20
379.5941254342987
 30
0.0
 10
227.7922773123938
 20
382.1238926680775
 30
0.0
 10
229.5810796425169
 20
384.2852799875597
 30
0.0
 10
231.5616720452943
 20
385.9435795246864
 30
0.0
 10
233.6032734227813
 20
387.0927504029148
 30
0.0
 10
234.9656962430367
 20
387.4274116769394
 30
0.0
 10
235.6270987763096
 20
387.5898765234887
 30
0.0
  0
LINE
  5
98
330
1F
100
AcDbEntity
  8
0
  6
Continuous
 62
     7
370
    25
100
AcDbLine
 10
238.9856544264
 20
388.5023134363
 30
0.0
 11
239.346894968
 21
388.3780755084
 31
0.0
  0
LINE
  5
99
330
1F
100
AcDbEntity
  8
0
  6
Continuous
 62
     7
370
    25
100
AcDbLine
 10
230.6356683634
 20
358.3298208376
 30
0.0
 11
230.523880392
 21
358.3571451095
 31
0.0
  0
SPLINE
  5
9A
330
1F
100
AcDbEntity
  8
0
  6
Continuous
 62
     7
370
    25
100
AcDbSpline
210
0.0
220
0.0
230
1.0
 70
     8
 71
     3
 72
    14
 73
    10
 74
     0
 42
0.00000001
 43
0.00000001
 40
0.0
 40
0.0
 40
0.0
 40
0.0
 40
0.0550739730342772
 40
0.3195495737737408
 40
0.4724070182303047
 40
0.629389223012781
 40
0.7458214984089705
 40
0.865224182009126
 40
1.0
 40
1.0
 40
1.0
 40
1.0
 10
228.5077662233267
 20
358.8825042548593
 30
0.0
 10
228.2948139856792
 20
358.918353756095
 30
0.0
 10
227.0592249583165
 20
359.1263593204067
 30
0.0
 10
225.1147133774195
 20
359.9407228701997
 30
0.0
 10
222.8548007224788
 20
360.9292626168016
 30
0.0
 10
221.2118262872423
 20
361.7019422623696
 30
0.0
 10
219.7640114679747
 20
362.3441386710701
 30
0.0
 10
218.458001079578
 20
362.8650934658305
 30
0.0
 10
217.6800226383321
 20
363.0720230479942
 30
0.0
 10
217.2675067090075
 20
363.1817455600399
 30
0.0
  0
LWPOLYLINE
  5
9B
330
1F
100
AcDbEntity
  8
0
  6
Continuous
 62
     7
370
    25
100
AcDbPolyline
 90
       15
 70
   128
 43
0.0
 10
217.267506709
 20
363.18174556
 10
216.2538365508
 20
364.5083667051
 10
215.4063082034
 20
366.0348955742
 10
214.7397613195
 20
367.7346036709
 10
214.265866688
 20
369.5777302467
 10
213.9929218859
 20
371.5320033916
 10
213.9257059937
 20
373.5632050938
 10
214.0653959165
 20
375.635770374
 10
214.4095457775
 20
377.7134100045
 10
214.9521297436
 20
379.7597459091
 10
215.6836475333
 20
381.7389481188
 10
216.5912907609
 20
383.6163621305
 10
217.6591672025
 20
385.3591156844
 10
218.8685790578
 20
386.9366943348
 10
219.3165917189
 20
387.4393668004
  0
LWPOLYLINE
  5
9C
330
1F
100
AcDbEntity
  8
0
  6
Continuous
 62
     7
370
    25
100
AcDbPolyline
 90
       46
 70
   128
 43
0.0
 10
234.7342493461
 20
359.1938833596
 10
233.2490367688
 20
359.0691428998
 10
231.8013738622
 20
359.2216690738
 10
230.4194377382
 20
359.6484931329
 10
229.1301262114
 20
360.3413074325
 10
227.9585342643
 20
361.2866271302
 10
226.9274656013
 20
362.4660526535
 10
226.0569888011
 20
363.856627826
 10
225.3640467046
 20
365.4312866838
 10
224.8621266414
 20
367.1593802833
 10
224.5609979146
 20
369.0072732484
 10
224.4665216524
 20
370.9389984445
 10
224.5805367277
 20
372.9169570378
 10
224.9008239669
 20
374.9026503143
 10
225.421149343
 20
376.8574290129
 10
226.1313853146
 20
378.74324559
 10
227.0177079462
 20
380.5233947709
 10
228.0628659761
 20
382.1632279767
 10
229.2465165921
 20
383.6308277192
 10
230.5456213813
 20
384.897628839
 10
231.9348947467
 20
385.9389744931
 10
233.3872960625
 20
386.7345960729
 10
234.8745559892
 20
387.2690077094
 10
236.3677267041
 20
387.531807688
 10
237.8377453375
 20
387.517880906
 10
239.255999649
 20
387.2274984323
 10
240.5948849317
 20
386.6663122315
 10
241.8283413064
 20
385.8452451547
 10
242.9323609478
 20
384.7802783386
 10
243.8854553695
 20
383.4921401509
 10
244.6690736726
 20
382.0059027361
 10
245.2679636183
 20
380.350494015
 10
245.6704684949
 20
378.5581346353
 10
245.8687540029
 20
376.6637108335
 10
245.8589607405
 20
374.7040954142
 10
245.6412793223
 20
372.7174300623
 10
245.2199466695
 20
370.7423829593
 10
244.6031635429
 20
368.8173961503
 10
243.8029349246
 20
366.9799373139
 10
242.8348363544
 20
365.2657704964
 10
241.7177107696
 20
363.708260005
 10
240.4733017492
 20
362.3377210097
 10
239.1258302992
 20
361.1808294932
 10
237.7015234186
 20
360.2601030328
 10
236.2281036208
 20
359.5934625218
 10
234.7342493461
 20
359.1938833596
  0
LWPOLYLINE
  5
9D
330
1F
100
AcDbEntity
  8
0
  6
Continuous
 62
     7
370
    25
100
AcDbPolyline
 90
       41
 70
   128
 43
0.0
 10
234.1521343719
 20
362.301874728
 10
235.4843447505
 20
362.673460566
 10
236.7924222344
 20
363.3116529287
 10
238.0441576145
 20
364.200737402
 10
239.2087290115
 20
365.3188217756
 10
240.2574608128
 20
366.6383751014
 10
241.1645297607
 20
368.1269055973
 10
241.9076008075
 20
369.7477607022
 10
242.4683770777
 20
371.4610295841
 10
242.8330503986
 20
373.2245258773
 10
242.9926413027
 20
374.9948264502
 10
242.9432201322
 20
376.7283406274
 10
242.6860038005
 20
378.3823835367
 10
242.2273258272
 20
379.9162271523
 10
241.5784803864
 20
381.2921031537
 10
240.7554442061
 20
382.4761329075
 10
239.7784831687
 20
383.4391616717
 10
238.6716532972
 20
384.1574764819
 10
237.4622084164
 20
384.6133900436
 10
236.1799290732
 20
384.7956762517
 10
234.8563892406
 20
384.699846615
 10
233.524178862
 20
384.328260777
 10
232.2161013782
 20
383.6900684143
 10
230.9643659981
 20
382.800983941
 10
229.799794601
 20
381.6828995674
 10
228.7510627998
 20
380.3633462416
 10
227.8439938518
 20
378.8748157458
 10
227.1009228051
 20
377.2539606409
 10
226.5401465349
 20
375.5406917589
 10
226.175473214
 20
373.7771954657
 10
226.0158823099
 20
372.0068948928
 10
226.0653034803
 20
370.2733807156
 10
226.3225198121
 20
368.6193378063
 10
226.7811977853
 20
367.0854941908
 10
227.4300432262
 20
365.7096181894
 10
228.2530794064
 20
364.5255884355
 10
229.2300404439
 20
363.5625596713
 10
230.3368703154
 20
362.8442448611
 10
231.5463151962
 20
362.3883312994
 10
232.8285945394
 20
362.2060450913
 10
234.1521343719
 20
362.301874728
  0
SPLINE
  5
9E
330
1F
100
AcDbEntity
  8
0
  6
Continuous
 62
     7
370
    25
100
AcDbSpline
210
0.0
220
0.0
230
1.0
 70
     8
 71
     3
 72
     9
 73
     5
 74
     0
 42
0.00000001
 43
0.00000001
 40
0.0
 40
0.0
 40
0.0
 40
0.0
 40
0.4913122176241189
 40
1.0
 40
1.0
 40
1.0
 40
1.0
 10
217.2675067090075
 20
363.18174556004
 30
0.0
 10
216.9418420954478
 20
363.2786053536049
 30
0.0
 10
216.2789955349967
 20
363.4757504480895
 30
0.0
 10
215.7924310859561
 20
363.5094484823468
 30
0.0
 10
215.5449216953907
 20
363.5265902606637
 30
0.0
  0
LWPOLYLINE
  5
9F
330
1F
100
AcDbEntity
  8
0
  6
Continuous
 62
     7
370
    25
100
AcDbPolyline
 90
       15
 70
   128
 43
0.0
 10
217.363438004
 20
387.9824043053
 10
216.7984066136
 20
387.3458159149
 10
215.5888383589
 20
385.7427817607
 10
214.5253687308
 20
383.9734222439
 10
213.6271042973
 20
382.0695261314
 10
212.9101835077
 20
380.0652993091
 10
212.3874867447
 20
377.9967502301
 10
212.0684049125
 20
375.9010429778
 10
211.9586707171
 20
373.8158295662
 10
212.0602556712
 20
371.7785734743
 10
212.3713346734
 20
369.8258765676
 10
212.8863187987
 20
367.9928214996
 10
213.5959557101
 20
366.3123414077
 10
214.4874958888
 20
364.8146282283
 10
215.5449216954
 20
363.5265902607
  0
LWPOLYLINE
  5
A0
330
1F
100
AcDbEntity
  8
0
  6
Continuous
 62
     7
370
    25
100
AcDbPolyline
 90
       22
 70
   128
 43
0.0
 10
213.7681965669
 20
345.1088830011
 10
213.7683232058
 20
345.070121742
 10
213.9214869176
 20
344.6739311184
 10
214.3473818632
 20
344.279985784
 10
215.0352939114
 20
343.8981961216
 10
215.9679174332
 20
343.5381667169
 10
217.1217906552
 20
343.2089547384
 10
218.4678858813
 20
342.9188420884
 10
219.9723397355
 20
342.6751270571
 10
221.5973050534
 20
342.4839407218
 10
223.3019029948
 20
342.3500927088
 10
225.0432514214
 20
342.2769501984
 10
226.7775436726
 20
342.2663532183
 10
228.4611505979
 20
342.3185683541
 10
230.0517181249
 20
342.4322820427
 10
231.5092327496
 20
342.6046336178
 10
232.7970281463
 20
342.8312872746
 10
233.8827075727
 20
343.1065411443
 10
234.7389588669
 20
343.4234707354
 10
235.3442415321
 20
343.7741031303
 10
235.6833286259
 20
344.1496175588
 10
235.7573294802
 20
344.417483173
  0
SPLINE
  5
A1
330
1F
100
AcDbEntity
  8
0
  6
Continuous
 62
     7
370
    25
100
AcDbSpline
210
0.0
220
0.0
230
1.0
 70
     8
 71
     3
 72
    10
 73
     6
 74
     0
 42
0.00000001
 43
0.00000001
 40
0.0
 40
0.0
 40
0.0
 40
0.0
 40
0.3579223232710824
 40
0.7274398474594315
 40
1.0
 40
1.0
 40
1.0
 40
1.0
 10
215.5215301961277
 20
362.7826519990098
 30
0.0
 10
215.2642890907271
 20
362.7394847779863
 30
0.0
 10
214.7414733334902
 20
362.6517518967578
 30
0.0
 10
214.3619912464508
 20
362.3823018724067
 30
0.0
 10
214.3400499956276
 20
362.2023679647087
 30
0.0
 10
214.3307359968887
 20
362.1259865312672
 30
0.0
  0
LINE
  5
A2
330
1F
100
AcDbEntity
  8
0
  6
Continuous
 62
     7
370
    25
100
AcDbLine
 10
215.5449216954
 20
363.5265902607
 30
0.0
 11
215.5215301961
 21
362.782651999
 31
0.0
  0
LWPOLYLINE
  5
A3
330
1F
100
AcDbEntity
  8
0
  6
Continuous
 62
     7
370
    25
100
AcDbPolyline
 90
       27
 70
   128
 43
0.0
 10
238.3691188458
 20
344.0898483146
 10
238.5266797824
 20
343.9076403226
 10
238.7208473281
 20
343.4538757448
 10
238.6302451987
 20
343.0069406229
 10
238.2567177924
 20
342.5759332669
 10
237.60786905
 20
342.1696277439
 10
236.6969076608
 20
341.7962952624
 10
235.5423781716
 20
341.4635357954
 10
234.1677834735
 20
341.1781233658
 10
232.6011063505
 20
340.9458681477
 10
230.874239831
 20
340.7714981876
 10
229.0223379373
 20
340.658563155
 10
227.0831000517
 20
340.6093620815
 10
225.096003465
 20
340.6248965591
 10
223.1014997337
 20
340.7048503506
 10
221.1401912018
 20
340.8475958274
 10
219.2520044553
 20
341.0502271033
 10
217.4753775311
 20
341.3086191897
 10
215.8464774301
 20
341.6175119689
 10
214.398463861
 20
341.9706172748
 10
213.1608142044
 20
342.3607469016
 10
212.158723438
 20
342.7799589351
 10
211.4125912402
 20
343.2197194272
 10
210.9376067109
 20
343.6710761225
 10
210.7434391653
 20
344.1248407003
 10
210.8340412946
 20
344.5717758222
 10
211.1409832261
 20
344.9459770379
  0
LWPOLYLINE
  5
A4
330
1F
100
AcDbEntity
  8
0
  6
Continuous
 62
     7
370
    25
100
AcDbPolyline
 90
       31
 70
   128
 43
0.0
 10
235.8063693381
 20
345.9771363703
 10
236.6733523545
 20
345.5786658474
 10
237.3027029508
 20
345.1564478431
 10
237.6647864987
 20
344.7258480832
 10
237.7518858161
 20
344.2960440541
 10
237.5621445322
 20
343.8761962825
 10
237.0996066532
 20
343.4752530948
 10
236.3741303708
 20
343.1017598988
 10
235.4011779524
 20
342.7636770536
 10
234.2014861898
 20
342.468210208
 10
232.8006244298
 20
342.221656725
 10
231.228449609
 20
342.029271464
 10
229.518469904
 20
341.8951547827
 10
227.7071305634
 20
341.8221651454
 10
225.8330371407
 20
341.8118581995
 10
223.9361326832
 20
341.8644536197
 10
222.0568464163
 20
341.9788304259
 10
220.235232064
 20
342.152550875
 10
218.5101141737
 20
342.3819124173
 10
216.918260638
 20
342.6620266096
 10
215.4935990515
 20
342.9869233044
 10
214.2664936023
 20
343.3496778926
 10
213.2630979128
 20
343.74255889
 10
212.50479762
 20
344.1571927202
 10
212.0077545781
 20
344.5847421831
 10
211.7825623965
 20
345.016094804
 10
211.8340206558
 20
345.4420570507
 10
212.1610326124
 20
345.8535502776
 10
212.7566285742
 20
346.2418042209
 10
213.6081144474
 20
346.5985439218
 10
213.8172364248
 20
346.6685361984
  0
LWPOLYLINE
  5
A5
330
1F
100
AcDbEntity
  8
0
  6
Continuous
 62
     7
370
    25
100
AcDbPolyline
 90
       24
 70
   128
 43
0.0
 10
210.6778191117
 20
342.2816902023
 10
210.6821996115
 20
342.1771909712
 10
210.8763671571
 20
341.7234263935
 10
211.3513516864
 20
341.2720696982
 10
212.0974838842
 20
340.832309206
 10
213.0995746506
 20
340.4130971725
 10
214.3372243072
 20
340.0229675458
 10
215.7852378763
 20
339.6698622399
 10
217.4141379773
 20
339.3609694606
 10
219.1907649015
 20
339.1025773742
 10
221.078951648
 20
338.8999460984
 10
223.0402601799
 20
338.7572006216
 10
225.0347639112
 20
338.6772468301
 10
227.0218604979
 20
338.6617123525
 10
228.9610983835
 20
338.7109134259
 10
230.8130002772
 20
338.8238484585
 10
232.5398667967
 20
338.9982184186
 10
234.1065439197
 20
339.2304736367
 10
235.4811386178
 20
339.5158860663
 10
236.635668107
 20
339.8486455334
 10
237.5466294962
 20
340.2219780148
 10
238.1954782386
 20
340.6282835379
 10
238.5690056449
 20
341.0592908938
 10
238.663988274
 20
341.4017267847
  0
SPLINE
  5
A6
330
1F
100
AcDbEntity
  8
0
  6
Continuous
 62
     7
370
    25
100
AcDbSpline
210
0.0
220
0.0
230
1.0
 70
     8
 71
     3
 72
    10
 73
     6
 74
     0
 42
0.00000001
 43
0.00000001
 40
0.0
 40
0.0
 40
0.0
 40
0.0
 40
0.3668578601486411
 40
0.7337167950211074
 40
1.0
 40
1.0
 40
1.0
 40
1.0
 10
211.8557613123106
 20
380.1064262872404
 30
0.0
 10
211.945146448386
 20
379.9465891083024
 30
0.0
 10
212.1239169823939
 20
379.6269142821774
 30
0.0
 10
212.3730421721466
 20
379.1876541490955
 30
0.0
 10
212.5338669929878
 20
378.9035714421103
 30
0.0
 10
212.6015057521831
 20
378.7840936046175
 30
0.0
  0
SPLINE
  5
A7
330
1F
100
AcDbEntity
  8
0
  6
Continuous
 62
     7
370
    25
100
AcDbSpline
210
0.0
220
0.0
230
1.0
 70
     8
 71
     3
 72
    10
 73
     6
 74
     0
 42
0.00000001
 43
0.00000001
 40
0.0
 40
0.0
 40
0.0
 40
0.0
 40
0.1608069784346703
 40
0.5089015347521174
 40
1.0
 40
1.0
 40
1.0
 40
1.0
 10
213.2804434204644
 20
380.8904039825546
 30
0.0
 10
213.2025116940767
 20
380.8477028440207
 30
0.0
 10
212.9558832482802
 20
380.7125676953654
 30
0.0
 10
212.4786689822928
 20
380.4521898485747
 30
0.0
 10
212.085717681837
 20
380.2340704584562
 30
0.0
 10
211.8557613123106
 20
380.1064262872404
 30
0.0
  0
SPLINE
  5
A8
330
1F
100
AcDbEntity
  8
0
  6
Continuous
 62
     7
370
    25
100
AcDbSpline
210
0.0
220
0.0
230
1.0
 70
     8
 71
     3
 72
    10
 73
     6
 74
     0
 42
0.00000001
 43
0.00000001
 40
0.0
 40
0.0
 40
0.0
 40
0.0
 40
0.0883019659098447
 40
0.4664713673646587
 40
1.0
 40
1.0
 40
1.0
 40
1.0
 10
214.1985580294869
 20
383.2969563971758
 30
0.0
 10
214.1556148572116
 20
383.2769947437053
 30
0.0
 10
213.9287596554749
 20
383.1715436397199
 30
0.0
 10
213.449430076317
 20
382.9480213295409
 30
0.0
 10
213.0191504712389
 20
382.7424996302108
 30
0.0
 10
212.7673494573459
 20
382.6222276683108
 30
0.0
  0
SPLINE
  5
A9
330
1F
100
AcDbEntity
  8
0
  6
Continuous
 62
     7
370
    25
100
AcDbSpline
210
0.0
220
0.0
230
1.0
 70
     8
 71
     3
 72
    10
 73
     6
 74
     0
 42
0.00000001
 43
0.00000001
 40
0.0
 40
0.0
 40
0.0
 40
0.0
 40
0.3477956950567974
 40
0.6955924089941465
 40
1.0
 40
1.0
 40
1.0
 40
1.0
 10
212.7673494573459
 20
382.6222276683108
 30
0.0
 10
212.8423601993193
 20
382.4705931716923
 30
0.0
 10
212.9923819030128
 20
382.1673237342361
 30
0.0
 10
213.213107859166
 20
381.7257387150315
 30
0.0
 10
213.3592127448353
 20
381.4298677751906
 30
0.0
 10
213.4274052359668
 20
381.2917739917505
 30
0.0
  0
SPLINE
  5
AA
330
1F
100
AcDbEntity
  8
0
  6
Continuous
 62
     7
370
    25
100
AcDbSpline
210
0.0
220
0.0
230
1.0
 70
     8
 71
     3
 72
    10
 73
     6
 74
     0
 42
0.00000001
 43
0.00000001
 40
0.0
 40
0.0
 40
0.0
 40
0.0
 40
0.3582295495756284
 40
0.7164601485980284
 40
1.0
 40
1.0
 40
1.0
 40
1.0
 10
211.2637257685983
 20
377.4919280584929
 30
0.0
 10
211.3687817963307
 20
377.3276541258938
 30
0.0
 10
211.5788941595612
 20
376.9991057794492
 30
0.0
 10
211.8784361319677
 20
376.5384030279569
 30
0.0
 10
212.0748560210025
 20
376.2381287210407
 30
0.0
 10
212.1616360622344
 20
376.1054648810235
 30
0.0
  0
SPLINE
  5
AB
330
1F
100
AcDbEntity
  8
0
  6
Continuous
 62
     7
370
    25
100
AcDbSpline
210
0.0
220
0.0
230
1.0
 70
     8
 71
     3
 72
    10
 73
     6
 74
     0
 42
0.00000001
 43
0.00000001
 40
0.0
 40
0.0
 40
0.0
 40
0.0
 40
0.141600025726031
 40
0.4976615640251434
 40
1.0
 40
1.0
 40
1.0
 40
1.0
 10
212.5178845970888
 20
378.2748745493969
 30
0.0
 10
212.4573577707364
 20
378.2369337430836
 30
0.0
 10
212.2446327029721
 20
378.1035885624354
 30
0.0
 10
211.824065806844
 20
377.8429848421956
 30
0.0
 10
211.4705842921076
 20
377.6215263077489
 30
0.0
 10
211.2637257685983
 20
377.4919280584929
 30
0.0
  0
SPLINE
  5
AC
330
1F
100
AcDbEntity
  8
0
  6
Continuous
 62
     7
370
    25
100
AcDbSpline
210
0.0
220
0.0
230
1.0
 70
     8
 71
     3
 72
    10
 73
     6
 74
     0
 42
0.00000001
 43
0.00000001
 40
0.0
 40
0.0
 40
0.0
 40
0.0
 40
0.1306977309450639
 40
0.491281505922411
 40
1.0
 40
1.0
 40
1.0
 40
1.0
 10
215.588680999434
 20
385.5912752568227
 30
0.0
 10
215.5170274820925
 20
385.564118528252
 30
0.0
 10
215.2476880861469
 20
385.4620387261647
 30
0.0
 10
214.7064737157669
 20
385.2544683350899
 30
0.0
 10
214.2423807568879
 20
385.0705313608719
 30
0.0
 10
213.9707920591964
 20
384.9628908497858
 30
0.0
  0
SPLINE
  5
AD
330
1F
100
AcDbEntity
  8
0
  6
Continuous
 62
     7
370
    25
100
AcDbSpline
210
0.0
220
0.0
230
1.0
 70
     8
 71
     3
 72
    10
 73
     6
 74
     0
 42
0.00000001
 43
0.00000001
 40
0.0
 40
0.0
 40
0.0
 40
0.0
 40
0.3637463188992365
 40
0.7274937034069577
 40
0.9999999999999999
 40
0.9999999999999999
 40
0.9999999999999999
 40
0.9999999999999999
 10
213.9707920591964
 20
384.9628908497858
 30
0.0
 10
214.0331799097124
 20
384.8229225127858
 30
0.0
 10
214.1579557935121
 20
384.5429854287433
 30
0.0
 10
214.3332976838456
 20
384.1517591719423
 30
0.0
 10
214.445627336709
 20
383.8943723314865
 30
0.0
 10
214.4937379231129
 20
383.7841340149662
 30
0.0
  0
SPLINE
  5
AE
330
1F
100
AcDbEntity
  8
0
  6
Continuous
 62
     7
370
    25
100
AcDbSpline
210
0.0
220
0.0
230
1.0
 70
     8
 71
     3
 72
    10
 73
     6
 74
     0
 42
0.00000001
 43
0.00000001
 40
0.0
 40
0.0
 40
0.0
 40
0.0
 40
0.3538300558986582
 40
0.7076611483554375
 40
1.0
 40
1.0
 40
1.0
 40
1.0
 10
211.0092315266151
 20
374.8581731877445
 30
0.0
 10
211.1307888388354
 20
374.6933358600295
 30
0.0
 10
211.3739038193825
 20
374.3636607217024
 30
0.0
 10
211.7242629773881
 20
373.8973347066378
 30
0.0
 10
211.9557143851678
 20
373.5930756728826
 30
0.0
 10
212.0604271459198
 20
373.4554234386021
 30
0.0
  0
SPLINE
  5
AF
330
1F
100
AcDbEntity
  8
0
  6
Continuous
 62
     7
370
    25
100
AcDbSpline
210
0.0
220
0.0
230
1.0
 70
     8
 71
     3
 72
    10
 73
     6
 74
     0
 42
0.00000001
 43
0.00000001
 40
0.0
 40
0.0
 40
0.0
 40
0.0
 40
0.1076214531539045
 40
0.4777771936689943
 40
1.0
 40
1.0
 40
1.0
 40
1.0
 10
212.0777383585593
 20
375.5945617566594
 30
0.0
 10
212.0384775411793
 20
375.5671358125325
 30
0.0
 10
211.8641821511873
 20
375.4453804353777
 30
0.0
 10
211.505364768153
 20
375.1996618016873
 30
0.0
 10
211.1923870800352
 20
374.9842391934802
 30
0.0
 10
211.0092315266151
 20
374.8581731877445
 30
0.0
  0
SPLINE
  5
B0
330
1F
100
AcDbEntity
  8
0
  6
Continuous
 62
     7
370
    25
100
AcDbSpline
210
0.0
220
0.0
230
1.0
 70
     8
 71
     3
 72
    10
 73
     6
 74
     0
 42
0.00000001
 43
0.00000001
 40
0.0
 40
0.0
 40
0.0
 40
0.0
 40
0.1177440747333368
 40
0.4837009844910698
 40
1.0
 40
1.0
 40
1.0
 40
1.0
 10
217.1216416796694
 20
387.5705083196247
 30
0.0
 10
217.054286034476
 20
387.5508942432638
 30
0.0
 10
216.7775842814167
 20
387.4703182306949
 30
0.0
 10
216.2119217143462
 20
387.3015679098967
 30
0.0
 10
215.7183581276259
 20
387.1474728763858
 30
0.0
 10
215.4295231233864
 20
387.0572959653355
 30
0.0
  0
SPLINE
  5
B1
330
1F
100
AcDbEntity
  8
0
  6
Continuous
 62
     7
370
    25
100
AcDbSpline
210
0.0
220
0.0
230
1.0
 70
     8
 71
     3
 72
    10
 73
     6
 74
     0
 42
0.00000001
 43
0.00000001
 40
0.0
 40
0.0
 40
0.0
 40
0.0
 40
0.3729785884486244
 40
0.7459582695518447
 40
1.0
 40
1.0
 40
1.0
 40
1.0
 10
215.4295231233864
 20
387.0572959653355
 30
0.0
 10
215.4814094841349
 20
386.9321371127041
 30
0.0
 10
215.5851823576351
 20
386.6818190407838
 30
0.0
 10
215.7269965303266
 20
386.3390717232487
 30
0.0
 10
215.8153725090503
 20
386.115211152327
 30
0.0
 10
215.8511786013965
 20
386.0245126119449
 30
0.0
  0
SPLINE
  5
B2
330
1F
100
AcDbEntity
  8
0
  6
Continuous
 62
     7
370
    25
100
AcDbSpline
210
0.0
220
0.0
230
1.0
 70
     8
 71
     3
 72
    10
 73
     6
 74
     0
 42
0.00000001
 43
0.00000001
 40
0.0
 40
0.0
 40
0.0
 40
0.0
 40
0.3995942986908216
 40
0.7991897680082564
 40
1.0
 40
1.0
 40
1.0
 40
1.0
 10
211.1000112651259
 20
372.285186983987
 30
0.0
 10
211.2384334665924
 20
372.1236730737072
 30
0.0
 10
211.5152782750384
 20
371.8006447799864
 30
0.0
 10
211.8673921847868
 20
371.3976928291578
 30
0.0
 10
212.0835194084521
 20
371.1548660307611
 30
0.0
 10
212.1558047945324
 20
371.0736507697908
 30
0.0
  0
SPLINE
  5
B3
330
1F
100
AcDbEntity
  8
0
  6
Continuous
 62
     7
370
    25
100
AcDbSpline
210
0.0
220
0.0
230
1.0
 70
     8
 71
     3
 72
    10
 73
     6
 74
     0
 42
0.00000001
 43
0.00000001
 40
0.0
 40
0.0
 40
0.0
 40
0.0
 40
0.1465473435275273
 40
0.5005567503714642
 40
1.0
 40
1.0
 40
1.0
 40
1.0
 10
212.0751336311657
 20
373.0070913325205
 30
0.0
 10
212.0263554300315
 20
372.9700721573453
 30
0.0
 10
211.859745396298
 20
372.843627026502
 30
0.0
 10
211.5321189251839
 20
372.6023070685099
 30
0.0
 10
211.2595307469689
 20
372.4022569557582
 30
0.0
 10
211.1000112651259
 20
372.285186983987
 30
0.0
  0
SPLINE
  5
B4
330
1F
100
AcDbEntity
  8
0
  6
Continuous
 62
     7
370
    25
100
AcDbSpline
210
0.0
220
0.0
230
1.0
 70
     8
 71
     3
 72
    10
 73
     6
 74
     0
 42
0.00000001
 43
0.00000001
 40
0.0
 40
0.0
 40
0.0
 40
0.0
 40
0.3802600241698196
 40
0.7605211623256329
 40
1.0
 40
1.0
 40
1.0
 40
1.0
 10
211.5333066877137
 20
369.8511483310428
 30
0.0
 10
211.688363900308
 20
369.6967674901884
 30
0.0
 10
211.9984787797425
 20
369.3880053562151
 30
0.0
 10
212.4124241816738
 20
368.984784211677
 30
0.0
 10
212.6743508610674
 20
368.7356571324621
 30
0.0
 10
212.7755641104678
 20
368.6393898821792
 30
0.0
  0
SPLINE
  5
B5
330
1F
100
AcDbEntity
  8
0
  6
Continuous
 62
     7
370
    25
100
AcDbSpline
210
0.0
220
0.0
230
1.0
 70
     8
 71
     3
 72
    10
 73
     6
 74
     0
 42
0.00000001
 43
0.00000001
 40
0.0
 40
0.0
 40
0.0
 40
0.0
 40
0.0882068073424508
 40
0.4664156802635567
 40
1.0
 40
1.0
 40
1.0
 40
1.0
 10
212.3148453810136
 20
370.4489787894595
 30
0.0
 10
212.2913066144434
 20
370.430209398527
 30
0.0
 10
212.1668394655556
 20
370.3309615229527
 30
0.0
 10
211.9037453420057
 20
370.1302946333642
 30
0.0
 10
211.6700600657478
 20
369.9541996713009
 30
0.0
 10
211.5333066877137
 20
369.8511483310428
 30
0.0
  0
SPLINE
  5
B6
330
1F
100
AcDbEntity
  8
0
  6
Continuous
 62
     7
370
    25
100
AcDbSpline
210
0.0
220
0.0
230
1.0
 70
     8
 71
     3
 72
    10
 73
     6
 74
     0
 42
0.00000001
 43
0.00000001
 40
0.0
 40
0.0
 40
0.0
 40
0.0
 40
0.02922943241439
 40
0.4319019300687577
 40
0.9999999999999999
 40
0.9999999999999999
 40
0.9999999999999999
 40
0.9999999999999999
 10
212.9148252496327
 20
368.0924066654414
 30
0.0
 10
212.9086580306939
 20
368.0874764705346
 30
0.0
 10
212.8175295501586
 20
368.0146265887543
 30
0.0
 10
212.6087983389463
 20
367.8585347272572
 30
0.0
 10
212.4114444595383
 20
367.7143762613196
 30
0.0
 10
212.2959523322235
 20
367.6300142616896
 30
0.0
  0
SPLINE
  5
B7
330
1F
100
AcDbEntity
  8
0
  6
Continuous
 62
     7
370
    25
100
AcDbSpline
210
0.0
220
0.0
230
1.0
 70
     8
 71
     3
 72
    10
 73
     6
 74
     0
 42
0.00000001
 43
0.00000001
 40
0.0
 40
0.0
 40
0.0
 40
0.0
 40
0.4070331176069297
 40
0.8140674276325138
 40
1.0
 40
1.0
 40
1.0
 40
1.0
 10
212.2959523322235
 20
367.6300142616896
 30
0.0
 10
212.4669917486524
 20
367.4863516956348
 30
0.0
 10
212.8090710825767
 20
367.1990261426603
 30
0.0
 10
213.2344910086466
 20
366.8498409219979
 30
0.0
 10
213.4916916263358
 20
366.645028780184
 30
0.0
 10
213.5723402660515
 20
366.5808072367718
 30
0.0
  0
SPLINE
  5
B8
330
1F
100
AcDbEntity
  8
0
  6
Continuous
 62
     7
370
    25
100
AcDbSpline
210
0.0
220
0.0
230
1.0
 70
     8
 71
     3
 72
    10
 73
     6
 74
     0
 42
0.00000001
 43
0.00000001
 40
0.0
 40
0.0
 40
0.0
 40
0.0
 40
0.039020076605335
 40
0.7396419620350193
 40
1.0
 40
1.0
 40
1.0
 40
1.0
 10
213.8770891501889
 20
366.0299013679307
 30
0.0
 10
213.8731660924404
 20
366.0269862272722
 30
0.0
 10
213.7988028829657
 20
365.9717285101229
 30
0.0
 10
213.69821862549
 20
365.9037216600736
 30
0.0
 10
213.6042873434641
 20
365.8435071940594
 30
0.0
 10
213.5788385659232
 20
365.827193304615
 30
0.0
  0
SPLINE
  5
B9
330
1F
100
AcDbEntity
  8
0
  6
Continuous
 62
     7
370
    25
100
AcDbSpline
210
0.0
220
0.0
230
1.0
 70
     8
 71
     3
 72
     9
 73
     5
 74
     0
 42
0.00000001
 43
0.00000001
 40
0.0
 40
0.0
 40
0.0
 40
0.0
 40
0.5682485855180041
 40
0.9999999999999999
 40
0.9999999999999999
 40
0.9999999999999999
 40
0.9999999999999999
 10
213.3647755966567
 20
365.6892728106839
 30
0.0
 10
213.5503403271304
 20
365.5593654687397
 30
0.0
 10
213.8768958790542
 20
365.3307554110028
 30
0.0
 10
214.2088880133862
 20
365.1071924745315
 30
0.0
 10
214.3522260869809
 20
365.0106688604842
 30
0.0
  0
SPLINE
  5
BA
330
1F
100
AcDbEntity
  8
0
  6
Continuous
 62
     7
370
    25
100
AcDbSpline
210
0.0
220
0.0
230
1.0
 70
     8
 71
     3
 72
     9
 73
     5
 74
     0
 42
0.00000001
 43
0.00000001
 40
0.0
 40
0.0
 40
0.0
 40
0.0
 40
0.5235214113712648
 40
1.0
 40
1.0
 40
1.0
 40
1.0
 10
214.9664403301799
 20
364.2056754017602
 30
0.0
 10
214.9604095532551
 20
364.2024566362796
 30
0.0
 10
214.9488899156744
 20
364.1963083385965
 30
0.0
 10
214.937618890103
 20
364.1914201461383
 30
0.0
 10
214.9322484877463
 20
364.1890910270948
 30
0.0
  0
SPLINE
  5
BB
330
1F
100
AcDbEntity
  8
0
  6
Continuous
 62
     7
370
    25
100
AcDbSpline
210
0.0
220
0.0
230
1.0
 70
     8
 71
     3
 72
     9
 73
     5
 74
     0
 42
0.00000001
 43
0.00000001
 40
0.0
 40
0.0
 40
0.0
 40
0.0
 40
0.8591236243861814
 40
0.9999999999999999
 40
0.9999999999999999
 40
0.9999999999999999
 40
0.9999999999999999
 10
214.7484283865825
 20
364.0646729714247
 30
0.0
 10
214.9332483580605
 20
363.9589517377339
 30
0.0
 10
215.1483745241114
 20
363.8358946704039
 30
0.0
 10
215.3665183615863
 20
363.7167312535117
 30
0.0
 10
215.3972496747723
 20
363.6999439432341
 30
0.0
  0
LWPOLYLINE
  5
BC
330
1F
100
AcDbEntity
  8
0
  6
Continuous
 62
     7
370
    25
100
AcDbPolyline
 90
        7
 70
   128
 43
0.0
 10
234.1065439197
 20
339.2304736367
 10
235.4811386178
 20
339.5158860663
 10
236.635668107
 20
339.8486455334
 10
237.5466294962
 20
340.2219780148
 10
238.1954782386
 20
340.6282835379
 10
238.5690056449
 20
341.0592908938
 10
238.663988274
 20
341.4017267847
  0
LWPOLYLINE
  5
BD
330
1F
100
AcDbEntity
  8
0
  6
Continuous
 62
     7
370
    25
100
AcDbPolyline
 90
       18
 70
   128
 43
0.0
 10
210.6778191117
 20
342.2816902023
 10
210.6821996115
 20
342.1771909712
 10
210.8763671571
 20
341.7234263935
 10
211.3513516864
 20
341.2720696982
 10
212.0974838842
 20
340.832309206
 10
213.0995746506
 20
340.4130971725
 10
214.3372243072
 20
340.0229675458
 10
215.7852378763
 20
339.6698622399
 10
217.4141379773
 20
339.3609694606
 10
219.1907649015
 20
339.1025773742
 10
221.078951648
 20
338.8999460984
 10
223.0402601799
 20
338.7572006216
 10
225.0347639112
 20
338.6772468301
 10
227.0218604979
 20
338.6617123525
 10
228.9610983835
 20
338.7109134259
 10
230.8130002772
 20
338.8238484585
 10
232.5398667967
 20
338.9982184186
 10
234.1065439197
 20
339.2304736367
  0
LWPOLYLINE
  5
BE
330
1F
100
AcDbEntity
  8
0
  6
Continuous
 62
     7
370
    25
100
AcDbPolyline
 90
        7
 70
   128
 43
0.0
 10
234.0759241428
 20
338.2566487722
 10
235.4505188409
 20
338.5420612018
 10
236.6050483301
 20
338.8748206688
 10
237.5160097193
 20
339.2481531503
 10
238.1648584617
 20
339.6544586733
 10
238.538385868
 20
340.0854660293
 10
238.6333684971
 20
340.4279019202
  0
LWPOLYLINE
  5
BF
330
1F
100
AcDbEntity
  8
0
  6
Continuous
 62
     7
370
    25
100
AcDbPolyline
 90
       18
 70
   128
 43
0.0
 10
210.6471993348
 20
341.3078653377
 10
210.6515798346
 20
341.2033661067
 10
210.8457473802
 20
340.7496015289
 10
211.3207319096
 20
340.2982448336
 10
212.0668641073
 20
339.8584843415
 10
213.0689548737
 20
339.439272308
 10
214.3066045303
 20
339.0491426812
 10
215.7546180994
 20
338.6960373753
 10
217.3835182004
 20
338.3871445961
 10
219.1601451246
 20
338.1287525097
 10
221.0483318711
 20
337.9261212339
 10
223.009640403
 20
337.7833757571
 10
225.0041441344
 20
337.7034219655
 10
226.991240721
 20
337.6878874879
 10
228.9304786066
 20
337.7370885614
 10
230.7823805003
 20
337.850023594
 10
232.5092470199
 20
338.0243935541
 10
234.0759241428
 20
338.2566487722
  0
LWPOLYLINE
  5
C0
330
1F
100
AcDbEntity
  8
0
  6
Continuous
 62
     7
370
    25
100
AcDbPolyline
 90
       21
 70
   128
 43
0.0
 10
174.2229102766
 20
289.8677890326
 10
177.1639267115
 20
289.1020061296
 10
180.303737626
 20
288.3772209957
 10
183.6276405214
 20
287.6968275143
 10
187.1200708685
 20
287.0640117003
 10
190.7646749908
 20
286.4817367811
 10
194.5443866415
 20
285.9527293211
 10
198.4415069185
 20
285.4794664538
 10
202.4377871415
 20
285.0641642832
 10
206.5145143031
 20
284.7087675057
 10
210.6525986946
 20
284.4149403046
 10
214.8326632952
 20
284.184058557
 10
219.0351345079
 20
284.0172033913
 10
223.2403338138
 20
283.9151561246
 10
227.4285699198
 20
283.8783946041
 10
231.5802309646
 20
283.9070909694
 10
235.6758763535
 20
284.0011108468
 10
239.6963277911
 20
284.1600139782
 10
243.6227590858
 20
284.3830562828
 10
247.4367843052
 20
284.6691933413
 10
251.1205438703
 20
285.0170852864
  0
LWPOLYLINE
  5
C1
330
1F
100
AcDbEntity
  8
0
  6
Continuous
 62
     7
370
    25
100
AcDbPolyline
 90
       21
 70
   128
 43
0.0
 10
169.9054227038
 20
307.4926921226
 10
167.5489266057
 20
306.7774911721
 10
165.4362482196
 20
306.0205206559
 10
163.5772803858
 20
305.2253251686
 10
161.980727918
 20
304.3956282972
 10
160.6540668422
 20
303.5353151851
 10
159.6035093891
 20
302.6484143396
 10
158.8339749055
 20
301.7390787678
 10
158.3490668178
 20
300.8115665297
 10
158.1510557597
 20
299.8702207996
 10
158.2408689388
 20
298.9194495286
 10
158.6180857954
 20
297.9637048037
 10
159.2809399717
 20
297.0074620008
 10
160.2263275828
 20
296.0551988281
 10
161.4498217511
 20
295.1113743587
 10
162.9456933356
 20
294.1804081507
 10
164.7069377594
 20
293.2666595517
 10
166.7253078088
 20
292.3744072864
 10
168.9913522526
 20
291.5078294204
 10
171.4944600977
 20
290.6709837964
 10
174.2229102766
 20
289.8677890326
  0
SPLINE
  5
C2
330
1F
100
AcDbEntity
  8
0
  6
Continuous
 62
     7
370
    25
100
AcDbSpline
210
0.0
220
0.0
230
1.0
 70
     8
 71
     3
 72
     9
 73
     5
 74
     0
 42
0.00000001
 43
0.00000001
 40
0.0
 40
0.0
 40
0.0
 40
0.0
 40
0.5053183786747871
 40
0.9999999999999999
 40
0.9999999999999999
 40
0.9999999999999999
 40
0.9999999999999999
 10
277.5597041328658
 20
308.0551985096823
 30
0.0
 10
276.1058694328031
 20
308.4371441970758
 30
0.0
 10
273.2288026934629
 20
309.1929957621725
 30
0.0
 10
269.8605946707539
 20
309.8347117443114
 30
0.0
 10
268.1944040651196
 20
310.1521568467861
 30
0.0
  0
SPLINE
  5
C3
330
1F
100
AcDbEntity
  8
0
  6
Continuous
 62
     7
370
    25
100
AcDbSpline
210
0.0
220
0.0
230
1.0
 70
     8
 71
     3
 72
    10
 73
     6
 74
     0
 42
0.00000001
 43
0.00000001
 40
0.0
 40
0.0
 40
0.0
 40
0.0
 40
0.1300248765699605
 40
0.5754193069914124
 40
1.0
 40
1.0
 40
1.0
 40
1.0
 10
181.5503367202897
 20
310.0528681617205
 30
0.0
 10
180.9786925463714
 20
309.9588526469999
 30
0.0
 10
178.4489066847808
 20
309.5427911689654
 30
0.0
 10
174.4977805451045
 20
308.6956753163186
 30
0.0
 10
171.4115968293819
 20
307.887239373133
 30
0.0
 10
169.9054227038424
 20
307.4926921225663
 30
0.0
  0
SPLINE
  5
C4
330
1F
100
AcDbEntity
  8
0
  6
Continuous
 62
     7
370
    25
100
AcDbSpline
210
0.0
220
0.0
230
1.0
 70
     8
 71
     3
 72
    38
 73
    34
 74
     0
 42
0.00000001
 43
0.00000001
 40
0.0
 40
0.0
 40
0.0
 40
0.0
 40
0.0625
 40
0.0625
 40
0.125
 40
0.125
 40
0.1875000000000001
 40
0.1875000000000001
 40
0.25
 40
0.25
 40
0.3125
 40
0.3125
 40
0.3749999999999999
 40
0.3749999999999999
 40
0.4375
 40
0.4375
 40
0.5
 40
0.5
 40
0.5625
 40
0.5625
 40
0.625
 40
0.625
 40
0.6875
 40
0.6875
 40
0.75
 40
0.75
 40
0.8125000000000001
 40
0.8125000000000001
 40
0.8750000000000001
 40
0.8750000000000001
 40
0.9375000000000001
 40
0.9375000000000001
 40
1.0
 40
1.0
 40
1.0
 40
1.0
 10
251.1205438703253
 20
285.0170852864147
 30
0.0
 10
253.1701348378828
 20
285.231670457366
 30
0.0
 10
255.2241737182442
 20
285.4731429363154
 30
0.0
 10
259.3022037399534
 20
286.0130338739373
 30
0.0
 10
261.3261522460872
 20
286.3114696658132
 30
0.0
 10
265.2987957486787
 20
286.9667841345661
 30
0.0
 10
267.2474166051036
 20
287.3236779821886
 30
0.0
 10
271.0197081512117
 20
288.0951990088184
 30
0.0
 10
272.8432748249135
 20
288.509836196709
 30
0.0
 10
276.3139553477695
 20
289.3935382275207
 30
0.0
 10
277.9609436974638
 20
289.8626050022203
 30
0.0
 10
281.0286415474996
 20
290.8490744012936
 30
0.0
 10
282.4492192620559
 20
291.3664688671452
 30
0.0
 10
285.0198710679845
 20
292.4408025946526
 30
0.0
 10
286.1698268352104
 20
292.997723288924
 30
0.0
 10
288.1644424801824
 20
294.1400208025286
 30
0.0
 10
289.0090174081354
 20
294.7253704533214
 30
0.0
 10
290.3706358925028
 20
295.9118347925157
 30
0.0
 10
290.8876426903797
 20
296.5129174508778
 30
0.0
 10
291.5863222039444
 20
297.7174584219268
 30
0.0
 10
291.7680118927159
 20
298.3208846707457
 30
0.0
 10
291.802995393455
 20
299.5170058524513
 30
0.0
 10
291.6563547763706
 20
300.1096733855226
 30
0.0
 10
291.0550887734792
 20
301.2723621135511
 30
0.0
 10
290.6005636566692
 20
301.8423640044586
 30
0.0
 10
289.414864347908
 20
302.9497106832363
 30
0.0
 10
288.6838067453511
 20
303.4870457754237
 30
0.0
 10
286.98397639321
 20
304.5213913180544
 30
0.0
 10
286.0153185646811
 20
305.0184012618951
 30
0.0
 10
283.8832795671791
 20
305.966921959102
 30
0.0
 10
282.7199977936411
 20
306.4184395483528
 30
0.0
 10
280.2424968237986
 20
307.2731908439895
 30
0.0
 10
278.9283535138763
 20
307.676436191019
 30
0.0
 10
277.5597041328658
 20
308.0551985096823
 30
0.0
  0
LWPOLYLINE
  5
C5
330
1F
100
AcDbEntity
  8
0
  6
Continuous
 62
     7
370
    25
100
AcDbPolyline
 90
       14
 70
   128
 43
0.0
 10
280.0170607838
 20
293.8411144606
 10
279.1033556227
 20
294.0454216384
 10
278.0282674399
 20
294.200105721
 10
276.8542764528
 20
294.2961770318
 10
275.6496107504
 20
294.3280522554
 10
274.4842811243
 20
294.2938789196
 10
273.4260122968
 20
294.1956430546
 10
272.5363070054
 20
294.0390537717
 10
271.8668716877
 20
293.8332114708
 10
271.4566114911
 20
293.5900789584
 10
271.3293692469
 20
293.3237862122
 10
271.4925398119
 20
293.0498091987
 10
271.936640306
 20
292.7840704661
 10
272.6358612227
 20
292.5420137837
  0
LWPOLYLINE
  5
C6
330
1F
100
AcDbEntity
  8
0
  6
Continuous
 62
     7
370
    25
100
AcDbPolyline
 90
       14
 70
   128
 43
0.0
 10
272.6358612227
 20
292.5420137837
 10
273.5495663838
 20
292.3377066059
 10
274.6246545666
 20
292.1830225233
 10
275.7986455536
 20
292.0869512125
 10
277.0033112561
 20
292.0550759889
 10
278.1686408822
 20
292.0892493247
 10
279.2269097097
 20
292.1874851897
 10
280.1166150011
 20
292.3440744727
 10
280.7860503188
 20
292.5499167735
 10
281.1963105154
 20
292.793049286
 10
281.3235527596
 20
293.0593420322
 10
281.1603821945
 20
293.3333190456
 10
280.7162817005
 20
293.5990577782
 10
280.0170607838
 20
293.8411144606
  0
LWPOLYLINE
  5
C7
330
1F
100
AcDbEntity
  8
0
  6
Continuous
 62
     7
370
    25
100
AcDbPolyline
 90
       14
 70
   128
 43
0.0
 10
173.9808102572
 20
304.4717611162
 10
173.0671050961
 20
304.676068294
 10
171.9920169133
 20
304.8307523766
 10
170.8180259262
 20
304.9268236874
 10
169.6133602237
 20
304.958698911
 10
168.4480305977
 20
304.9245255752
 10
167.3897617702
 20
304.8262897102
 10
166.5000564788
 20
304.6697004273
 10
165.8306211611
 20
304.4638581264
 10
165.4203609644
 20
304.220725614
 10
165.2931187203
 20
303.9544328678
 10
165.4562892853
 20
303.6804558543
 10
165.9003897794
 20
303.4147171218
 10
166.599610696
 20
303.1726604393
  0
LWPOLYLINE
  5
C8
330
1F
100
AcDbEntity
  8
0
  6
Continuous
 62
     7
370
    25
100
AcDbPolyline
 90
       14
 70
   128
 43
0.0
 10
166.599610696
 20
303.1726604393
 10
167.5133158571
 20
302.9683532615
 10
168.5884040399
 20
302.8136691789
 10
169.762395027
 20
302.7175978681
 10
170.9670607295
 20
302.6857226446
 10
172.1323903555
 20
302.7198959803
 10
173.190659183
 20
302.8181318454
 10
174.0803644745
 20
302.9747211283
 10
174.7497997921
 20
303.1805634291
 10
175.1600599888
 20
303.4236959416
 10
175.2873022329
 20
303.6899886878
 10
175.1241316679
 20
303.9639657012
 10
174.6800311738
 20
304.2297044338
 10
173.9808102572
 20
304.4717611162
  0
LWPOLYLINE
  5
C9
330
1F
100
AcDbEntity
  8
0
  6
Continuous
 62
     7
370
    25
100
AcDbPolyline
 90
       14
 70
   128
 43
0.0
 10
238.6823432413
 20
286.5661506698
 10
237.7686380802
 20
286.7704578476
 10
236.6935498974
 20
286.9251419302
 10
235.5195589103
 20
287.021213241
 10
234.3148932078
 20
287.0530884645
 10
233.1495635818
 20
287.0189151288
 10
232.0912947543
 20
286.9206792637
 10
231.2015894629
 20
286.7640899808
 10
230.5321541452
 20
286.55824768
 10
230.1218939486
 20
286.3151151675
 10
229.9946517044
 20
286.0488224213
 10
230.1578222694
 20
285.7748454079
 10
230.6019227635
 20
285.5091066753
 10
231.3011436802
 20
285.2670499929
  0
LWPOLYLINE
  5
CA
330
1F
100
AcDbEntity
  8
0
  6
Continuous
 62
     7
370
    25
100
AcDbPolyline
 90
       14
 70
   128
 43
0.0
 10
231.3011436802
 20
285.2670499929
 10
232.2148488413
 20
285.0627428151
 10
233.2899370241
 20
284.9080587325
 10
234.4639280111
 20
284.8119874217
 10
235.6685937136
 20
284.7801121981
 10
236.8339233397
 20
284.8142855339
 10
237.8921921672
 20
284.9125213989
 10
238.7818974586
 20
285.0691106818
 10
239.4513327763
 20
285.2749529827
 10
239.8615929729
 20
285.5180854951
 10
239.9888352171
 20
285.7843782413
 10
239.825664652
 20
286.0583552548
 10
239.381564158
 20
286.3240939873
 10
238.6823432413
 20
286.5661506698
  0
LWPOLYLINE
  5
CB
330
1F
100
AcDbEntity
  8
0
  6
Continuous
 62
     7
370
    25
100
AcDbPolyline
 90
       21
 70
   128
 43
0.0
 10
174.1769806113
 20
288.4070517358
 10
177.1179970462
 20
287.6412688328
 10
180.2578079607
 20
286.9164836989
 10
183.581710856
 20
286.2360902175
 10
187.0741412032
 20
285.6032744035
 10
190.7187453254
 20
285.0209994843
 10
194.4984569761
 20
284.4919920243
 10
198.3955772532
 20
284.018729157
 10
202.3918574762
 20
283.6034269864
 10
206.4685846378
 20
283.2480302089
 10
210.6066690292
 20
282.9542030078
 10
214.7867336299
 20
282.7233212602
 10
218.9892048425
 20
282.5564660945
 10
223.1944041485
 20
282.4544188278
 10
227.3826402545
 20
282.4176573073
 10
231.5343012992
 20
282.4463536726
 10
235.6299466881
 20
282.54037355
 10
239.6503981258
 20
282.6992766814
 10
243.5768294205
 20
282.922318986
 10
247.3908546399
 20
283.2084560445
 10
251.074614205
 20
283.5563479896
  0
LINE
  5
CC
330
1F
100
AcDbEntity
  8
0
  6
Continuous
 62
     7
370
    25
100
AcDbLine
 10
269.6717366663
 20
299.8536118152
 30
0.0
 11
269.6479760045
 21
299.8997311527
 31
0.0
  0
SPLINE
  5
CD
330
1F
100
AcDbEntity
  8
0
  6
Continuous
 62
     7
370
    25
100
AcDbSpline
210
0.0
220
0.0
230
1.0
 70
     8
 71
     3
 72
    18
 73
    14
 74
     0
 42
0.00000001
 43
0.00000001
 40
0.0
 40
0.0
 40
0.0
 40
0.0
 40
0.0901851172833612
 40
0.1847829487110847
 40
0.2832421739351682
 40
0.3848207799361337
 40
0.4886067893328166
 40
0.5916856291625519
 40
0.6948509437857173
 40
0.7970755037599906
 40
0.8974201458208191
 40
0.9970556554208746
 40
1.0
 40
1.0
 40
1.0
 40
1.0
 10
251.0746142049811
 20
283.5563479896211
 30
0.0
 10
253.1545605844759
 20
283.7903432459619
 30
0.0
 10
257.4162241132423
 20
284.2697830332964
 30
0.0
 10
263.4617682762445
 20
285.1775889743906
 30
0.0
 10
269.3000806222962
 20
286.2496811985462
 30
0.0
 10
274.7505520561004
 20
287.4968997583949
 30
0.0
 10
279.6391901815279
 20
288.8968605233121
 30
0.0
 10
283.8345998962563
 20
290.4296376214537
 30
0.0
 10
287.2156453948758
 20
292.0675360131401
 30
0.0
 10
289.7506349098055
 20
293.7877851899018
 30
0.0
 10
291.2315701455743
 20
295.5699414477234
 30
0.0
 10
291.8765048797213
 20
296.799111931967
 30
0.0
 10
291.7291272405197
 20
297.4330563996853
 30
0.0
 10
291.7248970672899
 20
297.4512524769943
 30
0.0
  0
LINE
  5
CE
330
1F
100
AcDbEntity
  8
0
  6
Continuous
 62
     7
370
    25
100
AcDbLine
 10
238.7713512083
 20
285.0666681677
 30
0.0
 11
238.636413576
 21
285.105413373
 31
0.0
  0
ARC
  5
CF
330
1F
100
AcDbEntity
  8
0
  6
Continuous
 62
     7
370
    25
100
AcDbCircle
 10
234.4361556706
 20
267.8647203775
 30
0.0
 40
17.74496157886287
100
AcDbArc
 50
76.3080620914
 51
100.6188558411
  0
LWPOLYLINE
  5
D0
330
1F
100
AcDbEntity
  8
0
  6
Continuous
 62
     7
370
    25
100
AcDbPolyline
 90
       12
 70
   128
 43
0.0
 10
158.1015775766
 20
298.3293956979
 10
158.1949392735
 20
297.4587122318
 10
158.5721561301
 20
296.5029675069
 10
159.2350103064
 20
295.546724704
 10
160.1803979174
 20
294.5944615313
 10
161.4038920857
 20
293.650637062
 10
162.8997636703
 20
292.7196708539
 10
164.661008094
 20
291.8059222549
 10
166.6793781435
 20
290.9136699896
 10
168.9454225873
 20
290.0470921236
 10
171.4485304324
 20
289.2102464996
 10
174.1769806113
 20
288.4070517358
  0
LWPOLYLINE
  5
D1
330
1F
100
AcDbEntity
  8
0
  6
Continuous
 62
     7
370
    25
100
AcDbPolyline
 90
       15
 70
   128
 43
0.0
 10
240.2291923032
 20
336.0971455904
 10
242.0443515849
 20
336.4610342623
 10
243.6404656155
 20
336.8746486782
 10
244.997462335
 20
337.3327873968
 10
246.0982767224
 20
337.829689058
 10
246.9290653978
 20
338.359104835
 10
247.4793807119
 20
338.9143770174
 10
247.7423021301
 20
339.4885227351
 10
247.714523263
 20
340.0743217727
 10
247.3963934462
 20
340.6644073675
 10
246.7919133465
 20
341.2513588506
 10
245.908684652
 20
341.8277949666
 10
244.757814476
 20
342.3864666969
 10
243.3537756786
 20
342.9203484203
 10
241.7142248624
 20
343.4227262645
  0
ARC
  5
D2
330
1F
100
AcDbEntity
  8
0
  6
Continuous
 62
     7
370
    25
100
AcDbCircle
 10
227.2304950919
 20
420.2447120629
 30
0.0
 40
85.14563448842303
100
AcDbArc
 50
256.6274621567
 51
278.7813573442
  0
LWPOLYLINE
  5
D3
330
1F
100
AcDbEntity
  8
0
  6
Continuous
 62
     7
370
    25
100
AcDbPolyline
 90
       15
 70
   128
 43
0.0
 10
209.0229073283
 20
344.7332250845
 10
207.2077480466
 20
344.3693364127
 10
205.611634016
 20
343.9557219968
 10
204.2546372965
 20
343.4975832782
 10
203.1538229092
 20
343.000681617
 10
202.3230342337
 20
342.4712658399
 10
201.7727189197
 20
341.9159936576
 10
201.5097975015
 20
341.3418479399
 10
201.5375763685
 20
340.7560489022
 10
201.8557061854
 20
340.1659633075
 10
202.4601862851
 20
339.5790118244
 10
203.3434149796
 20
339.0025757084
 10
204.4942851556
 20
338.4439039781
 10
205.898323953
 20
337.9100222546
 10
207.5378747691
 20
337.4076444105
  0
LINE
  5
D4
330
1F
100
AcDbEntity
  8
0
  6
Continuous
 62
     7
370
    25
100
AcDbLine
 10
280.1060687508
 20
292.3416319585
 30
0.0
 11
279.9711311185
 21
292.3803771638
 31
0.0
  0
ARC
  5
D5
330
1F
100
AcDbEntity
  8
0
  6
Continuous
 62
     7
370
    25
100
AcDbCircle
 10
275.7708732131
 20
275.1396841684
 30
0.0
 40
17.74496157886067
100
AcDbArc
 50
76.3080620914
 51
100.6188558411
  0
LINE
  5
D6
330
1F
100
AcDbEntity
  8
0
  6
Continuous
 62
     7
370
    25
100
AcDbLine
 10
174.0698182242
 20
302.9722786141
 30
0.0
 11
173.9348805918
 21
303.0110238194
 31
0.0
  0
ARC
  5
D7
330
1F
100
AcDbEntity
  8
0
  6
Continuous
 62
     7
370
    25
100
AcDbCircle
 10
169.7346226865
 20
285.770330824
 30
0.0
 40
17.74496157886052
100
AcDbArc
 50
76.3080620914
 51
100.6188558411
  0
ARC
  5
D8
330
1F
100
AcDbEntity
  8
0
  6
Continuous
 62
     7
370
    25
100
AcDbCircle
 10
264.2154622209
 20
311.0881065028
 30
0.0
 40
4.018700596843346
100
AcDbArc
 50
353.7133349562
 51
64.2992539277
  0
LINE
  5
D9
330
1F
100
AcDbEntity
  8
0
  6
Continuous
 62
     7
370
    25
100
AcDbLine
 10
267.9724487867
 20
303.093138432
 30
0.0
 11
268.209996233
 21
310.6480468328
 31
0.0
  0
LINE
  5
DA
330
1F
100
AcDbEntity
  8
0
  6
Continuous
 62
     7
370
    25
100
AcDbLine
 10
265.9582553954
 20
314.7092425728
 30
0.0
 11
261.1845191708
 21
316.0303343193
 31
0.0
  0
ARC
  5
DB
330
1F
100
AcDbEntity
  8
0
  6
Continuous
 62
     7
370
    25
100
AcDbCircle
 10
212.4582588716
 20
435.8663228042
 30
0.0
 40
13.9915137658193
100
AcDbArc
 50
74.0389052134
 51
99.765697886
  0
LWPOLYLINE
  5
DC
330
1F
100
AcDbEntity
  8
0
  6
Continuous
 62
     7
370
    25
100
AcDbPolyline
 90
       65
 70
   128
 43
0.0
 10
216.305709303
 20
449.3184446679
 10
218.2554730951
 20
448.6432020852
 10
220.1791219525
 20
447.7050917862
 10
222.0592350131
 20
446.5126094432
 10
223.8787856819
 20
445.0765543608
 10
225.6212958264
 20
443.4099316764
 10
227.2709850048
 20
441.5278345829
 10
228.8129133765
 20
439.4473076432
 10
230.2331169994
 20
437.1871924314
 10
231.5187342895
 20
434.7679569008
 10
232.6581224976
 20
432.2115100231
 10
233.6409631476
 20
429.5410033769
 10
234.4583554824
 20
426.7806214841
 10
235.1028970704
 20
423.9553627905
 10
235.5687508433
 20
421.0908132764
 10
235.851697957
 20
418.2129147457
 10
235.9491759988
 20
415.3477298932
 10
235.8603021923
 20
412.5212062766
 10
235.5858813926
 20
409.7589413315
 10
235.1283987969
 20
407.0859505569
 10
234.4919974384
 20
404.5264409713
 10
233.6824406663
 20
402.1035918898
 10
232.7070599523
 20
399.8393450088
 10
231.574688495
 20
397.7542056987
 10
230.2955812257
 20
395.8670573041
 10
228.8813219379
 20
394.194990133
 10
227.3447183828
 20
392.7531466847
 10
225.69968628
 20
391.5545845167
 10
223.9611232952
 20
390.6101579935
 10
222.1447741237
 20
389.9284199881
 10
220.658587192
 20
389.5784783287
 10
222.1447741237
 20
389.9284199881
 10
223.9611232952
 20
390.6101579935
 10
225.69968628
 20
391.5545845167
 10
227.3447183828
 20
392.7531466847
 10
228.8813219379
 20
394.194990133
 10
230.2955812257
 20
395.8670573041
 10
231.574688495
 20
397.7542056987
 10
232.7070599523
 20
399.8393450088
 10
233.6824406663
 20
402.1035918898
 10
234.4919974384
 20
404.5264409713
 10
235.1283987969
 20
407.0859505569
 10
235.5858813926
 20
409.7589413315
 10
235.8603021923
 20
412.5212062766
 10
235.9491759988
 20
415.3477298932
 10
235.851697957
 20
418.2129147457
 10
235.5687508433
 20
421.0908132764
 10
235.1028970704
 20
423.9553627905
 10
234.4583554824
 20
426.7806214841
 10
233.6409631476
 20
429.5410033769
 10
232.6581224976
 20
432.2115100231
 10
231.5187342895
 20
434.7679569008
 10
230.2331169994
 20
437.1871924314
 10
228.8129133765
 20
439.4473076432
 10
227.2709850048
 20
441.5278345829
 10
225.6212958264
 20
443.4099316764
 10
223.8787856819
 20
445.0765543608
 10
222.0592350131
 20
446.5126094432
 10
220.1791219525
 20
447.7050917862
 10
218.2554730951
 20
448.6432020852
 10
216.305709303
 20
449.3184446679
 10
214.347487939
 20
449.7247044331
 10
212.3985429589
 20
449.8583022293
 10
210.4765243102
 20
449.7180281743
 10
210.0850250234
 20
449.6550942709
  0
LINE
  5
DD
330
1F
100
AcDbEntity
  8
0
  6
Continuous
 62
     7
370
    25
100
AcDbLine
 10
241.1055917043
 20
393.2400562441
 30
0.0
 11
226.343192582
 21
390.6418548903
 31
0.0
  0
LINE
  5
DE
330
1F
100
AcDbEntity
  8
0
  6
Continuous
 62
     7
370
    25
100
AcDbLine
 10
226.343192582
 20
390.6418548903
 30
0.0
 11
225.0873069287
 21
390.3579387348
 31
0.0
  0
ARC
  5
DF
330
1F
100
AcDbEntity
  8
0
  6
Continuous
 62
     7
370
    25
100
AcDbCircle
 10
240.3904074375
 20
409.6750120302
 30
0.0
 40
16.38666583855302
100
AcDbArc
 50
282.4005811139
 51
328.5822123007
  0
ARC
  5
E0
330
1F
100
AcDbEntity
  8
0
  6
Continuous
 62
     7
370
    25
100
AcDbCircle
 10
235.5799418594
 20
437.9081117105
 30
0.0
 40
15.9973378826927
100
AcDbArc
 50
52.4270656734
 51
98.0641634847
  0
LINE
  5
E1
330
1F
100
AcDbEntity
  8
0
  6
Continuous
 62
     7
370
    25
100
AcDbLine
 10
215.3739657115
 20
387.72213061
 30
0.0
 11
213.3281084247
 21
388.2883045771
 31
0.0
  0
LINE
  5
E2
330
1F
100
AcDbEntity
  8
0
  6
Continuous
 62
     7
370
    25
100
AcDbLine
 10
226.343192582
 20
390.6418548903
 30
0.0
 11
226.1876795214
 21
385.6959506244
 31
0.0
  0
LINE
  5
E3
330
1F
100
AcDbEntity
  8
0
  6
Continuous
 62
     7
370
    25
100
AcDbLine
 10
215.393391166
 20
388.3399336262
 30
0.0
 11
226.1876795214
 21
385.6959506244
 31
0.0
  0
LINE
  5
E4
330
1F
100
AcDbEntity
  8
0
  6
Continuous
 62
     7
370
    25
100
AcDbLine
 10
215.3739657115
 20
387.72213061
 30
0.0
 11
215.393391166
 21
388.3399336262
 31
0.0
  0
LWPOLYLINE
  5
E5
330
1F
100
AcDbEntity
  8
0
  6
Continuous
 62
     7
370
    25
100
AcDbPolyline
 90
       10
 70
   128
 43
0.0
 10
240.9500786437
 20
388.2941519783
 10
239.5087128772
 20
389.278797291
 10
237.9396813308
 20
389.9538463774
 10
236.2745172278
 20
390.3057326056
 10
234.5466857913
 20
390.3273840292
 10
232.7909116861
 20
390.018365514
 10
231.0424811477
 20
389.3848874832
 10
229.3365328259
 20
388.4396811047
 10
227.707351595
 20
387.2017424298
 10
226.1876795214
 20
385.6959506244
  0
LINE
  5
E6
330
1F
100
AcDbEntity
  8
0
  6
Continuous
 62
     7
370
    25
100
AcDbLine
 10
241.1055917043
 20
393.2400562441
 30
0.0
 11
240.9500786437
 21
388.2941519783
 31
0.0
  0
LINE
  5
E7
330
1F
100
AcDbEntity
  8
0
  6
Continuous
 62
     7
370
    25
100
AcDbLine
 10
235.2225481499
 20
389.6970692221
 30
0.0
 11
240.9500786437
 21
388.2941519783
 31
0.0
  0
LWPOLYLINE
  5
E8
330
1F
100
AcDbEntity
  8
0
  6
Continuous
 62
     7
370
    25
100
AcDbPolyline
 90
       16
 70
   128
 43
0.0
 10
215.4427434311
 20
362.720222412
 10
215.3004703734
 20
362.8244471815
 10
214.1042908136
 20
363.8903252579
 10
213.0548635635
 20
365.1863630217
 10
212.1708143848
 20
366.6895577442
 10
211.467833826
 20
368.3732299709
 10
210.9583987391
 20
370.2074970417
 10
210.6515508337
 20
372.159803464
 10
210.5527362004
 20
374.1954987233
 10
210.663708651
 20
376.2784522782
 10
210.9824985907
 20
378.3716948234
 10
211.5034479757
 20
380.4380744394
 10
212.2173107346
 20
382.4409159834
 10
213.111416873
 20
384.3446720184
 10
214.1698973463
 20
386.1155537264
 10
215.3739657115
 20
387.72213061
  0
ARC
  5
E9
330
1F
100
AcDbEntity
  8
0
  6
Continuous
 62
     7
370
    25
100
AcDbCircle
 10
228.5400450194
 20
376.5264511574
 30
0.0
 40
16.89655438005173
100
AcDbArc
 50
136.4952696461
 51
141.1441164002
  0
ARC
  5
EA
330
1F
100
AcDbEntity
  8
0
  6
Continuous
 62
     7
370
    25
100
AcDbCircle
 10
229.9063665086
 20
375.4450559438
 30
0.0
 40
18.63897917384447
100
AcDbArc
 50
141.190439345
 51
149.0959521406
  0
ARC
  5
EB
330
1F
100
AcDbEntity
  8
0
  6
Continuous
 62
     7
370
    25
100
AcDbCircle
 10
231.4430699651
 20
374.5155795396
 30
0.0
 40
20.43489721588671
100
AcDbArc
 50
149.072782526
 51
156.5076568618
  0
ARC
  5
EC
330
1F
100
AcDbEntity
  8
0
  6
Continuous
 62
     7
370
    25
100
AcDbCircle
 10
232.3933701461
 20
374.0936399698
 30
0.0
 40
21.47462804826807
100
AcDbArc
 50
156.4859079198
 51
163.6786266374
  0
ARC
  5
ED
330
1F
100
AcDbEntity
  8
0
  6
Continuous
 62
     7
370
    25
100
AcDbCircle
 10
232.5027578132
 20
374.0533171016
 30
0.0
 40
21.59094063945613
100
AcDbArc
 50
163.6575105509
 51
170.8243533438
  0
ARC
  5
EE
330
1F
100
AcDbEntity
  8
0
  6
Continuous
 62
     7
370
    25
100
AcDbCircle
 10
231.6860131652
 20
374.1773490475
 30
0.0
 40
20.76487007850573
100
AcDbArc
 50
170.8028461015
 51
178.1586806704
  0
ARC
  5
EF
330
1F
100
AcDbEntity
  8
0
  6
Continuous
 62
     7
370
    25
100
AcDbCircle
 10
230.0517391943
 20
374.2222769942
 30
0.0
 40
19.12999787540752
100
AcDbArc
 50
178.1358970943
 51
185.9054299833
  0
ARC
  5
F0
330
1F
100
AcDbEntity
  8
0
  6
Continuous
 62
     7
370
    25
100
AcDbCircle
 10
227.8766112834
 20
373.9900673614
 30
0.0
 40
16.94252343051824
100
AcDbArc
 50
185.8811307528
 51
194.3064165461
  0
ARC
  5
F1
330
1F
100
AcDbEntity
  8
0
  6
Continuous
 62
     7
370
    25
100
AcDbCircle
 10
225.5361410613
 20
373.3868261091
 30
0.0
 40
14.52557158190664
100
AcDbArc
 50
194.2820169784
 51
203.618689905
  0
ARC
  5
F2
330
1F
100
AcDbEntity
  8
0
  6
Continuous
 62
     7
370
    25
100
AcDbCircle
 10
223.4103574391
 20
372.4527010273
 30
0.0
 40
12.20360585547006
100
AcDbArc
 50
203.5990434141
 51
214.0866907055
  0
ARC
  5
F3
330
1F
100
AcDbEntity
  8
0
  6
Continuous
 62
     7
370
    25
100
AcDbCircle
 10
221.7894861244
 20
371.3548155875
 30
0.0
 40
10.24590940192545
100
AcDbArc
 50
214.0819571585
 51
225.86795087
  0
ARC
  5
F4
330
1F
100
AcDbEntity
  8
0
  6
Continuous
 62
     7
370
    25
100
AcDbCircle
 10
220.950433007
 20
370.5143984535
 30
0.0
 40
9.058482245253472
100
AcDbArc
 50
225.975634838
 51
233.2955040304
  0
LWPOLYLINE
  5
F5
330
1F
100
AcDbEntity
  8
0
  6
Continuous
 62
     7
370
    25
100
AcDbPolyline
 90
       17
 70
   128
 43
0.0
 10
205.169473356
 20
386.8523742446
 10
205.0678289054
 20
386.6654276045
 10
204.1637697764
 20
384.7616093429
 10
203.4403248252
 20
382.7566946427
 10
202.910403944
 20
380.6864612544
 10
202.5834635834
 20
378.5878525416
 10
202.465338002
 20
376.4983182267
 10
202.5581351535
 20
374.455146099
 10
202.8601990706
 20
372.4947966135
 10
203.3661394156
 20
370.6522522532
 10
204.0669276709
 20
368.9603932658
 10
204.9500582536
 20
367.4494109152
 10
205.9997716775
 20
366.1462687171
 10
207.1973357817
 20
365.0742212749
 10
208.5213800063
 20
364.2523993006
 10
209.9482767508
 20
363.6954682269
 10
210.0175655833
 20
363.6759643306
  0
SPLINE
  5
F6
330
1F
100
AcDbEntity
  8
0
  6
Continuous
 62
     7
370
    25
100
AcDbSpline
210
0.0
220
0.0
230
1.0
 70
     8
 71
     3
 72
    10
 73
     6
 74
     0
 42
0.00000001
 43
0.00000001
 40
0.0
 40
0.0
 40
0.0
 40
0.0
 40
0.146003204790255
 40
0.5270346037440742
 40
1.0
 40
1.0
 40
1.0
 40
1.0
 10
213.4388561356602
 20
381.3230477460897
 30
0.0
 10
213.4009950205801
 20
381.3881967061483
 30
0.0
 10
213.2643259809365
 20
381.6233679573419
 30
0.0
 10
213.0145863437366
 20
382.068406305291
 30
0.0
 10
212.8133839196011
 20
382.4500868373723
 30
0.0
 10
212.7019528407111
 20
382.6614713356651
 30
0.0
  0
SPLINE
  5
F7
330
1F
100
AcDbEntity
  8
0
  6
Continuous
 62
     7
370
    25
100
AcDbSpline
210
0.0
220
0.0
230
1.0
 70
     8
 71
     3
 72
     9
 73
     5
 74
     0
 42
0.00000001
 43
0.00000001
 40
0.0
 40
0.0
 40
0.0
 40
0.0
 40
0.5359210885187047
 40
1.0
 40
1.0
 40
1.0
 40
1.0
 10
211.7841583010515
 20
380.1285415377542
 30
0.0
 10
211.9692964637712
 20
380.2231623657398
 30
0.0
 10
212.314754343086
 20
380.3997197545283
 30
0.0
 10
212.668066825418
 20
380.5671615483643
 30
0.0
 10
212.8320316976314
 20
380.6448677537841
 30
0.0
  0
SPLINE
  5
F8
330
1F
100
AcDbEntity
  8
0
  6
Continuous
 62
     7
370
    25
100
AcDbSpline
210
0.0
220
0.0
230
1.0
 70
     8
 71
     3
 72
     9
 73
     5
 74
     0
 42
0.00000001
 43
0.00000001
 40
0.0
 40
0.0
 40
0.0
 40
0.0
 40
0.332931764632055
 40
1.0
 40
1.0
 40
1.0
 40
1.0
 10
212.3927488410527
 20
379.1527643673894
 30
0.0
 10
212.322914439822
 20
379.2604416768913
 30
0.0
 10
212.1131585419193
 20
379.5838632333202
 30
0.0
 10
211.9158059477735
 20
379.9105914936746
 30
0.0
 10
211.7841583010515
 20
380.1285415377542
 30
0.0
  0
SPLINE
  5
F9
330
1F
100
AcDbEntity
  8
0
  6
Continuous
 62
     7
370
    25
100
AcDbSpline
210
0.0
220
0.0
230
1.0
 70
     8
 71
     3
 72
     9
 73
     5
 74
     0
 42
0.00000001
 43
0.00000001
 40
0.0
 40
0.0
 40
0.0
 40
0.0
 40
0.5162090759452729
 40
1.0
 40
1.0
 40
1.0
 40
1.0
 10
211.1880919836843
 20
377.4962429315458
 30
0.0
 10
211.356398567423
 20
377.5959168983823
 30
0.0
 10
211.6824420090856
 20
377.7890052640876
 30
0.0
 10
212.0178873836815
 20
377.9743458418218
 30
0.0
 10
212.1801728114272
 20
378.0640119311886
 30
0.0
  0
SPLINE
  5
FA
330
1F
100
AcDbEntity
  8
0
  6
Continuous
 62
     7
370
    25
100
AcDbSpline
210
0.0
220
0.0
230
1.0
 70
     8
 71
     3
 72
    10
 73
     6
 74
     0
 42
0.00000001
 43
0.00000001
 40
0.0
 40
0.0
 40
0.0
 40
0.0
 40
0.1097008022207851
 40
0.5069293992362668
 40
1.0
 40
1.0
 40
1.0
 40
1.0
 10
214.5025915804401
 20
383.7987464725846
 30
0.0
 10
214.4796258684576
 20
383.8436308782271
 30
0.0
 10
214.373500896328
 20
384.0510425318054
 30
0.0
 10
214.1729031362733
 20
384.4570728380774
 30
0.0
 10
214.0060155299543
 20
384.8181157061032
 30
0.0
 10
213.91358888
 20
385.0180705350899
 30
0.0
  0
SPLINE
  5
FB
330
1F
100
AcDbEntity
  8
0
  6
Continuous
 62
     7
370
    25
100
AcDbSpline
210
0.0
220
0.0
230
1.0
 70
     8
 71
     3
 72
     9
 73
     5
 74
     0
 42
0.00000001
 43
0.00000001
 40
0.0
 40
0.0
 40
0.0
 40
0.0
 40
0.5508605765487111
 40
1.0
 40
1.0
 40
1.0
 40
1.0
 10
212.7019528407111
 20
382.6614713356651
 30
0.0
 10
212.9024925706287
 20
382.7470088075316
 30
0.0
 10
213.2665406409664
 20
382.9022885198729
 30
0.0
 10
213.6369016425091
 20
383.0473413044448
 30
0.0
 10
213.8032453692108
 20
383.1124902284775
 30
0.0
  0
LINE
  5
FC
330
1F
100
AcDbEntity
  8
0
  6
Continuous
 62
     7
370
    25
100
AcDbLine
 10
211.7841583011
 20
380.1285415378
 30
0.0
 11
211.8557613238
 21
380.1064262661
 31
0.0
  0
LINE
  5
FD
330
1F
100
AcDbEntity
  8
0
  6
Continuous
 62
     7
370
    25
100
AcDbLine
 10
211.1880919837
 20
377.4962429315
 30
0.0
 11
211.2637257777
 21
377.4919280437
 31
0.0
  0
LINE
  5
FE
330
1F
100
AcDbEntity
  8
0
  6
Continuous
 62
     7
370
    25
100
AcDbLine
 10
212.7019528407
 20
382.6614713357
 30
0.0
 11
212.7673494723
 21
382.6222276373
 31
0.0
  0
LINE
  5
FF
330
1F
100
AcDbEntity
  8
0
  6
Continuous
 62
     7
370
    25
100
AcDbLine
 10
213.91358888
 20
385.0180705351
 30
0.0
 11
213.9707920806
 21
384.9628908008
 31
0.0
  0
SPLINE
  5
100
330
1F
100
AcDbEntity
  8
0
  6
Continuous
 62
     7
370
    25
100
AcDbSpline
210
0.0
220
0.0
230
1.0
 70
     8
 71
     3
 72
     9
 73
     5
 74
     0
 42
0.00000001
 43
0.00000001
 40
0.0
 40
0.0
 40
0.0
 40
0.0
 40
0.3140630950216751
 40
1.0
 40
1.0
 40
1.0
 40
1.0
 10
211.8753376189414
 20
376.5438017719973
 30
0.0
 10
211.8013273063507
 20
376.6425752776632
 30
0.0
 10
211.5656730261635
 20
376.9570773864165
 30
0.0
 10
211.341713848709
 20
377.2768791201215
 30
0.0
 10
211.1880919836843
 20
377.4962429315458
 30
0.0
  0
SPLINE
  5
101
330
1F
100
AcDbEntity
  8
0
  6
Continuous
 62
     7
370
    25
100
AcDbSpline
210
0.0
220
0.0
230
1.0
 70
     8
 71
     3
 72
    10
 73
     6
 74
     0
 42
0.00000001
 43
0.00000001
 40
0.0
 40
0.0
 40
0.0
 40
0.0
 40
0.4049342203131711
 40
0.8098587473877368
 40
1.0
 40
1.0
 40
1.0
 40
1.0
 10
210.9318650620372
 20
374.8445565781801
 30
0.0
 10
211.0826479142591
 20
374.9450457596708
 30
0.0
 10
211.3842100092916
 20
375.1460217171613
 30
0.0
 10
211.7663382521955
 20
375.3877773781113
 30
0.0
 10
211.9999310740245
 20
375.5298704901466
 30
0.0
 10
212.0745709428591
 20
375.5752734745431
 30
0.0
  0
LINE
  5
102
330
1F
100
AcDbEntity
  8
0
  6
Continuous
 62
     7
370
    25
100
AcDbLine
 10
210.931865062
 20
374.8445565782
 30
0.0
 11
211.0092315339
 21
374.8581731774
 31
0.0
  0
SPLINE
  5
103
330
1F
100
AcDbEntity
  8
0
  6
Continuous
 62
     7
370
    25
100
AcDbSpline
210
0.0
220
0.0
230
1.0
 70
     8
 71
     3
 72
     9
 73
     5
 74
     0
 42
0.00000001
 43
0.00000001
 40
0.0
 40
0.0
 40
0.0
 40
0.0
 40
0.4396527788629047
 40
1.0
 40
1.0
 40
1.0
 40
1.0
 10
215.8064462524904
 20
386.1371162344399
 30
0.0
 10
215.7410876703047
 20
386.2831184981891
 30
0.0
 10
215.5924281250272
 20
386.6152038864057
 30
0.0
 10
215.4577294815494
 20
386.9430355180583
 30
0.0
 10
215.3822514709857
 20
387.1267350618558
 30
0.0
  0
SPLINE
  5
104
330
1F
100
AcDbEntity
  8
0
  6
Continuous
 62
     7
370
    25
100
AcDbSpline
210
0.0
220
0.0
230
1.0
 70
     8
 71
     3
 72
     9
 73
     5
 74
     0
 42
0.00000001
 43
0.00000001
 40
0.0
 40
0.0
 40
0.0
 40
0.0
 40
0.5629701351964966
 40
0.9999999999999999
 40
0.9999999999999999
 40
0.9999999999999999
 40
0.9999999999999999
 10
213.91358888
 20
385.0180705350899
 30
0.0
 10
214.1276275703502
 20
385.0907694935705
 30
0.0
 10
214.5078230318299
 20
385.2199041562027
 30
0.0
 10
214.8927787709936
 20
385.3379869806344
 30
0.0
 10
215.0610159256357
 20
385.3895927014315
 30
0.0
  0
SPLINE
  5
105
330
1F
100
AcDbEntity
  8
0
  6
Continuous
 62
     7
370
    25
100
AcDbSpline
210
0.0
220
0.0
230
1.0
 70
     8
 71
     3
 72
     9
 73
     5
 74
     0
 42
0.00000001
 43
0.00000001
 40
0.0
 40
0.0
 40
0.0
 40
0.0
 40
0.2991634916495578
 40
1.0
 40
1.0
 40
1.0
 40
1.0
 10
211.6998701382605
 20
373.9309900867121
 30
0.0
 10
211.6214500730758
 20
374.0208964170945
 30
0.0
 10
211.35931893952
 20
374.3214221593457
 30
0.0
 10
211.1079991475328
 20
374.6289969416754
 30
0.0
 10
210.9318650620372
 20
374.8445565781801
 30
0.0
  0
SPLINE
  5
106
330
1F
100
AcDbEntity
  8
0
  6
Continuous
 62
     7
370
    25
100
AcDbSpline
210
0.0
220
0.0
230
1.0
 70
     8
 71
     3
 72
    10
 73
     6
 74
     0
 42
0.00000001
 43
0.00000001
 40
0.0
 40
0.0
 40
0.0
 40
0.0
 40
0.4581445984156963
 40
0.9162782298527378
 40
1.0
 40
1.0
 40
1.0
 40
1.0
 10
211.0232628614682
 20
372.2540526256865
 30
0.0
 10
211.1559428157384
 20
372.3512828533526
 30
0.0
 10
211.4212995482112
 20
372.5457409812059
 30
0.0
 10
211.7193944108342
 20
372.7540189642888
 30
0.0
 10
211.8862669431512
 20
372.8665453743467
 30
0.0
 10
211.9120503232812
 20
372.8839317660129
 30
0.0
  0
LINE
  5
107
330
1F
100
AcDbEntity
  8
0
  6
Continuous
 62
     7
370
    25
100
AcDbLine
 10
211.0232628615
 20
372.2540526257
 30
0.0
 11
211.1150641525
 21
372.2912934447
 31
0.0
  0
SPLINE
  5
108
330
1F
100
AcDbEntity
  8
0
  6
Continuous
 62
     7
370
    25
100
AcDbSpline
210
0.0
220
0.0
230
1.0
 70
     8
 71
     3
 72
     9
 73
     5
 74
     0
 42
0.00000001
 43
0.00000001
 40
0.0
 40
0.0
 40
0.0
 40
0.0
 40
0.5732912702641079
 40
1.0
 40
1.0
 40
1.0
 40
1.0
 10
215.3822514709857
 20
387.1267350618558
 30
0.0
 10
215.6074737542828
 20
387.1832297757624
 30
0.0
 10
216.0003321405499
 20
387.2817742972596
 30
0.0
 10
216.3964013403309
 20
387.3687503596076
 30
0.0
 10
216.565407525457
 20
387.4058638046895
 30
0.0
  0
SPLINE
  5
109
330
1F
100
AcDbEntity
  8
0
  6
Continuous
 62
     7
370
    25
100
AcDbSpline
210
0.0
220
0.0
230
1.0
 70
     8
 71
     3
 72
     9
 73
     5
 74
     0
 42
0.00000001
 43
0.00000001
 40
0.0
 40
0.0
 40
0.0
 40
0.0
 40
0.2867183871920728
 40
1.0
 40
1.0
 40
1.0
 40
1.0
 10
211.8706633370692
 20
371.3958728406272
 30
0.0
 10
211.7880789785004
 20
371.4764954644366
 30
0.0
 10
211.5000459737894
 20
371.7576864428005
 30
0.0
 10
211.2217594920126
 20
372.0474030773428
 30
0.0
 10
211.0232628614682
 20
372.2540526256865
 30
0.0
  0
SPLINE
  5
10A
330
1F
100
AcDbEntity
  8
0
  6
Continuous
 62
     7
370
    25
100
AcDbSpline
210
0.0
220
0.0
230
1.0
 70
     8
 71
     3
 72
    10
 73
     6
 74
     0
 42
0.00000001
 43
0.00000001
 40
0.0
 40
0.0
 40
0.0
 40
0.0
 40
0.4152066239820146
 40
0.8304033088266055
 40
0.9999999999999999
 40
0.9999999999999999
 40
0.9999999999999999
 40
0.9999999999999999
 10
211.4595083060908
 20
369.8034422258054
 30
0.0
 10
211.5741142504861
 20
369.8933119175223
 30
0.0
 10
211.8033233958615
 20
370.0730491496727
 30
0.0
 10
212.0901213539281
 20
370.2869934494407
 30
0.0
 10
212.264202395456
 20
370.4130419731085
 30
0.0
 10
212.3146878657946
 20
370.4495974701748
 30
0.0
  0
LINE
  5
10B
330
1F
100
AcDbEntity
  8
0
  6
Continuous
 62
     7
370
    25
100
AcDbLine
 10
211.5333066923
 20
369.8511483261
 30
0.0
 11
211.5896828884
 21
369.8875920562
 31
0.0
  0
SPLINE
  5
10C
330
1F
100
AcDbEntity
  8
0
  6
Continuous
 62
     7
370
    25
100
AcDbSpline
210
0.0
220
0.0
230
1.0
 70
     8
 71
     3
 72
     9
 73
     5
 74
     0
 42
0.00000001
 43
0.00000001
 40
0.0
 40
0.0
 40
0.0
 40
0.0
 40
0.2758605921058765
 40
0.9999999999999999
 40
0.9999999999999999
 40
0.9999999999999999
 40
0.9999999999999999
 10
212.3819149295766
 20
369.0166531548819
 30
0.0
 10
212.2957463783859
 20
369.0874634972046
 30
0.0
 10
211.98338370805
 20
369.3441523623383
 30
0.0
 10
211.6795362351829
 20
369.610540254967
 30
0.0
 10
211.4595083060908
 20
369.8034422258054
 30
0.0
  0
SPLINE
  5
10D
330
1F
100
AcDbEntity
  8
0
  6
Continuous
 62
     7
370
    25
100
AcDbSpline
210
0.0
220
0.0
230
1.0
 70
     8
 71
     3
 72
    10
 73
     6
 74
     0
 42
0.00000001
 43
0.00000001
 40
0.0
 40
0.0
 40
0.0
 40
0.0
 40
0.4415853151584234
 40
0.883160059731221
 40
0.9999999999999999
 40
0.9999999999999999
 40
0.9999999999999999
 40
0.9999999999999999
 10
212.2273462988209
 20
367.5671859354648
 30
0.0
 10
212.3246675135816
 20
367.6458154241789
 30
0.0
 10
212.5193076134462
 20
367.8030725193893
 30
0.0
 10
212.7497086540454
 20
367.9804629566522
 30
0.0
 10
212.8840905507973
 20
368.0815382442177
 30
0.0
 10
212.9122079574771
 20
368.1026867399187
 30
0.0
  0
SPLINE
  5
10E
330
1F
100
AcDbEntity
  8
0
  6
Continuous
 62
     7
370
    25
100
AcDbSpline
210
0.0
220
0.0
230
1.0
 70
     8
 71
     3
 72
     9
 73
     5
 74
     0
 42
0.00000001
 43
0.00000001
 40
0.0
 40
0.0
 40
0.0
 40
0.0
 40
0.2660440019965255
 40
1.0
 40
1.0
 40
1.0
 40
1.0
 10
213.2176723751556
 20
366.8663240869167
 30
0.0
 10
213.128750407768
 20
366.9268562040948
 30
0.0
 10
212.794512587256
 20
367.1543829166831
 30
0.0
 10
212.4674187687922
 20
367.3924529826231
 30
0.0
 10
212.2273462988209
 20
367.5671859354648
 30
0.0
  0
SPLINE
  5
10F
330
1F
100
AcDbEntity
  8
0
  6
Continuous
 62
     7
370
    25
100
AcDbSpline
210
0.0
220
0.0
230
1.0
 70
     8
 71
     3
 72
    10
 73
     6
 74
     0
 42
0.00000001
 43
0.00000001
 40
0.0
 40
0.0
 40
0.0
 40
0.0
 40
0.4490218692639066
 40
0.8980329899271972
 40
1.0
 40
1.0
 40
1.0
 40
1.0
 10
213.3034464707951
 20
365.6132312704484
 30
0.0
 10
213.3846840915897
 20
365.6770746322486
 30
0.0
 10
213.547157388528
 20
365.8047598275785
 30
0.0
 10
213.737900758956
 20
365.9479267964861
 30
0.0
 10
213.8483625788
 20
366.0298465337104
 30
0.0
 10
213.8688052440681
 20
366.0450070459063
 30
0.0
  0
SPLINE
  5
110
330
1F
100
AcDbEntity
  8
0
  6
Continuous
 62
     7
370
    25
100
AcDbSpline
210
0.0
220
0.0
230
1.0
 70
     8
 71
     3
 72
     9
 73
     5
 74
     0
 42
0.00000001
 43
0.00000001
 40
0.0
 40
0.0
 40
0.0
 40
0.0
 40
0.2568937442624608
 40
1.0
 40
1.0
 40
1.0
 40
1.0
 10
214.3522260869809
 20
365.0106688604842
 30
0.0
 10
214.2615718077826
 20
365.0606190914979
 30
0.0
 10
213.9086855222153
 20
365.255058357262
 30
0.0
 10
213.5614668432461
 20
365.4605380358573
 30
0.0
 10
213.3034464707951
 20
365.6132312704484
 30
0.0
  0
SPLINE
  5
111
330
1F
100
AcDbEntity
  8
0
  6
Continuous
 62
     7
370
    25
100
AcDbSpline
210
0.0
220
0.0
230
1.0
 70
     8
 71
     3
 72
     9
 73
     5
 74
     0
 42
0.00000001
 43
0.00000001
 40
0.0
 40
0.0
 40
0.0
 40
0.0
 40
0.6713014306953777
 40
1.0
 40
1.0
 40
1.0
 40
1.0
 10
214.6551120628205
 20
364.000948154504
 30
0.0
 10
214.7213480592018
 20
364.046539019533
 30
0.0
 10
214.8200160991503
 20
364.114453167998
 30
0.0
 10
214.9276617540829
 20
364.1861085224514
 30
0.0
 10
214.9630447268511
 20
364.2096615349433
 30
0.0
  0
SPLINE
  5
112
330
1F
100
AcDbEntity
  8
0
  6
Continuous
 62
     7
370
    25
100
AcDbSpline
210
0.0
220
0.0
230
1.0
 70
     8
 71
     3
 72
     9
 73
     5
 74
     0
 42
0.00000001
 43
0.00000001
 40
0.0
 40
0.0
 40
0.0
 40
0.0
 40
0.1280243140747503
 40
1.0
 40
1.0
 40
1.0
 40
1.0
 10
215.5990650912513
 20
363.572173963363
 30
0.0
 10
215.5584978948604
 20
363.5897016122504
 30
0.0
 10
215.241626863884
 20
363.7266103628589
 30
0.0
 10
214.928313605879
 20
363.8731602319132
 30
0.0
 10
214.6551120628205
 20
364.0009481545041
 30
0.0
  0
ARC
  5
113
330
1F
100
AcDbEntity
  8
0
  6
Continuous
 62
     7
370
    25
100
AcDbCircle
 10
221.5978483243
 20
376.8189132666
 30
0.0
 40
19.40512174998979
100
AcDbArc
 50
176.7605291011
 51
179.6375785352
  0
LINE
  5
114
330
1F
100
AcDbEntity
  8
0
  6
Continuous
 62
     7
370
    25
100
AcDbLine
 10
215.393391166
 20
388.3399336262
 30
0.0
 11
226.1876795214
 21
385.6959506244
 31
0.0
  0
LWPOLYLINE
  5
115
330
1F
100
AcDbEntity
  8
0
  6
Continuous
 62
     7
370
    25
100
AcDbPolyline
 90
       10
 70
   128
 43
0.0
 10
240.9500786437
 20
388.2941519783
 10
239.5087128772
 20
389.278797291
 10
237.9396813308
 20
389.9538463774
 10
236.2745172278
 20
390.3057326056
 10
234.5466857913
 20
390.3273840292
 10
232.7909116861
 20
390.018365514
 10
231.0424811477
 20
389.3848874832
 10
229.3365328259
 20
388.4396811047
 10
227.707351595
 20
387.2017424298
 10
226.1876795214
 20
385.6959506244
  0
LINE
  5
116
330
1F
100
AcDbEntity
  8
0
  6
Continuous
 62
     7
370
    25
100
AcDbLine
 10
235.2225481499
 20
389.6970692221
 30
0.0
 11
240.9500786437
 21
388.2941519783
 31
0.0
  0
LWPOLYLINE
  5
117
330
1F
100
AcDbEntity
  8
0
  6
Continuous
 62
     7
370
    25
100
AcDbPolyline
 90
       16
 70
   128
 43
0.0
 10
215.4427434311
 20
362.720222412
 10
215.3004703734
 20
362.8244471815
 10
214.1042908136
 20
363.8903252579
 10
213.0548635635
 20
365.1863630217
 10
212.1708143848
 20
366.6895577442
 10
211.467833826
 20
368.3732299709
 10
210.9583987391
 20
370.2074970417
 10
210.6515508337
 20
372.159803464
 10
210.5527362004
 20
374.1954987233
 10
210.663708651
 20
376.2784522782
 10
210.9824985907
 20
378.3716948234
 10
211.5034479757
 20
380.4380744394
 10
212.2173107346
 20
382.4409159834
 10
213.111416873
 20
384.3446720184
 10
214.1698973463
 20
386.1155537264
 10
215.3739657115
 20
387.72213061
  0
LWPOLYLINE
  5
118
330
1F
100
AcDbEntity
  8
0
  6
Continuous
 62
     7
370
    25
100
AcDbPolyline
 90
       17
 70
   128
 43
0.0
 10
205.169473356
 20
386.8523742446
 10
205.0678289054
 20
386.6654276045
 10
204.1637697764
 20
384.7616093429
 10
203.4403248252
 20
382.7566946427
 10
202.910403944
 20
380.6864612544
 10
202.5834635834
 20
378.5878525416
 10
202.465338002
 20
376.4983182267
 10
202.5581351535
 20
374.455146099
 10
202.8601990706
 20
372.4947966135
 10
203.3661394156
 20
370.6522522532
 10
204.0669276709
 20
368.9603932658
 10
204.9500582536
 20
367.4494109152
 10
205.9997716775
 20
366.1462687171
 10
207.1973357817
 20
365.0742212749
 10
208.5213800063
 20
364.2523993006
 10
209.9482767508
 20
363.6954682269
 10
210.0175655833
 20
363.6759643306
  0
SPLINE
  5
119
330
1F
100
AcDbEntity
  8
0
  6
Continuous
 62
     7
370
    25
100
AcDbSpline
210
0.0
220
0.0
230
1.0
 70
     8
 71
     3
 72
    10
 73
     6
 74
     0
 42
0.00000001
 43
0.00000001
 40
0.0
 40
0.0
 40
0.0
 40
0.0
 40
0.146003204790255
 40
0.5270346037440742
 40
1.0
 40
1.0
 40
1.0
 40
1.0
 10
213.4388561356602
 20
381.3230477460897
 30
0.0
 10
213.4009950205801
 20
381.3881967061483
 30
0.0
 10
213.2643259809365
 20
381.6233679573419
 30
0.0
 10
213.0145863437366
 20
382.068406305291
 30
0.0
 10
212.8133839196011
 20
382.4500868373723
 30
0.0
 10
212.7019528407111
 20
382.6614713356651
 30
0.0
  0
SPLINE
  5
11A
330
1F
100
AcDbEntity
  8
0
  6
Continuous
 62
     7
370
    25
100
AcDbSpline
210
0.0
220
0.0
230
1.0
 70
     8
 71
     3
 72
     9
 73
     5
 74
     0
 42
0.00000001
 43
0.00000001
 40
0.0
 40
0.0
 40
0.0
 40
0.0
 40
0.5359210885187047
 40
1.0
 40
1.0
 40
1.0
 40
1.0
 10
211.7841583010515
 20
380.1285415377542
 30
0.0
 10
211.9692964637712
 20
380.2231623657398
 30
0.0
 10
212.314754343086
 20
380.3997197545283
 30
0.0
 10
212.668066825418
 20
380.5671615483643
 30
0.0
 10
212.8320316976314
 20
380.6448677537841
 30
0.0
  0
SPLINE
  5
11B
330
1F
100
AcDbEntity
  8
0
  6
Continuous
 62
     7
370
    25
100
AcDbSpline
210
0.0
220
0.0
230
1.0
 70
     8
 71
     3
 72
     9
 73
     5
 74
     0
 42
0.00000001
 43
0.00000001
 40
0.0
 40
0.0
 40
0.0
 40
0.0
 40
0.332931764632055
 40
1.0
 40
1.0
 40
1.0
 40
1.0
 10
212.3927488410527
 20
379.1527643673894
 30
0.0
 10
212.322914439822
 20
379.2604416768913
 30
0.0
 10
212.1131585419193
 20
379.5838632333202
 30
0.0
 10
211.9158059477735
 20
379.9105914936746
 30
0.0
 10
211.7841583010515
 20
380.1285415377542
 30
0.0
  0
SPLINE
  5
11C
330
1F
100
AcDbEntity
  8
0
  6
Continuous
 62
     7
370
    25
100
AcDbSpline
210
0.0
220
0.0
230
1.0
 70
     8
 71
     3
 72
     9
 73
     5
 74
     0
 42
0.00000001
 43
0.00000001
 40
0.0
 40
0.0
 40
0.0
 40
0.0
 40
0.5162090759452729
 40
1.0
 40
1.0
 40
1.0
 40
1.0
 10
211.1880919836843
 20
377.4962429315458
 30
0.0
 10
211.356398567423
 20
377.5959168983823
 30
0.0
 10
211.6824420090856
 20
377.7890052640876
 30
0.0
 10
212.0178873836815
 20
377.9743458418218
 30
0.0
 10
212.1801728114272
 20
378.0640119311886
 30
0.0
  0
SPLINE
  5
11D
330
1F
100
AcDbEntity
  8
0
  6
Continuous
 62
     7
370
    25
100
AcDbSpline
210
0.0
220
0.0
230
1.0
 70
     8
 71
     3
 72
    10
 73
     6
 74
     0
 42
0.00000001
 43
0.00000001
 40
0.0
 40
0.0
 40
0.0
 40
0.0
 40
0.1097008022207851
 40
0.5069293992362668
 40
1.0
 40
1.0
 40
1.0
 40
1.0
 10
214.5025915804401
 20
383.7987464725846
 30
0.0
 10
214.4796258684576
 20
383.8436308782271
 30
0.0
 10
214.373500896328
 20
384.0510425318054
 30
0.0
 10
214.1729031362733
 20
384.4570728380774
 30
0.0
 10
214.0060155299543
 20
384.8181157061032
 30
0.0
 10
213.91358888
 20
385.0180705350899
 30
0.0
  0
SPLINE
  5
11E
330
1F
100
AcDbEntity
  8
0
  6
Continuous
 62
     7
370
    25
100
AcDbSpline
210
0.0
220
0.0
230
1.0
 70
     8
 71
     3
 72
     9
 73
     5
 74
     0
 42
0.00000001
 43
0.00000001
 40
0.0
 40
0.0
 40
0.0
 40
0.0
 40
0.5508605765487111
 40
1.0
 40
1.0
 40
1.0
 40
1.0
 10
212.7019528407111
 20
382.6614713356651
 30
0.0
 10
212.9024925706287
 20
382.7470088075316
 30
0.0
 10
213.2665406409664
 20
382.9022885198729
 30
0.0
 10
213.6369016425091
 20
383.0473413044448
 30
0.0
 10
213.8032453692108
 20
383.1124902284775
 30
0.0
  0
SPLINE
  5
11F
330
1F
100
AcDbEntity
  8
0
  6
Continuous
 62
     7
370
    25
100
AcDbSpline
210
0.0
220
0.0
230
1.0
 70
     8
 71
     3
 72
     9
 73
     5
 74
     0
 42
0.00000001
 43
0.00000001
 40
0.0
 40
0.0
 40
0.0
 40
0.0
 40
0.3140630950216751
 40
1.0
 40
1.0
 40
1.0
 40
1.0
 10
211.8753376189414
 20
376.5438017719973
 30
0.0
 10
211.8013273063507
 20
376.6425752776632
 30
0.0
 10
211.5656730261635
 20
376.9570773864165
 30
0.0
 10
211.341713848709
 20
377.2768791201215
 30
0.0
 10
211.1880919836843
 20
377.4962429315458
 30
0.0
  0
SPLINE
  5
120
330
1F
100
AcDbEntity
  8
0
  6
Continuous
 62
     7
370
    25
100
AcDbSpline
210
0.0
220
0.0
230
1.0
 70
     8
 71
     3
 72
    10
 73
     6
 74
     0
 42
0.00000001
 43
0.00000001
 40
0.0
 40
0.0
 40
0.0
 40
0.0
 40
0.4049342203131711
 40
0.8098587473877368
 40
1.0
 40
1.0
 40
1.0
 40
1.0
 10
210.9318650620372
 20
374.8445565781801
 30
0.0
 10
211.0826479142591
 20
374.9450457596708
 30
0.0
 10
211.3842100092916
 20
375.1460217171613
 30
0.0
 10
211.7663382521955
 20
375.3877773781113
 30
0.0
 10
211.9999310740245
 20
375.5298704901466
 30
0.0
 10
212.0745709428591
 20
375.5752734745431
 30
0.0
  0
SPLINE
  5
121
330
1F
100
AcDbEntity
  8
0
  6
Continuous
 62
     7
370
    25
100
AcDbSpline
210
0.0
220
0.0
230
1.0
 70
     8
 71
     3
 72
     9
 73
     5
 74
     0
 42
0.00000001
 43
0.00000001
 40
0.0
 40
0.0
 40
0.0
 40
0.0
 40
0.4396527788629047
 40
1.0
 40
1.0
 40
1.0
 40
1.0
 10
215.8064462524904
 20
386.1371162344399
 30
0.0
 10
215.7410876703047
 20
386.2831184981891
 30
0.0
 10
215.5924281250272
 20
386.6152038864057
 30
0.0
 10
215.4577294815494
 20
386.9430355180583
 30
0.0
 10
215.3822514709857
 20
387.1267350618558
 30
0.0
  0
SPLINE
  5
122
330
1F
100
AcDbEntity
  8
0
  6
Continuous
 62
     7
370
    25
100
AcDbSpline
210
0.0
220
0.0
230
1.0
 70
     8
 71
     3
 72
     9
 73
     5
 74
     0
 42
0.00000001
 43
0.00000001
 40
0.0
 40
0.0
 40
0.0
 40
0.0
 40
0.5629701351964966
 40
0.9999999999999999
 40
0.9999999999999999
 40
0.9999999999999999
 40
0.9999999999999999
 10
213.91358888
 20
385.0180705350899
 30
0.0
 10
214.1276275703502
 20
385.0907694935705
 30
0.0
 10
214.5078230318299
 20
385.2199041562027
 30
0.0
 10
214.8927787709936
 20
385.3379869806344
 30
0.0
 10
215.0610159256357
 20
385.3895927014315
 30
0.0
  0
SPLINE
  5
123
330
1F
100
AcDbEntity
  8
0
  6
Continuous
 62
     7
370
    25
100
AcDbSpline
210
0.0
220
0.0
230
1.0
 70
     8
 71
     3
 72
     9
 73
     5
 74
     0
 42
0.00000001
 43
0.00000001
 40
0.0
 40
0.0
 40
0.0
 40
0.0
 40
0.2991634916495578
 40
1.0
 40
1.0
 40
1.0
 40
1.0
 10
211.6998701382605
 20
373.9309900867121
 30
0.0
 10
211.6214500730758
 20
374.0208964170945
 30
0.0
 10
211.35931893952
 20
374.3214221593457
 30
0.0
 10
211.1079991475328
 20
374.6289969416754
 30
0.0
 10
210.9318650620372
 20
374.8445565781801
 30
0.0
  0
SPLINE
  5
124
330
1F
100
AcDbEntity
  8
0
  6
Continuous
 62
     7
370
    25
100
AcDbSpline
210
0.0
220
0.0
230
1.0
 70
     8
 71
     3
 72
    10
 73
     6
 74
     0
 42
0.00000001
 43
0.00000001
 40
0.0
 40
0.0
 40
0.0
 40
0.0
 40
0.4581445984156963
 40
0.9162782298527378
 40
1.0
 40
1.0
 40
1.0
 40
1.0
 10
211.0232628614682
 20
372.2540526256865
 30
0.0
 10
211.1559428157384
 20
372.3512828533526
 30
0.0
 10
211.4212995482112
 20
372.5457409812059
 30
0.0
 10
211.7193944108342
 20
372.7540189642888
 30
0.0
 10
211.8862669431512
 20
372.8665453743467
 30
0.0
 10
211.9120503232812
 20
372.8839317660129
 30
0.0
  0
SPLINE
  5
125
330
1F
100
AcDbEntity
  8
0
  6
Continuous
 62
     7
370
    25
100
AcDbSpline
210
0.0
220
0.0
230
1.0
 70
     8
 71
     3
 72
     9
 73
     5
 74
     0
 42
0.00000001
 43
0.00000001
 40
0.0
 40
0.0
 40
0.0
 40
0.0
 40
0.5732912702641079
 40
1.0
 40
1.0
 40
1.0
 40
1.0
 10
215.3822514709857
 20
387.1267350618558
 30
0.0
 10
215.6074737542828
 20
387.1832297757624
 30
0.0
 10
216.0003321405499
 20
387.2817742972596
 30
0.0
 10
216.3964013403309
 20
387.3687503596076
 30
0.0
 10
216.565407525457
 20
387.4058638046895
 30
0.0
  0
SPLINE
  5
126
330
1F
100
AcDbEntity
  8
0
  6
Continuous
 62
     7
370
    25
100
AcDbSpline
210
0.0
220
0.0
230
1.0
 70
     8
 71
     3
 72
     9
 73
     5
 74
     0
 42
0.00000001
 43
0.00000001
 40
0.0
 40
0.0
 40
0.0
 40
0.0
 40
0.2867183871920728
 40
1.0
 40
1.0
 40
1.0
 40
1.0
 10
211.8706633370692
 20
371.3958728406272
 30
0.0
 10
211.7880789785004
 20
371.4764954644366
 30
0.0
 10
211.5000459737894
 20
371.7576864428005
 30
0.0
 10
211.2217594920126
 20
372.0474030773428
 30
0.0
 10
211.0232628614682
 20
372.2540526256865
 30
0.0
  0
SPLINE
  5
127
330
1F
100
AcDbEntity
  8
0
  6
Continuous
 62
     7
370
    25
100
AcDbSpline
210
0.0
220
0.0
230
1.0
 70
     8
 71
     3
 72
    10
 73
     6
 74
     0
 42
0.00000001
 43
0.00000001
 40
0.0
 40
0.0
 40
0.0
 40
0.0
 40
0.4152066239820146
 40
0.8304033088266055
 40
0.9999999999999999
 40
0.9999999999999999
 40
0.9999999999999999
 40
0.9999999999999999
 10
211.4595083060908
 20
369.8034422258054
 30
0.0
 10
211.5741142504861
 20
369.8933119175223
 30
0.0
 10
211.8033233958615
 20
370.0730491496727
 30
0.0
 10
212.0901213539281
 20
370.2869934494407
 30
0.0
 10
212.264202395456
 20
370.4130419731085
 30
0.0
 10
212.3146878657946
 20
370.4495974701748
 30
0.0
  0
SPLINE
  5
128
330
1F
100
AcDbEntity
  8
0
  6
Continuous
 62
     7
370
    25
100
AcDbSpline
210
0.0
220
0.0
230
1.0
 70
     8
 71
     3
 72
     9
 73
     5
 74
     0
 42
0.00000001
 43
0.00000001
 40
0.0
 40
0.0
 40
0.0
 40
0.0
 40
0.2758605921058765
 40
0.9999999999999999
 40
0.9999999999999999
 40
0.9999999999999999
 40
0.9999999999999999
 10
212.3819149295766
 20
369.0166531548819
 30
0.0
 10
212.2957463783859
 20
369.0874634972046
 30
0.0
 10
211.98338370805
 20
369.3441523623383
 30
0.0
 10
211.6795362351829
 20
369.610540254967
 30
0.0
 10
211.4595083060908
 20
369.8034422258054
 30
0.0
  0
SPLINE
  5
129
330
1F
100
AcDbEntity
  8
0
  6
Continuous
 62
     7
370
    25
100
AcDbSpline
210
0.0
220
0.0
230
1.0
 70
     8
 71
     3
 72
    10
 73
     6
 74
     0
 42
0.00000001
 43
0.00000001
 40
0.0
 40
0.0
 40
0.0
 40
0.0
 40
0.4415853151584234
 40
0.883160059731221
 40
0.9999999999999999
 40
0.9999999999999999
 40
0.9999999999999999
 40
0.9999999999999999
 10
212.2273462988209
 20
367.5671859354648
 30
0.0
 10
212.3246675135816
 20
367.6458154241789
 30
0.0
 10
212.5193076134462
 20
367.8030725193893
 30
0.0
 10
212.7497086540454
 20
367.9804629566522
 30
0.0
 10
212.8840905507973
 20
368.0815382442177
 30
0.0
 10
212.9122079574771
 20
368.1026867399187
 30
0.0
  0
SPLINE
  5
12A
330
1F
100
AcDbEntity
  8
0
  6
Continuous
 62
     7
370
    25
100
AcDbSpline
210
0.0
220
0.0
230
1.0
 70
     8
 71
     3
 72
     9
 73
     5
 74
     0
 42
0.00000001
 43
0.00000001
 40
0.0
 40
0.0
 40
0.0
 40
0.0
 40
0.2660440019965255
 40
1.0
 40
1.0
 40
1.0
 40
1.0
 10
213.2176723751556
 20
366.8663240869167
 30
0.0
 10
213.128750407768
 20
366.9268562040948
 30
0.0
 10
212.794512587256
 20
367.1543829166831
 30
0.0
 10
212.4674187687922
 20
367.3924529826231
 30
0.0
 10
212.2273462988209
 20
367.5671859354648
 30
0.0
  0
SPLINE
  5
12B
330
1F
100
AcDbEntity
  8
0
  6
Continuous
 62
     7
370
    25
100
AcDbSpline
210
0.0
220
0.0
230
1.0
 70
     8
 71
     3
 72
    10
 73
     6
 74
     0
 42
0.00000001
 43
0.00000001
 40
0.0
 40
0.0
 40
0.0
 40
0.0
 40
0.4490218692639066
 40
0.8980329899271972
 40
1.0
 40
1.0
 40
1.0
 40
1.0
 10
213.3034464707951
 20
365.6132312704484
 30
0.0
 10
213.3846840915897
 20
365.6770746322486
 30
0.0
 10
213.547157388528
 20
365.8047598275785
 30
0.0
 10
213.737900758956
 20
365.9479267964861
 30
0.0
 10
213.8483625788
 20
366.0298465337104
 30
0.0
 10
213.8688052440681
 20
366.0450070459063
 30
0.0
  0
SPLINE
  5
12C
330
1F
100
AcDbEntity
  8
0
  6
Continuous
 62
     7
370
    25
100
AcDbSpline
210
0.0
220
0.0
230
1.0
 70
     8
 71
     3
 72
     9
 73
     5
 74
     0
 42
0.00000001
 43
0.00000001
 40
0.0
 40
0.0
 40
0.0
 40
0.0
 40
0.2568937442624608
 40
1.0
 40
1.0
 40
1.0
 40
1.0
 10
214.3522260869809
 20
365.0106688604842
 30
0.0
 10
214.2615718077826
 20
365.0606190914979
 30
0.0
 10
213.9086855222153
 20
365.255058357262
 30
0.0
 10
213.5614668432461
 20
365.4605380358573
 30
0.0
 10
213.3034464707951
 20
365.6132312704484
 30
0.0
  0
SPLINE
  5
12D
330
1F
100
AcDbEntity
  8
0
  6
Continuous
 62
     7
370
    25
100
AcDbSpline
210
0.0
220
0.0
230
1.0
 70
     8
 71
     3
 72
     9
 73
     5
 74
     0
 42
0.00000001
 43
0.00000001
 40
0.0
 40
0.0
 40
0.0
 40
0.0
 40
0.6713014306953777
 40
1.0
 40
1.0
 40
1.0
 40
1.0
 10
214.6551120628205
 20
364.000948154504
 30
0.0
 10
214.7213480592018
 20
364.046539019533
 30
0.0
 10
214.8200160991503
 20
364.114453167998
 30
0.0
 10
214.9276617540829
 20
364.1861085224514
 30
0.0
 10
214.9630447268511
 20
364.2096615349433
 30
0.0
  0
SPLINE
  5
12E
330
1F
100
AcDbEntity
  8
0
  6
Continuous
 62
     7
370
    25
100
AcDbSpline
210
0.0
220
0.0
230
1.0
 70
     8
 71
     3
 72
     9
 73
     5
 74
     0
 42
0.00000001
 43
0.00000001
 40
0.0
 40
0.0
 40
0.0
 40
0.0
 40
0.1280243140747503
 40
1.0
 40
1.0
 40
1.0
 40
1.0
 10
215.5990650912513
 20
363.572173963363
 30
0.0
 10
215.5584978948604
 20
363.5897016122504
 30
0.0
 10
215.241626863884
 20
363.7266103628589
 30
0.0
 10
214.928313605879
 20
363.8731602319132
 30
0.0
 10
214.6551120628205
 20
364.0009481545041
 30
0.0
  0
LWPOLYLINE
  5
12F
330
1F
100
AcDbEntity
  8
0
  6
Continuous
 62
     7
370
    25
100
AcDbPolyline
 90
       64
 70
   128
 43
0.0
 10
151.2669487783
 20
435.2083403335
 10
149.4005302193
 20
435.5894010908
 10
147.5442162779
 20
435.6981016199
 10
145.7164558361
 20
435.5333616063
 10
143.9354139983
 20
435.0968183101
 10
142.2187915585
 20
434.3928102948
 10
140.5836490816
 20
433.4283343083
 10
139.0462373484
 20
432.2129757462
 10
137.6218358472
 20
430.7588133881
 10
136.3246009202
 20
429.0802993526
 10
135.1674250708
 20
427.1941154664
 10
134.1618088325
 20
425.1190074724
 10
133.3177464713
 20
422.875598726
 10
132.6436266581
 20
420.4861852314
 10
132.1461490986
 20
417.9745140532
 10
131.8302579481
 20
415.3655473081
 10
131.699092675
 20
412.6852140798
 10
131.7539568585
 20
409.960152724
 10
131.9943052338
 20
407.2174461248
 10
132.4177491107
 20
404.4843525325
 10
133.0200801138
 20
401.7880346593
 10
133.7953120069
 20
399.1552897234
 10
134.7357401872
 20
396.6122831269
 10
135.832018257
 20
394.1842884118
 10
137.0732509122
 20
391.8954360805
 10
138.4471022251
 20
389.7684737756
 10
139.9399182441
 20
387.8245402042
 10
141.5368626929
 20
386.0829550515
 10
143.2220644202
 20
384.5610269731
 10
144.978775134
 20
383.2738815741
 10
146.7895358541
 20
382.2343110836
 10
148.6363504269
 20
381.4526472203
 10
150.5008643794
 20
380.9366585108
 10
152.3645473344
 20
380.6914730828
 10
154.2088771733
 20
380.7195276991
 10
156.0155241176
 20
381.0205435404
 10
157.7665328982
 20
381.591528976
 10
159.4445012033
 20
382.4268092962
 10
161.03275263
 20
383.5180831098
 10
162.515502422
 20
384.8545048474
 10
163.8780143458
 20
386.4227925494
 10
165.1067471457
 20
388.207359868
 10
166.1894891231
 20
390.1904709715
 10
167.1154795019
 20
392.3524168106
 10
167.8755153735
 20
394.6717109965
 10
168.4620431601
 20
397.1253033415
 10
168.869233685
 20
399.6888089425
 10
169.0930401058
 20
402.3367505292
 10
169.1312381338
 20
405.0428116685
 10
168.9834481398
 20
407.7800983089
 10
168.6511389272
 20
410.5214060662
 10
168.1376131341
 20
413.2394905921
 10
167.4479744107
 20
415.9073383416
 10
166.5890766965
 20
418.4984350451
 10
165.5694561027
 20
420.9870292195
 10
164.399246077
 20
423.3483880979
 10
163.0900766923
 20
425.5590434347
 10
161.654959062
 20
427.5970247442
 10
160.1081560301
 20
429.4420776523
 10
158.4650404199
 20
431.0758651945
 10
156.7419422526
 20
432.4821500561
 10
154.9559864519
 20
433.6469559464
 10
153.1249226489
 20
434.558706501
 10
151.2669487783
 20
435.2083403335
  0
ARC
  5
130
330
1F
100
AcDbEntity
  8
0
  6
Continuous
 62
     7
370
    25
100
AcDbCircle
 10
127.0906972681
 20
404.1150345739
 30
0.0
 40
43.55714922378949
100
AcDbArc
 50
349.8481225319
 51
26.1009841676
  0
LWPOLYLINE
  5
131
330
1F
100
AcDbEntity
  8
0
  6
Continuous
 62
     7
370
    25
100
AcDbPolyline
 90
       15
 70
   128
 43
0.0
 10
166.6287857229
 20
385.8123194474
 10
165.7100850655
 20
384.499926381
 10
164.2958257777
 20
382.8278592099
 10
162.7592222226
 20
381.3860157615
 10
161.1141901199
 20
380.1874535935
 10
159.375627135
 20
379.2430270703
 10
157.5592779636
 20
378.5612890649
 10
155.681591745
 20
378.1484135021
 10
153.7595730964
 20
378.0081394471
 10
151.8106281162
 20
378.1417372433
 10
149.8524067522
 20
378.5479970085
 10
147.9026429601
 20
379.2232395912
 10
145.9789941028
 20
380.1613498902
 10
144.0988810422
 20
381.3538322332
 10
143.5729727288
 20
381.7391466804
  0
LWPOLYLINE
  5
132
330
1F
100
AcDbEntity
  8
0
  6
Continuous
 62
     7
370
    25
100
AcDbPolyline
 90
       11
 70
   128
 43
0.0
 10
134.9523225492
 20
430.7000878226
 10
135.8625348295
 20
431.9993843723
 10
137.2767941173
 20
433.6714515434
 10
138.8133976724
 20
435.1132949917
 10
140.4584297752
 20
436.3118571597
 10
142.19699276
 20
437.2562836829
 10
144.0133419315
 20
437.9380216883
 10
145.8910281501
 20
438.3508972511
 10
147.8130467987
 20
438.4911713061
 10
149.7619917788
 20
438.3575735099
 10
151.7202131429
 20
437.9513137448
  0
ARC
  5
133
330
1F
100
AcDbEntity
  8
0
  6
Continuous
 62
     7
370
    25
100
AcDbCircle
 10
154.8849022945
 20
425.7333375241
 30
0.0
 40
13.99151376581003
100
AcDbArc
 50
74.0389052134
 51
99.7656978861
  0
LWPOLYLINE
  5
134
330
1F
100
AcDbEntity
  8
0
  6
Continuous
 62
     7
370
    25
100
AcDbPolyline
 90
       31
 70
   128
 43
0.0
 10
163.0852306149
 20
379.4454930486
 10
164.5714175467
 20
379.795434708
 10
166.3877667181
 20
380.4771727134
 10
168.126329703
 20
381.4215992366
 10
169.7713618057
 20
382.6201614046
 10
171.3079653608
 20
384.062004853
 10
172.7222246486
 20
385.7340720241
 10
174.0013319179
 20
387.6212204187
 10
175.1337033752
 20
389.7063597287
 10
176.1090840893
 20
391.9706066097
 10
176.9186408613
 20
394.3934556912
 10
177.5550422198
 20
396.9529652769
 10
178.0125248155
 20
399.6259560514
 10
178.2869456153
 20
402.3882209966
 10
178.3758194217
 20
405.2147446132
 10
178.2783413799
 20
408.0799294657
 10
177.9953942662
 20
410.9578279963
 10
177.5295404934
 20
413.8223775105
 10
176.8849989053
 20
416.647636204
 10
176.0676065705
 20
419.4080180968
 10
175.0847659205
 20
422.078524743
 10
173.9453777125
 20
424.6349716208
 10
172.6597604224
 20
427.0542071513
 10
171.2395567995
 20
429.3143223632
 10
169.6976284278
 20
431.3948493029
 10
168.0479392493
 20
433.2769463963
 10
166.3054291048
 20
434.9435690807
 10
164.485878436
 20
436.3796241631
 10
162.6057653754
 20
437.5721065061
 10
160.6821165181
 20
438.5102168051
 10
158.732352726
 20
439.1854593878
  0
LWPOLYLINE
  5
135
330
1F
100
AcDbEntity
  8
0
  6
Continuous
 62
     7
370
    25
100
AcDbPolyline
 90
       64
 70
   128
 43
0.0
 10
151.2778109509
 20
435.5537985557
 10
153.1595363349
 20
434.8958600926
 10
155.0140076451
 20
433.9724541234
 10
156.8227943122
 20
432.7927578716
 10
158.5679198019
 20
431.3684956883
 10
160.232040273
 20
429.7138225312
 10
161.7986169485
 20
427.8451832853
 10
163.2520804857
 20
425.7811493272
 10
164.5779857109
 20
423.5422339534
 10
165.7631551823
 20
421.150688511
 10
166.7958101533
 20
418.630281253
 10
167.6656876348
 20
416.006061119
 10
168.3641423936
 20
413.3041087877
 10
168.8842328725
 20
410.5512774753
 10
169.2207901787
 20
407.7749260561
 10
169.3704694544
 20
405.0026471579
 10
169.3317831198
 20
402.2619929338
 10
169.105115657
 20
399.5802012368
 10
168.6927197891
 20
396.9839249177
 10
168.0986940915
 20
394.498966937
 10
167.3289422586
 20
392.1500239233
 10
166.3911144297
 20
389.9604407279
 10
165.2945311593
 20
387.9519784121
 10
164.0500907846
 20
386.1445979768
 10
162.6701611129
 20
384.5562619807
 10
161.1684565055
 20
383.2027560206
 10
159.5599015774
 20
382.0975318468
 10
157.86048287
 20
381.2515736737
 10
156.0870899701
 20
380.6732890136
 10
154.257347653
 20
380.3684251193
 10
152.3894407198
 20
380.3400118652
 10
150.5019332689
 20
380.588331635
 10
148.6135841974
 20
381.1109165152
 10
146.7431607666
 20
381.9025728225
 10
144.909252085
 20
382.9554327208
 10
143.1300843609
 20
384.2590324155
 10
141.4233397626
 20
385.8004161471
 10
139.8059806845
 20
387.5642649516
 10
138.294081168
 20
389.5330489072
 10
136.9026671495
 20
391.6872013543
 10
135.6455671268
 20
394.0053133582
 10
134.5352747247
 20
396.4643464803
 10
133.5828245278
 20
399.0398617447
 10
132.7976824141
 20
401.7062625236
 10
132.1876514788
 20
404.4370489281
 10
131.7587944832
 20
407.2050811761
 10
131.5153736009
 20
409.9828493194
 10
131.4598080581
 20
412.7427466504
 10
131.5926500899
 20
415.4573440693
 10
131.9125794526
 20
418.0996626876
 10
132.4164165445
 20
420.6434419555
 10
133.0991540062
 20
423.063400652
 10
133.9540064861
 20
425.3354881403
 10
134.9724780762
 20
427.4371233941
 10
136.1444467482
 20
429.3474194182
 10
137.4582649509
 20
431.0473908322
 10
138.9008753688
 20
432.5201425567
 10
140.4579406914
 20
433.7510377234
 10
142.1139861041
 20
434.7278431429
 10
143.8525530835
 20
435.4408508843
 10
145.6563629698
 20
435.8829747563
 10
147.50748869
 20
436.0498207331
 10
149.3875329251
 20
435.9397306246
 10
151.2778109509
 20
435.5537985557
  0
LWPOLYLINE
  5
136
330
1F
100
AcDbEntity
  8
0
  6
Continuous
 62
     7
370
    25
100
AcDbPolyline
 90
        3
 70
   128
 43
0.0
 10
147.4712261782
 20
436.0492168491
 10
146.8294989041
 20
435.8589100941
 10
146.1254330602
 20
435.6058555003
  0
LINE
  5
137
330
1F
100
AcDbEntity
  8
0
  6
Continuous
 62
     7
370
    25
100
AcDbLine
 10
155.7456412627
 20
380.9459836185
 30
0.0
 11
157.1619389405
 21
380.988753825
 31
0.0
  0
LWPOLYLINE
  5
138
330
1F
100
AcDbEntity
  8
0
  6
Continuous
 62
     7
370
    25
100
AcDbPolyline
 90
       25
 70
   128
 43
0.0
 10
171.5824787909
 20
384.3579895728
 10
172.7169007786
 20
385.6205940802
 10
174.044582181
 20
387.4295506789
 10
175.2274694473
 20
389.4456348062
 10
176.2545182778
 20
391.6500228278
 10
177.1161393943
 20
394.0221329665
 10
177.8042880725
 20
396.5398174693
 10
178.3125392537
 20
399.1795693942
 10
178.6361475336
 20
401.9167420887
 10
178.7720914687
 20
404.725779309
 10
178.7191017873
 20
407.5804538313
 10
178.4776732397
 20
410.4541123287
 10
178.0500599791
 20
413.3199242263
 10
177.4402545155
 20
416.1511322103
 10
176.653950438
 20
418.9213020547
 10
175.6984892561
 20
421.60456943
 10
174.5827918534
 20
424.1758813918
 10
173.3172751958
 20
426.611230293
 10
171.9137550714
 20
428.8878779371
 10
170.3853357695
 20
430.9845678784
 10
168.7462877293
 20
432.881723888
 10
167.0119143008
 20
434.5616327312
 10
165.1984088613
 20
436.008609552
 10
163.3227036224
 20
437.2091443175
 10
162.1755603675
 20
437.8059966303
  0
ARC
  5
139
330
1F
100
AcDbEntity
  8
0
  6
Continuous
 62
     7
370
    25
100
AcDbCircle
 10
155.6278242859
 20
425.8954764096
 30
0.0
 40
13.9592075727856
100
AcDbArc
 50
74.0214794224
 51
101.3457632787
  0
LWPOLYLINE
  5
13A
330
1F
100
AcDbEntity
  8
0
  6
Continuous
 62
     7
370
    25
100
AcDbPolyline
 90
       31
 70
   128
 43
0.0
 10
163.4533801181
 20
379.5156211969
 10
165.3095375028
 20
379.9253447757
 10
167.1258866742
 20
380.6070827811
 10
168.8644496591
 20
381.5515093043
 10
170.5094817618
 20
382.7500714723
 10
172.046085317
 20
384.1919149207
 10
173.4603446047
 20
385.8639820918
 10
174.739451874
 20
387.7511304864
 10
175.8718233313
 20
389.8362697964
 10
176.8472040454
 20
392.1005166774
 10
177.6567608174
 20
394.5233657589
 10
178.2931621759
 20
397.0828753446
 10
178.7506447716
 20
399.7558661191
 10
179.0250655714
 20
402.5181310643
 10
179.1139393778
 20
405.3446546809
 10
179.0164613361
 20
408.2098395334
 10
178.7335142223
 20
411.087738064
 10
178.2676604495
 20
413.9522875782
 10
177.6231188614
 20
416.7775462717
 10
176.8057265267
 20
419.5379281645
 10
175.8228858767
 20
422.2084348107
 10
174.6834976686
 20
424.7648816885
 10
173.3978803785
 20
427.184117219
 10
171.9776767556
 20
429.4442324309
 10
170.4357483839
 20
431.5247593705
 10
168.7860592055
 20
433.406856464
 10
167.043549061
 20
435.0734791484
 10
165.2239983921
 20
436.5095342308
 10
163.3438853315
 20
437.7020165738
 10
161.4202364742
 20
438.6401268728
 10
159.4704726821
 20
439.3153694555
  0
LWPOLYLINE
  5
13B
330
1F
100
AcDbEntity
  8
0
  6
Continuous
 62
     7
370
    25
100
AcDbPolyline
 90
       31
 70
   128
 43
0.0
 10
220.658587192
 20
389.5784783287
 10
222.1447741237
 20
389.9284199881
 10
223.9611232952
 20
390.6101579935
 10
225.69968628
 20
391.5545845167
 10
227.3447183828
 20
392.7531466847
 10
228.8813219379
 20
394.194990133
 10
230.2955812257
 20
395.8670573041
 10
231.574688495
 20
397.7542056987
 10
232.7070599523
 20
399.8393450088
 10
233.6824406663
 20
402.1035918898
 10
234.4919974384
 20
404.5264409713
 10
235.1283987969
 20
407.0859505569
 10
235.5858813926
 20
409.7589413315
 10
235.8603021923
 20
412.5212062766
 10
235.9491759988
 20
415.3477298932
 10
235.851697957
 20
418.2129147457
 10
235.5687508433
 20
421.0908132764
 10
235.1028970704
 20
423.9553627905
 10
234.4583554824
 20
426.7806214841
 10
233.6409631476
 20
429.5410033769
 10
232.6581224976
 20
432.2115100231
 10
231.5187342895
 20
434.7679569008
 10
230.2331169994
 20
437.1871924314
 10
228.8129133765
 20
439.4473076432
 10
227.2709850048
 20
441.5278345829
 10
225.6212958264
 20
443.4099316764
 10
223.8787856819
 20
445.0765543608
 10
222.0592350131
 20
446.5126094432
 10
220.1791219525
 20
447.7050917862
 10
218.2554730951
 20
448.6432020852
 10
216.305709303
 20
449.3184446679
  0
ARC
  5
13C
330
1F
100
AcDbEntity
  8
0
  6
Continuous
 62
     7
370
    25
100
AcDbCircle
 10
236.5037048998
 20
380.5823186084
 30
0.0
 40
8.299782619231383
100
AcDbArc
 50
72.6001739379
 51
100.4284889686
  0
LWPOLYLINE
  5
13D
330
1F
100
AcDbEntity
  8
0
  6
Continuous
 62
     7
370
    25
100
AcDbPolyline
 90
       23
 70
   128
 43
0.0
 10
230.523880392
 20
358.3571451095
 10
230.2776032722
 20
358.4234127256
 10
228.8811264009
 20
358.9684706398
 10
227.5853093466
 20
359.7727722711
 10
226.4132759954
 20
360.8219648379
 10
225.3859413101
 20
362.097325474
 10
224.5216381026
 20
363.5760953385
 10
223.8357898841
 20
365.2318857482
 10
223.3406356323
 20
367.0351490841
 10
223.0450113865
 20
368.9537060691
 10
222.9541925685
 20
370.9533200085
 10
223.0697998421
 20
372.9983077441
 10
223.3897701928
 20
375.0521764213
 10
223.9083937422
 20
377.078274705
 10
224.6164156407
 20
379.0404468232
 10
225.5012012208
 20
380.903677768
 10
226.5469614628
 20
382.6347181391
 10
227.7350347504
 20
384.20267748
 10
229.0442198877
 20
385.5795755191
 10
230.4511544349
 20
386.7408414784
 10
231.9307316117
 20
387.6657525392
 10
233.4565483283
 20
388.3378036419
 10
235.0013763491
 20
388.7450020184
  0
LWPOLYLINE
  5
13E
330
1F
100
AcDbEntity
  8
0
  6
Continuous
 62
     7
370
    25
100
AcDbPolyline
 90
       16
 70
   128
 43
0.0
 10
186.9343395599
 20
292.1050170401
 10
184.5031624847
 20
292.8259579581
 10
182.298825074
 20
293.5801073385
 10
180.3342130107
 20
294.363056723
 10
178.6208106383
 20
295.1702292998
 10
177.168633828
 20
295.9969066578
 10
175.9861714302
 20
296.8382563688
 10
175.0803356512
 20
297.6893602359
 10
174.4564216481
 20
298.545243043
 10
174.1180765749
 20
299.4009016386
 10
174.0672782628
 20
300.2513341815
 10
174.3043236586
 20
301.0915693801
 10
174.8278270889
 20
301.9166955525
 10
175.63472836
 20
302.721889338
 10
176.720310647
 20
303.5024438928
 10
178.003810905
 20
304.2169063763
  0
LWPOLYLINE
  5
13F
330
1F
100
AcDbEntity
  8
0
  6
Continuous
 62
     7
370
    25
100
AcDbPolyline
 90
       38
 70
   128
 43
0.0
 10
268.8820917377
 20
301.3594390994
 10
269.552528937
 20
300.9501211917
 10
270.7131224615
 20
300.1078104317
 10
271.5966063893
 20
299.2561413104
 10
272.1978162234
 20
298.400092348
 10
272.5132375293
 20
297.5446676674
 10
272.5410264792
 20
296.6948677423
 10
272.2810206298
 20
295.8556601664
 10
271.7347398723
 20
295.0319506144
 10
270.9053775475
 20
294.2285541662
 10
269.7977817788
 20
293.4501671587
 10
268.4184271323
 20
292.7013397342
 10
266.7753767685
 20
291.9864492409
 10
264.8782353088
 20
291.3096746453
 10
262.7380926901
 20
290.6749721035
 10
260.3674593383
 20
290.0860518351
 10
257.7801930364
 20
289.5463564345
 10
254.9914179178
 20
289.0590407472
 10
252.0174360567
 20
288.6269534276
 10
248.8756321725
 20
288.2526202869
 10
245.5843720057
 20
287.9382295282
 10
242.1628949587
 20
287.6856189555
 10
238.6312016306
 20
287.4962652299
 10
235.0099369009
 20
287.3712752383
 10
231.3202692481
 20
287.3113796228
 10
227.5837670071
 20
287.3169285092
 10
223.8222722893
 20
287.387889461
 10
220.0577733021
 20
287.5238476687
 10
216.3122758147
 20
287.7240083743
 10
212.6076745212
 20
287.9872015178
 10
208.9656250524
 20
288.3118885764
 10
205.4074173864
 20
288.6961715581
 10
201.953851395
 20
289.1378040969
 10
198.6251152563
 20
289.6342045841
 10
195.4406674426
 20
290.1824712591
 10
192.419122974
 20
290.7793991722
 10
189.5781446018
 20
291.4214989194
 10
186.9343395599
 20
292.1050170401
  0
LWPOLYLINE
  5
140
330
1F
100
AcDbEntity
  8
0
  6
Continuous
 62
     7
370
    25
100
AcDbPolyline
 90
       34
 70
   128
 43
0.0
 10
188.9252588019
 20
293.9674395393
 10
191.4856464761
 20
293.3064825812
 10
194.2407082065
 20
292.6865784079
 10
197.1736152922
 20
292.1115135703
 10
200.2664527024
 20
291.5848007281
 10
203.5003285061
 20
291.1096571931
 10
206.8554892699
 20
290.6889852773
 10
210.3114407174
 20
290.3253545644
 10
213.8470729139
 20
290.0209862143
 10
217.440789212
 20
289.7777393954
 10
221.0706381702
 20
289.5970999285
 10
224.7144476383
 20
289.4801712109
 10
228.3499601914
 20
289.4276674764
 10
231.9549690846
 20
289.4399094328
 10
235.5074538979
 20
289.5168223027
 10
238.9857150434
 20
289.6579362805
 10
242.3685063124
 20
289.8623894018
 10
245.6351646535
 20
290.1289328087
 10
248.7657363881
 20
290.4559383784
 10
251.7410990934
 20
290.8414086678
 10
254.5430784076
 20
291.2829891146
 10
257.1545590438
 20
291.7779824199
 10
259.5595893353
 20
292.3233650237
 10
261.7434786728
 20
292.915805574
 10
263.6928872391
 20
293.5516852753
 10
265.3959074919
 20
294.2271199934
 10
266.842136899
 20
294.937983981
 10
268.0227414797
 20
295.6799350786
 10
268.9305097655
 20
296.4484412378
 10
269.5598968493
 20
297.2388082043
 10
269.9070582557
 20
298.0462081919
 10
269.9698734242
 20
298.8657093716
 10
269.7479586618
 20
299.6923059972
 10
269.6717366663
 20
299.8536118152
  0
ARC
  5
141
330
1F
100
AcDbEntity
  8
0
  6
Continuous
 62
     7
370
    25
100
AcDbCircle
 10
241.8149950755
 20
342.6403685443
 30
0.0
 40
0.7888207896505344
100
AcDbArc
 50
74.6754152926
 51
97.3394723893
  0
LWPOLYLINE
  5
142
330
1F
100
AcDbEntity
  8
0
  6
Continuous
 62
     7
370
    25
100
AcDbPolyline
 90
       13
 70
   128
 43
0.0
 10
177.1477355882
 20
302.8081973745
 10
177.0661673584
 20
302.6664359837
 10
176.7719136254
 20
301.8564030453
 10
176.762209615
 20
301.0351975449
 10
177.0371146019
 20
300.2078356394
 10
177.5949493883
 20
299.3793710907
 10
178.4323065606
 20
298.5548643959
 10
179.544071303
 20
297.7393518765
 10
180.9234526401
 20
296.937814915
 10
182.5620249182
 20
296.1551495272
 10
184.4497792718
 20
295.3961364559
 10
186.5751847602
 20
294.6654119689
 10
188.9252588019
 20
293.9674395393
  0
LWPOLYLINE
  5
143
330
1F
100
AcDbEntity
  8
0
  6
Continuous
 62
     7
370
    25
100
AcDbPolyline
 90
        3
 70
   128
 43
0.0
 10
241.7142248624
 20
343.4227262645
 10
239.8597803303
 20
343.8872825365
 10
238.2314163723
 20
344.2288514602
  0
LWPOLYLINE
  5
144
330
1F
100
AcDbEntity
  8
0
  6
Continuous
 62
     7
370
    25
100
AcDbPolyline
 90
        3
 70
   128
 43
0.0
 10
211.2871463513
 20
345.0760546553
 10
211.03428518
 20
345.0428119012
 10
209.0229073283
 20
344.7332250845
  0
LINE
  5
145
330
1F
100
AcDbEntity
  8
0
  6
Continuous
 62
     7
370
    25
100
AcDbLine
 10
262.2226390591
 20
314.0517692622
 30
0.0
 11
265.9582553954
 21
314.7092425728
 31
0.0
  0
LWPOLYLINE
  5
146
330
1F
100
AcDbEntity
  8
0
  6
Continuous
 62
     7
370
    25
100
AcDbPolyline
 90
       22
 70
   128
 43
0.0
 10
254.37460792
 20
401.1330594331
 10
254.8254671126
 20
401.8463728311
 10
255.9578385699
 20
403.9315121411
 10
256.933219284
 20
406.1957590221
 10
257.742776056
 20
408.6186081036
 10
258.3791774145
 20
411.1781176893
 10
258.8366600103
 20
413.8511084639
 10
259.11108081
 20
416.613373409
 10
259.1999546164
 20
419.4398970256
 10
259.1024765747
 20
422.3050818781
 10
258.8195294609
 20
425.1829804088
 10
258.3536756881
 20
428.0475299229
 10
257.7091341001
 20
430.8727886165
 10
256.8917417653
 20
433.6331705093
 10
255.9089011153
 20
436.3036771554
 10
254.7695129072
 20
438.8601240332
 10
253.4838956171
 20
441.2793595638
 10
252.0636919942
 20
443.5394747756
 10
250.5217636225
 20
445.6200017153
 10
248.8720744441
 20
447.5020988087
 10
247.1295642996
 20
449.1687214932
 10
245.334651858
 20
450.5872462305
  0
LWPOLYLINE
  5
147
330
1F
100
AcDbEntity
  8
0
  6
Continuous
 62
     7
370
    25
100
AcDbPolyline
 90
       22
 70
   128
 43
0.0
 10
254.37460792
 20
401.1330594331
 10
254.8254671126
 20
401.8463728311
 10
255.9578385699
 20
403.9315121411
 10
256.933219284
 20
406.1957590221
 10
257.742776056
 20
408.6186081036
 10
258.3791774145
 20
411.1781176893
 10
258.8366600103
 20
413.8511084639
 10
259.11108081
 20
416.613373409
 10
259.1999546164
 20
419.4398970256
 10
259.1024765747
 20
422.3050818781
 10
258.8195294609
 20
425.1829804088
 10
258.3536756881
 20
428.0475299229
 10
257.7091341001
 20
430.8727886165
 10
256.8917417653
 20
433.6331705093
 10
255.9089011153
 20
436.3036771554
 10
254.7695129072
 20
438.8601240332
 10
253.4838956171
 20
441.2793595638
 10
252.0636919942
 20
443.5394747756
 10
250.5217636225
 20
445.6200017153
 10
248.8720744441
 20
447.5020988087
 10
247.1295642996
 20
449.1687214932
 10
245.334651858
 20
450.5872462305
  0
LWPOLYLINE
  5
148
330
1F
100
AcDbEntity
  8
0
  6
Continuous
 62
     7
370
    25
100
AcDbPolyline
 90
       48
 70
   128
 43
0.0
 10
151.3358432763
 20
437.3994462786
 10
149.380117873
 20
437.8031051325
 10
147.4340758927
 20
437.9302249211
 10
145.5158870049
 20
437.7796187613
 10
143.6434608225
 20
437.352692822
 10
141.8342796843
 20
436.6534331959
 10
140.105235427
 20
435.6883686816
 10
138.4724716712
 20
434.4665098265
 10
136.951233092
 20
432.9992647974
 10
135.5557230841
 20
431.300332866
 10
134.2989711485
 20
429.3855765019
 10
133.1927112395
 20
427.2728732693
 10
132.2472722077
 20
424.9819489092
 10
131.4714813626
 20
422.534193165
 10
130.8725820543
 20
419.9524600725
 10
130.4561660443
 20
417.2608545781
 10
130.2261212968
 20
414.484507477
 10
130.1845956774
 20
411.6493407742
 10
130.3319768998
 20
408.7818256571
 10
130.6668889051
 20
405.9087353418
 10
131.1862047103
 20
403.0568950985
 10
131.8850756035
 20
400.2529317912
 10
132.7569764155
 20
397.5230252697
 10
133.7937664434
 20
394.8926639358
 10
134.9857654581
 20
392.3864067645
 10
136.3218440858
 20
390.0276540036
 10
137.7895277205
 20
387.8384286923
 10
139.3751129955
 20
385.8391710374
 10
141.0637957282
 20
384.048547569
 10
142.8398091431
 20
382.4832768558
 10
144.6865710813
 20
381.1579734089
 10
146.5868388243
 20
380.0850112294
 10
148.522870084
 20
379.2744082762
 10
150.4765886584
 20
378.7337329304
 10
152.4297532034
 20
378.4680333323
 10
154.3641275479
 20
378.4797902474
 10
156.2616509599
 20
378.7688939044
 10
158.1046067746
 20
379.3326450206
 10
159.87578781
 20
380.1657800034
 10
161.558657026
 20
381.2605200963
 10
163.1375019263
 20
382.6066440057
 10
164.5975812613
 20
384.1915833356
 10
165.9252626637
 20
386.0005399343
 10
167.10814993
 20
388.0166240616
 10
168.1351987605
 20
390.2210120831
 10
168.996819877
 20
392.5931222219
 10
169.6849685553
 20
395.1108067246
 10
169.9659154887
 20
396.4377361536
  0
LWPOLYLINE
  5
149
330
1F
100
AcDbEntity
  8
0
  6
Continuous
 62
     7
370
    25
100
AcDbPolyline
 90
       10
 70
   128
 43
0.0
 10
166.2058892333
 20
423.2782025278
 10
165.1979556785
 20
425.1822195483
 10
163.7944355541
 20
427.4588671924
 10
162.2660162522
 20
429.5555571338
 10
160.6269682121
 20
431.4527131433
 10
158.8925947835
 20
433.1326219866
 10
157.079089344
 20
434.5795988073
 10
155.2033841052
 20
435.7801335728
 10
153.2829920215
 20
436.7230172134
 10
151.3358432763
 20
437.3994462786
  0
LWPOLYLINE
  5
14A
330
1F
100
AcDbEntity
  8
0
  6
Continuous
 62
     7
370
    25
100
AcDbPolyline
 90
       25
 70
   128
 43
0.0
 10
151.7202131429
 20
437.9513137448
 10
153.669976935
 20
437.276071162
 10
155.5936257923
 20
436.337960863
 10
157.4737388529
 20
435.14547852
 10
159.2932895217
 20
433.7094234376
 10
161.0357996662
 20
432.0428007532
 10
162.6854888447
 20
430.1607036598
 10
164.2274172164
 20
428.0801767201
 10
165.6476208393
 20
425.8200615083
 10
166.9332381294
 20
423.4008259777
 10
168.0726263374
 20
420.8443790999
 10
169.0554669874
 20
418.1738724538
 10
169.8728593222
 20
415.413490561
 10
170.5174009103
 20
412.5882318674
 10
170.9832546831
 20
409.7236823533
 10
171.2662017968
 20
406.8457838226
 10
171.3636798386
 20
403.9805989701
 10
171.2748060321
 20
401.1540753535
 10
171.0003852324
 20
398.3918104084
 10
170.5429026367
 20
395.7188196338
 10
169.9065012782
 20
393.1593100481
 10
169.0969445062
 20
390.7364609666
 10
168.1215637921
 20
388.4722140856
 10
166.9891923348
 20
386.3870747756
 10
166.6287857229
 20
385.8123194474
  0
ENDSEC
  0
SECTION
  2
OBJECTS
  0
DICTIONARY
  5
C
330
0
100
AcDbDictionary
281
     1
  3
ACAD_GROUP
350
D
  3
ACAD_LAYOUT
350
1A
  3
ACAD_MLINESTYLE
350
17
  3
ACAD_PLOTSETTINGS
350
19
  3
ACAD_PLOTSTYLENAME
350
E
  3
ACAD_SCALELIST
350
47
  3
DWGPROPS
350
14B
  0
DICTIONARY
  5
D
102
{ACAD_REACTORS
330
C
102
}
330
C
100
AcDbDictionary
281
     1
  0
DICTIONARY
  5
1A
102
{ACAD_REACTORS
330
C
102
}
330
C
100
AcDbDictionary
281
     1
  3
Layout1
350
1E
  3
Layout2
350
26
  3
Model
350
22
  0
DICTIONARY
  5
17
102
{ACAD_REACTORS
330
C
102
}
330
C
100
AcDbDictionary
281
     1
  3
Standard
350
18
  0
DICTIONARY
  5
19
102
{ACAD_REACTORS
330
C
102
}
330
C
100
AcDbDictionary
281
     1
  0
ACDBDICTIONARYWDFLT
  5
E
102
{ACAD_REACTORS
330
C
102
}
330
C
100
AcDbDictionary
281
     1
  3
Normal
350
F
100
AcDbDictionaryWithDefault
340
F
  0
DICTIONARY
  5
47
102
{ACAD_REACTORS
330
C
102
}
330
C
100
AcDbDictionary
281
     1
  3
A0
350
48
  3
A1
350
49
  3
A2
350
4A
  3
A3
350
4B
  3
A4
350
4C
  3
A5
350
4D
  3
A6
350
4E
  3
A7
350
4F
  3
A8
350
50
  3
A9
350
51
  3
B0
350
52
  3
B1
350
53
  3
B2
350
54
  3
B3
350
55
  3
B4
350
56
  3
B5
350
57
  3
B6
350
58
  0
XRECORD
  5
14B
102
{ACAD_REACTORS
330
C
102
}
330
C
100
AcDbXrecord
280
     1
  1
DWGPROPS COOKIE
  2

  3

  4

  6

  7

  8
9148
  9

300
=
301
=
302
=
303
=
304
=
305
=
306
=
307
=
308
=
309
=
 40
0.0
 41
2460115.994158171
 42
2460115.99415875
  1

 90
        0
  0
LAYOUT
  5
1E
102
{ACAD_REACTORS
330
1A
102
}
330
1A
100
AcDbPlotSettings
  1

  2
none_device
  4

  6

 40
0.0
 41
0.0
 42
0.0
 43
0.0
 44
0.0
 45
0.0
 46
0.0
 47
0.0
 48
0.0
 49
0.0
140
0.0
141
0.0
142
1.0
143
1.0
 70
   688
 72
     1
 73
     0
 74
     5
  7

 75
    16
147
1.0
148
0.0
149
0.0
100
AcDbLayout
  1
Layout1
 70
     1
 71
     1
 10
0.0
 20
0.0
 11
420.0
 21
297.0
 12
0.0
 22
0.0
 32
0.0
 14
1.0000000000E+20
 24
1.0000000000E+20
 34
1.0000000000E+20
 15
-1.0000000000E+20
 25
-1.0000000000E+20
 35
-1.0000000000E+20
146
0.0
 13
0.0
 23
0.0
 33
0.0
 16
1.0
 26
0.0
 36
0.0
 17
0.0
 27
1.0
 37
0.0
 76
     0
330
1B
  0
LAYOUT
  5
26
102
{ACAD_REACTORS
330
1A
102
}
330
1A
100
AcDbPlotSettings
  1

  2
none_device
  4

  6

 40
0.0
 41
0.0
 42
0.0
 43
0.0
 44
0.0
 45
0.0
 46
0.0
 47
0.0
 48
0.0
 49
0.0
140
0.0
141
0.0
142
1.0
143
1.0
 70
   688
 72
     1
 73
     0
 74
     5
  7

 75
    16
147
1.0
148
0.0
149
0.0
100
AcDbLayout
  1
Layout2
 70
     1
 71
     2
 10
0.0
 20
0.0
 11
0.0
 21
0.0
 12
0.0
 22
0.0
 32
0.0
 14
0.0
 24
0.0
 34
0.0
 15
0.0
 25
0.0
 35
0.0
146
0.0
 13
0.0
 23
0.0
 33
0.0
 16
1.0
 26
0.0
 36
0.0
 17
0.0
 27
1.0
 37
0.0
 76
     0
330
23
  0
LAYOUT
  5
22
102
{ACAD_REACTORS
330
1A
102
}
330
1A
100
AcDbPlotSettings
  1

  2
none_device
  4
Letter_(8.50_x_11.00_Inches)
  6

 40
6.35
 41
6.35
 42
6.35000508
 43
6.35000508
 44
215.9
 45
279.4
 46
0.0
 47
0.0
 48
0.0
 49
0.0
140
0.0
141
0.0
142
1.0
143
1.0
 70
  1712
 72
     1
 73
     0
 74
     0
  7

 75
     0
147
1.0
148
0.0
149
0.0
100
AcDbLayout
  1
Model
 70
     1
 71
     0
 10
0.0
 20
0.0
 11
420.0
 21
594.0
 12
0.0
 22
0.0
 32
0.0
 14
0.0
 24
0.0
 34
0.0
 15
420.0
 25
594.0
 35
0.0
146
0.0
 13
0.0
 23
0.0
 33
0.0
 16
1.0
 26
0.0
 36
0.0
 17
0.0
 27
1.0
 37
0.0
 76
     0
330
1F
331
29
  0
MLINESTYLE
  5
18
102
{ACAD_REACTORS
330
17
102
}
330
17
100
AcDbMlineStyle
  2
Standard
 70
     0
  3

 62
   256
 51
90.0
 52
90.0
 71
     2
 49
0.5
 62
   256
  6
BYLAYER
 49
-0.5
 62
   256
  6
BYLAYER
  0
ACDBPLACEHOLDER
  5
F
102
{ACAD_REACTORS
330
E
102
}
330
E
  0
SCALE
  5
48
102
{ACAD_REACTORS
330
47
102
}
330
47
100
AcDbScale
 70
     0
300
1:1
140
1.0
141
1.0
290
     1
  0
SCALE
  5
49
102
{ACAD_REACTORS
330
47
102
}
330
47
100
AcDbScale
 70
     0
300
1:2
140
1.0
141
2.0
290
     0
  0
SCALE
  5
4A
102
{ACAD_REACTORS
330
47
102
}
330
47
100
AcDbScale
 70
     0
300
1:4
140
1.0
141
4.0
290
     0
  0
SCALE
  5
4B
102
{ACAD_REACTORS
330
47
102
}
330
47
100
AcDbScale
 70
     0
300
1:5
140
1.0
141
5.0
290
     0
  0
SCALE
  5
4C
102
{ACAD_REACTORS
330
47
102
}
330
47
100
AcDbScale
 70
     0
300
1:8
140
1.0
141
8.0
290
     0
  0
SCALE
  5
4D
102
{ACAD_REACTORS
330
47
102
}
330
47
100
AcDbScale
 70
     0
300
1:10
140
1.0
141
10.0
290
     0
  0
SCALE
  5
4E
102
{ACAD_REACTORS
330
47
102
}
330
47
100
AcDbScale
 70
     0
300
1:16
140
1.0
141
16.0
290
     0
  0
SCALE
  5
4F
102
{ACAD_REACTORS
330
47
102
}
330
47
100
AcDbScale
 70
     0
300
1:20
140
1.0
141
20.0
290
     0
  0
SCALE
  5
50
102
{ACAD_REACTORS
330
47
102
}
330
47
100
AcDbScale
 70
     0
300
1:30
140
1.0
141
30.0
290
     0
  0
SCALE
  5
51
102
{ACAD_REACTORS
330
47
102
}
330
47
100
AcDbScale
 70
     0
300
1:40
140
1.0
141
40.0
290
     0
  0
SCALE
  5
52
102
{ACAD_REACTORS
330
47
102
}
330
47
100
AcDbScale
 70
     0
300
1:50
140
1.0
141
50.0
290
     0
  0
SCALE
  5
53
102
{ACAD_REACTORS
330
47
102
}
330
47
100
AcDbScale
 70
     0
300
1:100
140
1.0
141
100.0
290
     0
  0
SCALE
  5
54
102
{ACAD_REACTORS
330
47
102
}
330
47
100
AcDbScale
 70
     0
300
2:1
140
2.0
141
1.0
290
     0
  0
SCALE
  5
55
102
{ACAD_REACTORS
330
47
102
}
330
47
100
AcDbScale
 70
     0
300
4:1
140
4.0
141
1.0
290
     0
  0
SCALE
  5
56
102
{ACAD_REACTORS
330
47
102
}
330
47
100
AcDbScale
 70
     0
300
8:1
140
8.0
141
1.0
290
     0
  0
SCALE
  5
57
102
{ACAD_REACTORS
330
47
102
}
330
47
100
AcDbScale
 70
     0
300
10:1
140
10.0
141
1.0
290
     0
  0
SCALE
  5
58
102
{ACAD_REACTORS
330
47
102
}
330
47
100
AcDbScale
 70
     0
300
100:1
140
100.0
141
1.0
290
     0
  0
ENDSEC
  0
EOF
