  0
SECTION
  2
HEADER
  9
$ACADVER
  1
AC1032
  9
$ACADMAINTVER
 90
        4
  9
$DWGCODEPAGE
  3
ANSI_932
  9
$LASTSAVEDBY
  1
9128
  9
$REQUIREDVERSIONS
160
                 0
  9
$INSBASE
 10
0.0
 20
0.0
 30
0.0
  9
$EXTMIN
 10
71.02752242084995
 20
87.38022192636456
 30
0.0
  9
$EXTMAX
 10
196.3334776399748
 20
202.1760998839063
 30
0.0
  9
$LIMMIN
 10
0.0
 20
0.0
  9
$LIMMAX
 10
431.8
 20
279.4
  9
$ORTHOMODE
 70
     0
  9
$REGENMODE
 70
     1
  9
$FILLMODE
 70
     1
  9
$QTEXTMODE
 70
     0
  9
$MIRRTEXT
 70
     1
  9
$LTSCALE
 40
1.0
  9
$ATTMODE
 70
     1
  9
$TEXTSIZE
 40
3.5
  9
$TRACEWID
 40
1.0
  9
$TEXTSTYLE
  7
Standard
  9
$CLAYER
  8
0
  9
$CELTYPE
  6
ByLayer
  9
$CECOLOR
 62
   256
  9
$CELTSCALE
 40
1.0
  9
$DISPSILH
 70
     0
  9
$DIMSCALE
 40
1.0
  9
$DIMASZ
 40
3.302
  9
$DIMEXO
 40
1.0
  9
$DIMDLI
 40
3.75
  9
$DIMRND
 40
0.0
  9
$DIMDLE
 40
0.0
  9
$DIMEXE
 40
1.0
  9
$DIMTP
 40
0.0
  9
$DIMTM
 40
0.0
  9
$DIMTXT
 40
3.5
  9
$DIMCEN
 40
2.5
  9
$DIMTSZ
 40
0.0
  9
$DIMTOL
 70
     0
  9
$DIMLIM
 70
     0
  9
$DIMTIH
 70
     1
  9
$DIMTOH
 70
     1
  9
$DIMSE1
 70
     0
  9
$DIMSE2
 70
     0
  9
$DIMTAD
 70
     1
  9
$DIMZIN
 70
     1
  9
$DIMBLK
  1

  9
$DIMASO
 70
     1
  9
$DIMSHO
 70
     1
  9
$DIMPOST
  1

  9
$DIMAPOST
  1

  9
$DIMALT
 70
     0
  9
$DIMALTD
 70
     3
  9
$DIMALTF
 40
0.0393700787
  9
$DIMLFAC
 40
2.0
  9
$DIMTOFL
 70
     1
  9
$DIMTVP
 40
0.0
  9
$DIMTIX
 70
     0
  9
$DIMSOXD
 70
     0
  9
$DIMSAH
 70
     0
  9
$DIMBLK1
  1

  9
$DIMBLK2
  1

  9
$DIMSTYLE
  2
ISO-25
  9
$DIMCLRD
 70
     0
  9
$DIMCLRE
 70
     0
  9
$DIMCLRT
 70
     0
  9
$DIMTFAC
 40
1.0
  9
$DIMGAP
 40
1.524
  9
$DIMJUST
 70
     0
  9
$DIMSD1
 70
     0
  9
$DIMSD2
 70
     0
  9
$DIMTOLJ
 70
     0
  9
$DIMTZIN
 70
     1
  9
$DIMALTZ
 70
     0
  9
$DIMALTTZ
 70
     0
  9
$DIMUPT
 70
     0
  9
$DIMDEC
 70
     2
  9
$DIMTDEC
 70
     2
  9
$DIMALTU
 70
     2
  9
$DIMALTTD
 70
     3
  9
$DIMTXSTY
  7
Standard
  9
$DIMAUNIT
 70
     0
  9
$DIMADEC
 70
     2
  9
$DIMALTRND
 40
0.0
  9
$DIMAZIN
 70
     0
  9
$DIMDSEP
 70
    44
  9
$DIMATFIT
 70
     3
  9
$DIMFRAC
 70
     0
  9
$DIMLDRBLK
  1

  9
$DIMLUNIT
 70
     2
  9
$DIMLWD
 70
    -2
  9
$DIMLWE
 70
    -2
  9
$DIMTMOVE
 70
     0
  9
$DIMFXL
 40
1.0
  9
$DIMFXLON
 70
     0
  9
$DIMJOGANG
 40
0.7853981633974483
  9
$DIMTFILL
 70
     0
  9
$DIMTFILLCLR
 70
     0
  9
$DIMARCSYM
 70
     0
  9
$DIMLTYPE
  6

  9
$DIMLTEX1
  6

  9
$DIMLTEX2
  6

  9
$DIMTXTDIRECTION
 70
     0
  9
$LUNITS
 70
     2
  9
$LUPREC
 70
     2
  9
$SKETCHINC
 40
1.0
  9
$FILLETRAD
 40
10.0
  9
$AUNITS
 70
     0
  9
$AUPREC
 70
     2
  9
$MENU
  1
.
  9
$ELEVATION
 40
0.0
  9
$PELEVATION
 40
0.0
  9
$THICKNESS
 40
0.0
  9
$LIMCHECK
 70
     0
  9
$CHAMFERA
 40
0.0
  9
$CHAMFERB
 40
0.0
  9
$CHAMFERC
 40
0.0
  9
$CHAMFERD
 40
0.0
  9
$SKPOLY
 70
     0
  9
$TDCREATE
 40
2458939.697938704
  9
$TDUCREATE
 40
2458939.322938704
  9
$TDUPDATE
 40
2458939.711376065
  9
$TDUUPDATE
 40
2458939.336376065
  9
$TDINDWG
 40
0.005932338
  9
$TDUSRTIMER
 40
0.0002145833
  9
$USRTIMER
 70
     1
  9
$ANGBASE
 50
0.0
  9
$ANGDIR
 70
     0
  9
$PDMODE
 70
     0
  9
$PDSIZE
 40
-1.0
  9
$PLINEWID
 40
0.0
  9
$SPLFRAME
 70
     0
  9
$SPLINETYPE
 70
     6
  9
$SPLINESEGS
 70
     8
  9
$HANDSEED
  5
48A
  9
$SURFTAB1
 70
     6
  9
$SURFTAB2
 70
     6
  9
$SURFTYPE
 70
     6
  9
$SURFU
 70
     6
  9
$SURFV
 70
     6
  9
$UCSBASE
  2

  9
$UCSNAME
  2

  9
$UCSORG
 10
0.0
 20
0.0
 30
0.0
  9
$UCSXDIR
 10
1.0
 20
0.0
 30
0.0
  9
$UCSYDIR
 10
0.0
 20
1.0
 30
0.0
  9
$UCSORTHOREF
  2

  9
$UCSORTHOVIEW
 70
     0
  9
$UCSORGTOP
 10
0.0
 20
0.0
 30
0.0
  9
$UCSORGBOTTOM
 10
0.0
 20
0.0
 30
0.0
  9
$UCSORGLEFT
 10
0.0
 20
0.0
 30
0.0
  9
$UCSORGRIGHT
 10
0.0
 20
0.0
 30
0.0
  9
$UCSORGFRONT
 10
0.0
 20
0.0
 30
0.0
  9
$UCSORGBACK
 10
0.0
 20
0.0
 30
0.0
  9
$PUCSBASE
  2

  9
$PUCSNAME
  2

  9
$PUCSORG
 10
0.0
 20
0.0
 30
0.0
  9
$PUCSXDIR
 10
1.0
 20
0.0
 30
0.0
  9
$PUCSYDIR
 10
0.0
 20
1.0
 30
0.0
  9
$PUCSORTHOREF
  2

  9
$PUCSORTHOVIEW
 70
     0
  9
$PUCSORGTOP
 10
0.0
 20
0.0
 30
0.0
  9
$PUCSORGBOTTOM
 10
0.0
 20
0.0
 30
0.0
  9
$PUCSORGLEFT
 10
0.0
 20
0.0
 30
0.0
  9
$PUCSORGRIGHT
 10
0.0
 20
0.0
 30
0.0
  9
$PUCSORGFRONT
 10
0.0
 20
0.0
 30
0.0
  9
$PUCSORGBACK
 10
0.0
 20
0.0
 30
0.0
  9
$USERI1
 70
     0
  9
$USERI2
 70
     0
  9
$USERI3
 70
     0
  9
$USERI4
 70
     0
  9
$USERI5
 70
     0
  9
$USERR1
 40
0.0
  9
$USERR2
 40
0.0
  9
$USERR3
 40
0.0
  9
$USERR4
 40
0.0
  9
$USERR5
 40
0.0
  9
$WORLDVIEW
 70
     1
  9
$SHADEDGE
 70
     3
  9
$SHADEDIF
 70
    70
  9
$TILEMODE
 70
     1
  9
$MAXACTVP
 70
    64
  9
$PINSBASE
 10
0.0
 20
0.0
 30
0.0
  9
$PLIMCHECK
 70
     0
  9
$PEXTMIN
 10
1.000000000000000E+20
 20
1.000000000000000E+20
 30
1.000000000000000E+20
  9
$PEXTMAX
 10
-1.000000000000000E+20
 20
-1.000000000000000E+20
 30
-1.000000000000000E+20
  9
$PLIMMIN
 10
0.0
 20
0.0
  9
$PLIMMAX
 10
0.0
 20
0.0
  9
$UNITMODE
 70
     0
  9
$VISRETAIN
 70
     1
  9
$PLINEGEN
 70
     0
  9
$PSLTSCALE
 70
     1
  9
$TREEDEPTH
 70
  3020
  9
$CMLSTYLE
  2
Standard
  9
$CMLJUST
 70
     0
  9
$CMLSCALE
 40
20.0
  9
$PROXYGRAPHICS
 70
     1
  9
$MEASUREMENT
 70
     1
  9
$CELWEIGHT
370
    -1
  9
$ENDCAPS
280
     0
  9
$JOINSTYLE
280
     0
  9
$LWDISPLAY
290
     1
  9
$INSUNITS
 70
     4
  9
$HYPERLINKBASE
  1

  9
$STYLESHEET
  1

  9
$XEDIT
290
     1
  9
$CEPSNTYPE
380
     0
  9
$PSTYLEMODE
290
     1
  9
$FINGERPRINTGUID
  2
{51C6F475-8ADC-4DFC-BD4C-6FC5AC54F2A0}
  9
$VERSIONGUID
  2
{FAEB1C32-E019-11D5-929B-00C0DF256EC4}
  9
$EXTNAMES
290
     1
  9
$PSVPSCALE
 40
0.0
  9
$OLESTARTUP
290
     0
  9
$SORTENTS
280
   127
  9
$INDEXCTL
280
     0
  9
$HIDETEXT
280
     1
  9
$XCLIPFRAME
280
     2
  9
$HALOGAP
280
     0
  9
$OBSCOLOR
 70
   257
  9
$OBSLTYPE
280
     0
  9
$INTERSECTIONDISPLAY
280
     0
  9
$INTERSECTIONCOLOR
 70
   257
  9
$DIMASSOC
280
     2
  9
$PROJECTNAME
  1

  9
$CAMERADISPLAY
290
     0
  9
$LENSLENGTH
 40
50.0
  9
$CAMERAHEIGHT
 40
0.0
  9
$STEPSPERSEC
 40
2.0
  9
$STEPSIZE
 40
6.0
  9
$3DDWFPREC
 40
2.0
  9
$PSOLWIDTH
 40
0.25
  9
$PSOLHEIGHT
 40
4.0
  9
$LOFTANG1
 40
1.570796326794897
  9
$LOFTANG2
 40
1.570796326794897
  9
$LOFTMAG1
 40
0.0
  9
$LOFTMAG2
 40
0.0
  9
$LOFTPARAM
 70
     7
  9
$LOFTNORMALS
280
     1
  9
$LATITUDE
 40
37.795
  9
$LONGITUDE
 40
-122.394
  9
$NORTHDIRECTION
 40
0.0
  9
$TIMEZONE
 70
 -8000
  9
$LIGHTGLYPHDISPLAY
280
     1
  9
$TILEMODELIGHTSYNCH
280
     1
  9
$SOLIDHIST
280
     0
  9
$SHOWHIST
280
     1
  9
$DWFFRAME
280
     2
  9
$DGNFRAME
280
     2
  9
$REALWORLDSCALE
290
     1
  9
$INTERFERECOLOR
 62
   256
  9
$CSHADOW
280
     0
  9
$SHADOWPLANELOCATION
 40
0.0
  0
ENDSEC
  0
SECTION
  2
CLASSES
  0
CLASS
  1
ACDBDICTIONARYWDFLT
  2
AcDbDictionaryWithDefault
  3
ObjectDBX Classes
 90
        0
 91
        3
280
     0
281
     0
  0
CLASS
  1
VISUALSTYLE
  2
AcDbVisualStyle
  3
ObjectDBX Classes
 90
     4095
 91
        3
280
     0
281
     0
  0
CLASS
  1
MATERIAL
  2
AcDbMaterial
  3
ObjectDBX Classes
 90
     1153
 91
        3
280
     0
281
     0
  0
CLASS
  1
SCALE
  2
AcDbScale
  3
ObjectDBX Classes
 90
     1153
 91
        3
280
     0
281
     0
  0
CLASS
  1
TABLESTYLE
  2
AcDbTableStyle
  3
ObjectDBX Classes
 90
     4095
 91
        3
280
     0
281
     0
  0
CLASS
  1
MLEADERSTYLE
  2
AcDbMLeaderStyle
  3
ACDB_MLEADERSTYLE_CLASS
 90
     4095
 91
        3
280
     0
281
     0
  0
CLASS
  1
SUN
  2
AcDbSun
  3
SCENEOE
 90
     1153
 91
        3
280
     0
281
     0
  0
CLASS
  1
ACDBPLACEHOLDER
  2
AcDbPlaceHolder
  3
ObjectDBX Classes
 90
        0
 91
        1
280
     0
281
     0
  0
CLASS
  1
LAYOUT
  2
AcDbLayout
  3
ObjectDBX Classes
 90
        0
 91
        1
280
     0
281
     0
  0
CLASS
  1
DICTIONARYVAR
  2
AcDbDictionaryVar
  3
ObjectDBX Classes
 90
        0
 91
        3
280
     0
281
     0
  0
CLASS
  1
CELLSTYLEMAP
  2
AcDbCellStyleMap
  3
ObjectDBX Classes
 90
     1152
 91
        3
280
     0
281
     0
  0
ENDSEC
  0
SECTION
  2
TABLES
  0
TABLE
  2
VPORT
  5
8
330
0
100
AcDbSymbolTable
 70
     1
  0
VPORT
  5
29
330
8
100
AcDbSymbolTableRecord
100
AcDbViewportTableRecord
  2
*Active
 70
     0
 10
0.0
 20
0.0
 11
1.0
 21
1.0
 12
283.1225764803128
 22
129.1255375322181
 13
0.0
 23
0.0
 14
10.0
 24
10.0
 15
10.0
 25
10.0
 16
0.0
 26
0.0
 36
1.0
 17
0.0
 27
0.0
 37
0.0
 40
279.3999999999995
 41
2.410876132930514
 42
50.0
 43
0.0
 44
0.0
 50
0.0
 51
0.0
 71
    16
 72
  2000
 73
     1
 74
     3
 75
     0
 76
     0
 77
     0
 78
     0
281
     0
 65
     1
110
0.0
120
0.0
130
0.0
111
1.0
121
0.0
131
0.0
112
0.0
122
1.0
132
0.0
 79
     0
146
0.0
348
1AD
 60
     3
 61
     5
292
     1
282
     1
141
0.0
142
0.0
 63
   256
361
482
  0
ENDTAB
  0
TABLE
  2
LTYPE
  5
5
330
0
100
AcDbSymbolTable
 70
     6
  0
LTYPE
  5
14
330
5
100
AcDbSymbolTableRecord
100
AcDbLinetypeTableRecord
  2
ByBlock
 70
     0
  3

 72
    65
 73
     0
 40
0.0
  0
LTYPE
  5
15
330
5
100
AcDbSymbolTableRecord
100
AcDbLinetypeTableRecord
  2
ByLayer
 70
     0
  3

 72
    65
 73
     0
 40
0.0
  0
LTYPE
  5
16
330
5
100
AcDbSymbolTableRecord
100
AcDbLinetypeTableRecord
  2
Continuous
 70
     0
  3
Solid line
 72
    65
 73
     0
 40
0.0
  0
LTYPE
  5
6E
330
5
100
AcDbSymbolTableRecord
100
AcDbLinetypeTableRecord
  2
HIDDEN
 70
     0
  3
Hidden __ __ __ __ __ __ __ __ __ __ __ __ __ __
 72
    65
 73
     2
 40
1.905
 49
1.27
 74
     0
 49
-0.635
 74
     0
  0
LTYPE
  5
6F
330
5
100
AcDbSymbolTableRecord
100
AcDbLinetypeTableRecord
  2
PHANTOM
 70
     0
  3
Phantom ______  __  __  ______  __  __  ______
 72
    65
 73
     6
 40
12.7
 49
6.35
 74
     0
 49
-1.27
 74
     0
 49
1.27
 74
     0
 49
-1.27
 74
     0
 49
1.27
 74
     0
 49
-1.27
 74
     0
  0
LTYPE
  5
70
330
5
100
AcDbSymbolTableRecord
100
AcDbLinetypeTableRecord
  2
CENTER
 70
     0
  3
Center ____ _ ____ _ ____ _ ____ _ ____ _ ____
 72
    65
 73
     4
 40
10.16
 49
6.35
 74
     0
 49
-1.27
 74
     0
 49
1.27
 74
     0
 49
-1.27
 74
     0
  0
LTYPE
  5
71
330
5
100
AcDbSymbolTableRecord
100
AcDbLinetypeTableRecord
  2
CENTERX2
 70
     0
  3
Center (2x) ________  __  ________  __  _____
 72
    65
 73
     4
 40
20.32
 49
12.7
 74
     0
 49
-2.54
 74
     0
 49
2.54
 74
     0
 49
-2.54
 74
     0
  0
LTYPE
  5
72
330
5
100
AcDbSymbolTableRecord
100
AcDbLinetypeTableRecord
  2
DOT2
 70
     0
  3
Dot (.5x) ........................................
 72
    65
 73
     2
 40
0.635
 49
0.0
 74
     0
 49
-0.635
 74
     0
  0
ENDTAB
  0
TABLE
  2
LAYER
  5
2
330
0
100
AcDbSymbolTable
 70
     2
  0
LAYER
  5
10
330
2
100
AcDbSymbolTableRecord
100
AcDbLayerTableRecord
  2
0
 70
     0
 62
     7
  6
Continuous
370
    -3
390
F
347
1C4
348
0
  0
LAYER
  5
1D2
330
2
100
AcDbSymbolTableRecord
100
AcDbLayerTableRecord
  2
レイヤー 1
 70
     0
 62
     7
  6
Continuous
370
    -3
390
F
347
1C4
348
0
  0
ENDTAB
  0
TABLE
  2
STYLE
  5
3
330
0
100
AcDbSymbolTable
 70
     1
  0
STYLE
  5
11
330
3
100
AcDbSymbolTableRecord
100
AcDbTextStyleTableRecord
  2
Standard
 70
     0
 40
0.0
 41
1.0
 50
0.0
 71
     0
 42
3.5
  3
txt
  4
bigfont
  0
ENDTAB
  0
TABLE
  2
VIEW
  5
6
330
0
100
AcDbSymbolTable
 70
     0
  0
ENDTAB
  0
TABLE
  2
UCS
  5
7
330
0
100
AcDbSymbolTable
 70
     0
  0
ENDTAB
  0
TABLE
  2
APPID
  5
9
330
0
100
AcDbSymbolTable
 70
     2
  0
APPID
  5
12
330
9
100
AcDbSymbolTableRecord
100
AcDbRegAppTableRecord
  2
ACAD
 70
     0
  0
APPID
  5
486
330
9
100
AcDbSymbolTableRecord
100
AcDbRegAppTableRecord
  2
PLOTTRANSPARENCY
 70
     0
  0
ENDTAB
  0
TABLE
  2
DIMSTYLE
  5
A
330
0
100
AcDbSymbolTable
 70
     2
100
AcDbDimStyleTable
  0
DIMSTYLE
105
27
330
A
100
AcDbSymbolTableRecord
100
AcDbDimStyleTableRecord
  2
ISO-25
 70
     0
 41
2.5
 42
0.625
 43
3.75
 44
1.25
 73
     0
 74
     0
 77
     1
 78
     8
140
2.5
141
2.5
143
0.0393700787
147
0.625
171
     3
172
     1
178
     0
271
     2
272
     2
274
     3
278
    44
283
     0
284
     8
340
11
  0
DIMSTYLE
105
1D4
330
A
100
AcDbSymbolTableRecord
100
AcDbDimStyleTableRecord
  2
Standard
 70
     0
178
     0
340
11
  0
ENDTAB
  0
TABLE
  2
BLOCK_RECORD
  5
1
330
0
100
AcDbSymbolTable
 70
     2
  0
BLOCK_RECORD
  5
1F
330
1
100
AcDbSymbolTableRecord
100
AcDbBlockTableRecord
  2
*Model_Space
340
22
 70
     0
280
     1
281
     0
  0
BLOCK_RECORD
  5
1B
330
1
100
AcDbSymbolTableRecord
100
AcDbBlockTableRecord
  2
*Paper_Space
340
1E
 70
     0
280
     1
281
     0
  0
BLOCK_RECORD
  5
23
330
1
100
AcDbSymbolTableRecord
100
AcDbBlockTableRecord
  2
*Paper_Space0
340
26
 70
     0
280
     1
281
     0
  0
BLOCK_RECORD
  5
1DC
330
1
100
AcDbSymbolTableRecord
100
AcDbBlockTableRecord
  2
block 137
340
0
 70
     0
280
     1
281
     0
  0
ENDTAB
  0
ENDSEC
  0
SECTION
  2
BLOCKS
  0
BLOCK
  5
20
330
1F
100
AcDbEntity
  8
0
100
AcDbBlockBegin
  2
*Model_Space
 70
     0
 10
0.0
 20
0.0
 30
0.0
  3
*Model_Space
  1

  0
ENDBLK
  5
21
330
1F
100
AcDbEntity
  8
0
100
AcDbBlockEnd
  0
BLOCK
  5
1C
330
1B
100
AcDbEntity
 67
     1
  8
0
100
AcDbBlockBegin
  2
*Paper_Space
 70
     0
 10
0.0
 20
0.0
 30
0.0
  3
*Paper_Space
  1

  0
ENDBLK
  5
1D
330
1B
100
AcDbEntity
 67
     1
  8
0
100
AcDbBlockEnd
  0
BLOCK
  5
24
330
23
100
AcDbEntity
  8
0
100
AcDbBlockBegin
  2
*Paper_Space0
 70
     0
 10
0.0
 20
0.0
 30
0.0
  3
*Paper_Space0
  1

  0
ENDBLK
  5
25
330
23
100
AcDbEntity
  8
0
100
AcDbBlockEnd
  0
BLOCK
  5
1DD
330
1DC
100
AcDbEntity
  8
0
100
AcDbBlockBegin
  2
block 137
 70
     0
 10
0.0
 20
0.0
 30
0.0
  3
block 137
  1

  0
POLYLINE
  5
1DE
330
1DC
100
AcDbEntity
  8
レイヤー 1
 62
     7
370
    18
100
AcDb2dPolyline
 66
     1
 10
0.0
 20
0.0
 30
0.0
  0
VERTEX
  5
1DF
330
1DE
100
AcDbEntity
  8
レイヤー 1
 62
     7
370
    18
100
AcDbVertex
100
AcDb2dVertex
 10
120.8139865149354
 20
129.0532768774589
 30
0.0
  0
VERTEX
  5
1E0
330
1DE
100
AcDbEntity
  8
レイヤー 1
 62
     7
370
    18
100
AcDbVertex
100
AcDb2dVertex
 10
120.5552598439931
 20
138.0866617493325
 30
0.0
  0
SEQEND
  5
1E1
330
1DE
100
AcDbEntity
  8
レイヤー 1
370
    18
  0
POLYLINE
  5
1E2
330
1DC
100
AcDbEntity
  8
レイヤー 1
 62
     7
370
    18
100
AcDb2dPolyline
 66
     1
 10
0.0
 20
0.0
 30
0.0
  0
VERTEX
  5
1E3
330
1E2
100
AcDbEntity
  8
レイヤー 1
 62
     7
370
    18
100
AcDbVertex
100
AcDb2dVertex
 10
120.5552598439931
 20
138.0866617493325
 30
0.0
  0
VERTEX
  5
1E4
330
1E2
100
AcDbEntity
  8
レイヤー 1
 62
     7
370
    18
100
AcDbVertex
100
AcDb2dVertex
 10
120.4264132728448
 20
144.1507188224693
 30
0.0
  0
SEQEND
  5
1E5
330
1E2
100
AcDbEntity
  8
レイヤー 1
370
    18
  0
POLYLINE
  5
1E6
330
1DC
100
AcDbEntity
  8
レイヤー 1
 62
     7
370
    18
100
AcDb2dPolyline
 66
     1
 10
0.0
 20
0.0
 30
0.0
  0
VERTEX
  5
1E7
330
1E6
100
AcDbEntity
  8
レイヤー 1
 62
     7
370
    18
100
AcDbVertex
100
AcDb2dVertex
 10
158.557419122687
 20
138.9251979904423
 30
0.0
  0
VERTEX
  5
1E8
330
1E6
100
AcDbEntity
  8
レイヤー 1
 62
     7
370
    18
100
AcDbVertex
100
AcDb2dVertex
 10
158.4285725515387
 20
144.9244872684564
 30
0.0
  0
SEQEND
  5
1E9
330
1E6
100
AcDbEntity
  8
レイヤー 1
370
    18
  0
POLYLINE
  5
1EA
330
1DC
100
AcDbEntity
  8
レイヤー 1
 62
     7
370
    18
100
AcDb2dPolyline
 66
     1
 10
0.0
 20
0.0
 30
0.0
  0
VERTEX
  5
1EB
330
1EA
100
AcDbEntity
  8
レイヤー 1
 62
     7
370
    18
100
AcDbVertex
100
AcDb2dVertex
 10
158.6859211842869
 20
130.2147908203109
 30
0.0
  0
VERTEX
  5
1EC
330
1EA
100
AcDbEntity
  8
レイヤー 1
 62
     7
370
    18
100
AcDbVertex
100
AcDb2dVertex
 10
158.557419122687
 20
138.9251979904423
 30
0.0
  0
SEQEND
  5
1ED
330
1EA
100
AcDbEntity
  8
レイヤー 1
370
    18
  0
SPLINE
  5
1EE
330
1DC
100
AcDbEntity
  8
レイヤー 1
 62
     7
370
    18
100
AcDbSpline
210
0.0
220
0.0
230
1.0
 70
     8
 71
     3
 72
     8
 73
     4
 74
     0
 42
0.000000001
 43
0.0000000001
 40
0.0
 40
0.0
 40
0.0
 40
0.0
 40
1.0
 40
1.0
 40
1.0
 40
1.0
 10
141.4390841660291
 20
85.21478133720325
 30
0.0
 10
142.5280788489166
 20
85.2499213111528
 30
0.0
 10
143.6143174554159
 20
85.30814342485353
 30
0.0
 10
144.7009005714637
 20
85.39254826424215
 30
0.0
  0
SPLINE
  5
1EF
330
1DC
100
AcDbEntity
  8
レイヤー 1
 62
     7
370
    18
100
AcDbSpline
210
0.0
220
0.0
230
1.0
 70
     8
 71
     3
 72
     8
 73
     4
 74
     0
 42
0.000000001
 43
0.0000000001
 40
0.0
 40
0.0
 40
0.0
 40
0.0
 40
1.0
 40
1.0
 40
1.0
 40
1.0
 10
134.2660508561904
 20
85.35258515661324
 30
0.0
 10
135.3233506606136
 20
85.27541501774365
 30
0.0
 10
136.3844400700706
 20
85.22408309501343
 30
0.0
 10
137.445184969979
 20
85.19824487887405
 30
0.0
  0
SPLINE
  5
1F0
330
1DC
100
AcDbEntity
  8
レイヤー 1
 62
     7
370
    18
100
AcDbSpline
210
0.0
220
0.0
230
1.0
 70
     8
 71
     3
 72
     8
 73
     4
 74
     0
 42
0.000000001
 43
0.0000000001
 40
0.0
 40
0.0
 40
0.0
 40
0.0
 40
1.0
 40
1.0
 40
1.0
 40
1.0
 10
155.8478515235381
 20
126.0501871429666
 30
0.0
 10
155.8468179948925
 20
126.0054009016584
 30
0.0
 10
155.8468179948925
 20
125.9611314246729
 30
0.0
 10
155.8478515235381
 20
125.9166896929132
 30
0.0
  0
SPLINE
  5
1F1
330
1DC
100
AcDbEntity
  8
レイヤー 1
 62
     7
370
    18
100
AcDbSpline
210
0.0
220
0.0
230
1.0
 70
     8
 71
     3
 72
     8
 73
     4
 74
     0
 42
0.000000001
 43
0.0000000001
 40
0.0
 40
0.0
 40
0.0
 40
0.0
 40
1.0
 40
1.0
 40
1.0
 40
1.0
 10
158.5174560150581
 20
139.6064656226505
 30
0.0
 10
158.5271022824168
 20
139.6416055966
 30
0.0
 10
158.5336479638388
 20
139.6767455705496
 30
0.0
 10
158.5395046261637
 20
139.7118855444991
 30
0.0
  0
SPLINE
  5
1F2
330
1DC
100
AcDbEntity
  8
レイヤー 1
 62
     7
370
    18
100
AcDbSpline
210
0.0
220
0.0
230
1.0
 70
     8
 71
     3
 72
     8
 73
     4
 74
     0
 42
0.000000001
 43
0.0000000001
 40
0.0
 40
0.0
 40
0.0
 40
0.0
 40
1.0
 40
1.0
 40
1.0
 40
1.0
 10
120.5835096269722
 20
138.9484523849678
 30
0.0
 10
120.5914333465883
 20
138.9062499652734
 30
0.0
 10
120.6021131425925
 20
138.8642198003534
 30
0.0
 10
120.614859995888
 20
138.8220173806591
 30
0.0
  0
SPLINE
  5
1F3
330
1DC
100
AcDbEntity
  8
レイヤー 1
 62
     7
370
    18
100
AcDbSpline
210
0.0
220
0.0
230
1.0
 70
     8
 71
     3
 72
     8
 73
     4
 74
     0
 42
0.000000001
 43
0.0000000001
 40
0.0
 40
0.0
 40
0.0
 40
0.0
 40
1.0
 40
1.0
 40
1.0
 40
1.0
 10
158.5408826643578
 20
139.7223930857291
 30
0.0
 10
158.5525959890077
 20
139.7985296959532
 30
0.0
 10
158.5584526513326
 20
139.8748385609514
 30
0.0
 10
158.557419122687
 20
139.9506306616269
 30
0.0
  0
SPLINE
  5
1F4
330
1DC
100
AcDbEntity
  8
レイヤー 1
 62
     7
370
    18
100
AcDbSpline
210
0.0
220
0.0
230
1.0
 70
     8
 71
     3
 72
     8
 73
     4
 74
     0
 42
0.000000001
 43
0.0000000001
 40
0.0
 40
0.0
 40
0.0
 40
0.0
 40
1.0
 40
1.0
 40
1.0
 40
1.0
 10
120.5562933726387
 20
139.1243245094898
 30
0.0
 10
120.5576714108328
 20
139.0469821158459
 30
0.0
 10
120.5659396399974
 20
138.9706732508476
 30
0.0
 10
120.5810980601325
 20
138.8945366406236
 30
0.0
  0
SPLINE
  5
1F5
330
1DC
100
AcDbEntity
  8
レイヤー 1
 62
     7
370
    18
100
AcDbSpline
210
0.0
220
0.0
230
1.0
 70
     8
 71
     3
 72
    17
 73
    13
 74
     0
 42
0.000000001
 43
0.0000000001
 40
0.0
 40
0.0
 40
0.0
 40
0.0
 40
1.0
 40
1.0
 40
1.0
 40
2.0
 40
2.0
 40
2.0
 40
3.0
 40
3.0
 40
3.0
 40
4.0
 40
4.0
 40
4.0
 40
4.0
 10
138.361924878604
 20
133.6349093632927
 30
0.0
 10
143.051388853126
 20
133.7451524188207
 30
0.0
 10
147.6760850325254
 20
134.0109415355077
 30
0.0
 10
152.2439371364182
 20
135.1524739245452
 30
0.0
 10
152.9498372013459
 20
135.3305853611326
 30
0.0
 10
153.6498806039486
 20
135.5224771796611
 30
0.0
 10
154.3513020447455
 20
135.7228094821283
 30
0.0
 10
154.931111614913
 20
135.8888630845174
 30
0.0
 10
155.4802598352619
 20
136.1853135510231
 30
0.0
 10
156.040776870712
 20
136.4089002480158
 30
0.0
 10
157.0829182550001
 20
136.8255845469568
 30
0.0
 10
158.557419122687
 20
137.6673936287776
 30
0.0
 10
158.557419122687
 20
138.9251979904423
 30
0.0
  0
POLYLINE
  5
1F6
330
1DC
100
AcDbEntity
  8
レイヤー 1
 62
     7
370
    18
100
AcDb2dPolyline
 66
     1
 10
0.0
 20
0.0
 30
0.0
  0
VERTEX
  5
1F7
330
1F6
100
AcDbEntity
  8
レイヤー 1
 62
     7
370
    18
100
AcDbVertex
100
AcDb2dVertex
 10
158.557419122687
 20
138.9251979904423
 30
0.0
  0
VERTEX
  5
1F8
330
1F6
100
AcDbEntity
  8
レイヤー 1
 62
     7
370
    18
100
AcDbVertex
100
AcDb2dVertex
 10
158.557419122687
 20
138.9251979904423
 30
0.0
  0
SEQEND
  5
1F9
330
1F6
100
AcDbEntity
  8
レイヤー 1
370
    18
  0
POLYLINE
  5
1FA
330
1DC
100
AcDbEntity
  8
レイヤー 1
 62
     7
370
    18
100
AcDb2dPolyline
 66
     1
 10
0.0
 20
0.0
 30
0.0
  0
VERTEX
  5
1FB
330
1FA
100
AcDbEntity
  8
レイヤー 1
 62
     7
370
    18
100
AcDbVertex
100
AcDb2dVertex
 10
158.557419122687
 20
138.9251979904423
 30
0.0
  0
VERTEX
  5
1FC
330
1FA
100
AcDbEntity
  8
レイヤー 1
 62
     7
370
    18
100
AcDbVertex
100
AcDb2dVertex
 10
158.557419122687
 20
138.9251979904423
 30
0.0
  0
SEQEND
  5
1FD
330
1FA
100
AcDbEntity
  8
レイヤー 1
370
    18
  0
POLYLINE
  5
1FE
330
1DC
100
AcDbEntity
  8
レイヤー 1
 62
     7
370
    18
100
AcDb2dPolyline
 66
     1
 10
0.0
 20
0.0
 30
0.0
  0
VERTEX
  5
1FF
330
1FE
100
AcDbEntity
  8
レイヤー 1
 62
     7
370
    18
100
AcDbVertex
100
AcDb2dVertex
 10
120.5552598439931
 20
138.0866617493325
 30
0.0
  0
VERTEX
  5
200
330
1FE
100
AcDbEntity
  8
レイヤー 1
 62
     7
370
    18
100
AcDbVertex
100
AcDb2dVertex
 10
120.5552598439931
 20
138.0866617493325
 30
0.0
  0
SEQEND
  5
201
330
1FE
100
AcDbEntity
  8
レイヤー 1
370
    18
  0
POLYLINE
  5
202
330
1DC
100
AcDbEntity
  8
レイヤー 1
 62
     7
370
    18
100
AcDb2dPolyline
 66
     1
 10
0.0
 20
0.0
 30
0.0
  0
VERTEX
  5
203
330
202
100
AcDbEntity
  8
レイヤー 1
 62
     7
370
    18
100
AcDbVertex
100
AcDb2dVertex
 10
120.5552598439931
 20
138.0866617493325
 30
0.0
  0
VERTEX
  5
204
330
202
100
AcDbEntity
  8
レイヤー 1
 62
     7
370
    18
100
AcDbVertex
100
AcDb2dVertex
 10
120.5552598439931
 20
138.0866617493325
 30
0.0
  0
SEQEND
  5
205
330
202
100
AcDbEntity
  8
レイヤー 1
370
    18
  0
SPLINE
  5
206
330
1DC
100
AcDbEntity
  8
レイヤー 1
 62
     7
370
    18
100
AcDbSpline
210
0.0
220
0.0
230
1.0
 70
     8
 71
     3
 72
    23
 73
    19
 74
     0
 42
0.000000001
 43
0.0000000001
 40
0.0
 40
0.0
 40
0.0
 40
0.0
 40
1.0
 40
1.0
 40
1.0
 40
2.0
 40
2.0
 40
2.0
 40
3.0
 40
3.0
 40
3.0
 40
4.0
 40
4.0
 40
4.0
 40
5.0
 40
5.0
 40
5.0
 40
6.0
 40
6.0
 40
6.0
 40
6.0
 10
120.5552598439931
 20
138.0866617493325
 30
0.0
 10
120.6103813717571
 20
137.8101928366412
 30
0.0
 10
120.6396646833818
 20
137.5655910571885
 30
0.0
 10
120.8105414194501
 20
137.3383870099362
 30
0.0
 10
120.9965765756536
 20
137.0905123897725
 30
0.0
 10
121.2473795269798
 20
136.8784667626554
 30
0.0
 10
121.4664875998417
 20
136.6593586897935
 30
0.0
 10
121.8595729947087
 20
136.2648952567324
 30
0.0
 10
122.4228461065471
 20
136.0518161009697
 30
0.0
 10
122.9203178946171
 20
135.8304687160424
 30
0.0
 10
124.0303276599646
 20
135.3374755521031
 30
0.0
 10
125.1461940876371
 20
135.0306897991416
 30
0.0
 10
126.3278618390778
 20
134.7661064658745
 30
0.0
 10
128.6636365780772
 20
134.2484808692157
 30
0.0
 10
131.0090575844353
 20
133.9723564660729
 30
0.0
 10
133.391685622034
 20
133.7802923927702
 30
0.0
 10
135.0494655695362
 20
133.6445556306514
 30
0.0
 10
136.700355326068
 20
133.6349093632927
 30
0.0
 10
138.361924878604
 20
133.6349093632927
 30
0.0
  0
SPLINE
  5
207
330
1DC
100
AcDbEntity
  8
レイヤー 1
 62
     7
370
    18
100
AcDbSpline
210
0.0
220
0.0
230
1.0
 70
     8
 71
     3
 72
    14
 73
    10
 74
     0
 42
0.000000001
 43
0.0000000001
 40
0.0
 40
0.0
 40
0.0
 40
0.0
 40
1.0
 40
1.0
 40
1.0
 40
2.0
 40
2.0
 40
2.0
 40
3.0
 40
3.0
 40
3.0
 40
3.0
 10
138.361924878604
 20
134.6022921755508
 30
0.0
 10
143.0641357064215
 20
134.7170138552096
 30
0.0
 10
147.7770263302432
 20
135.0529106650215
 30
0.0
 10
152.3493570582668
 20
136.1956488374789
 30
0.0
 10
153.5551404781043
 20
136.4965779281154
 30
0.0
 10
154.7250949048951
 20
136.8877685204656
 30
0.0
 10
155.8781683638082
 20
137.3502725893603
 30
0.0
 10
156.9368462064255
 20
137.7728135506262
 30
0.0
 10
158.1181694483177
 20
138.4707898959379
 30
0.0
 10
158.557419122687
 20
139.5702921200553
 30
0.0
  0
SPLINE
  5
208
330
1DC
100
AcDbEntity
  8
レイヤー 1
 62
     7
370
    18
100
AcDbSpline
210
0.0
220
0.0
230
1.0
 70
     8
 71
     3
 72
    17
 73
    13
 74
     0
 42
0.000000001
 43
0.0000000001
 40
0.0
 40
0.0
 40
0.0
 40
0.0
 40
1.0
 40
1.0
 40
1.0
 40
2.0
 40
2.0
 40
2.0
 40
3.0
 40
3.0
 40
3.0
 40
4.0
 40
4.0
 40
4.0
 40
4.0
 10
120.6196831295673
 20
138.7321003884941
 30
0.0
 10
120.8852999914801
 20
137.6673936287776
 30
0.0
 10
122.2802191534577
 20
137.1337483381124
 30
0.0
 10
123.1793890751079
 20
136.7330837331778
 30
0.0
 10
124.2611490574764
 20
136.2530096773083
 30
0.0
 10
125.4376491656892
 20
135.976540764617
 30
0.0
 10
126.5890000768597
 20
135.7205701700629
 30
0.0
 10
128.9047932620446
 20
135.2065619236637
 30
0.0
 10
131.2371229055588
 20
134.9967556086119
 30
0.0
 10
133.5990803702461
 20
134.8002129111784
 30
0.0
 10
135.1817572361699
 20
134.6677489897706
 30
0.0
 10
136.7754584076464
 20
134.6455281238907
 30
0.0
 10
138.361924878604
 20
134.6022921755508
 30
0.0
  0
SPLINE
  5
209
330
1DC
100
AcDbEntity
  8
レイヤー 1
 62
     7
370
    18
100
AcDbSpline
210
0.0
220
0.0
230
1.0
 70
     8
 71
     3
 72
    14
 73
    10
 74
     0
 42
0.000000001
 43
0.0000000001
 40
0.0
 40
0.0
 40
0.0
 40
0.0
 40
1.0
 40
1.0
 40
1.0
 40
2.0
 40
2.0
 40
2.0
 40
3.0
 40
3.0
 40
3.0
 40
3.0
 10
138.361924878604
 20
134.4079887901827
 30
0.0
 10
133.6621256176261
 20
134.4079887901827
 30
0.0
 10
128.8730983835804
 20
134.7028889637201
 30
0.0
 10
124.3393527249916
 20
136.0354518974148
 30
0.0
 10
123.5363009673798
 20
136.2719577024772
 30
0.0
 10
122.7856146611439
 20
136.6490234033377
 30
0.0
 10
122.0411295267814
 20
137.021265970519
 30
0.0
 10
121.414811167563
 20
137.3351141692252
 30
0.0
 10
120.4873914629337
 20
138.0856282206869
 30
0.0
 10
120.5552598439931
 20
138.8607747048681
 30
0.0
  0
SPLINE
  5
20A
330
1DC
100
AcDbEntity
  8
レイヤー 1
 62
     7
370
    18
100
AcDbSpline
210
0.0
220
0.0
230
1.0
 70
     8
 71
     3
 72
    17
 73
    13
 74
     0
 42
0.000000001
 43
0.0000000001
 40
0.0
 40
0.0
 40
0.0
 40
0.0
 40
1.0
 40
1.0
 40
1.0
 40
2.0
 40
2.0
 40
2.0
 40
3.0
 40
3.0
 40
3.0
 40
4.0
 40
4.0
 40
4.0
 40
4.0
 10
158.557419122687
 20
139.6989664364294
 30
0.0
 10
158.557419122687
 20
138.5059298698874
 30
0.0
 10
157.2941026082459
 20
137.8291408618101
 30
0.0
 10
156.3794297569121
 20
137.3209892777357
 30
0.0
 10
155.4089463587172
 20
136.7811428151971
 30
0.0
 10
154.2038519579768
 20
136.4440402219654
 30
0.0
 10
153.1372503957435
 20
136.1501735770736
 30
0.0
 10
150.9651176922935
 20
135.5529662747055
 30
0.0
 10
148.7151258308768
 20
135.072892218836
 30
0.0
 10
146.470301612688
 20
134.8575737510078
 30
0.0
 10
143.7655571472183
 20
134.601086392131
 30
0.0
 10
141.0783826687235
 20
134.4734456044025
 30
0.0
 10
138.361924878604
 20
134.4079887901827
 30
0.0
  0
SPLINE
  5
20B
330
1DC
100
AcDbEntity
  8
レイヤー 1
 62
     7
370
    18
100
AcDbSpline
210
0.0
220
0.0
230
1.0
 70
     8
 71
     3
 72
     8
 73
     4
 74
     0
 42
0.000000001
 43
0.0000000001
 40
0.0
 40
0.0
 40
0.0
 40
0.0
 40
1.0
 40
1.0
 40
1.0
 40
1.0
 10
134.2336669586291
 20
85.30952146304763
 30
0.0
 10
133.2018608607968
 20
85.82594127628657
 30
0.0
 10
131.812109342047
 20
85.7780544490416
 30
0.0
 10
130.6845295897247
 20
85.6967501955897
 30
0.0
  0
SPLINE
  5
20C
330
1DC
100
AcDbEntity
  8
レイヤー 1
 62
     7
370
    18
100
AcDbSpline
210
0.0
220
0.0
230
1.0
 70
     8
 71
     3
 72
    11
 73
     7
 74
     0
 42
0.000000001
 43
0.0000000001
 40
0.0
 40
0.0
 40
0.0
 40
0.0
 40
1.0
 40
1.0
 40
1.0
 40
2.0
 40
2.0
 40
2.0
 40
2.0
 10
141.3946424342694
 20
85.18067489189929
 30
0.0
 10
140.7562662408526
 20
85.26611325993348
 30
0.0
 10
140.1054877036889
 20
85.3739447486218
 30
0.0
 10
139.459187790656
 20
85.3739447486218
 30
0.0
 10
138.7904947569691
 20
85.37497827726737
 30
0.0
 10
138.1193901564424
 20
85.26818031722462
 30
0.0
 10
137.45896535192
 20
85.18067489189929
 30
0.0
  0
SPLINE
  5
20D
330
1DC
100
AcDbEntity
  8
レイヤー 1
 62
     7
370
    18
100
AcDbSpline
210
0.0
220
0.0
230
1.0
 70
     8
 71
     3
 72
     8
 73
     4
 74
     0
 42
0.000000001
 43
0.0000000001
 40
0.0
 40
0.0
 40
0.0
 40
0.0
 40
1.0
 40
1.0
 40
1.0
 40
1.0
 10
148.4925726625297
 20
85.76117348116388
 30
0.0
 10
147.1648328625143
 20
85.76117348116388
 30
0.0
 10
145.9690402195841
 20
85.74153643689796
 30
0.0
 10
144.6857421513286
 20
85.3739447486218
 30
0.0
  0
SPLINE
  5
20E
330
1DC
100
AcDbEntity
  8
レイヤー 1
 62
     7
370
    18
100
AcDbSpline
210
0.0
220
0.0
230
1.0
 70
     8
 71
     3
 72
     8
 73
     4
 74
     0
 42
0.000000001
 43
0.0000000001
 40
0.0
 40
0.0
 40
0.0
 40
0.0
 40
1.0
 40
1.0
 40
1.0
 40
1.0
 10
148.4925726625297
 20
85.76117348116388
 30
0.0
 10
149.4385958827793
 20
85.93377276497489
 30
0.0
 10
150.3846191030289
 20
86.10568302968886
 30
0.0
 10
151.3306423232785
 20
86.27793780395135
 30
0.0
  0
SPLINE
  5
20F
330
1DC
100
AcDbEntity
  8
レイヤー 1
 62
     7
370
    18
100
AcDbSpline
210
0.0
220
0.0
230
1.0
 70
     8
 71
     3
 72
    11
 73
     7
 74
     0
 42
0.000000001
 43
0.0000000001
 40
0.0
 40
0.0
 40
0.0
 40
0.0
 40
1.0
 40
1.0
 40
1.0
 40
2.0
 40
2.0
 40
2.0
 40
2.0
 10
154.2985920838212
 20
86.9872829643643
 30
0.0
 10
153.778727175097
 20
86.94387476125014
 30
0.0
 10
153.2626518714066
 20
86.90081106768453
 30
0.0
 10
152.7496771536529
 20
86.79297957899621
 30
0.0
 10
152.3786403698915
 20
86.71546493057808
 30
0.0
 10
151.5717990072459
 20
86.61004500872944
 30
0.0
 10
151.3306423232785
 20
86.27793780395135
 30
0.0
  0
SPLINE
  5
210
330
1DC
100
AcDbEntity
  8
レイヤー 1
 62
     7
370
    18
100
AcDbSpline
210
0.0
220
0.0
230
1.0
 70
     8
 71
     3
 72
     8
 73
     4
 74
     0
 42
0.000000001
 43
0.0000000001
 40
0.0
 40
0.0
 40
0.0
 40
0.0
 40
1.0
 40
1.0
 40
1.0
 40
1.0
 10
154.2985920838212
 20
86.9872829643643
 30
0.0
 10
154.9803764803521
 20
87.20053437490125
 30
0.0
 10
155.6346001130011
 20
87.43238930105858
 30
0.0
 10
156.2984700130087
 20
87.69697263432576
 30
0.0
  0
SPLINE
  5
211
330
1DC
100
AcDbEntity
  8
レイヤー 1
 62
     7
370
    18
100
AcDbSpline
210
0.0
220
0.0
230
1.0
 70
     8
 71
     3
 72
    11
 73
     7
 74
     0
 42
0.000000001
 43
0.0000000001
 40
0.0
 40
0.0
 40
0.0
 40
0.0
 40
1.0
 40
1.0
 40
1.0
 40
2.0
 40
2.0
 40
2.0
 40
2.0
 10
158.0406547998996
 20
88.66504446568096
 30
0.0
 10
157.7388644353917
 20
88.5785725690012
 30
0.0
 10
157.4401746568205
 20
88.48693302909355
 30
0.0
 10
157.1380397827641
 20
88.4063177947387
 30
0.0
 10
156.7401312542177
 20
88.30089787289006
 30
0.0
 10
156.5868245051241
 20
88.24474281648048
 30
0.0
 10
156.2984700130087
 20
87.95466577662245
 30
0.0
  0
SPLINE
  5
212
330
1DC
100
AcDbEntity
  8
レイヤー 1
 62
     7
370
    18
100
AcDbSpline
210
0.0
220
0.0
230
1.0
 70
     8
 71
     3
 72
     8
 73
     4
 74
     0
 42
0.000000001
 43
0.0000000001
 40
0.0
 40
0.0
 40
0.0
 40
0.0
 40
1.0
 40
1.0
 40
1.0
 40
1.0
 10
158.0406547998996
 20
88.66504446568096
 30
0.0
 10
158.3896429725554
 20
88.9261827034629
 30
0.0
 10
158.6824760888016
 20
89.15459253413496
 30
0.0
 10
158.9446478552291
 20
89.50358070679077
 30
0.0
  0
POLYLINE
  5
213
330
1DC
100
AcDbEntity
  8
レイヤー 1
 62
     7
370
    18
100
AcDb2dPolyline
 66
     1
 10
0.0
 20
0.0
 30
0.0
  0
VERTEX
  5
214
330
213
100
AcDbEntity
  8
レイヤー 1
 62
     7
370
    18
100
AcDbVertex
100
AcDb2dVertex
 10
159.1368841833061
 20
90.53504229507458
 30
0.0
  0
VERTEX
  5
215
330
213
100
AcDbEntity
  8
レイヤー 1
 62
     7
370
    18
100
AcDbVertex
100
AcDb2dVertex
 10
158.8791910410094
 20
90.40619572392623
 30
0.0
  0
SEQEND
  5
216
330
213
100
AcDbEntity
  8
レイヤー 1
370
    18
  0
SPLINE
  5
217
330
1DC
100
AcDbEntity
  8
レイヤー 1
 62
     7
370
    18
100
AcDbSpline
210
0.0
220
0.0
230
1.0
 70
     8
 71
     3
 72
     8
 73
     4
 74
     0
 42
0.000000001
 43
0.0000000001
 40
0.0
 40
0.0
 40
0.0
 40
0.0
 40
1.0
 40
1.0
 40
1.0
 40
1.0
 10
123.7809027468326
 20
88.08454587641637
 30
0.0
 10
123.3547444353072
 20
88.33982745187338
 30
0.0
 10
122.9764729510267
 20
88.4393907113971
 30
0.0
 10
122.4907144876065
 20
88.53516436588704
 30
0.0
  0
SPLINE
  5
218
330
1DC
100
AcDbEntity
  8
レイヤー 1
 62
     7
370
    18
100
AcDbSpline
210
0.0
220
0.0
230
1.0
 70
     8
 71
     3
 72
    11
 73
     7
 74
     0
 42
0.000000001
 43
0.0000000001
 40
0.0
 40
0.0
 40
0.0
 40
0.0
 40
1.0
 40
1.0
 40
1.0
 40
2.0
 40
2.0
 40
2.0
 40
2.0
 10
156.4273165841571
 20
128.0219875439494
 30
0.0
 10
156.2764214019031
 20
127.717268848279
 30
0.0
 10
156.0631699913662
 20
127.3824055671127
 30
0.0
 10
155.9766980946864
 20
127.0533989482714
 30
0.0
 10
155.8909152171037
 20
126.7314547751748
 30
0.0
 10
155.8888481598125
 20
126.3521497622488
 30
0.0
 10
155.8478515235381
 20
126.0221096147618
 30
0.0
  0
SPLINE
  5
219
330
1DC
100
AcDbEntity
  8
レイヤー 1
 62
     7
370
    18
100
AcDbSpline
210
0.0
220
0.0
230
1.0
 70
     8
 71
     3
 72
     8
 73
     4
 74
     0
 42
0.000000001
 43
0.0000000001
 40
0.0
 40
0.0
 40
0.0
 40
0.0
 40
1.0
 40
1.0
 40
1.0
 40
1.0
 10
122.0387179599417
 20
89.37473413564243
 30
0.0
 10
122.1210557420392
 20
89.04813908364075
 30
0.0
 10
122.3043348218545
 20
88.81490611928933
 30
0.0
 10
122.4907144876065
 20
88.53516436588704
 30
0.0
  0
SPLINE
  5
21A
330
1DC
100
AcDbEntity
  8
レイヤー 1
 62
     7
370
    18
100
AcDbSpline
210
0.0
220
0.0
230
1.0
 70
     8
 71
     3
 72
     8
 73
     4
 74
     0
 42
0.000000001
 43
0.0000000001
 40
0.0
 40
0.0
 40
0.0
 40
0.0
 40
1.0
 40
1.0
 40
1.0
 40
1.0
 10
123.7809027468326
 20
87.56812606317742
 30
0.0
 10
124.3221272475653
 20
87.29871959623088
 30
0.0
 10
124.8161539401501
 20
87.10097111537753
 30
0.0
 10
125.3945854721236
 20
86.92285967879012
 30
0.0
  0
SPLINE
  5
21B
330
1DC
100
AcDbEntity
  8
レイヤー 1
 62
     7
370
    18
100
AcDbSpline
210
0.0
220
0.0
230
1.0
 70
     8
 71
     3
 72
    11
 73
     7
 74
     0
 42
0.000000001
 43
0.0000000001
 40
0.0
 40
0.0
 40
0.0
 40
0.0
 40
1.0
 40
1.0
 40
1.0
 40
2.0
 40
2.0
 40
2.0
 40
2.0
 10
128.0397297856984
 20
86.149091232803
 30
0.0
 10
128.019748231884
 20
86.48739960945454
 30
0.0
 10
127.089916960415
 20
86.66309947920229
 30
0.0
 10
126.813620302498
 20
86.72855629342203
 30
0.0
 10
126.3461208451496
 20
86.8398328775956
 30
0.0
 10
125.8710421777336
 20
86.87945147567598
 30
0.0
 10
125.3945854721236
 20
86.92285967879012
 30
0.0
  0
SPLINE
  5
21C
330
1DC
100
AcDbEntity
  8
レイヤー 1
 62
     7
370
    18
100
AcDbSpline
210
0.0
220
0.0
230
1.0
 70
     8
 71
     3
 72
     8
 73
     4
 74
     0
 42
0.000000001
 43
0.0000000001
 40
0.0
 40
0.0
 40
0.0
 40
0.0
 40
1.0
 40
1.0
 40
1.0
 40
1.0
 10
128.0397297856984
 20
86.149091232803
 30
0.0
 10
128.9258083445047
 20
86.01542152797532
 30
0.0
 10
129.8029296550493
 20
85.86452634572137
 30
0.0
 10
130.6845295897247
 20
85.6967501955897
 30
0.0
  0
POLYLINE
  5
21D
330
1DC
100
AcDbEntity
  8
レイヤー 1
 62
     7
370
    18
100
AcDb2dPolyline
 66
     1
 10
0.0
 20
0.0
 30
0.0
  0
VERTEX
  5
21E
330
21D
100
AcDbEntity
  8
レイヤー 1
 62
     7
370
    18
100
AcDbVertex
100
AcDb2dVertex
 10
159.1368841833061
 20
90.53504229507458
 30
0.0
  0
VERTEX
  5
21F
330
21D
100
AcDbEntity
  8
レイヤー 1
 62
     7
370
    18
100
AcDbVertex
100
AcDb2dVertex
 10
158.6859211842869
 20
128.6658758901426
 30
0.0
  0
SEQEND
  5
220
330
21D
100
AcDbEntity
  8
レイヤー 1
370
    18
  0
POLYLINE
  5
221
330
1DC
100
AcDbEntity
  8
レイヤー 1
 62
     7
370
    18
100
AcDb2dPolyline
 66
     1
 10
0.0
 20
0.0
 30
0.0
  0
VERTEX
  5
222
330
221
100
AcDbEntity
  8
レイヤー 1
 62
     7
370
    18
100
AcDbVertex
100
AcDb2dVertex
 10
158.6859211842869
 20
128.6658758901426
 30
0.0
  0
VERTEX
  5
223
330
221
100
AcDbEntity
  8
レイヤー 1
 62
     7
370
    18
100
AcDbVertex
100
AcDb2dVertex
 10
158.6859211842869
 20
129.9562364041429
 30
0.0
  0
SEQEND
  5
224
330
221
100
AcDbEntity
  8
レイヤー 1
370
    18
  0
POLYLINE
  5
225
330
1DC
100
AcDbEntity
  8
レイヤー 1
 62
     7
370
    18
100
AcDb2dPolyline
 66
     1
 10
0.0
 20
0.0
 30
0.0
  0
VERTEX
  5
226
330
225
100
AcDbEntity
  8
レイヤー 1
 62
     7
370
    18
100
AcDbVertex
100
AcDb2dVertex
 10
158.9446478552291
 20
89.50358070679077
 30
0.0
  0
VERTEX
  5
227
330
225
100
AcDbEntity
  8
レイヤー 1
 62
     7
370
    18
100
AcDbVertex
100
AcDb2dVertex
 10
158.4285725515387
 20
127.6988375874329
 30
0.0
  0
SEQEND
  5
228
330
225
100
AcDbEntity
  8
レイヤー 1
370
    18
  0
POLYLINE
  5
229
330
1DC
100
AcDbEntity
  8
レイヤー 1
 62
     7
370
    18
100
AcDb2dPolyline
 66
     1
 10
0.0
 20
0.0
 30
0.0
  0
VERTEX
  5
22A
330
229
100
AcDbEntity
  8
レイヤー 1
 62
     7
370
    18
100
AcDbVertex
100
AcDb2dVertex
 10
156.2984700130087
 20
87.69697263432576
 30
0.0
  0
VERTEX
  5
22B
330
229
100
AcDbEntity
  8
レイヤー 1
 62
     7
370
    18
100
AcDbVertex
100
AcDb2dVertex
 10
155.8478515235381
 20
125.8274617198452
 30
0.0
  0
SEQEND
  5
22C
330
229
100
AcDbEntity
  8
レイヤー 1
370
    18
  0
POLYLINE
  5
22D
330
1DC
100
AcDbEntity
  8
レイヤー 1
 62
     7
370
    18
100
AcDb2dPolyline
 66
     1
 10
0.0
 20
0.0
 30
0.0
  0
VERTEX
  5
22E
330
22D
100
AcDbEntity
  8
レイヤー 1
 62
     7
370
    18
100
AcDbVertex
100
AcDb2dVertex
 10
158.6859211842869
 20
130.2147908203109
 30
0.0
  0
VERTEX
  5
22F
330
22D
100
AcDbEntity
  8
レイヤー 1
 62
     7
370
    18
100
AcDbVertex
100
AcDb2dVertex
 10
158.6218424082612
 20
130.0861165039368
 30
0.0
  0
SEQEND
  5
230
330
22D
100
AcDbEntity
  8
レイヤー 1
370
    18
  0
POLYLINE
  5
231
330
1DC
100
AcDbEntity
  8
レイヤー 1
 62
     7
370
    18
100
AcDb2dPolyline
 66
     1
 10
0.0
 20
0.0
 30
0.0
  0
VERTEX
  5
232
330
231
100
AcDbEntity
  8
レイヤー 1
 62
     7
370
    18
100
AcDbVertex
100
AcDb2dVertex
 10
158.6218424082612
 20
130.0861165039368
 30
0.0
  0
VERTEX
  5
233
330
231
100
AcDbEntity
  8
レイヤー 1
 62
     7
370
    18
100
AcDbVertex
100
AcDb2dVertex
 10
158.6218424082612
 20
129.8928466472143
 30
0.0
  0
SEQEND
  5
234
330
231
100
AcDbEntity
  8
レイヤー 1
370
    18
  0
SPLINE
  5
235
330
1DC
100
AcDbEntity
  8
レイヤー 1
 62
     7
370
    18
100
AcDbSpline
210
0.0
220
0.0
230
1.0
 70
     8
 71
     3
 72
     8
 73
     4
 74
     0
 42
0.000000001
 43
0.0000000001
 40
0.0
 40
0.0
 40
0.0
 40
0.0
 40
1.0
 40
1.0
 40
1.0
 40
1.0
 10
158.6218424082612
 20
129.8928466472143
 30
0.0
 10
158.5350260020329
 20
129.1586967993076
 30
0.0
 10
158.4719807546528
 20
128.4364325308249
 30
0.0
 10
158.4285725515387
 20
127.6988375874329
 30
0.0
  0
POLYLINE
  5
236
330
1DC
100
AcDbEntity
  8
レイヤー 1
 62
     7
370
    18
100
AcDb2dPolyline
 66
     1
 10
0.0
 20
0.0
 30
0.0
  0
VERTEX
  5
237
330
236
100
AcDbEntity
  8
レイヤー 1
 62
     7
370
    18
100
AcDbVertex
100
AcDb2dVertex
 10
158.557419122687
 20
138.9251979904423
 30
0.0
  0
VERTEX
  5
238
330
236
100
AcDbEntity
  8
レイヤー 1
 62
     7
370
    18
100
AcDbVertex
100
AcDb2dVertex
 10
158.557419122687
 20
138.9251979904423
 30
0.0
  0
SEQEND
  5
239
330
236
100
AcDbEntity
  8
レイヤー 1
370
    18
  0
POLYLINE
  5
23A
330
1DC
100
AcDbEntity
  8
レイヤー 1
 62
     7
370
    18
100
AcDb2dPolyline
 66
     1
 10
0.0
 20
0.0
 30
0.0
  0
VERTEX
  5
23B
330
23A
100
AcDbEntity
  8
レイヤー 1
 62
     7
370
    18
100
AcDbVertex
100
AcDb2dVertex
 10
158.557419122687
 20
138.9251979904423
 30
0.0
  0
VERTEX
  5
23C
330
23A
100
AcDbEntity
  8
レイヤー 1
 62
     7
370
    18
100
AcDbVertex
100
AcDb2dVertex
 10
158.557419122687
 20
138.9251979904423
 30
0.0
  0
SEQEND
  5
23D
330
23A
100
AcDbEntity
  8
レイヤー 1
370
    18
  0
POLYLINE
  5
23E
330
1DC
100
AcDbEntity
  8
レイヤー 1
 62
     7
370
    18
100
AcDb2dPolyline
 66
     1
 10
0.0
 20
0.0
 30
0.0
  0
VERTEX
  5
23F
330
23E
100
AcDbEntity
  8
レイヤー 1
 62
     7
370
    18
100
AcDbVertex
100
AcDb2dVertex
 10
123.7809027468326
 20
87.56812606317742
 30
0.0
  0
VERTEX
  5
240
330
23E
100
AcDbEntity
  8
レイヤー 1
 62
     7
370
    18
100
AcDbVertex
100
AcDb2dVertex
 10
122.6195610587548
 20
125.7630384342711
 30
0.0
  0
SEQEND
  5
241
330
23E
100
AcDbEntity
  8
レイヤー 1
370
    18
  0
SPLINE
  5
242
330
1DC
100
AcDbEntity
  8
レイヤー 1
 62
     7
370
    18
100
AcDbSpline
210
0.0
220
0.0
230
1.0
 70
     8
 71
     3
 72
     8
 73
     4
 74
     0
 42
0.000000001
 43
0.0000000001
 40
0.0
 40
0.0
 40
0.0
 40
0.0
 40
1.0
 40
1.0
 40
1.0
 40
1.0
 10
122.6195610587548
 20
125.7630384342711
 30
0.0
 10
122.5279215188472
 20
126.5827989049862
 30
0.0
 10
122.4169894442222
 20
127.4106553500918
 30
0.0
 10
121.9098713887934
 20
128.0862385747493
 30
0.0
  0
POLYLINE
  5
243
330
1DC
100
AcDbEntity
  8
レイヤー 1
 62
     7
370
    18
100
AcDb2dPolyline
 66
     1
 10
0.0
 20
0.0
 30
0.0
  0
VERTEX
  5
244
330
243
100
AcDbEntity
  8
レイヤー 1
 62
     7
370
    18
100
AcDbVertex
100
AcDb2dVertex
 10
122.0387179599417
 20
89.37473413564243
 30
0.0
  0
VERTEX
  5
245
330
243
100
AcDbEntity
  8
レイヤー 1
 62
     7
370
    18
100
AcDbVertex
100
AcDb2dVertex
 10
120.8784098005096
 20
127.5701632710589
 30
0.0
  0
SEQEND
  5
246
330
243
100
AcDbEntity
  8
レイヤー 1
370
    18
  0
POLYLINE
  5
247
330
1DC
100
AcDbEntity
  8
レイヤー 1
 62
     7
370
    18
100
AcDb2dPolyline
 66
     1
 10
0.0
 20
0.0
 30
0.0
  0
VERTEX
  5
248
330
247
100
AcDbEntity
  8
レイヤー 1
 62
     7
370
    18
100
AcDbVertex
100
AcDb2dVertex
 10
120.8784098005096
 20
127.5701632710589
 30
0.0
  0
VERTEX
  5
249
330
247
100
AcDbEntity
  8
レイヤー 1
 62
     7
370
    18
100
AcDbVertex
100
AcDb2dVertex
 10
120.8139865149354
 20
129.0532768774589
 30
0.0
  0
SEQEND
  5
24A
330
247
100
AcDbEntity
  8
レイヤー 1
370
    18
  0
POLYLINE
  5
24B
330
1DC
100
AcDbEntity
  8
レイヤー 1
 62
     7
370
    18
100
AcDb2dPolyline
 66
     1
 10
0.0
 20
0.0
 30
0.0
  0
VERTEX
  5
24C
330
24B
100
AcDbEntity
  8
レイヤー 1
 62
     7
370
    18
100
AcDbVertex
100
AcDb2dVertex
 10
120.5552598439931
 20
138.0866617493325
 30
0.0
  0
VERTEX
  5
24D
330
24B
100
AcDbEntity
  8
レイヤー 1
 62
     7
370
    18
100
AcDbVertex
100
AcDb2dVertex
 10
120.5552598439931
 20
138.0866617493325
 30
0.0
  0
SEQEND
  5
24E
330
24B
100
AcDbEntity
  8
レイヤー 1
370
    18
  0
POLYLINE
  5
24F
330
1DC
100
AcDbEntity
  8
レイヤー 1
 62
     7
370
    18
100
AcDb2dPolyline
 66
     1
 10
0.0
 20
0.0
 30
0.0
  0
VERTEX
  5
250
330
24F
100
AcDbEntity
  8
レイヤー 1
 62
     7
370
    18
100
AcDbVertex
100
AcDb2dVertex
 10
120.5552598439931
 20
138.0866617493325
 30
0.0
  0
VERTEX
  5
251
330
24F
100
AcDbEntity
  8
レイヤー 1
 62
     7
370
    18
100
AcDbVertex
100
AcDb2dVertex
 10
120.5552598439931
 20
138.0866617493325
 30
0.0
  0
SEQEND
  5
252
330
24F
100
AcDbEntity
  8
レイヤー 1
370
    18
  0
SPLINE
  5
253
330
1DC
100
AcDbEntity
  8
レイヤー 1
 62
     7
370
    18
100
AcDbSpline
210
0.0
220
0.0
230
1.0
 70
     8
 71
     3
 72
    11
 73
     7
 74
     0
 42
0.000000001
 43
0.0000000001
 40
0.0
 40
0.0
 40
0.0
 40
0.0
 40
1.0
 40
1.0
 40
1.0
 40
2.0
 40
2.0
 40
2.0
 40
2.0
 10
133.2008273321512
 20
123.4401828033413
 30
0.0
 10
132.9982557176185
 20
124.459069793104
 30
0.0
 10
132.6482340163171
 20
125.2995008367307
 30
0.0
 10
131.5240993594801
 20
125.5044840181031
 30
0.0
 10
130.4034097981283
 20
125.710500728121
 30
0.0
 10
129.7819145725892
 20
124.7923827813019
 30
0.0
 10
129.7819145725892
 20
123.7621269764379
 30
0.0
  0
POLYLINE
  5
254
330
1DC
100
AcDbEntity
  8
レイヤー 1
 62
     7
370
    18
100
AcDb2dPolyline
 66
     1
 10
0.0
 20
0.0
 30
0.0
  0
VERTEX
  5
255
330
254
100
AcDbEntity
  8
レイヤー 1
 62
     7
370
    18
100
AcDbVertex
100
AcDb2dVertex
 10
130.6845295897247
 20
85.6967501955897
 30
0.0
  0
VERTEX
  5
256
330
254
100
AcDbEntity
  8
レイヤー 1
 62
     7
370
    18
100
AcDbVertex
100
AcDb2dVertex
 10
129.7819145725892
 20
123.7621269764379
 30
0.0
  0
SEQEND
  5
257
330
254
100
AcDbEntity
  8
レイヤー 1
370
    18
  0
POLYLINE
  5
258
330
1DC
100
AcDbEntity
  8
レイヤー 1
 62
     7
370
    18
100
AcDb2dPolyline
 66
     1
 10
0.0
 20
0.0
 30
0.0
  0
VERTEX
  5
259
330
258
100
AcDbEntity
  8
レイヤー 1
 62
     7
370
    18
100
AcDbVertex
100
AcDb2dVertex
 10
128.0397297856984
 20
86.149091232803
 30
0.0
  0
VERTEX
  5
25A
330
258
100
AcDbEntity
  8
レイヤー 1
 62
     7
370
    18
100
AcDbVertex
100
AcDb2dVertex
 10
126.9424668736463
 20
124.279924827871
 30
0.0
  0
SEQEND
  5
25B
330
258
100
AcDbEntity
  8
レイヤー 1
370
    18
  0
SPLINE
  5
25C
330
1DC
100
AcDbEntity
  8
レイヤー 1
 62
     7
370
    18
100
AcDbSpline
210
0.0
220
0.0
230
1.0
 70
     8
 71
     3
 72
    14
 73
    10
 74
     0
 42
0.000000001
 43
0.0000000001
 40
0.0
 40
0.0
 40
0.0
 40
0.0
 40
1.0
 40
1.0
 40
1.0
 40
2.0
 40
2.0
 40
2.0
 40
3.0
 40
3.0
 40
3.0
 40
3.0
 10
126.9424668736463
 20
124.279924827871
 30
0.0
 10
126.7784803285484
 20
125.1029581392972
 30
0.0
 10
126.5876220386656
 20
126.0162529524369
 30
0.0
 10
125.7821587142142
 20
126.4729003590068
 30
0.0
 10
125.3501437403639
 20
126.7175021384595
 30
0.0
 10
124.9835855807333
 20
126.6146660382248
 30
0.0
 10
124.7034993177825
 20
126.2422512162693
 30
0.0
 10
124.4017089532746
 20
125.8371079872039
 30
0.0
 10
124.4265136407684
 20
125.4810573688033
 30
0.0
 10
124.4265136407684
 20
124.9892699882839
 30
0.0
  0
POLYLINE
  5
25D
330
1DC
100
AcDbEntity
  8
レイヤー 1
 62
     7
370
    18
100
AcDb2dPolyline
 66
     1
 10
0.0
 20
0.0
 30
0.0
  0
VERTEX
  5
25E
330
25D
100
AcDbEntity
  8
レイヤー 1
 62
     7
370
    18
100
AcDbVertex
100
AcDb2dVertex
 10
125.3945854721236
 20
86.92285967879012
 30
0.0
  0
VERTEX
  5
25F
330
25D
100
AcDbEntity
  8
レイヤー 1
 62
     7
370
    18
100
AcDbVertex
100
AcDb2dVertex
 10
124.4265136407684
 20
124.9892699882839
 30
0.0
  0
SEQEND
  5
260
330
25D
100
AcDbEntity
  8
レイヤー 1
370
    18
  0
POLYLINE
  5
261
330
1DC
100
AcDbEntity
  8
レイヤー 1
 62
     7
370
    18
100
AcDb2dPolyline
 66
     1
 10
0.0
 20
0.0
 30
0.0
  0
VERTEX
  5
262
330
261
100
AcDbEntity
  8
レイヤー 1
 62
     7
370
    18
100
AcDbVertex
100
AcDb2dVertex
 10
122.4907144876065
 20
88.53516436588704
 30
0.0
  0
VERTEX
  5
263
330
261
100
AcDbEntity
  8
レイヤー 1
 62
     7
370
    18
100
AcDbVertex
100
AcDb2dVertex
 10
122.4262912020323
 20
90.40619572392623
 30
0.0
  0
SEQEND
  5
264
330
261
100
AcDbEntity
  8
レイヤー 1
370
    18
  0
POLYLINE
  5
265
330
1DC
100
AcDbEntity
  8
レイヤー 1
 62
     7
370
    18
100
AcDb2dPolyline
 66
     1
 10
0.0
 20
0.0
 30
0.0
  0
VERTEX
  5
266
330
265
100
AcDbEntity
  8
レイヤー 1
 62
     7
370
    18
100
AcDbVertex
100
AcDb2dVertex
 10
122.4262912020323
 20
90.40619572392623
 30
0.0
  0
VERTEX
  5
267
330
265
100
AcDbEntity
  8
レイヤー 1
 62
     7
370
    18
100
AcDbVertex
100
AcDb2dVertex
 10
121.3290282899802
 20
126.665997960955
 30
0.0
  0
SEQEND
  5
268
330
265
100
AcDbEntity
  8
レイヤー 1
370
    18
  0
SPLINE
  5
269
330
1DC
100
AcDbEntity
  8
レイヤー 1
 62
     7
370
    18
100
AcDbSpline
210
0.0
220
0.0
230
1.0
 70
     8
 71
     3
 72
     8
 73
     4
 74
     0
 42
0.000000001
 43
0.0000000001
 40
0.0
 40
0.0
 40
0.0
 40
0.0
 40
1.0
 40
1.0
 40
1.0
 40
1.0
 10
121.9098713887934
 20
128.0862385747493
 30
0.0
 10
121.4465060460273
 20
128.6880967560224
 30
0.0
 10
121.3290282899802
 20
126.8835557408486
 30
0.0
 10
121.3290282899802
 20
126.665997960955
 30
0.0
  0
SPLINE
  5
26A
330
1DC
100
AcDbEntity
  8
レイヤー 1
 62
     7
370
    18
100
AcDbSpline
210
0.0
220
0.0
230
1.0
 70
     8
 71
     3
 72
     8
 73
     4
 74
     0
 42
0.000000001
 43
0.0000000001
 40
0.0
 40
0.0
 40
0.0
 40
0.0
 40
1.0
 40
1.0
 40
1.0
 40
1.0
 10
136.6851969059329
 20
123.2470852013931
 30
0.0
 10
136.6851969059329
 20
124.3254000882763
 30
0.0
 10
137.45896535192
 20
125.1825398450065
 30
0.0
 10
138.5562282639721
 20
125.1825398450065
 30
0.0
  0
POLYLINE
  5
26B
330
1DC
100
AcDbEntity
  8
レイヤー 1
 62
     7
370
    18
100
AcDb2dPolyline
 66
     1
 10
0.0
 20
0.0
 30
0.0
  0
VERTEX
  5
26C
330
26B
100
AcDbEntity
  8
レイヤー 1
 62
     7
370
    18
100
AcDbVertex
100
AcDb2dVertex
 10
137.45896535192
 20
85.18067489189929
 30
0.0
  0
VERTEX
  5
26D
330
26B
100
AcDbEntity
  8
レイヤー 1
 62
     7
370
    18
100
AcDbVertex
100
AcDb2dVertex
 10
136.6851969059329
 20
123.2470852013931
 30
0.0
  0
SEQEND
  5
26E
330
26B
100
AcDbEntity
  8
レイヤー 1
370
    18
  0
POLYLINE
  5
26F
330
1DC
100
AcDbEntity
  8
レイヤー 1
 62
     7
370
    18
100
AcDb2dPolyline
 66
     1
 10
0.0
 20
0.0
 30
0.0
  0
VERTEX
  5
270
330
26F
100
AcDbEntity
  8
レイヤー 1
 62
     7
370
    18
100
AcDbVertex
100
AcDb2dVertex
 10
134.2336669586291
 20
85.30952146304763
 30
0.0
  0
VERTEX
  5
271
330
26F
100
AcDbEntity
  8
レイヤー 1
 62
     7
370
    18
100
AcDbVertex
100
AcDb2dVertex
 10
133.2008273321512
 20
123.4401828033413
 30
0.0
  0
SEQEND
  5
272
330
26F
100
AcDbEntity
  8
レイヤー 1
370
    18
  0
SPLINE
  5
273
330
1DC
100
AcDbEntity
  8
レイヤー 1
 62
     7
370
    18
100
AcDbSpline
210
0.0
220
0.0
230
1.0
 70
     8
 71
     3
 72
    11
 73
     7
 74
     0
 42
0.000000001
 43
0.0000000001
 40
0.0
 40
0.0
 40
0.0
 40
0.0
 40
1.0
 40
1.0
 40
1.0
 40
2.0
 40
2.0
 40
2.0
 40
2.0
 10
140.492027417134
 20
123.2470852013931
 30
0.0
 10
139.8756998348227
 20
123.3289062191678
 30
0.0
 10
139.2449028514735
 20
123.4391492746958
 30
0.0
 10
138.6206515495462
 20
123.4401828033413
 30
0.0
 10
137.9743516365134
 20
123.4413885867612
 30
0.0
 10
137.3235730993497
 20
123.3314900407817
 30
0.0
 10
136.6851969059329
 20
123.2470852013931
 30
0.0
  0
SPLINE
  5
274
330
1DC
100
AcDbEntity
  8
レイヤー 1
 62
     7
370
    18
100
AcDbSpline
210
0.0
220
0.0
230
1.0
 70
     8
 71
     3
 72
     8
 73
     4
 74
     0
 42
0.000000001
 43
0.0000000001
 40
0.0
 40
0.0
 40
0.0
 40
0.0
 40
1.0
 40
1.0
 40
1.0
 40
1.0
 10
147.6530028927743
 20
123.827756045432
 30
0.0
 10
146.3955430406581
 20
123.9168117637257
 30
0.0
 10
145.2517713395551
 20
123.7869316639317
 30
0.0
 10
144.0394422382957
 20
123.4401828033413
 30
0.0
  0
SPLINE
  5
275
330
1DC
100
AcDbEntity
  8
レイヤー 1
 62
     7
370
    18
100
AcDbSpline
210
0.0
220
0.0
230
1.0
 70
     8
 71
     3
 72
     8
 73
     4
 74
     0
 42
0.000000001
 43
0.0000000001
 40
0.0
 40
0.0
 40
0.0
 40
0.0
 40
1.0
 40
1.0
 40
1.0
 40
1.0
 10
153.6536702089824
 20
125.0526597452125
 30
0.0
 10
152.7545002873322
 20
125.0526597452125
 30
0.0
 10
151.482571034178
 20
125.0114908541638
 30
0.0
 10
150.8142225100395
 20
124.3427978204768
 30
0.0
  0
SPLINE
  5
276
330
1DC
100
AcDbEntity
  8
レイヤー 1
 62
     7
370
    18
100
AcDbSpline
210
0.0
220
0.0
230
1.0
 70
     8
 71
     3
 72
     8
 73
     4
 74
     0
 42
0.000000001
 43
0.0000000001
 40
0.0
 40
0.0
 40
0.0
 40
0.0
 40
1.0
 40
1.0
 40
1.0
 40
1.0
 10
157.5245794962091
 20
126.7948445321034
 30
0.0
 10
157.0067816447761
 20
126.6472221905604
 30
0.0
 10
156.2037298871643
 20
126.6201781910012
 30
0.0
 10
155.8478515235381
 20
126.1509561859102
 30
0.0
  0
SPLINE
  5
277
330
1DC
100
AcDbEntity
  8
レイヤー 1
 62
     7
370
    18
100
AcDbSpline
210
0.0
220
0.0
230
1.0
 70
     8
 71
     3
 72
     8
 73
     4
 74
     0
 42
0.000000001
 43
0.0000000001
 40
0.0
 40
0.0
 40
0.0
 40
0.0
 40
1.0
 40
1.0
 40
1.0
 40
1.0
 10
126.9424668736463
 20
124.279924827871
 30
0.0
 10
126.3034016611325
 20
124.9238131740642
 30
0.0
 10
125.2819308497559
 20
124.9026258368299
 30
0.0
 10
124.4265136407684
 20
124.9892699882839
 30
0.0
  0
SPLINE
  5
278
330
1DC
100
AcDbEntity
  8
レイヤー 1
 62
     7
370
    18
100
AcDbSpline
210
0.0
220
0.0
230
1.0
 70
     8
 71
     3
 72
     8
 73
     4
 74
     0
 42
0.000000001
 43
0.0000000001
 40
0.0
 40
0.0
 40
0.0
 40
0.0
 40
1.0
 40
1.0
 40
1.0
 40
1.0
 10
133.2008273321512
 20
123.4401828033413
 30
0.0
 10
132.115277744749
 20
123.8022623388411
 30
0.0
 10
130.9125949108482
 20
123.8499769113118
 30
0.0
 10
129.7819145725892
 20
123.7621269764379
 30
0.0
  0
SPLINE
  5
279
330
1DC
100
AcDbEntity
  8
レイヤー 1
 62
     7
370
    18
100
AcDbSpline
210
0.0
220
0.0
230
1.0
 70
     8
 71
     3
 72
     8
 73
     4
 74
     0
 42
0.000000001
 43
0.0000000001
 40
0.0
 40
0.0
 40
0.0
 40
0.0
 40
1.0
 40
1.0
 40
1.0
 40
1.0
 10
122.5551377731807
 20
126.2141736880645
 30
0.0
 10
122.2027045050396
 20
126.4787570213317
 30
0.0
 10
121.7541530728601
 20
126.5393907018721
 30
0.0
 10
121.3290282899802
 20
126.665997960955
 30
0.0
  0
POLYLINE
  5
27A
330
1DC
100
AcDbEntity
  8
レイヤー 1
 62
     7
370
    18
100
AcDb2dPolyline
 66
     1
 10
0.0
 20
0.0
 30
0.0
  0
VERTEX
  5
27B
330
27A
100
AcDbEntity
  8
レイヤー 1
 62
     7
370
    18
100
AcDbVertex
100
AcDb2dVertex
 10
120.5552598439931
 20
138.0866617493325
 30
0.0
  0
VERTEX
  5
27C
330
27A
100
AcDbEntity
  8
レイヤー 1
 62
     7
370
    18
100
AcDbVertex
100
AcDb2dVertex
 10
120.5552598439931
 20
138.0866617493325
 30
0.0
  0
SEQEND
  5
27D
330
27A
100
AcDbEntity
  8
レイヤー 1
370
    18
  0
SPLINE
  5
27E
330
1DC
100
AcDbEntity
  8
レイヤー 1
 62
     7
370
    18
100
AcDbSpline
210
0.0
220
0.0
230
1.0
 70
     8
 71
     3
 72
    20
 73
    16
 74
     0
 42
0.000000001
 43
0.0000000001
 40
0.0
 40
0.0
 40
0.0
 40
0.0
 40
1.0
 40
1.0
 40
1.0
 40
2.0
 40
2.0
 40
2.0
 40
3.0
 40
3.0
 40
3.0
 40
4.0
 40
4.0
 40
4.0
 40
5.0
 40
5.0
 40
5.0
 40
5.0
 10
120.5552598439931
 20
138.0866617493325
 30
0.0
 10
120.6792832814621
 20
137.4698174026985
 30
0.0
 10
120.9287081945942
 20
137.1101494340384
 30
0.0
 10
121.4065429383984
 20
136.7025946381334
 30
0.0
 10
121.8351128167635
 20
136.3351752046315
 30
0.0
 10
122.3174261846984
 20
136.0986693995691
 30
0.0
 10
122.8293673738065
 20
135.8714653523169
 30
0.0
 10
123.9448892919305
 20
135.3748548381181
 30
0.0
 10
125.0583441527632
 20
135.0496378243105
 30
0.0
 10
126.2482801333685
 20
134.7850544910433
 30
0.0
 10
128.5899115346928
 20
134.2651895823191
 30
0.0
 10
130.9387776365361
 20
133.9778686188493
 30
0.0
 10
133.3262288078143
 20
133.784771016901
 30
0.0
 10
135.0064018759706
 20
133.6490342547822
 30
0.0
 10
136.6783067149624
 20
133.6349093632927
 30
0.0
 10
138.361924878604
 20
133.6349093632927
 30
0.0
  0
POLYLINE
  5
27F
330
1DC
100
AcDbEntity
  8
レイヤー 1
 62
     7
370
    18
100
AcDb2dPolyline
 66
     1
 10
0.0
 20
0.0
 30
0.0
  0
VERTEX
  5
280
330
27F
100
AcDbEntity
  8
レイヤー 1
 62
     7
370
    18
100
AcDbVertex
100
AcDb2dVertex
 10
158.0406547998996
 20
88.66504446568096
 30
0.0
  0
VERTEX
  5
281
330
27F
100
AcDbEntity
  8
レイヤー 1
 62
     7
370
    18
100
AcDbVertex
100
AcDb2dVertex
 10
157.5245794962091
 20
126.7948445321034
 30
0.0
  0
SEQEND
  5
282
330
27F
100
AcDbEntity
  8
レイヤー 1
370
    18
  0
SPLINE
  5
283
330
1DC
100
AcDbEntity
  8
レイヤー 1
 62
     7
370
    18
100
AcDbSpline
210
0.0
220
0.0
230
1.0
 70
     8
 71
     3
 72
    11
 73
     7
 74
     0
 42
0.000000001
 43
0.0000000001
 40
0.0
 40
0.0
 40
0.0
 40
0.0
 40
1.0
 40
1.0
 40
1.0
 40
2.0
 40
2.0
 40
2.0
 40
2.0
 10
157.5245794962091
 20
126.7948445321034
 30
0.0
 10
157.4791042358038
 20
127.2092895189789
 30
0.0
 10
157.5035644137491
 20
127.6133992193987
 30
0.0
 10
157.3171847479971
 20
127.9846082579344
 30
0.0
 10
157.0853298218398
 20
128.4493516388946
 30
0.0
 10
156.7587347698381
 20
128.3520276914363
 30
0.0
 10
156.4273165841571
 20
128.0219875439494
 30
0.0
  0
POLYLINE
  5
284
330
1DC
100
AcDbEntity
  8
レイヤー 1
 62
     7
370
    18
100
AcDb2dPolyline
 66
     1
 10
0.0
 20
0.0
 30
0.0
  0
VERTEX
  5
285
330
284
100
AcDbEntity
  8
レイヤー 1
 62
     7
370
    18
100
AcDbVertex
100
AcDb2dVertex
 10
154.2985920838212
 20
86.9872829643643
 30
0.0
  0
VERTEX
  5
286
330
284
100
AcDbEntity
  8
レイヤー 1
 62
     7
370
    18
100
AcDbVertex
100
AcDb2dVertex
 10
153.6536702089824
 20
125.0526597452125
 30
0.0
  0
SEQEND
  5
287
330
284
100
AcDbEntity
  8
レイヤー 1
370
    18
  0
SPLINE
  5
288
330
1DC
100
AcDbEntity
  8
レイヤー 1
 62
     7
370
    18
100
AcDbSpline
210
0.0
220
0.0
230
1.0
 70
     8
 71
     3
 72
    11
 73
     7
 74
     0
 42
0.000000001
 43
0.0000000001
 40
0.0
 40
0.0
 40
0.0
 40
0.0
 40
1.0
 40
1.0
 40
1.0
 40
2.0
 40
2.0
 40
2.0
 40
2.0
 10
153.6536702089824
 20
125.0526597452125
 30
0.0
 10
153.6536702089824
 20
125.9611314246729
 30
0.0
 10
153.1117566891526
 20
127.0864718649298
 30
0.0
 10
152.0413655218855
 20
126.6027804588007
 30
0.0
 10
151.1725124405055
 20
126.2093505543852
 30
0.0
 10
150.8142225100395
 20
125.2338717677367
 30
0.0
 10
150.8142225100395
 20
124.3427978204768
 30
0.0
  0
POLYLINE
  5
289
330
1DC
100
AcDbEntity
  8
レイヤー 1
 62
     7
370
    18
100
AcDb2dPolyline
 66
     1
 10
0.0
 20
0.0
 30
0.0
  0
VERTEX
  5
28A
330
289
100
AcDbEntity
  8
レイヤー 1
 62
     7
370
    18
100
AcDbVertex
100
AcDb2dVertex
 10
151.3306423232785
 20
86.27793780395135
 30
0.0
  0
VERTEX
  5
28B
330
289
100
AcDbEntity
  8
レイヤー 1
 62
     7
370
    18
100
AcDbVertex
100
AcDb2dVertex
 10
150.8142225100395
 20
124.3427978204768
 30
0.0
  0
SEQEND
  5
28C
330
289
100
AcDbEntity
  8
レイヤー 1
370
    18
  0
POLYLINE
  5
28D
330
1DC
100
AcDbEntity
  8
レイヤー 1
 62
     7
370
    18
100
AcDb2dPolyline
 66
     1
 10
0.0
 20
0.0
 30
0.0
  0
VERTEX
  5
28E
330
28D
100
AcDbEntity
  8
レイヤー 1
 62
     7
370
    18
100
AcDbVertex
100
AcDb2dVertex
 10
148.4925726625297
 20
85.76117348116388
 30
0.0
  0
VERTEX
  5
28F
330
28D
100
AcDbEntity
  8
レイヤー 1
 62
     7
370
    18
100
AcDbVertex
100
AcDb2dVertex
 10
147.6530028927743
 20
123.827756045432
 30
0.0
  0
SEQEND
  5
290
330
28D
100
AcDbEntity
  8
レイヤー 1
370
    18
  0
SPLINE
  5
291
330
1DC
100
AcDbEntity
  8
レイヤー 1
 62
     7
370
    18
100
AcDbSpline
210
0.0
220
0.0
230
1.0
 70
     8
 71
     3
 72
    14
 73
    10
 74
     0
 42
0.000000001
 43
0.0000000001
 40
0.0
 40
0.0
 40
0.0
 40
0.0
 40
1.0
 40
1.0
 40
1.0
 40
2.0
 40
2.0
 40
2.0
 40
3.0
 40
3.0
 40
3.0
 40
3.0
 10
147.6530028927743
 20
123.827756045432
 30
0.0
 10
147.6530028927743
 20
124.8864338880492
 30
0.0
 10
146.8940483573737
 20
125.7738904850496
 30
0.0
 10
145.7819715347351
 20
125.5699408323228
 30
0.0
 10
145.2793321034371
 20
125.4774400185438
 30
0.0
 10
144.8717773075321
 20
125.2679782130406
 30
0.0
 10
144.5558620515347
 20
124.8605956719099
 30
0.0
 10
144.2020507451995
 20
124.4017089532746
 30
0.0
 10
144.1331488354945
 20
124.0034559151797
 30
0.0
 10
144.0394422382957
 20
123.4401828033413
 30
0.0
  0
POLYLINE
  5
292
330
1DC
100
AcDbEntity
  8
レイヤー 1
 62
     7
370
    18
100
AcDb2dPolyline
 66
     1
 10
0.0
 20
0.0
 30
0.0
  0
VERTEX
  5
293
330
292
100
AcDbEntity
  8
レイヤー 1
 62
     7
370
    18
100
AcDbVertex
100
AcDb2dVertex
 10
144.6857421513286
 20
85.3739447486218
 30
0.0
  0
VERTEX
  5
294
330
292
100
AcDbEntity
  8
レイヤー 1
 62
     7
370
    18
100
AcDbVertex
100
AcDb2dVertex
 10
144.0394422382957
 20
123.4401828033413
 30
0.0
  0
SEQEND
  5
295
330
292
100
AcDbEntity
  8
レイヤー 1
370
    18
  0
POLYLINE
  5
296
330
1DC
100
AcDbEntity
  8
レイヤー 1
 62
     7
370
    18
100
AcDb2dPolyline
 66
     1
 10
0.0
 20
0.0
 30
0.0
  0
VERTEX
  5
297
330
296
100
AcDbEntity
  8
レイヤー 1
 62
     7
370
    18
100
AcDbVertex
100
AcDb2dVertex
 10
141.3946424342694
 20
85.18067489189929
 30
0.0
  0
VERTEX
  5
298
330
296
100
AcDbEntity
  8
レイヤー 1
 62
     7
370
    18
100
AcDbVertex
100
AcDb2dVertex
 10
140.492027417134
 20
123.2470852013931
 30
0.0
  0
SEQEND
  5
299
330
296
100
AcDbEntity
  8
レイヤー 1
370
    18
  0
SPLINE
  5
29A
330
1DC
100
AcDbEntity
  8
レイヤー 1
 62
     7
370
    18
100
AcDbSpline
210
0.0
220
0.0
230
1.0
 70
     8
 71
     3
 72
    11
 73
     7
 74
     0
 42
0.000000001
 43
0.0000000001
 40
0.0
 40
0.0
 40
0.0
 40
0.0
 40
1.0
 40
1.0
 40
1.0
 40
2.0
 40
2.0
 40
2.0
 40
2.0
 10
138.5562282639721
 20
125.1825398450065
 30
0.0
 10
139.0399196701011
 20
125.1825398450065
 30
0.0
 10
139.533946362686
 20
124.9915093003493
 30
0.0
 10
139.9108398087723
 20
124.6662922865418
 30
0.0
 10
140.3456108590108
 20
124.2914658977466
 30
0.0
 10
140.4038329727115
 20
123.7729790272165
 30
0.0
 10
140.492027417134
 20
123.2470852013931
 30
0.0
  0
SPLINE
  5
29B
330
1DC
100
AcDbEntity
  8
レイヤー 1
 62
     7
370
    18
100
AcDbSpline
210
0.0
220
0.0
230
1.0
 70
     8
 71
     3
 72
    14
 73
    10
 74
     0
 42
0.000000001
 43
0.0000000001
 40
0.0
 40
0.0
 40
0.0
 40
0.0
 40
1.0
 40
1.0
 40
1.0
 40
2.0
 40
2.0
 40
2.0
 40
3.0
 40
3.0
 40
3.0
 40
3.0
 10
138.361924878604
 20
133.6349093632927
 30
0.0
 10
143.051388853126
 20
133.7451524188207
 30
0.0
 10
147.6760850325254
 20
134.0109415355077
 30
0.0
 10
152.2439371364182
 20
135.1524739245452
 30
0.0
 10
153.5213785423488
 20
135.4721787855764
 30
0.0
 10
154.7250949048951
 20
135.8818006387726
 30
0.0
 10
155.9463812544162
 20
136.3703151785811
 30
0.0
 10
156.9588948175311
 20
136.7751138980979
 30
0.0
 10
158.557419122687
 20
137.6089992603026
 30
0.0
 10
158.557419122687
 20
138.8607747048681
 30
0.0
  0
POLYLINE
  5
29C
330
1DC
100
AcDbEntity
  8
レイヤー 1
 62
     7
370
    18
100
AcDb2dPolyline
 66
     1
 10
0.0
 20
0.0
 30
0.0
  0
VERTEX
  5
29D
330
29C
100
AcDbEntity
  8
レイヤー 1
 62
     7
370
    18
100
AcDbVertex
100
AcDb2dVertex
 10
158.557419122687
 20
138.8607747048681
 30
0.0
  0
VERTEX
  5
29E
330
29C
100
AcDbEntity
  8
レイヤー 1
 62
     7
370
    18
100
AcDbVertex
100
AcDb2dVertex
 10
158.557419122687
 20
138.9251979904423
 30
0.0
  0
SEQEND
  5
29F
330
29C
100
AcDbEntity
  8
レイヤー 1
370
    18
  0
POLYLINE
  5
2A0
330
1DC
100
AcDbEntity
  8
レイヤー 1
 62
     7
370
    18
100
AcDb2dPolyline
 66
     1
 10
0.0
 20
0.0
 30
0.0
  0
VERTEX
  5
2A1
330
2A0
100
AcDbEntity
  8
レイヤー 1
 62
     7
370
    18
100
AcDbVertex
100
AcDb2dVertex
 10
158.6859211842869
 20
128.6658758901426
 30
0.0
  0
VERTEX
  5
2A2
330
2A0
100
AcDbEntity
  8
レイヤー 1
 62
     7
370
    18
100
AcDbVertex
100
AcDb2dVertex
 10
158.4285725515387
 20
128.6014526045684
 30
0.0
  0
SEQEND
  5
2A3
330
2A0
100
AcDbEntity
  8
レイヤー 1
370
    18
  0
POLYLINE
  5
2A4
330
1DC
100
AcDbEntity
  8
レイヤー 1
 62
     7
370
    18
100
AcDb2dPolyline
 66
     1
 10
0.0
 20
0.0
 30
0.0
  0
VERTEX
  5
2A5
330
2A4
100
AcDbEntity
  8
レイヤー 1
 62
     7
370
    18
100
AcDbVertex
100
AcDb2dVertex
 10
158.6859211842869
 20
129.9562364041429
 30
0.0
  0
VERTEX
  5
2A6
330
2A4
100
AcDbEntity
  8
レイヤー 1
 62
     7
370
    18
100
AcDbVertex
100
AcDb2dVertex
 10
158.6859211842869
 20
130.2147908203109
 30
0.0
  0
SEQEND
  5
2A7
330
2A4
100
AcDbEntity
  8
レイヤー 1
370
    18
  0
SPLINE
  5
2A8
330
1DC
100
AcDbEntity
  8
レイヤー 1
 62
     7
370
    18
100
AcDbSpline
210
0.0
220
0.0
230
1.0
 70
     8
 71
     3
 72
     8
 73
     4
 74
     0
 42
0.000000001
 43
0.0000000001
 40
0.0
 40
0.0
 40
0.0
 40
0.0
 40
1.0
 40
1.0
 40
1.0
 40
1.0
 10
136.6851969059329
 20
123.2470852013931
 30
0.0
 10
136.6851969059329
 20
124.3254000882763
 30
0.0
 10
137.45896535192
 20
125.1825398450065
 30
0.0
 10
138.5562282639721
 20
125.1825398450065
 30
0.0
  0
SPLINE
  5
2A9
330
1DC
100
AcDbEntity
  8
レイヤー 1
 62
     7
370
    18
100
AcDbSpline
210
0.0
220
0.0
230
1.0
 70
     8
 71
     3
 72
    11
 73
     7
 74
     0
 42
0.000000001
 43
0.0000000001
 40
0.0
 40
0.0
 40
0.0
 40
0.0
 40
1.0
 40
1.0
 40
1.0
 40
2.0
 40
2.0
 40
2.0
 40
2.0
 10
138.5562282639721
 20
125.1825398450065
 30
0.0
 10
139.0375081032615
 20
125.1825398450065
 30
0.0
 10
139.5515163496607
 20
125.0126966375836
 30
0.0
 10
139.9108398087723
 20
124.6662922865418
 30
0.0
 10
140.3325194961669
 20
124.2599432740566
 30
0.0
 10
140.4007323867748
 20
123.7951998930963
 30
0.0
 10
140.492027417134
 20
123.2470852013931
 30
0.0
  0
POLYLINE
  5
2AA
330
1DC
100
AcDbEntity
  8
レイヤー 1
 62
     7
370
    18
100
AcDb2dPolyline
 66
     1
 10
0.0
 20
0.0
 30
0.0
  0
VERTEX
  5
2AB
330
2AA
100
AcDbEntity
  8
レイヤー 1
 62
     7
370
    18
100
AcDbVertex
100
AcDb2dVertex
 10
141.3946424342694
 20
85.18067489189929
 30
0.0
  0
VERTEX
  5
2AC
330
2AA
100
AcDbEntity
  8
レイヤー 1
 62
     7
370
    18
100
AcDbVertex
100
AcDb2dVertex
 10
140.492027417134
 20
123.2470852013931
 30
0.0
  0
SEQEND
  5
2AD
330
2AA
100
AcDbEntity
  8
レイヤー 1
370
    18
  0
SPLINE
  5
2AE
330
1DC
100
AcDbEntity
  8
レイヤー 1
 62
     7
370
    18
100
AcDbSpline
210
0.0
220
0.0
230
1.0
 70
     8
 71
     3
 72
    11
 73
     7
 74
     0
 42
0.000000001
 43
0.0000000001
 40
0.0
 40
0.0
 40
0.0
 40
0.0
 40
1.0
 40
1.0
 40
1.0
 40
2.0
 40
2.0
 40
2.0
 40
2.0
 10
137.45896535192
 20
85.18067489189929
 30
0.0
 10
138.1193901564424
 20
85.26818031722462
 30
0.0
 10
138.7904947569691
 20
85.37497827726737
 30
0.0
 10
139.459187790656
 20
85.3739447486218
 30
0.0
 10
140.1054877036889
 20
85.3739447486218
 30
0.0
 10
140.7562662408526
 20
85.26611325993348
 30
0.0
 10
141.3946424342694
 20
85.18067489189929
 30
0.0
  0
POLYLINE
  5
2AF
330
1DC
100
AcDbEntity
  8
レイヤー 1
 62
     7
370
    18
100
AcDb2dPolyline
 66
     1
 10
0.0
 20
0.0
 30
0.0
  0
VERTEX
  5
2B0
330
2AF
100
AcDbEntity
  8
レイヤー 1
 62
     7
370
    18
100
AcDbVertex
100
AcDb2dVertex
 10
137.45896535192
 20
85.18067489189929
 30
0.0
  0
VERTEX
  5
2B1
330
2AF
100
AcDbEntity
  8
レイヤー 1
 62
     7
370
    18
100
AcDbVertex
100
AcDb2dVertex
 10
136.6851969059329
 20
123.2470852013931
 30
0.0
  0
SEQEND
  5
2B2
330
2AF
100
AcDbEntity
  8
レイヤー 1
370
    18
  0
SPLINE
  5
2B3
330
1DC
100
AcDbEntity
  8
レイヤー 1
 62
     7
370
    18
100
AcDbSpline
210
0.0
220
0.0
230
1.0
 70
     8
 71
     3
 72
    14
 73
    10
 74
     0
 42
0.000000001
 43
0.0000000001
 40
0.0
 40
0.0
 40
0.0
 40
0.0
 40
1.0
 40
1.0
 40
1.0
 40
2.0
 40
2.0
 40
2.0
 40
3.0
 40
3.0
 40
3.0
 40
3.0
 10
144.0394422382957
 20
123.4401828033413
 30
0.0
 10
144.0814724032157
 20
123.6896077164734
 30
0.0
 10
144.1224690394902
 20
123.93799910096
 30
0.0
 10
144.1638101853132
 20
124.1858737211237
 30
0.0
 10
144.1975721210687
 20
124.3850002401711
 30
0.0
 10
144.4373507668421
 20
124.6614691528624
 30
0.0
 10
144.5431151982392
 20
124.8357909844161
 30
0.0
 10
144.8335367476458
 20
125.3205159191907
 30
0.0
 10
145.340310293526
 20
125.4648654200227
 30
0.0
 10
145.8463948203092
 20
125.6331583344771
 30
0.0
  0
SPLINE
  5
2B4
330
1DC
100
AcDbEntity
  8
レイヤー 1
 62
     7
370
    18
100
AcDbSpline
210
0.0
220
0.0
230
1.0
 70
     8
 71
     3
 72
    11
 73
     7
 74
     0
 42
0.000000001
 43
0.0000000001
 40
0.0
 40
0.0
 40
0.0
 40
0.0
 40
1.0
 40
1.0
 40
1.0
 40
2.0
 40
2.0
 40
2.0
 40
2.0
 10
145.8463948203092
 20
125.6331583344771
 30
0.0
 10
146.270141564995
 20
125.6331583344771
 30
0.0
 10
146.8823350327239
 20
125.5022447060376
 30
0.0
 10
147.2020398937551
 20
125.1825398450065
 30
0.0
 10
147.5214002452377
 20
124.862662729201
 30
0.0
 10
147.6530028927743
 20
124.2502970066978
 30
0.0
 10
147.6530028927743
 20
123.827756045432
 30
0.0
  0
POLYLINE
  5
2B5
330
1DC
100
AcDbEntity
  8
レイヤー 1
 62
     7
370
    18
100
AcDb2dPolyline
 66
     1
 10
0.0
 20
0.0
 30
0.0
  0
VERTEX
  5
2B6
330
2B5
100
AcDbEntity
  8
レイヤー 1
 62
     7
370
    18
100
AcDbVertex
100
AcDb2dVertex
 10
148.4925726625297
 20
85.76117348116388
 30
0.0
  0
VERTEX
  5
2B7
330
2B5
100
AcDbEntity
  8
レイヤー 1
 62
     7
370
    18
100
AcDbVertex
100
AcDb2dVertex
 10
147.6530028927743
 20
123.827756045432
 30
0.0
  0
SEQEND
  5
2B8
330
2B5
100
AcDbEntity
  8
レイヤー 1
370
    18
  0
SPLINE
  5
2B9
330
1DC
100
AcDbEntity
  8
レイヤー 1
 62
     7
370
    18
100
AcDbSpline
210
0.0
220
0.0
230
1.0
 70
     8
 71
     3
 72
     8
 73
     4
 74
     0
 42
0.000000001
 43
0.0000000001
 40
0.0
 40
0.0
 40
0.0
 40
0.0
 40
1.0
 40
1.0
 40
1.0
 40
1.0
 10
148.4925726625297
 20
85.76117348116388
 30
0.0
 10
147.1648328625143
 20
85.76117348116388
 30
0.0
 10
145.9690402195841
 20
85.74153643689796
 30
0.0
 10
144.6857421513286
 20
85.3739447486218
 30
0.0
  0
POLYLINE
  5
2BA
330
1DC
100
AcDbEntity
  8
レイヤー 1
 62
     7
370
    18
100
AcDb2dPolyline
 66
     1
 10
0.0
 20
0.0
 30
0.0
  0
VERTEX
  5
2BB
330
2BA
100
AcDbEntity
  8
レイヤー 1
 62
     7
370
    18
100
AcDbVertex
100
AcDb2dVertex
 10
144.6857421513286
 20
85.3739447486218
 30
0.0
  0
VERTEX
  5
2BC
330
2BA
100
AcDbEntity
  8
レイヤー 1
 62
     7
370
    18
100
AcDbVertex
100
AcDb2dVertex
 10
144.0394422382957
 20
123.4401828033413
 30
0.0
  0
SEQEND
  5
2BD
330
2BA
100
AcDbEntity
  8
レイヤー 1
370
    18
  0
SPLINE
  5
2BE
330
1DC
100
AcDbEntity
  8
レイヤー 1
 62
     7
370
    18
100
AcDbSpline
210
0.0
220
0.0
230
1.0
 70
     8
 71
     3
 72
     8
 73
     4
 74
     0
 42
0.000000001
 43
0.0000000001
 40
0.0
 40
0.0
 40
0.0
 40
0.0
 40
1.0
 40
1.0
 40
1.0
 40
1.0
 10
150.8142225100395
 20
124.3427978204768
 30
0.0
 10
150.8142225100395
 20
125.3556558931403
 30
0.0
 10
151.2589843371853
 20
126.2760131520247
 30
0.0
 10
152.2336018499624
 20
126.665997960955
 30
0.0
  0
SPLINE
  5
2BF
330
1DC
100
AcDbEntity
  8
レイヤー 1
 62
     7
370
    18
100
AcDbSpline
210
0.0
220
0.0
230
1.0
 70
     8
 71
     3
 72
     8
 73
     4
 74
     0
 42
0.000000001
 43
0.0000000001
 40
0.0
 40
0.0
 40
0.0
 40
0.0
 40
1.0
 40
1.0
 40
1.0
 40
1.0
 10
152.2336018499624
 20
126.665997960955
 30
0.0
 10
153.2182101396469
 20
126.8625406583885
 30
0.0
 10
153.6536702089824
 20
125.907387935103
 30
0.0
 10
153.6536702089824
 20
125.0526597452125
 30
0.0
  0
POLYLINE
  5
2C0
330
1DC
100
AcDbEntity
  8
レイヤー 1
 62
     7
370
    18
100
AcDb2dPolyline
 66
     1
 10
0.0
 20
0.0
 30
0.0
  0
VERTEX
  5
2C1
330
2C0
100
AcDbEntity
  8
レイヤー 1
 62
     7
370
    18
100
AcDbVertex
100
AcDb2dVertex
 10
154.2985920838212
 20
86.9872829643643
 30
0.0
  0
VERTEX
  5
2C2
330
2C0
100
AcDbEntity
  8
レイヤー 1
 62
     7
370
    18
100
AcDbVertex
100
AcDb2dVertex
 10
153.6536702089824
 20
125.0526597452125
 30
0.0
  0
SEQEND
  5
2C3
330
2C0
100
AcDbEntity
  8
レイヤー 1
370
    18
  0
SPLINE
  5
2C4
330
1DC
100
AcDbEntity
  8
レイヤー 1
 62
     7
370
    18
100
AcDbSpline
210
0.0
220
0.0
230
1.0
 70
     8
 71
     3
 72
    11
 73
     7
 74
     0
 42
0.000000001
 43
0.0000000001
 40
0.0
 40
0.0
 40
0.0
 40
0.0
 40
1.0
 40
1.0
 40
1.0
 40
2.0
 40
2.0
 40
2.0
 40
2.0
 10
154.2985920838212
 20
86.9872829643643
 30
0.0
 10
153.778727175097
 20
86.94387476125014
 30
0.0
 10
153.2626518714066
 20
86.90081106768453
 30
0.0
 10
152.7496771536529
 20
86.79297957899621
 30
0.0
 10
152.3786403698915
 20
86.71546493057808
 30
0.0
 10
151.5717990072459
 20
86.61004500872944
 30
0.0
 10
151.3306423232785
 20
86.27793780395135
 30
0.0
  0
POLYLINE
  5
2C5
330
1DC
100
AcDbEntity
  8
レイヤー 1
 62
     7
370
    18
100
AcDb2dPolyline
 66
     1
 10
0.0
 20
0.0
 30
0.0
  0
VERTEX
  5
2C6
330
2C5
100
AcDbEntity
  8
レイヤー 1
 62
     7
370
    18
100
AcDbVertex
100
AcDb2dVertex
 10
151.3306423232785
 20
86.27793780395135
 30
0.0
  0
VERTEX
  5
2C7
330
2C5
100
AcDbEntity
  8
レイヤー 1
 62
     7
370
    18
100
AcDbVertex
100
AcDb2dVertex
 10
150.8142225100395
 20
124.3427978204768
 30
0.0
  0
SEQEND
  5
2C8
330
2C5
100
AcDbEntity
  8
レイヤー 1
370
    18
  0
SPLINE
  5
2C9
330
1DC
100
AcDbEntity
  8
レイヤー 1
 62
     7
370
    18
100
AcDbSpline
210
0.0
220
0.0
230
1.0
 70
     8
 71
     3
 72
     8
 73
     4
 74
     0
 42
0.000000001
 43
0.0000000001
 40
0.0
 40
0.0
 40
0.0
 40
0.0
 40
1.0
 40
1.0
 40
1.0
 40
1.0
 10
155.8478515235381
 20
125.8274617198452
 30
0.0
 10
155.9250216624076
 20
126.6940754891598
 30
0.0
 10
156.0015027821802
 20
127.717268848279
 30
0.0
 10
156.750811050222
 20
128.2795084314718
 30
0.0
  0
SPLINE
  5
2CA
330
1DC
100
AcDbEntity
  8
レイヤー 1
 62
     7
370
    18
100
AcDbSpline
210
0.0
220
0.0
230
1.0
 70
     8
 71
     3
 72
     8
 73
     4
 74
     0
 42
0.000000001
 43
0.0000000001
 40
0.0
 40
0.0
 40
0.0
 40
0.0
 40
1.0
 40
1.0
 40
1.0
 40
1.0
 10
156.750811050222
 20
128.2795084314718
 30
0.0
 10
157.4026231160313
 20
128.7394286787527
 30
0.0
 10
157.5245794962091
 20
127.1086927308096
 30
0.0
 10
157.5245794962091
 20
126.7948445321034
 30
0.0
  0
POLYLINE
  5
2CB
330
1DC
100
AcDbEntity
  8
レイヤー 1
 62
     7
370
    18
100
AcDb2dPolyline
 66
     1
 10
0.0
 20
0.0
 30
0.0
  0
VERTEX
  5
2CC
330
2CB
100
AcDbEntity
  8
レイヤー 1
 62
     7
370
    18
100
AcDbVertex
100
AcDb2dVertex
 10
158.0406547998996
 20
88.66504446568096
 30
0.0
  0
VERTEX
  5
2CD
330
2CB
100
AcDbEntity
  8
レイヤー 1
 62
     7
370
    18
100
AcDbVertex
100
AcDb2dVertex
 10
157.5245794962091
 20
126.7948445321034
 30
0.0
  0
SEQEND
  5
2CE
330
2CB
100
AcDbEntity
  8
レイヤー 1
370
    18
  0
SPLINE
  5
2CF
330
1DC
100
AcDbEntity
  8
レイヤー 1
 62
     7
370
    18
100
AcDbSpline
210
0.0
220
0.0
230
1.0
 70
     8
 71
     3
 72
     8
 73
     4
 74
     0
 42
0.000000001
 43
0.0000000001
 40
0.0
 40
0.0
 40
0.0
 40
0.0
 40
1.0
 40
1.0
 40
1.0
 40
1.0
 10
158.0406547998996
 20
88.66504446568096
 30
0.0
 10
157.5690212279689
 20
88.5468776905369
 30
0.0
 10
156.1992512630335
 20
88.39012584595802
 30
0.0
 10
156.2984700130087
 20
87.69697263432576
 30
0.0
  0
POLYLINE
  5
2D0
330
1DC
100
AcDbEntity
  8
レイヤー 1
 62
     7
370
    18
100
AcDb2dPolyline
 66
     1
 10
0.0
 20
0.0
 30
0.0
  0
VERTEX
  5
2D1
330
2D0
100
AcDbEntity
  8
レイヤー 1
 62
     7
370
    18
100
AcDbVertex
100
AcDb2dVertex
 10
156.2984700130087
 20
87.69697263432576
 30
0.0
  0
VERTEX
  5
2D2
330
2D0
100
AcDbEntity
  8
レイヤー 1
 62
     7
370
    18
100
AcDbVertex
100
AcDb2dVertex
 10
155.8478515235381
 20
125.8274617198452
 30
0.0
  0
SEQEND
  5
2D3
330
2D0
100
AcDbEntity
  8
レイヤー 1
370
    18
  0
SPLINE
  5
2D4
330
1DC
100
AcDbEntity
  8
レイヤー 1
 62
     7
370
    18
100
AcDbSpline
210
0.0
220
0.0
230
1.0
 70
     8
 71
     3
 72
     8
 73
     4
 74
     0
 42
0.000000001
 43
0.0000000001
 40
0.0
 40
0.0
 40
0.0
 40
0.0
 40
1.0
 40
1.0
 40
1.0
 40
1.0
 10
158.4285725515387
 20
127.6988375874329
 30
0.0
 10
158.4706027164588
 20
128.5206651154393
 30
0.0
 10
158.5302028683536
 20
129.3333631404097
 30
0.0
 10
158.6218424082612
 20
130.150539789511
 30
0.0
  0
SPLINE
  5
2D5
330
1DC
100
AcDbEntity
  8
レイヤー 1
 62
     7
370
    18
100
AcDbSpline
210
0.0
220
0.0
230
1.0
 70
     8
 71
     3
 72
    11
 73
     7
 74
     0
 42
0.000000001
 43
0.0000000001
 40
0.0
 40
0.0
 40
0.0
 40
0.0
 40
1.0
 40
1.0
 40
1.0
 40
2.0
 40
2.0
 40
2.0
 40
2.0
 10
158.6218424082612
 20
130.150539789511
 30
0.0
 10
158.6428574907212
 20
130.171554871971
 30
0.0
 10
158.6638725731813
 20
130.192569954431
 30
0.0
 10
158.6859211842869
 20
130.2147908203109
 30
0.0
 10
158.6859211842869
 20
129.6985432618462
 30
0.0
 10
158.6859211842869
 20
129.1821234486073
 30
0.0
 10
158.6859211842869
 20
128.6658758901426
 30
0.0
  0
POLYLINE
  5
2D6
330
1DC
100
AcDbEntity
  8
レイヤー 1
 62
     7
370
    18
100
AcDb2dPolyline
 66
     1
 10
0.0
 20
0.0
 30
0.0
  0
VERTEX
  5
2D7
330
2D6
100
AcDbEntity
  8
レイヤー 1
 62
     7
370
    18
100
AcDbVertex
100
AcDb2dVertex
 10
159.1368841833061
 20
90.53504229507458
 30
0.0
  0
VERTEX
  5
2D8
330
2D6
100
AcDbEntity
  8
レイヤー 1
 62
     7
370
    18
100
AcDbVertex
100
AcDb2dVertex
 10
158.6859211842869
 20
128.6658758901426
 30
0.0
  0
SEQEND
  5
2D9
330
2D6
100
AcDbEntity
  8
レイヤー 1
370
    18
  0
POLYLINE
  5
2DA
330
1DC
100
AcDbEntity
  8
レイヤー 1
 62
     7
370
    18
100
AcDb2dPolyline
 66
     1
 10
0.0
 20
0.0
 30
0.0
  0
VERTEX
  5
2DB
330
2DA
100
AcDbEntity
  8
レイヤー 1
 62
     7
370
    18
100
AcDbVertex
100
AcDb2dVertex
 10
159.1368841833061
 20
90.53504229507458
 30
0.0
  0
VERTEX
  5
2DC
330
2DA
100
AcDbEntity
  8
レイヤー 1
 62
     7
370
    18
100
AcDbVertex
100
AcDb2dVertex
 10
158.8791910410094
 20
90.40619572392623
 30
0.0
  0
SEQEND
  5
2DD
330
2DA
100
AcDbEntity
  8
レイヤー 1
370
    18
  0
POLYLINE
  5
2DE
330
1DC
100
AcDbEntity
  8
レイヤー 1
 62
     7
370
    18
100
AcDb2dPolyline
 66
     1
 10
0.0
 20
0.0
 30
0.0
  0
VERTEX
  5
2DF
330
2DE
100
AcDbEntity
  8
レイヤー 1
 62
     7
370
    18
100
AcDbVertex
100
AcDb2dVertex
 10
158.9446478552291
 20
89.50358070679077
 30
0.0
  0
VERTEX
  5
2E0
330
2DE
100
AcDbEntity
  8
レイヤー 1
 62
     7
370
    18
100
AcDbVertex
100
AcDb2dVertex
 10
158.4285725515387
 20
127.6988375874329
 30
0.0
  0
SEQEND
  5
2E1
330
2DE
100
AcDbEntity
  8
レイヤー 1
370
    18
  0
SPLINE
  5
2E2
330
1DC
100
AcDbEntity
  8
レイヤー 1
 62
     7
370
    18
100
AcDbSpline
210
0.0
220
0.0
230
1.0
 70
     8
 71
     3
 72
    17
 73
    13
 74
     0
 42
0.000000001
 43
0.0000000001
 40
0.0
 40
0.0
 40
0.0
 40
0.0
 40
1.0
 40
1.0
 40
1.0
 40
2.0
 40
2.0
 40
2.0
 40
3.0
 40
3.0
 40
3.0
 40
4.0
 40
4.0
 40
4.0
 40
4.0
 10
121.1357584332577
 20
128.5370293189942
 30
0.0
 10
121.1150878603462
 20
128.8109144100716
 30
0.0
 10
121.0937282683377
 20
129.0851440106975
 30
0.0
 10
121.0713351476836
 20
129.3588568470006
 30
0.0
 10
121.0551431989029
 20
129.595362652063
 30
0.0
 10
120.9204399654296
 20
129.8528835395854
 30
0.0
 10
120.9428330860837
 20
130.0861165039368
 30
0.0
 10
120.9204399654296
 20
130.0861165039368
 30
0.0
 10
120.8994248829696
 20
130.0861165039368
 30
0.0
 10
120.8784098005096
 20
130.0861165039368
 30
0.0
 10
120.8784098005096
 20
130.0638956380569
 30
0.0
 10
120.8784098005096
 20
130.0427083008227
 30
0.0
 10
120.8784098005096
 20
130.0216932183626
 30
0.0
  0
SPLINE
  5
2E3
330
1DC
100
AcDbEntity
  8
レイヤー 1
 62
     7
370
    18
100
AcDbSpline
210
0.0
220
0.0
230
1.0
 70
     8
 71
     3
 72
     8
 73
     4
 74
     0
 42
0.000000001
 43
0.0000000001
 40
0.0
 40
0.0
 40
0.0
 40
0.0
 40
1.0
 40
1.0
 40
1.0
 40
1.0
 10
120.8784098005096
 20
130.0216932183626
 30
0.0
 10
120.7953829993151
 20
129.195042556677
 30
0.0
 10
120.8350015973954
 20
128.39905324481
 30
0.0
 10
120.8784098005096
 20
127.5701632710589
 30
0.0
  0
POLYLINE
  5
2E4
330
1DC
100
AcDbEntity
  8
レイヤー 1
 62
     7
370
    18
100
AcDb2dPolyline
 66
     1
 10
0.0
 20
0.0
 30
0.0
  0
VERTEX
  5
2E5
330
2E4
100
AcDbEntity
  8
レイヤー 1
 62
     7
370
    18
100
AcDbVertex
100
AcDb2dVertex
 10
122.0387179599417
 20
89.37473413564243
 30
0.0
  0
VERTEX
  5
2E6
330
2E4
100
AcDbEntity
  8
レイヤー 1
 62
     7
370
    18
100
AcDbVertex
100
AcDb2dVertex
 10
120.8784098005096
 20
127.5701632710589
 30
0.0
  0
SEQEND
  5
2E7
330
2E4
100
AcDbEntity
  8
レイヤー 1
370
    18
  0
POLYLINE
  5
2E8
330
1DC
100
AcDbEntity
  8
レイヤー 1
 62
     7
370
    18
100
AcDb2dPolyline
 66
     1
 10
0.0
 20
0.0
 30
0.0
  0
VERTEX
  5
2E9
330
2E8
100
AcDbEntity
  8
レイヤー 1
 62
     7
370
    18
100
AcDbVertex
100
AcDb2dVertex
 10
122.297444630884
 20
90.40619572392623
 30
0.0
  0
VERTEX
  5
2EA
330
2E8
100
AcDbEntity
  8
レイヤー 1
 62
     7
370
    18
100
AcDbVertex
100
AcDb2dVertex
 10
121.1357584332577
 20
128.5370293189942
 30
0.0
  0
SEQEND
  5
2EB
330
2E8
100
AcDbEntity
  8
レイヤー 1
370
    18
  0
SPLINE
  5
2EC
330
1DC
100
AcDbEntity
  8
レイヤー 1
 62
     7
370
    18
100
AcDbSpline
210
0.0
220
0.0
230
1.0
 70
     8
 71
     3
 72
     8
 73
     4
 74
     0
 42
0.000000001
 43
0.0000000001
 40
0.0
 40
0.0
 40
0.0
 40
0.0
 40
1.0
 40
1.0
 40
1.0
 40
1.0
 10
121.3290282899802
 20
126.665997960955
 30
0.0
 10
121.3290282899802
 20
126.9479790264227
 30
0.0
 10
121.3207600608156
 20
128.5206651154393
 30
0.0
 10
121.8457926127677
 20
128.1506618603235
 30
0.0
  0
SPLINE
  5
2ED
330
1DC
100
AcDbEntity
  8
レイヤー 1
 62
     7
370
    18
100
AcDbSpline
210
0.0
220
0.0
230
1.0
 70
     8
 71
     3
 72
     8
 73
     4
 74
     0
 42
0.000000001
 43
0.0000000001
 40
0.0
 40
0.0
 40
0.0
 40
0.0
 40
1.0
 40
1.0
 40
1.0
 40
1.0
 10
121.8457926127677
 20
128.1506618603235
 30
0.0
 10
122.373581241108
 20
127.4445895406215
 30
0.0
 10
122.5337781811721
 20
126.6215562291953
 30
0.0
 10
122.6195610587548
 20
125.7630384342711
 30
0.0
  0
POLYLINE
  5
2EE
330
1DC
100
AcDbEntity
  8
レイヤー 1
 62
     7
370
    18
100
AcDb2dPolyline
 66
     1
 10
0.0
 20
0.0
 30
0.0
  0
VERTEX
  5
2EF
330
2EE
100
AcDbEntity
  8
レイヤー 1
 62
     7
370
    18
100
AcDbVertex
100
AcDb2dVertex
 10
123.7809027468326
 20
87.56812606317742
 30
0.0
  0
VERTEX
  5
2F0
330
2EE
100
AcDbEntity
  8
レイヤー 1
 62
     7
370
    18
100
AcDbVertex
100
AcDb2dVertex
 10
122.6195610587548
 20
125.7630384342711
 30
0.0
  0
SEQEND
  5
2F1
330
2EE
100
AcDbEntity
  8
レイヤー 1
370
    18
  0
SPLINE
  5
2F2
330
1DC
100
AcDbEntity
  8
レイヤー 1
 62
     7
370
    18
100
AcDbSpline
210
0.0
220
0.0
230
1.0
 70
     8
 71
     3
 72
    11
 73
     7
 74
     0
 42
0.000000001
 43
0.0000000001
 40
0.0
 40
0.0
 40
0.0
 40
0.0
 40
1.0
 40
1.0
 40
1.0
 40
2.0
 40
2.0
 40
2.0
 40
2.0
 10
123.7809027468326
 20
87.56812606317742
 30
0.0
 10
123.9342094959262
 20
87.87611759955875
 30
0.0
 10
123.8887342355209
 20
88.02942434865237
 30
0.0
 10
123.5607611453251
 20
88.19444442239583
 30
0.0
 10
123.2296874691926
 20
88.3608425343334
 30
0.0
 10
122.8476263798784
 20
88.43353404907218
 30
0.0
 10
122.4907144876065
 20
88.53516436588704
 30
0.0
  0
POLYLINE
  5
2F3
330
1DC
100
AcDbEntity
  8
レイヤー 1
 62
     7
370
    18
100
AcDb2dPolyline
 66
     1
 10
0.0
 20
0.0
 30
0.0
  0
VERTEX
  5
2F4
330
2F3
100
AcDbEntity
  8
レイヤー 1
 62
     7
370
    18
100
AcDbVertex
100
AcDb2dVertex
 10
122.4907144876065
 20
88.53516436588704
 30
0.0
  0
VERTEX
  5
2F5
330
2F3
100
AcDbEntity
  8
レイヤー 1
 62
     7
370
    18
100
AcDbVertex
100
AcDb2dVertex
 10
121.3290282899802
 20
126.665997960955
 30
0.0
  0
SEQEND
  5
2F6
330
2F3
100
AcDbEntity
  8
レイヤー 1
370
    18
  0
SPLINE
  5
2F7
330
1DC
100
AcDbEntity
  8
レイヤー 1
 62
     7
370
    18
100
AcDbSpline
210
0.0
220
0.0
230
1.0
 70
     8
 71
     3
 72
    11
 73
     7
 74
     0
 42
0.000000001
 43
0.0000000001
 40
0.0
 40
0.0
 40
0.0
 40
0.0
 40
1.0
 40
1.0
 40
1.0
 40
2.0
 40
2.0
 40
2.0
 40
2.0
 10
124.4265136407684
 20
124.9892699882839
 30
0.0
 10
124.4265136407684
 20
125.4107774209043
 30
0.0
 10
124.4309922648992
 20
125.7056775944416
 30
0.0
 10
124.6208170261365
 20
126.0853271169162
 30
0.0
 10
124.8464707804203
 20
126.5393907018721
 30
0.0
 10
125.0362955416576
 20
126.6027804588007
 30
0.0
 10
125.5230875337234
 20
126.6027804588007
 30
0.0
  0
SPLINE
  5
2F8
330
1DC
100
AcDbEntity
  8
レイヤー 1
 62
     7
370
    18
100
AcDbSpline
210
0.0
220
0.0
230
1.0
 70
     8
 71
     3
 72
     8
 73
     4
 74
     0
 42
0.000000001
 43
0.0000000001
 40
0.0
 40
0.0
 40
0.0
 40
0.0
 40
1.0
 40
1.0
 40
1.0
 40
1.0
 10
125.5230875337234
 20
126.6027804588007
 30
0.0
 10
126.4749674162979
 20
126.2212361338093
 30
0.0
 10
126.786748557713
 20
125.2116509018568
 30
0.0
 10
126.9424668736463
 20
124.279924827871
 30
0.0
  0
POLYLINE
  5
2F9
330
1DC
100
AcDbEntity
  8
レイヤー 1
 62
     7
370
    18
100
AcDb2dPolyline
 66
     1
 10
0.0
 20
0.0
 30
0.0
  0
VERTEX
  5
2FA
330
2F9
100
AcDbEntity
  8
レイヤー 1
 62
     7
370
    18
100
AcDbVertex
100
AcDb2dVertex
 10
128.0397297856984
 20
86.149091232803
 30
0.0
  0
VERTEX
  5
2FB
330
2F9
100
AcDbEntity
  8
レイヤー 1
 62
     7
370
    18
100
AcDbVertex
100
AcDb2dVertex
 10
126.9424668736463
 20
124.279924827871
 30
0.0
  0
SEQEND
  5
2FC
330
2F9
100
AcDbEntity
  8
レイヤー 1
370
    18
  0
SPLINE
  5
2FD
330
1DC
100
AcDbEntity
  8
レイヤー 1
 62
     7
370
    18
100
AcDbSpline
210
0.0
220
0.0
230
1.0
 70
     8
 71
     3
 72
    11
 73
     7
 74
     0
 42
0.000000001
 43
0.0000000001
 40
0.0
 40
0.0
 40
0.0
 40
0.0
 40
1.0
 40
1.0
 40
1.0
 40
2.0
 40
2.0
 40
2.0
 40
2.0
 10
128.0397297856984
 20
86.149091232803
 30
0.0
 10
128.019748231884
 20
86.48739960945454
 30
0.0
 10
127.089916960415
 20
86.66309947920229
 30
0.0
 10
126.813620302498
 20
86.72855629342203
 30
0.0
 10
126.3461208451496
 20
86.8398328775956
 30
0.0
 10
125.8710421777336
 20
86.87945147567598
 30
0.0
 10
125.3945854721236
 20
86.92285967879012
 30
0.0
  0
POLYLINE
  5
2FE
330
1DC
100
AcDbEntity
  8
レイヤー 1
 62
     7
370
    18
100
AcDb2dPolyline
 66
     1
 10
0.0
 20
0.0
 30
0.0
  0
VERTEX
  5
2FF
330
2FE
100
AcDbEntity
  8
レイヤー 1
 62
     7
370
    18
100
AcDbVertex
100
AcDb2dVertex
 10
125.3945854721236
 20
86.92285967879012
 30
0.0
  0
VERTEX
  5
300
330
2FE
100
AcDbEntity
  8
レイヤー 1
 62
     7
370
    18
100
AcDbVertex
100
AcDb2dVertex
 10
124.4265136407684
 20
124.9892699882839
 30
0.0
  0
SEQEND
  5
301
330
2FE
100
AcDbEntity
  8
レイヤー 1
370
    18
  0
SPLINE
  5
302
330
1DC
100
AcDbEntity
  8
レイヤー 1
 62
     7
370
    18
100
AcDbSpline
210
0.0
220
0.0
230
1.0
 70
     8
 71
     3
 72
     8
 73
     4
 74
     0
 42
0.000000001
 43
0.0000000001
 40
0.0
 40
0.0
 40
0.0
 40
0.0
 40
1.0
 40
1.0
 40
1.0
 40
1.0
 10
129.7819145725892
 20
123.7621269764379
 30
0.0
 10
129.7819145725892
 20
124.7610324123861
 30
0.0
 10
130.3252061306131
 20
125.5699408323228
 30
0.0
 10
131.3952527883318
 20
125.5699408323228
 30
0.0
  0
SPLINE
  5
303
330
1DC
100
AcDbEntity
  8
レイヤー 1
 62
     7
370
    18
100
AcDbSpline
210
0.0
220
0.0
230
1.0
 70
     8
 71
     3
 72
     8
 73
     4
 74
     0
 42
0.000000001
 43
0.0000000001
 40
0.0
 40
0.0
 40
0.0
 40
0.0
 40
1.0
 40
1.0
 40
1.0
 40
1.0
 10
131.3952527883318
 20
125.5699408323228
 30
0.0
 10
132.5121527446497
 20
125.383733421345
 30
0.0
 10
133.0285725578887
 20
124.480084875564
 30
0.0
 10
133.2008273321512
 20
123.4401828033413
 30
0.0
  0
POLYLINE
  5
304
330
1DC
100
AcDbEntity
  8
レイヤー 1
 62
     7
370
    18
100
AcDb2dPolyline
 66
     1
 10
0.0
 20
0.0
 30
0.0
  0
VERTEX
  5
305
330
304
100
AcDbEntity
  8
レイヤー 1
 62
     7
370
    18
100
AcDbVertex
100
AcDb2dVertex
 10
134.2336669586291
 20
85.30952146304763
 30
0.0
  0
VERTEX
  5
306
330
304
100
AcDbEntity
  8
レイヤー 1
 62
     7
370
    18
100
AcDbVertex
100
AcDb2dVertex
 10
133.2008273321512
 20
123.4401828033413
 30
0.0
  0
SEQEND
  5
307
330
304
100
AcDbEntity
  8
レイヤー 1
370
    18
  0
SPLINE
  5
308
330
1DC
100
AcDbEntity
  8
レイヤー 1
 62
     7
370
    18
100
AcDbSpline
210
0.0
220
0.0
230
1.0
 70
     8
 71
     3
 72
     8
 73
     4
 74
     0
 42
0.000000001
 43
0.0000000001
 40
0.0
 40
0.0
 40
0.0
 40
0.0
 40
1.0
 40
1.0
 40
1.0
 40
1.0
 10
134.2336669586291
 20
85.30952146304763
 30
0.0
 10
133.2018608607968
 20
85.82594127628657
 30
0.0
 10
131.812109342047
 20
85.7780544490416
 30
0.0
 10
130.6845295897247
 20
85.6967501955897
 30
0.0
  0
POLYLINE
  5
309
330
1DC
100
AcDbEntity
  8
レイヤー 1
 62
     7
370
    18
100
AcDb2dPolyline
 66
     1
 10
0.0
 20
0.0
 30
0.0
  0
VERTEX
  5
30A
330
309
100
AcDbEntity
  8
レイヤー 1
 62
     7
370
    18
100
AcDbVertex
100
AcDb2dVertex
 10
130.6845295897247
 20
85.6967501955897
 30
0.0
  0
VERTEX
  5
30B
330
309
100
AcDbEntity
  8
レイヤー 1
 62
     7
370
    18
100
AcDbVertex
100
AcDb2dVertex
 10
129.7819145725892
 20
123.7621269764379
 30
0.0
  0
SEQEND
  5
30C
330
309
100
AcDbEntity
  8
レイヤー 1
370
    18
  0
POLYLINE
  5
30D
330
1DC
100
AcDbEntity
  8
レイヤー 1
370
     0
100
AcDb2dPolyline
 66
     1
 10
0.0
 20
0.0
 30
0.0
  0
VERTEX
  5
30E
330
30D
100
AcDbEntity
  8
レイヤー 1
370
     0
100
AcDbVertex
100
AcDb2dVertex
 10
136.9707953216601
 20
153.7425536725019
 30
0.0
  0
VERTEX
  5
30F
330
30D
100
AcDbEntity
  8
レイヤー 1
370
     0
100
AcDbVertex
100
AcDb2dVertex
 10
128.0397297856984
 20
149.851835086235
 30
0.0
  0
SEQEND
  5
310
330
30D
100
AcDbEntity
  8
レイヤー 1
370
     0
  0
POLYLINE
  5
311
330
1DC
100
AcDbEntity
  8
レイヤー 1
370
     0
100
AcDb2dPolyline
 66
     1
 10
0.0
 20
0.0
 30
0.0
  0
VERTEX
  5
312
330
311
100
AcDbEntity
  8
レイヤー 1
370
     0
100
AcDbVertex
100
AcDb2dVertex
 10
139.1990830815197
 20
153.7425536725019
 30
0.0
  0
VERTEX
  5
313
330
311
100
AcDbEntity
  8
レイヤー 1
370
     0
100
AcDbVertex
100
AcDb2dVertex
 10
130.2676730360095
 20
149.851835086235
 30
0.0
  0
SEQEND
  5
314
330
311
100
AcDbEntity
  8
レイヤー 1
370
     0
  0
POLYLINE
  5
315
330
1DC
100
AcDbEntity
  8
レイヤー 1
370
     0
100
AcDb2dPolyline
 66
     1
 10
0.0
 20
0.0
 30
0.0
  0
VERTEX
  5
316
330
315
100
AcDbEntity
  8
レイヤー 1
370
     0
100
AcDbVertex
100
AcDb2dVertex
 10
141.7153808239462
 20
153.7425536725019
 30
0.0
  0
VERTEX
  5
317
330
315
100
AcDbEntity
  8
レイヤー 1
370
     0
100
AcDbVertex
100
AcDb2dVertex
 10
132.7853488166301
 20
149.851835086235
 30
0.0
  0
SEQEND
  5
318
330
315
100
AcDbEntity
  8
レイヤー 1
370
     0
  0
SPLINE
  5
319
330
1DC
100
AcDbEntity
  8
レイヤー 1
 62
     7
370
    18
100
AcDbSpline
210
0.0
220
0.0
230
1.0
 70
    11
 71
     3
 72
    17
 73
    13
 74
     0
 42
0.000000001
 43
0.0000000001
 40
0.0
 40
0.0
 40
0.0
 40
0.0
 40
1.0
 40
1.0
 40
1.0
 40
2.0
 40
2.0
 40
2.0
 40
3.0
 40
3.0
 40
3.0
 40
4.0
 40
4.0
 40
4.0
 40
4.0
 10
162.8300265434939
 20
151.3127278267552
 30
0.0
 10
162.8300265434939
 20
151.7132201769155
 30
0.0
 10
161.7148491349185
 20
152.0387817002716
 30
0.0
 10
160.3381889790127
 20
152.0387817002716
 30
0.0
 10
158.9622178422039
 20
152.0387817002716
 30
0.0
 10
157.847384943177
 20
151.7132201769155
 30
0.0
 10
157.847384943177
 20
151.3127278267552
 30
0.0
 10
157.847384943177
 20
150.9113742027236
 30
0.0
 10
158.9622178422039
 20
150.5871907175616
 30
0.0
 10
160.3381889790127
 20
150.5871907175616
 30
0.0
 10
161.7148491349185
 20
150.5871907175616
 30
0.0
 10
162.8300265434939
 20
150.9113742027236
 30
0.0
 10
162.8300265434939
 20
151.3127278267552
 30
0.0
  0
SPLINE
  5
31A
330
1DC
100
AcDbEntity
  8
レイヤー 1
 62
     7
370
     9
100
AcDbSpline
210
0.0
220
0.0
230
1.0
 70
     8
 71
     3
 72
    11
 73
     7
 74
     0
 42
0.000000001
 43
0.0000000001
 40
0.0
 40
0.0
 40
0.0
 40
0.0
 40
1.0
 40
1.0
 40
1.0
 40
2.0
 40
2.0
 40
2.0
 40
2.0
 10
162.6329670817376
 20
151.1676893068261
 30
0.0
 10
162.2560736356513
 20
151.427449506414
 30
0.0
 10
161.3710286054906
 20
151.6103840766807
 30
0.0
 10
160.3381889790127
 20
151.6103840766807
 30
0.0
 10
159.3067273907289
 20
151.6103840766807
 30
0.0
 10
158.4213378510197
 20
151.427449506414
 30
0.0
 10
158.0434108762878
 20
151.1676893068261
 30
0.0
  0
SPLINE
  5
31B
330
1DC
100
AcDbEntity
  8
レイヤー 1
 62
     7
370
    18
100
AcDbSpline
210
0.0
220
0.0
230
1.0
 70
    11
 71
     3
 72
    17
 73
    13
 74
     0
 42
0.000000001
 43
0.0000000001
 40
0.0
 40
0.0
 40
0.0
 40
0.0
 40
1.0
 40
1.0
 40
1.0
 40
2.0
 40
2.0
 40
2.0
 40
3.0
 40
3.0
 40
3.0
 40
4.0
 40
4.0
 40
4.0
 40
4.0
 10
121.4451280078332
 20
151.3127278267552
 30
0.0
 10
121.4451280078332
 20
151.7132201769155
 30
0.0
 10
120.3306396183549
 20
152.0387817002716
 30
0.0
 10
118.9536349529005
 20
152.0387817002716
 30
0.0
 10
117.5776638160917
 20
152.0387817002716
 30
0.0
 10
116.4631754266134
 20
151.7132201769155
 30
0.0
 10
116.4631754266134
 20
151.3127278267552
 30
0.0
 10
116.4631754266134
 20
150.9113742027236
 30
0.0
 10
117.5776638160917
 20
150.5871907175616
 30
0.0
 10
118.9536349529005
 20
150.5871907175616
 30
0.0
 10
120.3306396183549
 20
150.5871907175616
 30
0.0
 10
121.4451280078332
 20
150.9113742027236
 30
0.0
 10
121.4451280078332
 20
151.3127278267552
 30
0.0
  0
SPLINE
  5
31C
330
1DC
100
AcDbEntity
  8
レイヤー 1
 62
     7
370
     9
100
AcDbSpline
210
0.0
220
0.0
230
1.0
 70
     8
 71
     3
 72
    11
 73
     7
 74
     0
 42
0.000000001
 43
0.0000000001
 40
0.0
 40
0.0
 40
0.0
 40
0.0
 40
1.0
 40
1.0
 40
1.0
 40
2.0
 40
2.0
 40
2.0
 40
2.0
 10
121.2484130556254
 20
151.1676893068261
 30
0.0
 10
120.8715196095391
 20
151.427449506414
 30
0.0
 10
119.9861300698299
 20
151.6103840766807
 30
0.0
 10
118.9536349529005
 20
151.6103840766807
 30
0.0
 10
117.9218288550682
 20
151.6103840766807
 30
0.0
 10
117.0367838249075
 20
151.427449506414
 30
0.0
 10
116.658512340627
 20
151.1676893068261
 30
0.0
  0
SPLINE
  5
31D
330
1DC
100
AcDbEntity
  8
レイヤー 1
 62
     7
370
    18
100
AcDbSpline
210
0.0
220
0.0
230
1.0
 70
    11
 71
     3
 72
    17
 73
    13
 74
     0
 42
0.000000001
 43
0.0000000001
 40
0.0
 40
0.0
 40
0.0
 40
0.0
 40
1.0
 40
1.0
 40
1.0
 40
2.0
 40
2.0
 40
2.0
 40
3.0
 40
3.0
 40
3.0
 40
4.0
 40
4.0
 40
4.0
 40
4.0
 10
164.0075601803523
 20
151.2472710125354
 30
0.0
 10
164.0075601803523
 20
154.8701334248241
 30
0.0
 10
152.793085356767
 20
157.8043212496114
 30
0.0
 10
138.9593044357463
 20
157.8043212496114
 30
0.0
 10
125.125179005177
 20
157.8043212496114
 30
0.0
 10
113.9107041815918
 20
154.8701334248241
 30
0.0
 10
113.9107041815918
 20
151.2472710125354
 30
0.0
 10
113.9107041815918
 20
147.6269924218606
 30
0.0
 10
125.125179005177
 20
144.6902207754594
 30
0.0
 10
138.9593044357463
 20
144.6902207754594
 30
0.0
 10
152.793085356767
 20
144.6902207754594
 30
0.0
 10
164.0075601803523
 20
147.6269924218606
 30
0.0
 10
164.0075601803523
 20
151.2472710125354
 30
0.0
  0
SPLINE
  5
31E
330
1DC
100
AcDbEntity
  8
レイヤー 1
 62
     7
370
    18
100
AcDbSpline
210
0.0
220
0.0
230
1.0
 70
     8
 71
     3
 72
    17
 73
    13
 74
     0
 42
0.000000001
 43
0.0000000001
 40
0.0
 40
0.0
 40
0.0
 40
0.0
 40
1.0
 40
1.0
 40
1.0
 40
2.0
 40
2.0
 40
2.0
 40
3.0
 40
3.0
 40
3.0
 40
4.0
 40
4.0
 40
4.0
 40
4.0
 10
113.9820176581364
 20
151.7228664442742
 30
0.0
 10
113.3884277060279
 20
151.1396117786213
 30
0.0
 10
113.0707899022879
 20
150.5260402726984
 30
0.0
 10
113.0707899022879
 20
149.8940375059293
 30
0.0
 10
113.0707899022879
 20
146.0346692885782
 30
0.0
 10
124.8419921562895
 20
142.9058335688742
 30
0.0
 10
139.3606580597779
 20
142.9058335688742
 30
0.0
 10
153.8782904346207
 20
142.9058335688742
 30
0.0
 10
165.6491481790738
 20
146.0346692885782
 30
0.0
 10
165.6491481790738
 20
149.8940375059293
 30
0.0
 10
165.6491481790738
 20
150.8209404462357
 30
0.0
 10
164.472648070861
 20
152.0566961967949
 30
0.0
 10
163.2386148680445
 20
152.8656046167315
 30
0.0
  0
SPLINE
  5
31F
330
1DC
100
AcDbEntity
  8
レイヤー 1
 62
     7
370
    18
100
AcDbSpline
210
0.0
220
0.0
230
1.0
 70
     8
 71
     3
 72
    17
 73
    13
 74
     0
 42
0.000000001
 43
0.0000000001
 40
0.0
 40
0.0
 40
0.0
 40
0.0
 40
1.0
 40
1.0
 40
1.0
 40
2.0
 40
2.0
 40
2.0
 40
3.0
 40
3.0
 40
3.0
 40
4.0
 40
4.0
 40
4.0
 40
4.0
 10
165.6305446634535
 20
150.0449326881832
 30
0.0
 10
165.6305446634535
 20
150.0449326881832
 30
0.0
 10
165.6491481790738
 20
148.872738949327
 30
0.0
 10
165.6491481790738
 20
148.872738949327
 30
0.0
 10
165.6491481790738
 20
145.0137152415244
 30
0.0
 10
153.8782904346207
 20
141.8848795218205
 30
0.0
 10
139.3606580597779
 20
141.8848795218205
 30
0.0
 10
124.8419921562895
 20
141.8848795218205
 30
0.0
 10
113.0707899022879
 20
145.0137152415244
 30
0.0
 10
113.0707899022879
 20
148.872738949327
 30
0.0
 10
113.0707899022879
 20
148.872738949327
 30
0.0
 10
113.0707899022879
 20
149.8940375059293
 30
0.0
 10
113.0707899022879
 20
149.8940375059293
 30
0.0
  0
SPLINE
  5
320
330
1DC
100
AcDbEntity
  8
レイヤー 1
 62
     7
370
    18
100
AcDbSpline
210
0.0
220
0.0
230
1.0
 70
    11
 71
     3
 72
    17
 73
    13
 74
     0
 42
0.000000001
 43
0.0000000001
 40
0.0
 40
0.0
 40
0.0
 40
0.0
 40
1.0
 40
1.0
 40
1.0
 40
2.0
 40
2.0
 40
2.0
 40
3.0
 40
3.0
 40
3.0
 40
4.0
 40
4.0
 40
4.0
 40
4.0
 10
152.2670192761693
 20
151.2179877009108
 30
0.0
 10
152.2670192761693
 20
153.0132269582745
 30
0.0
 10
146.4458414347427
 20
154.4672295078242
 30
0.0
 10
139.2648844052879
 20
154.4672295078242
 30
0.0
 10
132.0835828662847
 20
154.4672295078242
 30
0.0
 10
126.2620605153095
 20
153.0132269582745
 30
0.0
 10
126.2620605153095
 20
151.2179877009108
 30
0.0
 10
126.2620605153095
 20
149.4244709912897
 30
0.0
 10
132.0835828662847
 20
147.9689181487717
 30
0.0
 10
139.2648844052879
 20
147.9689181487717
 30
0.0
 10
146.4458414347427
 20
147.9689181487717
 30
0.0
 10
152.2670192761693
 20
149.4244709912897
 30
0.0
 10
152.2670192761693
 20
151.2179877009108
 30
0.0
  0
SPLINE
  5
321
330
1DC
100
AcDbEntity
  8
レイヤー 1
 62
     7
370
     9
100
AcDbSpline
210
0.0
220
0.0
230
1.0
 70
     8
 71
     3
 72
    11
 73
     7
 74
     0
 42
0.000000001
 43
0.0000000001
 40
0.0
 40
0.0
 40
0.0
 40
0.0
 40
1.0
 40
1.0
 40
1.0
 40
2.0
 40
2.0
 40
2.0
 40
2.0
 10
152.2670192761693
 20
150.8772677574196
 30
0.0
 10
152.2670192761693
 20
152.672334760009
 30
0.0
 10
146.4458414347427
 20
154.1278876025271
 30
0.0
 10
139.2648844052879
 20
154.1278876025271
 30
0.0
 10
132.0835828662847
 20
154.1278876025271
 30
0.0
 10
126.2620605153095
 20
152.672334760009
 30
0.0
 10
126.2620605153095
 20
150.8772677574196
 30
0.0
  0
ENDBLK
  5
322
330
1DC
100
AcDbEntity
  8
0
100
AcDbBlockEnd
  0
ENDSEC
  0
SECTION
  2
ENTITIES
  0
LINE
  5
73
330
1F
100
AcDbEntity
  8
0
  6
Continuous
 62
     7
370
    25
100
AcDbLine
 10
107.28140042855
 20
105.4502549586785
 30
0.0
 11
106.53128621855
 21
105.1139879576785
 31
0.0
  0
LINE
  5
74
330
1F
100
AcDbEntity
  8
0
  6
Continuous
 62
     7
370
    25
100
AcDbLine
 10
162.25060745595
 20
91.87938166527852
 30
0.0
 11
160.95577216705
 21
163.5319835229785
 31
0.0
  0
LINE
  5
75
330
1F
100
AcDbEntity
  8
0
  6
Continuous
 62
     7
370
    25
100
AcDbLine
 10
160.87310567345
 20
168.1063203939785
 30
0.0
 11
160.85850118695
 21
168.9144931151785
 31
0.0
  0
SPLINE
  5
76
330
1F
100
AcDbEntity
  8
0
  6
Continuous
 62
     7
370
    25
100
AcDbSpline
210
0.0
220
0.0
230
1.0
 70
     8
 71
     3
 72
    17
 73
    13
 74
     0
 42
0.000000001
 43
0.00000001
 40
0.0
 40
0.0
 40
0.0
 40
0.0
 40
0.0720057853722039
 40
0.1736484394836
 40
0.2788916812132682
 40
0.3885607181277822
 40
0.5010195720563345
 40
0.6143185957304627
 40
0.7273135104903339
 40
0.8398630307861081
 40
0.9520133395492454
 40
0.9999999999999999
 40
0.9999999999999999
 40
0.9999999999999999
 40
0.9999999999999999
 10
160.8377376696648
 20
169.0662234611624
 30
0.0
 10
160.8259885544794
 20
169.1468114281954
 30
0.0
 10
160.7976545045591
 20
169.3411565720489
 30
0.0
 10
160.6513764504652
 20
169.6388584976954
 30
0.0
 10
160.4173153736611
 20
169.9595925583282
 30
0.0
 10
160.0915452578604
 20
170.2738215859806
 30
0.0
 10
159.6769115207267
 20
170.5806033232696
 30
0.0
 10
159.1754623003054
 20
170.8762691571696
 30
0.0
 10
158.5946602273883
 20
171.1585515694923
 30
0.0
 10
157.9344482484865
 20
171.4248075864628
 30
0.0
 10
157.3538241867372
 20
171.6307410939958
 30
0.0
 10
156.9701176628364
 20
171.7417267936274
 30
0.0
 10
156.8551361269328
 20
171.7749847796456
 30
0.0
  0
LINE
  5
77
330
1F
100
AcDbEntity
  8
0
  6
Continuous
 62
     0
370
    25
100
AcDbLine
 10
104.11748041655
 20
177.8665058299785
 30
0.0
 11
103.77695824805
 21
196.7100766096785
 31
0.0
  0
LINE
  5
78
330
1F
100
AcDbEntity
  8
0
  6
Continuous
 62
     0
370
    25
100
AcDbLine
 10
72.76872176974996
 20
196.7100768038785
 30
0.0
 11
71.02752242084995
 21
100.3568687691785
 31
0.0
  0
LINE
  5
79
330
1F
100
AcDbEntity
  8
0
  6
Continuous
 62
     7
370
    25
100
AcDbLine
 10
159.79399698605
 20
102.8650388598785
 30
0.0
 11
159.61349131795
 21
102.8884978928785
 31
0.0
  0
SPLINE
  5
7A
330
1F
100
AcDbEntity
  8
0
  6
Continuous
 62
     0
370
    25
100
AcDbSpline
210
0.0
220
0.0
230
1.0
 70
     8
 71
     3
 72
    11
 73
     7
 74
     0
 42
0.000000001
 43
0.00000001
 40
0.0
 40
0.0
 40
0.0
 40
0.0
 40
0.0551262941084443
 40
0.1627134928093372
 40
0.2729381669468087
 40
0.3008592388523055
 40
0.3008592388523055
 40
0.3008592388523055
 40
0.3008592388523055
 10
103.7615754733206
 20
196.7909656843996
 30
0.0
 10
103.7589355197817
 20
196.8487119260567
 30
0.0
 10
103.7511433025083
 20
197.0191585854701
 30
0.0
 10
103.6411905143977
 20
197.2959147658994
 30
0.0
 10
103.4951234158504
 20
197.5324461003578
 30
0.0
 10
103.3922034198066
 20
197.6609097726592
 30
0.0
 10
103.3705771638451
 20
197.6866979956953
 30
0.0
  0
SPLINE
  5
7B
330
1F
100
AcDbEntity
  8
0
  6
Continuous
 62
     0
370
    25
100
AcDbSpline
210
0.0
220
0.0
230
1.0
 70
     8
 71
     3
 72
    11
 73
     7
 74
     0
 42
0.000000001
 43
0.00000001
 40
0.0864341975001339
 40
0.0864341975001339
 40
0.0864341975001339
 40
0.0864341975001339
 40
0.3455505402567145
 40
0.6621471023899966
 40
0.9642046501126498
 40
1.0
 40
1.0
 40
1.0
 40
1.0
 10
73.14871126775199
 20
197.6583472711795
 30
0.0
 10
73.07418787243125
 20
197.5698240009301
 30
0.0
 10
72.940612030155
 20
197.3660145091717
 30
0.0
 10
72.80651317454297
 20
197.0414936542482
 30
0.0
 10
72.75283891106827
 20
196.7867498336069
 30
0.0
 10
72.77206395588266
 20
196.6568381431326
 30
0.0
 10
72.77410084001355
 20
196.6430740628247
 30
0.0
  0
LINE
  5
7C
330
1F
100
AcDbEntity
  8
0
  6
Continuous
 62
     7
370
    25
100
AcDbLine
 10
160.28170517495
 20
102.7923328175785
 30
0.0
 11
159.81160969825
 21
102.8625788298785
 31
0.0
  0
LINE
  5
7D
330
1F
100
AcDbEntity
  8
0
  6
Continuous
 62
     7
370
    25
100
AcDbLine
 10
159.63043298135
 20
102.8896519299785
 30
0.0
 11
158.97899302555
 21
102.9869961109785
 31
0.0
  0
LINE
  5
7E
330
1F
100
AcDbEntity
  8
0
  6
Continuous
 62
     7
370
    25
100
AcDbLine
 10
152.84394530795
 20
172.6357584793785
 30
0.0
 11
128.8078524770499
 21
176.2274536925785
 31
0.0
  0
LINE
  5
7F
330
1F
100
AcDbEntity
  8
0
  6
Continuous
 62
     7
370
    25
100
AcDbLine
 10
127.70726796165
 20
176.3919132061785
 30
0.0
 11
121.23012935505
 21
177.3597871402785
 31
0.0
  0
LINE
  5
81
330
1F
100
AcDbEntity
  8
0
  6
Continuous
 62
     7
370
    25
100
AcDbLine
 10
120.12954645285
 20
177.5242464127785
 30
0.0
 11
104.08032776425
 21
179.9224690500785
 31
0.0
  0
LINE
  5
82
330
1F
100
AcDbEntity
  8
0
  6
Continuous
 62
     7
370
    25
100
AcDbLine
 10
112.52980853165
 20
93.87121744657851
 30
0.0
 11
112.04626084125
 21
93.64957046397852
 31
0.0
  0
LINE
  5
83
330
1F
100
AcDbEntity
  8
0
  6
Continuous
 62
     7
370
    25
100
AcDbLine
 10
112.04626084125
 20
93.64957046397852
 30
0.0
 11
112.02919716145
 21
94.84365215057852
 31
0.0
  0
LINE
  5
84
330
1F
100
AcDbEntity
  8
0
  6
Continuous
 62
     7
370
    25
100
AcDbLine
 10
112.02919716145
 20
94.84365215057852
 30
0.0
 11
112.5205723733499
 21
94.51748354567852
 31
0.0
  0
LINE
  5
85
330
1F
100
AcDbEntity
  8
0
  6
Continuous
 62
     7
370
    25
100
AcDbLine
 10
112.45992862885
 20
98.76143054447851
 30
0.0
 11
111.97638093855
 21
98.53978356187852
 31
0.0
  0
LINE
  5
86
330
1F
100
AcDbEntity
  8
0
  6
Continuous
 62
     7
370
    25
100
AcDbLine
 10
111.97638093855
 20
98.53978356187852
 30
0.0
 11
111.95995791995
 21
99.68902109957851
 31
0.0
  0
LINE
  5
87
330
1F
100
AcDbEntity
  8
0
  6
Continuous
 62
     7
370
    25
100
AcDbLine
 10
111.95995791995
 20
99.68902109957851
 30
0.0
 11
112.45133313195
 21
99.36285204487852
 31
0.0
  0
LINE
  5
88
330
1F
100
AcDbEntity
  8
0
  6
Continuous
 62
     7
370
    25
100
AcDbLine
 10
111.2410772105499
 20
104.3526710087785
 30
0.0
 11
111.09485475255
 21
103.7924495297785
 31
0.0
  0
ELLIPSE
  5
89
330
1F
100
AcDbEntity
  8
0
  6
Continuous
 62
     7
370
    25
100
AcDbEllipse
 10
108.47427901415
 20
101.6133719832785
 30
0.0
 11
-1.530864394437316
 21
3.696358881700462
 31
0.0
210
0.0
220
0.0
230
1.0
 40
0.8408299469000002
 41
4.967731811374978
 42
5.27550636008718
  0
LINE
  5
8A
330
1F
100
AcDbEntity
  8
0
  6
Continuous
 62
     7
370
    25
100
AcDbLine
 10
110.28518431385
 20
104.6750265404785
 30
0.0
 11
110.81139480495
 21
104.8557717404785
 31
0.0
  0
ELLIPSE
  5
8B
330
1F
100
AcDbEntity
  8
0
  6
Continuous
 62
     7
370
    25
100
AcDbEllipse
 10
108.47507822575
 20
101.7021835723785
 30
0.0
 11
-1.878373493313547
 21
4.535439305002754
 31
0.0
210
0.0
220
0.0
230
1.0
 40
0.8408299469000001
 41
0.0575393909777314
 42
0.2169039816048841
  0
LINE
  5
8C
330
1F
100
AcDbEntity
  8
0
  6
Continuous
 62
     7
370
    25
100
AcDbLine
 10
105.82001900985
 20
105.7914538138785
 30
0.0
 11
106.72326870635
 21
105.2072809016785
 31
0.0
  0
LINE
  5
8D
330
1F
100
AcDbEntity
  8
0
  6
Continuous
 62
     7
370
    25
100
AcDbLine
 10
105.86513904945
 20
104.7229905272785
 30
0.0
 11
105.65442289815
 21
105.6579192363785
 31
0.0
  0
ELLIPSE
  5
8E
330
1F
100
AcDbEntity
  8
0
  6
Continuous
 62
     7
370
    25
100
AcDbEllipse
 10
108.47507822575
 20
101.7021835723785
 30
0.0
 11
-1.878373493313547
 21
4.535439305002754
 31
0.0
210
0.0
220
0.0
230
1.0
 40
0.8408299469000001
 41
0.2678423089441254
 42
1.067702881869861
  0
LINE
  5
8F
330
1F
100
AcDbEntity
  8
0
  6
Continuous
 62
     7
370
    25
100
AcDbLine
 10
104.22842459995
 20
102.5051924008785
 30
0.0
 11
104.14421643185
 21
100.4394421759785
 31
0.0
  0
LINE
  5
90
330
1F
100
AcDbEntity
  8
0
  6
Continuous
 62
     7
370
    25
100
AcDbLine
 10
104.14421643185
 20
100.4394421759785
 30
0.0
 11
104.65536437965
 21
100.6235656208785
 31
0.0
  0
LINE
  5
91
330
1F
100
AcDbEntity
  8
0
  6
Continuous
 62
     7
370
    25
100
AcDbLine
 10
104.5656795213499
 20
99.86879126357852
 30
0.0
 11
104.13438596355
 21
100.1982770552785
 31
0.0
  0
LINE
  5
92
330
1F
100
AcDbEntity
  8
0
  6
Continuous
 62
     7
370
    25
100
AcDbLine
 10
104.13438596355
 20
100.1982770552785
 30
0.0
 11
103.94747763535
 21
95.61312847847852
 31
0.0
  0
LINE
  5
93
330
1F
100
AcDbEntity
  8
0
  6
Continuous
 62
     7
370
    25
100
AcDbLine
 10
103.94747763535
 20
95.61312847847852
 30
0.0
 11
104.45862558315
 21
95.79725147357851
 31
0.0
  0
LINE
  5
94
330
1F
100
AcDbEntity
  8
0
  6
Continuous
 62
     7
370
    25
100
AcDbLine
 10
104.40809231515
 20
95.01256784737852
 30
0.0
 11
103.93764648525
 21
95.37196379147852
 31
0.0
  0
LINE
  5
95
330
1F
100
AcDbEntity
  8
0
  6
Continuous
 62
     7
370
    25
100
AcDbLine
 10
103.93764648525
 20
95.37196379147852
 30
0.0
 11
103.88421203355
 21
94.06110849867852
 31
0.0
  0
LINE
  5
96
330
1F
100
AcDbEntity
  8
0
  6
Continuous
 62
     7
370
    25
100
AcDbLine
 10
103.87663624345
 20
94.06239043167852
 30
0.0
 11
103.88421203355
 21
94.06110849867852
 31
0.0
  0
LINE
  5
97
330
1F
100
AcDbEntity
  8
0
  6
Continuous
 62
     7
370
    25
100
AcDbLine
 10
104.40810511775
 20
94.55790219207852
 30
0.0
 11
104.39369543385
 21
94.56890925887852
 31
0.0
  0
LINE
  5
98
330
1F
100
AcDbEntity
  8
0
  6
Continuous
 62
     7
370
    25
100
AcDbLine
 10
104.4321748762499
 20
95.75469173537851
 30
0.0
 11
104.39369543385
 21
94.56890925887852
 31
0.0
  0
LINE
  5
99
330
1F
100
AcDbEntity
  8
0
  6
Continuous
 62
     7
370
    25
100
AcDbLine
 10
104.4321748762499
 20
95.75469173537851
 30
0.0
 11
104.45725857315
 21
95.76372675177852
 31
0.0
  0
LINE
  5
9A
330
1F
100
AcDbEntity
  8
0
  6
Continuous
 62
     7
370
    25
100
AcDbLine
 10
104.45725857315
 20
95.76372675177852
 30
0.0
 11
104.6048429829499
 21
99.38421569697852
 31
0.0
  0
LINE
  5
9B
330
1F
100
AcDbEntity
  8
0
  6
Continuous
 62
     7
370
    25
100
AcDbLine
 10
104.6048429829499
 20
99.38421569697852
 30
0.0
 11
104.55128425315
 21
99.42513243407852
 31
0.0
  0
LINE
  5
9C
330
1F
100
AcDbEntity
  8
0
  6
Continuous
 62
     7
370
    25
100
AcDbLine
 10
104.58831768975
 20
100.5663820139785
 30
0.0
 11
104.55128425315
 21
99.42513243407852
 31
0.0
  0
LINE
  5
9D
330
1F
100
AcDbEntity
  8
0
  6
Continuous
 62
     7
370
    25
100
AcDbLine
 10
104.58831768975
 20
100.5663820139785
 30
0.0
 11
104.65399736965
 21
100.5900402242785
 31
0.0
  0
LINE
  5
9E
330
1F
100
AcDbEntity
  8
0
  6
Continuous
 62
     7
370
    25
100
AcDbLine
 10
104.65399736965
 20
100.5900402242785
 30
0.0
 11
104.71854391945
 21
102.1734613162785
 31
0.0
  0
ELLIPSE
  5
9F
330
1F
100
AcDbEntity
  8
0
  6
Continuous
 62
     7
370
    25
100
AcDbEllipse
 10
108.10002110275
 20
101.5340500637785
 30
0.0
 11
-1.495690054047458
 21
3.611428442413683
 31
0.0
210
0.0
220
0.0
230
1.0
 40
0.8408299469
 41
0.402973540689699
 42
1.067702881870147
  0
LINE
  5
A0
330
1F
100
AcDbEntity
  8
0
  6
Continuous
 62
     7
370
    25
100
AcDbLine
 10
105.53331915225
 20
104.3630167043785
 30
0.0
 11
105.52484982295
 21
104.4005934406785
 31
0.0
  0
ELLIPSE
  5
A1
330
1F
100
AcDbEntity
  8
0
  6
Continuous
 62
     7
370
    25
100
AcDbEllipse
 10
108.09922189115
 20
101.4452384746785
 30
0.0
 11
-1.530864394437316
 21
3.696358881700462
 31
0.0
210
0.0
220
0.0
230
1.0
 40
0.8408299469000002
 41
0.0721770448257738
 42
0.3799515935395624
  0
LINE
  5
A2
330
1F
100
AcDbEntity
  8
0
  6
Continuous
 62
     7
370
    25
100
AcDbLine
 10
106.34821206705
 20
105.0391476099785
 30
0.0
 11
106.36129530325
 21
105.0306858819785
 31
0.0
  0
ELLIPSE
  5
A3
330
1F
100
AcDbEntity
  8
0
  6
Continuous
 62
     7
370
    25
100
AcDbEllipse
 10
108.10002110275
 20
101.5340500637785
 30
0.0
 11
-1.49569005404743
 21
3.611428442413683
 31
0.0
210
0.0
220
0.0
230
1.0
 40
0.8408299468999999
 41
5.265910655052483
 42
6.364958057038908
  0
LINE
  5
A4
330
1F
100
AcDbEntity
  8
0
  6
Continuous
 62
     7
370
    25
100
AcDbLine
 10
109.8969254785499
 20
104.5023593329785
 30
0.0
 11
109.91012767455
 21
104.5068932486785
 31
0.0
  0
ELLIPSE
  5
A5
330
1F
100
AcDbEntity
  8
0
  6
Continuous
 62
     7
370
    25
100
AcDbEllipse
 10
108.09922189115
 20
101.4452384746785
 30
0.0
 11
-1.530864394437316
 21
3.696358881700462
 31
0.0
210
0.0
220
0.0
230
1.0
 40
0.8408299469000002
 41
4.967731811374973
 42
5.275506360087177
  0
LINE
  5
A6
330
1F
100
AcDbEntity
  8
0
  6
Continuous
 62
     7
370
    25
100
AcDbLine
 10
110.7197981131499
 20
103.6243162379785
 30
0.0
 11
110.71067660855
 21
103.5893680867785
 31
0.0
  0
ELLIPSE
  5
A7
330
1F
100
AcDbEntity
  8
0
  6
Continuous
 62
     7
370
    25
100
AcDbEllipse
 10
108.10002110275
 20
101.5340500637785
 30
0.0
 11
-1.495690054047458
 21
3.611428442413683
 31
0.0
210
0.0
220
0.0
230
1.0
 40
0.8408299469
 41
4.279980523042221
 42
4.944709864222087
  0
LINE
  5
A8
330
1F
100
AcDbEntity
  8
0
  6
Continuous
 62
     7
370
    25
100
AcDbLine
 10
111.4839076535499
 20
101.1625181188785
 30
0.0
 11
111.51982323515
 21
99.56408504647851
 31
0.0
  0
LINE
  5
A9
330
1F
100
AcDbEntity
  8
0
  6
Continuous
 62
     7
370
    25
100
AcDbLine
 10
111.51982323515
 20
99.56408504647851
 30
0.0
 11
111.58490128065
 21
99.52088780787852
 31
0.0
  0
LINE
  5
AA
330
1F
100
AcDbEntity
  8
0
  6
Continuous
 62
     7
370
    25
100
AcDbLine
 10
111.60132429915
 20
98.37165027017852
 30
0.0
 11
111.58490128065
 21
99.52088780787852
 31
0.0
  0
LINE
  5
AB
330
1F
100
AcDbEntity
  8
0
  6
Continuous
 62
     7
370
    25
100
AcDbLine
 10
111.60132429915
 20
98.37165027017852
 30
0.0
 11
111.54717002205
 21
98.34682900647852
 31
0.0
  0
LINE
  5
AC
330
1F
100
AcDbEntity
  8
0
  6
Continuous
 62
     7
370
    25
100
AcDbLine
 10
111.54717002205
 20
98.34682900647852
 30
0.0
 11
111.62928431745
 21
94.69201635707851
 31
0.0
  0
LINE
  5
AD
330
1F
100
AcDbEntity
  8
0
  6
Continuous
 62
     7
370
    25
100
AcDbLine
 10
111.62928431745
 20
94.69201635707851
 30
0.0
 11
111.65414052215
 21
94.67551885887852
 31
0.0
  0
LINE
  5
AE
330
1F
100
AcDbEntity
  8
0
  6
Continuous
 62
     7
370
    25
100
AcDbLine
 10
111.67120327065
 20
93.48143675477851
 30
0.0
 11
111.65414052215
 21
94.67551885887852
 31
0.0
  0
LINE
  5
AF
330
1F
100
AcDbEntity
  8
0
  6
Continuous
 62
     7
370
    25
100
AcDbLine
 10
111.67120327065
 20
93.48143675477851
 30
0.0
 11
111.65663526185
 21
93.47475980267852
 31
0.0
  0
LINE
  5
B0
330
1F
100
AcDbEntity
  8
0
  6
Continuous
 62
     7
370
    25
100
AcDbLine
 10
111.65663526185
 20
93.47475980267852
 30
0.0
 11
111.69691782285
 21
91.68178437827852
 31
0.0
  0
LINE
  5
B1
330
1F
100
AcDbEntity
  8
0
  6
Continuous
 62
     7
370
    25
100
AcDbLine
 10
111.69691782285
 20
91.68178437827852
 30
0.0
 11
104.33570149065
 21
92.78176537977852
 31
0.0
  0
LINE
  5
B2
330
1F
100
AcDbEntity
  8
0
  6
Continuous
 62
     7
370
    25
100
AcDbLine
 10
104.33570149065
 20
92.78176537977852
 30
0.0
 11
104.40810511775
 21
94.55790219207852
 31
0.0
  0
LINE
  5
B3
330
1F
100
AcDbEntity
  8
0
  6
Continuous
 62
     7
370
    25
100
AcDbLine
 10
111.4839076535499
 20
101.1625181188785
 30
0.0
 11
112.23402186345
 21
101.4987851198785
 31
0.0
  0
LINE
  5
B4
330
1F
100
AcDbEntity
  8
0
  6
Continuous
 62
     7
370
    25
100
AcDbLine
 10
110.71067660855
 20
103.5893680867785
 30
0.0
 11
111.46079128415
 21
103.9256352964785
 31
0.0
  0
ELLIPSE
  5
B5
330
1F
100
AcDbEntity
  8
0
  6
Continuous
 62
     7
370
    25
100
AcDbEllipse
 10
108.85013534875
 20
101.8703170809785
 30
0.0
 11
-1.495690054047429
 21
3.611428442413654
 31
0.0
210
0.0
220
0.0
230
1.0
 40
0.8408299469
 41
4.279980523042218
 42
4.944709864222089
  0
LINE
  5
B6
330
1F
100
AcDbEntity
  8
0
  6
Continuous
 62
     7
370
    25
100
AcDbLine
 10
110.7197981131499
 20
103.6243162379785
 30
0.0
 11
111.09485475255
 21
103.7924495297785
 31
0.0
  0
LINE
  5
B7
330
1F
100
AcDbEntity
  8
0
  6
Continuous
 62
     7
370
    25
100
AcDbLine
 10
111.48244239345
 20
104.0085927434785
 30
0.0
 11
111.46079128415
 21
103.9256352964785
 31
0.0
  0
LINE
  5
B8
330
1F
100
AcDbEntity
  8
0
  6
Continuous
 62
     7
370
    25
100
AcDbLine
 10
110.28518431385
 20
104.6750265404785
 30
0.0
 11
109.91012767455
 21
104.5068932486785
 31
0.0
  0
LINE
  5
B9
330
1F
100
AcDbEntity
  8
0
  6
Continuous
 62
     7
370
    25
100
AcDbLine
 10
109.8969254785499
 20
104.5023593329785
 30
0.0
 11
110.64703968845
 21
104.8386263339785
 31
0.0
  0
LINE
  5
BA
330
1F
100
AcDbEntity
  8
0
  6
Continuous
 62
     7
370
    25
100
AcDbLine
 10
110.64703968845
 20
104.8386263339785
 30
0.0
 11
110.78280234005
 21
104.8852584076785
 31
0.0
  0
LINE
  5
BB
330
1F
100
AcDbEntity
  8
0
  6
Continuous
 62
     7
370
    25
100
AcDbLine
 10
105.82001900985
 20
105.7914538138785
 30
0.0
 11
106.19507611475
 21
105.9595873143785
 31
0.0
  0
ELLIPSE
  5
BC
330
1F
100
AcDbEntity
  8
0
  6
Continuous
 62
     7
370
    25
100
AcDbEllipse
 10
108.85013534875
 20
101.8703170809785
 30
0.0
 11
-1.878373493313548
 21
4.53543930500274
 31
0.0
210
0.0
220
0.0
230
1.0
 40
0.8408299469
 41
0.1171384392545697
 42
0.2169039816048828
  0
LINE
  5
BD
330
1F
100
AcDbEntity
  8
0
  6
Continuous
 62
     7
370
    25
100
AcDbLine
 10
111.95995791995
 20
99.68902109957851
 30
0.0
 11
111.58490128065
 21
99.52088780787852
 31
0.0
  0
LINE
  5
BE
330
1F
100
AcDbEntity
  8
0
  6
Continuous
 62
     7
370
    25
100
AcDbLine
 10
111.51982323515
 20
99.56408504647851
 30
0.0
 11
112.26993744515
 21
99.90035204747852
 31
0.0
  0
LINE
  5
BF
330
1F
100
AcDbEntity
  8
0
  6
Continuous
 62
     7
370
    25
100
AcDbLine
 10
112.26993744515
 20
99.90035204747852
 30
0.0
 11
112.44531897295
 21
99.78393717867851
 31
0.0
  0
LINE
  5
C0
330
1F
100
AcDbEntity
  8
0
  6
Continuous
 62
     7
370
    25
100
AcDbLine
 10
112.23402186345
 20
101.4987851198785
 30
0.0
 11
112.26993744515
 21
99.90035204747852
 31
0.0
  0
ELLIPSE
  5
C1
330
1F
100
AcDbEntity
  8
0
  6
Continuous
 62
     7
370
    25
100
AcDbEllipse
 10
108.85013534875
 20
101.8703170809785
 30
0.0
 11
-1.495690054047429
 21
3.611428442413654
 31
0.0
210
0.0
220
0.0
230
1.0
 40
0.8408299469
 41
5.265910655052477
 42
6.307386567387327
  0
LINE
  5
C2
330
1F
100
AcDbEntity
  8
0
  6
Continuous
 62
     7
370
    25
100
AcDbLine
 10
111.54717002205
 20
98.34682900647852
 30
0.0
 11
112.29728423195
 21
98.68309600737852
 31
0.0
  0
LINE
  5
C3
330
1F
100
AcDbEntity
  8
0
  6
Continuous
 62
     7
370
    25
100
AcDbLine
 10
111.60132429915
 20
98.37165027017852
 30
0.0
 11
111.97638093855
 21
98.53978356187852
 31
0.0
  0
LINE
  5
C4
330
1F
100
AcDbEntity
  8
0
  6
Continuous
 62
     7
370
    25
100
AcDbLine
 10
112.45998304145
 20
98.75767234747852
 30
0.0
 11
112.29728423195
 21
98.68309600737852
 31
0.0
  0
LINE
  5
C5
330
1F
100
AcDbEntity
  8
0
  6
Continuous
 62
     7
370
    25
100
AcDbLine
 10
111.62928431745
 20
94.69201635707851
 30
0.0
 11
112.37939852745
 21
95.02828335807851
 31
0.0
  0
LINE
  5
C6
330
1F
100
AcDbEntity
  8
0
  6
Continuous
 62
     7
370
    25
100
AcDbLine
 10
112.29728423195
 20
98.68309600737852
 30
0.0
 11
112.37939852745
 21
95.02828335807851
 31
0.0
  0
LINE
  5
C7
330
1F
100
AcDbEntity
  8
0
  6
Continuous
 62
     7
370
    25
100
AcDbLine
 10
112.02919716145
 20
94.84365215057852
 30
0.0
 11
111.65414052215
 21
94.67551885887852
 31
0.0
  0
LINE
  5
C8
330
1F
100
AcDbEntity
  8
0
  6
Continuous
 62
     7
370
    25
100
AcDbLine
 10
112.37939852745
 20
95.02828335807851
 30
0.0
 11
112.51455452255
 21
94.93856850297851
 31
0.0
  0
LINE
  5
C9
330
1F
100
AcDbEntity
  8
0
  6
Continuous
 62
     7
370
    25
100
AcDbLine
 10
111.65663526185
 20
93.47475980267852
 30
0.0
 11
112.4067494717499
 21
93.81102680367852
 31
0.0
  0
LINE
  5
CA
330
1F
100
AcDbEntity
  8
0
  6
Continuous
 62
     7
370
    25
100
AcDbLine
 10
111.67120327065
 20
93.48143675477851
 30
0.0
 11
112.04626084125
 21
93.64957046397852
 31
0.0
  0
LINE
  5
CB
330
1F
100
AcDbEntity
  8
0
  6
Continuous
 62
     7
370
    25
100
AcDbLine
 10
112.52986247855
 20
93.86745881587852
 30
0.0
 11
112.4067494717499
 21
93.81102680367852
 31
0.0
  0
LINE
  5
CC
330
1F
100
AcDbEntity
  8
0
  6
Continuous
 62
     7
370
    25
100
AcDbLine
 10
111.69691782285
 20
91.68178437827852
 30
0.0
 11
112.44703203285
 21
92.01805137927852
 31
0.0
  0
LINE
  5
CD
330
1F
100
AcDbEntity
  8
0
  6
Continuous
 62
     7
370
    25
100
AcDbLine
 10
112.4067494717499
 20
93.81102680367852
 30
0.0
 11
112.44703203285
 21
92.01805137927852
 31
0.0
  0
LINE
  5
CE
330
1F
100
AcDbEntity
  8
0
  6
Continuous
 62
     7
370
    25
100
AcDbLine
 10
106.34821206705
 20
105.0391476099785
 30
0.0
 11
106.72326870635
 21
105.2072809016785
 31
0.0
  0
LINE
  5
CF
330
1F
100
AcDbEntity
  8
0
  6
Continuous
 62
     7
370
    25
100
AcDbLine
 10
106.19507611475
 20
105.9595873143785
 30
0.0
 11
107.10492792065
 21
105.3711448125785
 31
0.0
  0
LINE
  5
D0
330
1F
100
AcDbEntity
  8
0
  6
Continuous
 62
     7
370
    25
100
AcDbLine
 10
104.22842459995
 20
102.5051924008785
 30
0.0
 11
104.60348170495
 21
102.6733259013785
 31
0.0
  0
ELLIPSE
  5
D1
330
1F
100
AcDbEntity
  8
0
  6
Continuous
 62
     7
370
    25
100
AcDbEllipse
 10
108.85013534875
 20
101.8703170809785
 30
0.0
 11
-1.878373493313548
 21
4.53543930500274
 31
0.0
210
0.0
220
0.0
230
1.0
 40
0.8408299469
 41
0.380115293867672
 42
1.067702881869858
  0
LINE
  5
D2
330
1F
100
AcDbEntity
  8
0
  6
Continuous
 62
     7
370
    25
100
AcDbLine
 10
104.58831768975
 20
100.5663820139785
 30
0.0
 11
104.65423763295
 21
100.5959331160785
 31
0.0
  0
LINE
  5
D3
330
1F
100
AcDbEntity
  8
0
  6
Continuous
 62
     7
370
    25
100
AcDbLine
 10
104.14421643185
 20
100.4394421759785
 30
0.0
 11
104.51927353685
 21
100.6075756764785
 31
0.0
  0
LINE
  5
D4
330
1F
100
AcDbEntity
  8
0
  6
Continuous
 62
     7
370
    25
100
AcDbLine
 10
104.51927353685
 20
100.6075756764785
 30
0.0
 11
104.65673092405
 21
100.6570894592785
 31
0.0
  0
LINE
  5
D5
330
1F
100
AcDbEntity
  8
0
  6
Continuous
 62
     7
370
    25
100
AcDbLine
 10
104.60348170495
 20
102.6733259013785
 30
0.0
 11
104.51927353685
 21
100.6075756764785
 31
0.0
  0
LINE
  5
D6
330
1F
100
AcDbEntity
  8
0
  6
Continuous
 62
     7
370
    25
100
AcDbLine
 10
103.94747763535
 20
95.61312847847852
 30
0.0
 11
104.3225352059499
 21
95.78126218767852
 31
0.0
  0
LINE
  5
D7
330
1F
100
AcDbEntity
  8
0
  6
Continuous
 62
     7
370
    25
100
AcDbLine
 10
104.49146983505
 20
99.92548446497851
 30
0.0
 11
104.3225352059499
 21
95.78126218767852
 31
0.0
  0
LINE
  5
D8
330
1F
100
AcDbEntity
  8
0
  6
Continuous
 62
     7
370
    25
100
AcDbLine
 10
104.4321748762499
 20
95.75469173537851
 30
0.0
 11
104.45734945675
 21
95.76597719107852
 31
0.0
  0
LINE
  5
D9
330
1F
100
AcDbEntity
  8
0
  6
Continuous
 62
     7
370
    25
100
AcDbLine
 10
104.3225352059499
 20
95.78126218767852
 30
0.0
 11
104.45999259315
 21
95.83077597057851
 31
0.0
  0
LINE
  5
DA
330
1F
100
AcDbEntity
  8
0
  6
Continuous
 62
     7
370
    25
100
AcDbLine
 10
103.88421203355
 20
94.06110849867852
 30
0.0
 11
104.25926867285
 21
94.22924179047851
 31
0.0
  0
LINE
  5
DB
330
1F
100
AcDbEntity
  8
0
  6
Continuous
 62
     7
370
    25
100
AcDbLine
 10
104.29472989105
 20
95.09917121737851
 30
0.0
 11
104.25926867285
 21
94.22924179047851
 31
0.0
  0
LWPOLYLINE
  5
DC
330
1F
100
AcDbEntity
  8
0
  6
Continuous
 62
     7
370
    25
100
AcDbPolyline
 90
        3
 70
   128
 43
0.0
 10
160.84883501115
 20
169.0398338561785
 10
160.85849476815
 20
168.9148720513785
 10
160.85850118695
 20
168.9144931151785
  0
LWPOLYLINE
  5
DD
330
1F
100
AcDbEntity
  8
0
  6
Continuous
 62
     7
370
    25
100
AcDbPolyline
 90
        3
 70
   128
 43
0.0
 10
162.25060745595
 20
91.87938166527852
 10
162.2052287232499
 20
91.53425043917852
 10
162.05011654075
 20
91.17956240337851
  0
ELLIPSE
  5
DE
330
1F
100
AcDbEntity
  8
0
  6
Continuous
 62
     7
370
    25
100
AcDbEllipse
 10
145.14972395145
 20
97.48185465497852
 30
0.0
 11
16.59051524164346
 21
-10.10464220849883
 31
0.0
210
0.0
220
0.0
230
1.0
 40
0.4273296102
 41
0.4231384573043853
 42
0.4868353444201758
  0
ELLIPSE
  5
DF
330
1F
100
AcDbEntity
  8
0
  6
Continuous
 62
     7
370
    25
100
AcDbEllipse
 10
149.78792506805
 20
-23.86969918962149
 30
0.0
 11
-9.755794775265542
 21
524.983392572517
 31
0.0
210
0.0
220
0.0
230
1.0
 40
0.0277094764
 41
4.934159677000521
 42
4.936736642187702
  0
ELLIPSE
  5
E0
330
1F
100
AcDbEntity
  8
0
  6
Continuous
 62
     7
370
    25
100
AcDbEllipse
 10
144.92321590175
 20
91.30961939497851
 30
0.0
 11
16.50147230767457
 21
7.946518832841313
 31
0.0
210
0.0
220
0.0
230
1.0
 40
0.6343194255
 41
5.777079124414472
 42
5.777188180117433
  0
ELLIPSE
  5
E1
330
1F
100
AcDbEntity
  8
0
  6
Continuous
 62
     7
370
    25
100
AcDbEllipse
 10
149.72420733885
 20
-20.00529085632148
 30
0.0
 11
-9.710987810841088
 21
518.5094969542412
 31
0.0
210
0.0
220
0.0
230
1.0
 40
0.028040661
 41
4.931936649915182
 42
4.932413636159716
  0
ELLIPSE
  5
E2
330
1F
100
AcDbEntity
  8
0
  6
Continuous
 62
     7
370
    25
100
AcDbEllipse
 10
145.07366388305
 20
96.63899651517852
 30
0.0
 11
17.15335539291218
 21
-3.837927565009636
 31
0.0
210
0.0
220
0.0
230
1.0
 40
0.1173237412
 41
0.2529034628588784
 42
0.2530213426007529
  0
ELLIPSE
  5
E3
330
1F
100
AcDbEntity
  8
0
  6
Continuous
 62
     7
370
    25
100
AcDbEllipse
 10
149.78792506805
 20
-23.86969918962149
 30
0.0
 11
-9.755794775267049
 21
524.9833925725619
 31
0.0
210
0.0
220
0.0
230
1.0
 40
0.0277094764
 41
4.937204815208752
 42
4.946115832472655
  0
ELLIPSE
  5
E4
330
1F
100
AcDbEntity
  8
0
  6
Continuous
 62
     7
370
    25
100
AcDbEllipse
 10
144.92363905855
 20
96.23294778197852
 30
0.0
 11
16.41639112441033
 21
7.905546778194793
 31
0.0
210
0.0
220
0.0
230
1.0
 40
0.6343194255000001
 41
5.767801795712521
 42
5.768004967941136
  0
ELLIPSE
  5
E5
330
1F
100
AcDbEntity
  8
0
  6
Continuous
 62
     7
370
    25
100
AcDbEllipse
 10
149.72420733885
 20
-20.00529085632148
 30
0.0
 11
-9.710987810841088
 21
518.5094969542412
 31
0.0
210
0.0
220
0.0
230
1.0
 40
0.028040661
 41
4.941420149162276
 42
4.941901164819808
  0
ELLIPSE
  5
E6
330
1F
100
AcDbEntity
  8
0
  6
Continuous
 62
     7
370
    25
100
AcDbEllipse
 10
145.07332170585
 20
101.3908089337785
 30
0.0
 11
17.0675151229828
 21
-3.818721483715294
 31
0.0
210
0.0
220
0.0
230
1.0
 40
0.1173237412
 41
0.2621377654555199
 42
0.2623532067266409
  0
ELLIPSE
  5
E7
330
1F
100
AcDbEntity
  8
0
  6
Continuous
 62
     7
370
    25
100
AcDbEllipse
 10
149.7879250681499
 20
-23.86969919832148
 30
0.0
 11
-9.755794775343171
 21
524.9833925859066
 31
0.0
210
0.0
220
0.0
230
1.0
 40
0.0277094764
 41
4.94658505315156
 42
4.950606473220311
  0
SPLINE
  5
E8
330
1F
100
AcDbEntity
  8
0
  6
Continuous
 62
     7
370
    25
100
AcDbSpline
210
0.0
220
0.0
230
1.0
 70
     8
 71
     3
 72
    18
 73
    14
 74
     0
 42
0.000000001
 43
0.00000001
 40
0.0
 40
0.0
 40
0.0
 40
0.0
 40
0.2500000000000001
 40
0.2500000000000001
 40
0.3750000000000002
 40
0.3750000000000002
 40
0.5000000000000002
 40
0.5000000000000002
 40
0.7500000000000001
 40
0.7500000000000001
 40
0.875
 40
0.875
 40
1.0
 40
1.0
 40
1.0
 40
1.0
 10
161.6220513094772
 20
100.2737631052401
 30
0.0
 10
161.6140102292628
 20
100.5914057490953
 30
0.0
 10
161.5982332670894
 20
100.8934921341811
 30
0.0
 10
161.5624268095591
 20
101.3245343078609
 30
0.0
 10
161.5484374630932
 20
101.4645076970585
 30
0.0
 10
161.5158855460359
 20
101.7369391162566
 30
0.0
 10
161.4973193662726
 20
101.8690837371887
 30
0.0
 10
161.4353383303742
 20
102.2454870454959
 30
0.0
 10
161.3853929108411
 20
102.4730634495288
 30
0.0
 10
161.2941509607644
 20
102.7803833627847
 30
0.0
 10
161.2608501322331
 20
102.8774018389077
 30
0.0
 10
161.1888976985573
 20
103.0572409588721
 30
0.0
 10
161.1502047196875
 20
103.140317569383
 30
0.0
 10
161.1084507601554
 20
103.2165807495119
 30
0.0
  0
ELLIPSE
  5
E9
330
1F
100
AcDbEntity
  8
0
  6
Continuous
 62
     7
370
    25
100
AcDbEllipse
 10
144.44949818555
 20
88.72376438167852
 30
0.0
 11
8.58791159579337
 21
65.39803722588336
 31
0.0
210
0.0
220
0.0
230
1.0
 40
0.2291249037
 41
4.965548132195369
 42
4.965829779967663
  0
SPLINE
  5
EA
330
1F
100
AcDbEntity
  8
0
  6
Continuous
 62
     7
370
    25
100
AcDbSpline
210
0.0
220
0.0
230
1.0
 70
     8
 71
     3
 72
     8
 73
     4
 74
     0
 42
0.000000001
 43
0.00000001
 40
0.0
 40
0.0
 40
0.0
 40
0.0
 40
1.0
 40
1.0
 40
1.0
 40
1.0
 10
161.1071667822447
 20
103.1986103994344
 30
0.0
 10
161.0846199970462
 20
103.2398304249874
 30
0.0
 10
161.0612568844575
 20
103.2789284092901
 30
0.0
 10
161.0370300787084
 20
103.3159211482971
 30
0.0
  0
ELLIPSE
  5
EB
330
1F
100
AcDbEntity
  8
0
  6
Continuous
 62
     7
370
    25
100
AcDbEllipse
 10
144.93963946055
 20
103.3867164638785
 30
0.0
 11
16.71261368925644
 21
5.64004691603553
 31
0.0
210
0.0
220
0.0
230
1.0
 40
0.5859894259
 41
5.754409088416571
 42
5.755406807570677
  0
SPLINE
  5
EC
330
1F
100
AcDbEntity
  8
0
  6
Continuous
 62
     7
370
    25
100
AcDbSpline
210
0.0
220
0.0
230
1.0
 70
     8
 71
     3
 72
    26
 73
    22
 74
     0
 42
0.000000001
 43
0.00000001
 40
0.0
 40
0.0
 40
0.0
 40
0.0
 40
0.1249999999999999
 40
0.1249999999999999
 40
0.2499999999999998
 40
0.2499999999999998
 40
0.3749999999999997
 40
0.3749999999999997
 40
0.4374999999999997
 40
0.4374999999999997
 40
0.4999999999999998
 40
0.4999999999999998
 40
0.6249999999999999
 40
0.6249999999999999
 40
0.6874999999999998
 40
0.6874999999999998
 40
0.7499999999999998
 40
0.7499999999999998
 40
0.8749999999999999
 40
0.8749999999999999
 40
1.0
 40
1.0
 40
1.0
 40
1.0
 10
161.042586848128
 20
103.3271965599553
 30
0.0
 10
160.9659487404473
 20
103.4453212351519
 30
0.0
 10
160.8817097499462
 20
103.5406582538692
 30
0.0
 10
160.695708378538
 20
103.6878880773389
 30
0.0
 10
160.5936710695743
 20
103.7398555293966
 30
0.0
 10
160.369912269685
 20
103.7979523086731
 30
0.0
 10
160.2509684887474
 20
103.803480631292
 30
0.0
 10
160.0612163498505
 20
103.7777744002297
 30
0.0
 10
159.9960738274489
 20
103.7635056504408
 30
0.0
 10
159.8618452654421
 20
103.7233844845905
 30
0.0
 10
159.7924697367171
 20
103.6973984659574
 30
0.0
 10
159.580192061161
 20
103.6023178818934
 30
0.0
 10
159.4348694131785
 20
103.5171891258307
 30
0.0
 10
159.2117428492357
 20
103.3580353446736
 30
0.0
 10
159.1365120809403
 20
103.2997094479195
 30
0.0
 10
158.9844620560721
 20
103.1723303499067
 30
0.0
 10
158.9072627648969
 20
103.1028947538934
 30
0.0
 10
158.6770756062147
 20
102.8813816776077
 30
0.0
 10
158.5252838962989
 20
102.7162798142763
 30
0.0
 10
158.2269491131136
 20
102.3518881080022
 30
0.0
 10
158.0796657671842
 20
102.1514437455623
 30
0.0
 10
157.9384697877467
 20
101.9356589504172
 30
0.0
  0
ELLIPSE
  5
ED
330
1F
100
AcDbEntity
  8
0
  6
Continuous
 62
     7
370
    25
100
AcDbEllipse
 10
145.07093462345
 20
103.4455744751785
 30
0.0
 11
17.03184649177459
 21
-3.674727764456321
 31
0.0
210
0.0
220
0.0
230
1.0
 40
0.1056541775
 41
0.7364749166778405
 42
0.7374726358319993
  0
SPLINE
  5
EE
330
1F
100
AcDbEntity
  8
0
  6
Continuous
 62
     7
370
    25
100
AcDbSpline
210
0.0
220
0.0
230
1.0
 70
     8
 71
     3
 72
     8
 73
     4
 74
     0
 42
0.000000001
 43
0.00000001
 40
0.0
 40
0.0
 40
0.0
 40
0.0
 40
1.0
 40
1.0
 40
1.0
 40
1.0
 10
157.9496030876894
 20
101.9318654921685
 30
0.0
 10
157.9049844024855
 20
101.8638506381837
 30
0.0
 10
157.8611172035378
 20
101.7945405322025
 30
0.0
 10
157.8181908568073
 20
101.7242028277852
 30
0.0
  0
ELLIPSE
  5
EF
330
1F
100
AcDbEntity
  8
0
  6
Continuous
 62
     7
370
    25
100
AcDbEllipse
 10
145.56107589835
 20
89.22207103797852
 30
0.0
 11
-9.826337686525761
 21
57.62756997764145
 31
0.0
210
0.0
220
0.0
230
1.0
 40
0.2464618441
 41
4.88887833386813
 42
4.889159981640423
  0
SPLINE
  5
F0
330
1F
100
AcDbEntity
  8
0
  6
Continuous
 62
     7
370
    25
100
AcDbSpline
210
0.0
220
0.0
230
1.0
 70
     8
 71
     3
 72
    18
 73
    14
 74
     0
 42
0.000000001
 43
0.00000001
 40
0.0
 40
0.0
 40
0.0
 40
0.0
 40
0.2500000000000007
 40
0.2500000000000007
 40
0.3750000000000009
 40
0.3750000000000009
 40
0.5000000000000011
 40
0.5000000000000011
 40
0.7500000000000002
 40
0.7500000000000002
 40
0.8750000000000001
 40
0.8750000000000001
 40
1.0
 40
1.0
 40
1.0
 40
1.0
 10
157.8147634547936
 20
101.7400611240226
 30
0.0
 10
157.654794064876
 20
101.4783138003231
 30
0.0
 10
157.507861553992
 20
101.2026096945036
 30
0.0
 10
157.3097006489735
 20
100.7678991524979
 30
0.0
 10
157.2473775009224
 20
100.6194430637893
 30
0.0
 10
157.1309725283706
 20
100.315052648203
 30
0.0
 10
157.0768830319
 20
100.1588508291854
 30
0.0
 10
156.9315902049634
 20
99.6893352591917
 30
0.0
 10
156.8558177084988
 20
99.37169764129753
 30
0.0
 10
156.7764397938359
 20
98.88767898510147
 30
0.0
 10
156.7556745280035
 20
98.7244316387501
 30
0.0
 10
156.7267249961989
 20
98.39849743886444
 30
0.0
 10
156.7185259736501
 20
98.23626120222161
 30
0.0
 10
156.7166901355166
 20
98.07474984989084
 30
0.0
  0
ELLIPSE
  5
F1
330
1F
100
AcDbEntity
  8
0
  6
Continuous
 62
     7
370
    25
100
AcDbEllipse
 10
140.22264901585
 20
-28.15769514502148
 30
0.0
 11
9.635311716141388
 21
533.6691459413772
 31
0.0
210
0.0
220
0.0
230
1.0
 40
0.0274085477
 41
4.947662438120363
 42
4.951683858189123
  0
ELLIPSE
  5
F2
330
1F
100
AcDbEntity
  8
0
  6
Continuous
 62
     7
370
    25
100
AcDbEllipse
 10
144.93725237815
 20
101.3298107228785
 30
0.0
 11
16.70372255548014
 21
5.947777223396358
 31
0.0
210
0.0
220
0.0
230
1.0
 40
0.5941072512
 41
5.263380671652838
 42
5.263596112923924
  0
ELLIPSE
  5
F3
330
1F
100
AcDbEntity
  8
0
  6
Continuous
 62
     7
370
    25
100
AcDbEllipse
 10
140.27617897365
 20
-24.24072610272148
 30
0.0
 11
9.610037026895384
 21
527.1637547382118
 31
0.0
210
0.0
220
0.0
230
1.0
 40
0.0277135238
 41
4.942510514347731
 42
4.942991530005264
  0
ELLIPSE
  5
F4
330
1F
100
AcDbEntity
  8
0
  6
Continuous
 62
     7
370
    25
100
AcDbEllipse
 10
145.0869350254499
 20
96.30615136137851
 30
0.0
 11
17.14361171048262
 21
-4.682179147653784
 31
0.0
210
0.0
220
0.0
230
1.0
 40
0.1838623594
 41
0.8784901530932892
 42
0.878693325321864
  0
ELLIPSE
  5
F5
330
1F
100
AcDbEntity
  8
0
  6
Continuous
 62
     7
370
    25
100
AcDbEllipse
 10
140.22264901595
 20
-28.15769513602148
 30
0.0
 11
9.635311716060965
 21
533.6691459276767
 31
0.0
210
0.0
220
0.0
230
1.0
 40
0.0274085477
 41
4.938282200177402
 42
4.947193217441269
  0
ELLIPSE
  5
F6
330
1F
100
AcDbEntity
  8
0
  6
Continuous
 62
     7
370
    25
100
AcDbEllipse
 10
144.93691020095
 20
96.57769151657851
 30
0.0
 11
16.78773314768748
 21
5.977691291065346
 31
0.0
210
0.0
220
0.0
230
1.0
 40
0.5941072512
 41
5.254146369056189
 42
5.254264248798062
  0
ELLIPSE
  5
F7
330
1F
100
AcDbEntity
  8
0
  6
Continuous
 62
     7
370
    25
100
AcDbEllipse
 10
140.27617897365
 20
-24.24072610272148
 30
0.0
 11
9.610037026895384
 21
527.1637547382118
 31
0.0
210
0.0
220
0.0
230
1.0
 40
0.0277135238
 41
4.933027015100636
 42
4.933504001345173
  0
LINE
  5
F8
330
1F
100
AcDbEntity
  8
0
  6
Continuous
 62
     7
370
    25
100
AcDbLine
 10
156.6347574222499
 20
90.87036820017852
 30
0.0
 11
156.63335920955
 21
90.87098440547852
 31
0.0
  0
ELLIPSE
  5
F9
330
1F
100
AcDbEntity
  8
0
  6
Continuous
 62
     7
370
    25
100
AcDbEllipse
 10
140.22264901595
 20
-28.15769513582148
 30
0.0
 11
9.635311716058027
 21
533.6691459273025
 31
0.0
210
0.0
220
0.0
230
1.0
 40
0.0274085477
 41
4.935237061968846
 42
4.937814027156032
  0
ELLIPSE
  5
FA
330
1F
100
AcDbEntity
  8
0
  6
Continuous
 62
     7
370
    25
100
AcDbEllipse
 10
144.86085013245
 20
97.35235606467852
 30
0.0
 11
12.60066623957195
 21
18.27109813987251
 31
0.0
210
0.0
220
0.0
230
1.0
 40
0.6361872313
 41
4.659286271216849
 42
4.722983158332637
  0
ARC
  5
FB
330
1F
100
AcDbEntity
  8
0
  6
Continuous
 62
     7
370
    25
100
AcDbCircle
 10
144.92264698005
 20
147.1941352681785
 30
0.0
 40
59.81391334181395
100
AcDbArc
 50
261.7913659390999
 51
280.4772282199999
  0
LINE
  5
FC
330
1F
100
AcDbEntity
  8
0
  6
Continuous
 62
     7
370
    25
100
AcDbLine
 10
136.38253102295
 20
87.99303182657852
 30
0.0
 11
137.07859033935
 21
165.3418627842785
 31
0.0
  0
ARC
  5
FD
330
1F
100
AcDbEntity
  8
0
  6
Continuous
 62
     7
370
    25
100
AcDbCircle
 10
144.88518166945
 20
218.2837361965785
 30
0.0
 40
53.51434227003811
100
AcDbArc
 50
261.6118462214999
 51
281.8999417198
  0
LWPOLYLINE
  5
FE
330
1F
100
AcDbEntity
  8
0
  6
Continuous
 62
     7
370
    25
100
AcDbPolyline
 90
        3
 70
   128
 43
0.0
 10
155.92000976035
 20
165.9194602290785
 10
155.97142887275
 20
162.7607771798785
 10
155.97918464805
 20
162.2841821050785
  0
LINE
  5
FF
330
1F
100
AcDbEntity
  8
0
  6
Continuous
 62
     7
370
    25
100
AcDbLine
 10
127.68837109925
 20
176.3834407097785
 30
0.0
 11
128.43620822555
 21
176.7186869220785
 31
0.0
  0
LINE
  5
100
330
1F
100
AcDbEntity
  8
0
  6
Continuous
 62
     7
370
    25
100
AcDbLine
 10
128.43620822555
 20
176.7186869220785
 30
0.0
 11
129.5187421740499
 21
176.5569246910785
 31
0.0
  0
LINE
  5
101
330
1F
100
AcDbEntity
  8
0
  6
Continuous
 62
     7
370
    25
100
AcDbLine
 10
128.77090504785
 20
176.2216784787785
 30
0.0
 11
129.5187421740499
 21
176.5569246910785
 31
0.0
  0
LINE
  5
102
330
1F
100
AcDbEntity
  8
0
  6
Continuous
 62
     7
370
    25
100
AcDbLine
 10
152.80699787875
 20
172.6299832656785
 30
0.0
 11
128.77090504785
 21
176.2216784787785
 31
0.0
  0
ARC
  5
103
330
1F
100
AcDbEntity
  8
0
  6
Continuous
 62
     7
370
    25
100
AcDbCircle
 10
148.78853180965
 20
144.0593787749785
 30
0.0
 40
28.851819882182
100
AcDbArc
 50
73.90306912040003
 51
81.9938457882
  0
LINE
  5
104
330
1F
100
AcDbEntity
  8
0
  6
Continuous
 62
     7
370
    25
100
AcDbLine
 10
162.06354351755
 20
167.9284311898785
 30
0.0
 11
160.19409196315
 21
168.2077819248785
 31
0.0
  0
LINE
  5
105
330
1F
100
AcDbEntity
  8
0
  6
Continuous
 62
     7
370
    25
100
AcDbLine
 10
161.43854364795
 20
167.6482514132785
 30
0.0
 11
162.06354351755
 21
167.9284311898785
 31
0.0
  0
LINE
  5
106
330
1F
100
AcDbEntity
  8
0
  6
Continuous
 62
     7
370
    25
100
AcDbLine
 10
159.90868794055
 20
167.8768565971785
 30
0.0
 11
161.43854364795
 21
167.6482514132785
 31
0.0
  0
SPLINE
  5
107
330
1F
100
AcDbEntity
  8
0
  6
Continuous
 62
     7
370
    25
100
AcDbSpline
210
0.0
220
0.0
230
1.0
 70
     8
 71
     3
 72
    18
 73
    14
 74
     0
 42
0.000000001
 43
0.00000001
 40
0.0
 40
0.0
 40
0.0
 40
0.0
 40
0.1249999999999998
 40
0.1249999999999998
 40
0.2499999999999996
 40
0.2499999999999996
 40
0.4999999999999997
 40
0.4999999999999997
 40
0.7499999999999998
 40
0.7499999999999998
 40
0.8749999999999999
 40
0.8749999999999999
 40
1.0
 40
1.0
 40
1.0
 40
1.0
 10
156.6586898498763
 20
166.4199228767448
 30
0.0
 10
156.8406828646107
 20
166.4726414638362
 30
0.0
 10
157.0186269827145
 20
166.5262898963542
 30
0.0
 10
157.3621717797249
 20
166.6361906073361
 30
0.0
 10
157.528183499094
 20
166.6922340598514
 30
0.0
 10
158.0089947593833
 20
166.8636326764005
 30
0.0
 10
158.3068542233061
 20
166.9824003810375
 30
0.0
 10
158.8523277490077
 20
167.2269924662429
 30
0.0
 10
159.1007428272587
 20
167.3531968855186
 30
0.0
 10
159.4332121506651
 20
167.5463920955707
 30
0.0
 10
159.5374809550049
 20
167.6114967817507
 30
0.0
 10
159.7329067425311
 20
167.7431190661301
 30
0.0
 10
159.8233025292926
 20
167.8097186898213
 30
0.0
 10
159.9086898498763
 20
167.8768580190179
 30
0.0
  0
LINE
  5
108
330
1F
100
AcDbEntity
  8
0
  6
Continuous
 62
     7
370
    25
100
AcDbLine
 10
158.18854358085
 20
166.1913162409785
 30
0.0
 11
156.65868787345
 21
166.4199214247785
 31
0.0
  0
LINE
  5
109
330
1F
100
AcDbEntity
  8
0
  6
Continuous
 62
     7
370
    25
100
AcDbLine
 10
157.56354371125
 20
165.9111364643785
 30
0.0
 11
158.18854358085
 21
166.1913162409785
 31
0.0
  0
LINE
  5
10A
330
1F
100
AcDbEntity
  8
0
  6
Continuous
 62
     7
370
    25
100
AcDbLine
 10
155.69409215685
 20
166.1904871993785
 30
0.0
 11
157.56354371125
 21
165.9111364643785
 31
0.0
  0
ARC
  5
10B
330
1F
100
AcDbEntity
  8
0
  6
Continuous
 62
     7
370
    25
100
AcDbCircle
 10
144.88953937415
 20
217.8318377374785
 30
0.0
 40
52.75952469684205
100
AcDbArc
 50
261.6233845918999
 51
281.8171281526
  0
LINE
  5
10C
330
1F
100
AcDbEntity
  8
0
  6
Continuous
 62
     7
370
    25
100
AcDbLine
 10
113.16747820395
 20
169.2268535837785
 30
0.0
 11
137.20357103495
 21
165.6351583706785
 31
0.0
  0
LINE
  5
10D
330
1F
100
AcDbEntity
  8
0
  6
Continuous
 62
     7
370
    25
100
AcDbLine
 10
113.16747820395
 20
169.2268535837785
 30
0.0
 11
112.41964107765
 21
168.8916073715785
 31
0.0
  0
LINE
  5
10E
330
1F
100
AcDbEntity
  8
0
  6
Continuous
 62
     7
370
    25
100
AcDbLine
 10
111.33710712915
 20
169.0533696025785
 30
0.0
 11
112.41964107765
 21
168.8916073715785
 31
0.0
  0
LINE
  5
10F
330
1F
100
AcDbEntity
  8
0
  6
Continuous
 62
     7
370
    25
100
AcDbLine
 10
112.08494425545
 20
169.3886158148785
 30
0.0
 11
111.33710712915
 21
169.0533696025785
 31
0.0
  0
LINE
  5
110
330
1F
100
AcDbEntity
  8
0
  6
Continuous
 62
     7
370
    25
100
AcDbLine
 10
105.5897550820499
 20
170.3591870314785
 30
0.0
 11
112.08494425545
 21
169.3886158148785
 31
0.0
  0
LINE
  5
111
330
1F
100
AcDbEntity
  8
0
  6
Continuous
 62
     7
370
    25
100
AcDbLine
 10
105.5897550820499
 20
170.3591870314785
 30
0.0
 11
104.8419179557499
 21
170.0239408191785
 31
0.0
  0
LINE
  5
112
330
1F
100
AcDbEntity
  8
0
  6
Continuous
 62
     7
370
    25
100
AcDbLine
 10
103.7593856203499
 20
170.1857028091785
 30
0.0
 11
104.8419179557499
 21
170.0239408191785
 31
0.0
  0
LINE
  5
113
330
1F
100
AcDbEntity
  8
0
  6
Continuous
 62
     7
370
    25
100
AcDbLine
 10
104.50722274655
 20
170.5209490214785
 30
0.0
 11
103.7593856203499
 21
170.1857028091785
 31
0.0
  0
LINE
  5
114
330
1F
100
AcDbEntity
  8
0
  6
Continuous
 62
     7
370
    25
100
AcDbLine
 10
83.88889666454995
 20
173.6019299284785
 30
0.0
 11
104.50722274655
 21
170.5209490214785
 31
0.0
  0
LWPOLYLINE
  5
115
330
1F
100
AcDbEntity
  8
0
  6
Continuous
 62
     7
370
    25
100
AcDbPolyline
 90
       17
 70
   128
 43
0.0
 10
101.41530307925
 20
175.2054418553785
 10
101.14502471025
 20
175.1094221968785
 10
100.32976112985
 20
174.8505989763785
 10
99.43701695774996
 20
174.6095087622785
 10
98.47252761174997
 20
174.3877011275785
 10
97.44249213724996
 20
174.1866013249785
 10
96.35352927824997
 20
174.0075016823785
 10
95.21263690754995
 20
173.8515535397785
 10
94.02714786444997
 20
173.7197585396785
 10
92.80467939104997
 20
173.6129637973785
 10
91.55308774784996
 20
173.5318560183785
 10
90.28041636034996
 20
173.4769556082785
 10
88.99484313554996
 20
173.4486161955785
 10
87.70463087394995
 20
173.4470195159785
 10
86.41806934324995
 20
173.4721757191785
 10
85.14342774534995
 20
173.5239235122785
 10
83.88889666454995
 20
173.6019299284785
  0
LINE
  5
116
330
1F
100
AcDbEntity
  8
0
  6
Continuous
 62
     7
370
    25
100
AcDbLine
 10
120.11064959045
 20
177.5157739164785
 30
0.0
 11
120.85848671675
 21
177.8510201287785
 31
0.0
  0
LINE
  5
117
330
1F
100
AcDbEntity
  8
0
  6
Continuous
 62
     7
370
    25
100
AcDbLine
 10
120.85848671675
 20
177.8510201287785
 30
0.0
 11
121.94101905215
 21
177.6892581387785
 31
0.0
  0
LINE
  5
118
330
1F
100
AcDbEntity
  8
0
  6
Continuous
 62
     7
370
    25
100
AcDbLine
 10
121.19318192595
 20
177.3540119264785
 30
0.0
 11
121.94101905215
 21
177.6892581387785
 31
0.0
  0
LINE
  5
119
330
1F
100
AcDbEntity
  8
0
  6
Continuous
 62
     7
370
    25
100
AcDbLine
 10
127.68837109925
 20
176.3834407097785
 30
0.0
 11
121.19318192595
 21
177.3540119264785
 31
0.0
  0
ARC
  5
11A
330
1F
100
AcDbEntity
  8
0
  6
Continuous
 62
     7
370
    25
100
AcDbCircle
 10
137.4184450838499
 20
165.3703185662785
 30
0.0
 40
0.3410439544483137
100
AcDbArc
 50
129.053661275499
 51
184.7861687172015
  0
SPLINE
  5
11B
330
1F
100
AcDbEntity
  8
0
  6
Continuous
 62
     7
370
    25
100
AcDbSpline
210
0.0
220
0.0
230
1.0
 70
     8
 71
     3
 72
    10
 73
     6
 74
     0
 42
0.000000001
 43
0.00000001
 40
0.0
 40
0.0
 40
0.0
 40
0.0
 40
0.5
 40
0.5
 40
1.0
 40
1.0
 40
1.0
 40
1.0
 10
155.6940930226548
 20
166.1904887393111
 30
0.0
 10
155.7518869571497
 20
166.1818526352931
 30
0.0
 10
155.8085849807604
 20
166.149287181276
 30
0.0
 10
155.892860813262
 20
166.0500807494398
 30
0.0
 10
155.9189576660795
 20
165.984153839268
 30
0.0
 10
155.9200109231534
 20
165.9194629738809
 30
0.0
  0
LINE
  5
11C
330
1F
100
AcDbEntity
  8
0
  6
Continuous
 62
     7
370
    25
100
AcDbLine
 10
159.71895811075
 20
103.5249855168785
 30
0.0
 11
159.64127117695
 21
103.6164595410785
 31
0.0
  0
ELLIPSE
  5
11D
330
1F
100
AcDbEntity
  8
0
  6
Continuous
 62
     7
370
    25
100
AcDbEllipse
 10
144.94542065685
 20
103.3942390979785
 30
0.0
 11
15.2408321105969
 21
5.143361160704942
 31
0.0
210
0.0
220
0.0
230
1.0
 40
0.5859894259
 41
5.714855851136435
 42
5.773360048707115
  0
SPLINE
  5
11E
330
1F
100
AcDbEntity
  8
0
  6
Continuous
 62
     7
370
    25
100
AcDbSpline
210
0.0
220
0.0
230
1.0
 70
     8
 71
     3
 72
     9
 73
     5
 74
     0
 42
0.000000001
 43
0.00000001
 40
0.0
 40
0.0
 40
0.0
 40
0.0
 40
0.8153154365533039
 40
1.0
 40
1.0
 40
1.0
 40
1.0
 10
158.7894686058632
 20
102.9783986305437
 30
0.0
 10
158.8441752799543
 20
102.9899124357356
 30
0.0
 10
158.9112740636131
 20
103.0040343383461
 30
0.0
 10
158.9675420012554
 20
102.9846801747817
 30
0.0
 10
158.9779338207548
 20
102.981105759533
 30
0.0
  0
LINE
  5
11F
330
1F
100
AcDbEntity
  8
0
  6
Continuous
 62
     7
370
    25
100
AcDbLine
 10
136.38253102295
 20
87.99303182657852
 30
0.0
 11
113.42896891435
 21
91.42296529077852
 31
0.0
  0
LINE
  5
120
330
1F
100
AcDbEntity
  8
0
  6
Continuous
 62
     7
370
    25
100
AcDbLine
 10
112.54904107265
 20
92.52526316407852
 30
0.0
 11
113.42896891435
 21
91.42296529077852
 31
0.0
  0
LINE
  5
121
330
1F
100
AcDbEntity
  8
0
  6
Continuous
 62
     7
370
    25
100
AcDbLine
 10
112.4290092303499
 20
100.9251071750785
 30
0.0
 11
112.54904107265
 21
92.52526316407852
 31
0.0
  0
ELLIPSE
  5
122
330
1F
100
AcDbEntity
  8
0
  6
Continuous
 62
     7
370
    25
100
AcDbEllipse
 10
108.09922189115
 20
101.4452384746785
 30
0.0
 11
-1.913417196330499
 21
4.620054312945456
 31
0.0
210
0.0
220
0.0
230
1.0
 40
0.8408299469
 41
4.270768139261461
 42
7.360100572829589
  0
LINE
  5
123
330
1F
100
AcDbEntity
  8
0
  6
Continuous
 62
     7
370
    25
100
AcDbLine
 10
103.50102750075
 20
93.87730100417852
 30
0.0
 11
103.7717138078499
 21
102.2187602968785
 31
0.0
  0
LINE
  5
124
330
1F
100
AcDbEntity
  8
0
  6
Continuous
 62
     7
370
    25
100
AcDbLine
 10
102.60365201225
 20
93.04058422627851
 30
0.0
 11
103.50102750075
 21
93.87730100417852
 31
0.0
  0
LINE
  5
125
330
1F
100
AcDbEntity
  8
0
  6
Continuous
 62
     7
370
    25
100
AcDbLine
 10
102.60365201225
 20
93.04058422627851
 30
0.0
 11
79.65008667744996
 21
96.47051817257852
 31
0.0
  0
LINE
  5
126
330
1F
100
AcDbEntity
  8
0
  6
Continuous
 62
     7
370
    25
100
AcDbLine
 10
79.65008667744996
 20
96.47051817257852
 30
0.0
 11
80.34614599384997
 21
173.8193491303785
 31
0.0
  0
LINE
  5
127
330
1F
100
AcDbEntity
  8
0
  6
Continuous
 62
     7
370
    25
100
AcDbLine
 10
113.0097307862499
 20
165.2924334125785
 30
0.0
 11
113.04249750845
 21
168.9335579974785
 31
0.0
  0
LINE
  5
128
330
1F
100
AcDbEntity
  8
0
  6
Continuous
 62
     7
370
    25
100
AcDbLine
 10
137.07859033935
 20
165.3418627842785
 30
0.0
 11
113.04249750845
 21
168.9335579974785
 31
0.0
  0
ARC
  5
129
330
1F
100
AcDbEntity
  8
0
  6
Continuous
 62
     7
370
    25
100
AcDbCircle
 10
113.38235225285
 20
168.9620137794785
 30
0.0
 40
0.3410439544483137
100
AcDbArc
 50
129.053661275499
 51
184.7861687172015
  0
LINE
  5
12A
330
1F
100
AcDbEntity
  8
0
  6
Continuous
 62
     7
370
    25
100
AcDbLine
 10
157.62400907735
 20
162.0383972318785
 30
0.0
 11
157.56354371125
 21
165.9111364643785
 31
0.0
  0
LINE
  5
12B
330
1F
100
AcDbEntity
  8
0
  6
Continuous
 62
     7
370
    25
100
AcDbLine
 10
155.97918464805
 20
162.2841821050785
 30
0.0
 11
157.62400907735
 21
162.0383972318785
 31
0.0
  0
LINE
  5
12C
330
1F
100
AcDbEntity
  8
0
  6
Continuous
 62
     7
370
    25
100
AcDbLine
 10
161.48011641005
 20
164.9857414197785
 30
0.0
 11
158.23011634295
 21
163.5288062473785
 31
0.0
  0
LINE
  5
12D
330
1F
100
AcDbEntity
  8
0
  6
Continuous
 62
     7
370
    25
100
AcDbLine
 10
161.48011641005
 20
164.9857414197785
 30
0.0
 11
161.43854364795
 21
167.6482514132785
 31
0.0
  0
LINE
  5
12E
330
1F
100
AcDbEntity
  8
0
  6
Continuous
 62
     7
370
    25
100
AcDbLine
 10
162.12400888365
 20
164.0556919573785
 30
0.0
 11
162.06354351755
 21
167.9284311898785
 31
0.0
  0
LINE
  5
12F
330
1F
100
AcDbEntity
  8
0
  6
Continuous
 62
     7
370
    25
100
AcDbLine
 10
157.62400907735
 20
162.0383972318785
 30
0.0
 11
162.12400888365
 21
164.0556919573785
 31
0.0
  0
LINE
  5
130
330
1F
100
AcDbEntity
  8
0
  6
Continuous
 62
     7
370
    25
100
AcDbLine
 10
158.18854358085
 20
166.1913162409785
 30
0.0
 11
158.23011634295
 21
163.5288062473785
 31
0.0
  0
SPLINE
  5
131
330
1F
100
AcDbEntity
  8
0
  6
Continuous
 62
     7
370
    25
100
AcDbSpline
210
0.0
220
0.0
230
1.0
 70
     8
 71
     3
 72
    10
 73
     6
 74
     0
 42
0.000000001
 43
0.00000001
 40
0.0
 40
0.0
 40
0.0
 40
0.0
 40
0.5
 40
0.5
 40
1.0
 40
1.0
 40
1.0
 40
1.0
 10
159.9086898498763
 20
167.8768580190179
 30
0.0
 10
159.9658599861673
 20
167.8683151286947
 30
0.0
 10
160.0218774771827
 20
167.8351038808635
 30
0.0
 10
160.1038283732105
 20
167.735870972545
 30
0.0
 10
160.1288237980393
 20
167.670402538257
 30
0.0
 10
160.1298221717693
 20
167.60645861922
 30
0.0
  0
ARC
  5
132
330
1F
100
AcDbEntity
  8
0
  6
Continuous
 62
     7
370
    25
100
AcDbCircle
 10
155.62071276695
 20
171.4588942368785
 30
0.0
 40
7.750877561363873
100
AcDbArc
 50
289.5964508169999
 51
305.9188686119999
  0
LINE
  5
133
330
1F
100
AcDbEntity
  8
0
  6
Continuous
 62
     7
370
    25
100
AcDbLine
 10
160.16768050585
 20
165.1818577264785
 30
0.0
 11
160.12982432155
 21
167.6064577208785
 31
0.0
  0
LINE
  5
134
330
1F
100
AcDbEntity
  8
0
  6
Continuous
 62
     7
370
    25
100
AcDbLine
 10
161.48011641005
 20
164.9857414197785
 30
0.0
 11
160.16768050585
 21
165.1818577264785
 31
0.0
  0
LWPOLYLINE
  5
135
330
1F
100
AcDbEntity
  8
0
  6
Continuous
 62
     7
370
    25
100
AcDbPolyline
 90
        3
 70
   128
 43
0.0
 10
152.80699787875
 20
172.6299832656785
 10
152.83111633955
 20
172.6362613495785
 10
152.84394530795
 20
172.6357584793785
  0
LINE
  5
136
330
1F
100
AcDbEntity
  8
0
  6
Continuous
 62
     7
370
    25
100
AcDbLine
 10
112.41964107765
 20
168.8916073715785
 30
0.0
 11
112.3847304509499
 21
165.0122534272785
 31
0.0
  0
LINE
  5
137
330
1F
100
AcDbEntity
  8
0
  6
Continuous
 62
     7
370
    25
100
AcDbLine
 10
103.7244749936499
 20
166.3063488648785
 30
0.0
 11
112.3847304509499
 21
165.0122534272785
 31
0.0
  0
LINE
  5
138
330
1F
100
AcDbEntity
  8
0
  6
Continuous
 62
     7
370
    25
100
AcDbLine
 10
103.7593856203499
 20
170.1857028091785
 30
0.0
 11
103.7244749936499
 21
166.3063488648785
 31
0.0
  0
LINE
  5
139
330
1F
100
AcDbEntity
  8
0
  6
Continuous
 62
     7
370
    25
100
AcDbLine
 10
104.8419179557499
 20
170.0239408191785
 30
0.0
 11
104.81791684175
 21
167.3568836070785
 31
0.0
  0
LINE
  5
13A
330
1F
100
AcDbEntity
  8
0
  6
Continuous
 62
     7
370
    25
100
AcDbLine
 10
111.31310601505
 20
166.3863123903785
 30
0.0
 11
104.81791684175
 21
167.3568836070785
 31
0.0
  0
LINE
  5
13B
330
1F
100
AcDbEntity
  8
0
  6
Continuous
 62
     7
370
    25
100
AcDbLine
 10
111.33710712915
 20
169.0533696025785
 30
0.0
 11
111.31310601505
 21
166.3863123903785
 31
0.0
  0
LINE
  5
13C
330
1F
100
AcDbEntity
  8
0
  6
Continuous
 62
     7
370
    25
100
AcDbLine
 10
112.3847304509499
 20
165.0122534272785
 30
0.0
 11
113.0097307862499
 21
165.2924334125785
 31
0.0
  0
LINE
  5
13D
330
1F
100
AcDbEntity
  8
0
  6
Continuous
 62
     7
370
    25
100
AcDbLine
 10
111.31646354115
 20
166.7593839915785
 30
0.0
 11
105.4429171769499
 21
167.6370635923785
 31
0.0
  0
LINE
  5
13E
330
1F
100
AcDbEntity
  8
0
  6
Continuous
 62
     7
370
    25
100
AcDbLine
 10
104.81791684175
 20
167.3568836070785
 30
0.0
 11
105.4429171769499
 21
167.6370635923785
 31
0.0
  0
ARC
  5
13F
330
1F
100
AcDbEntity
  8
0
  6
Continuous
 62
     7
370
    25
100
AcDbCircle
 10
105.80462913095
 20
170.0943472271785
 30
0.0
 40
0.3410439544483716
100
AcDbArc
 50
129.0536612754997
 51
184.7861687172008
  0
LINE
  5
140
330
1F
100
AcDbEntity
  8
0
  6
Continuous
 62
     7
370
    25
100
AcDbLine
 10
105.4429171769499
 20
167.6370635923785
 30
0.0
 11
105.46477438645
 21
170.0658914451785
 31
0.0
  0
LINE
  5
141
330
1F
100
AcDbEntity
  8
0
  6
Continuous
 62
     0
370
    25
100
AcDbLine
 10
103.77362147525
 20
196.7766424467785
 30
0.0
 11
103.77695824805
 21
196.7100766096785
 31
0.0
  0
LINE
  5
142
330
1F
100
AcDbEntity
  8
0
  6
Continuous
 62
     0
370
    25
100
AcDbLine
 10
72.76918199814995
 20
196.6551650289785
 30
0.0
 11
72.76872176974996
 21
196.7100768038785
 31
0.0
  0
LINE
  5
143
330
1F
100
AcDbEntity
  8
0
  6
Continuous
 62
     7
370
    25
100
AcDbLine
 10
104.11748041655
 20
177.8665058299785
 30
0.0
 11
104.11688997625
 21
177.8875812518785
 31
0.0
  0
SPLINE
  5
144
330
1F
100
AcDbEntity
  8
0
  6
Continuous
 62
     7
370
    25
100
AcDbSpline
210
0.0
220
0.0
230
1.0
 70
     8
 71
     3
 72
    12
 73
     8
 74
     0
 42
0.000000001
 43
0.00000001
 40
0.0
 40
0.0
 40
0.0
 40
0.0
 40
0.2499999999999999
 40
0.2499999999999999
 40
0.4999999999999998
 40
0.4999999999999998
 40
1.0
 40
1.0
 40
1.0
 40
1.0
 10
83.95698194150265
 20
173.9014473753788
 30
0.0
 10
83.63814074979385
 20
173.9248083165712
 30
0.0
 10
83.32323578127466
 20
173.9316466027246
 30
0.0
 10
82.70060176571107
 20
173.9301693647445
 30
0.0
 10
82.39498686969307
 20
173.921506250742
 30
0.0
 10
81.49293192941337
 20
173.8854629206727
 30
0.0
 10
80.91118092347446
 20
173.8480980654805
 30
0.0
 10
80.34614565808386
 20
173.8193519562736
 30
0.0
  0
LWPOLYLINE
  5
145
330
1F
100
AcDbEntity
  8
0
  6
Continuous
 62
     7
370
    25
100
AcDbPolyline
 90
       15
 70
   128
 43
0.0
 10
71.02752242084995
 20
100.3568687691785
 10
71.02779051634997
 20
100.3034863403785
 10
71.09297240354996
 20
99.94693250107852
 10
71.26802905004996
 20
99.59286680807851
 10
71.55184042884997
 20
99.24355387047852
 10
71.94259138054997
 20
98.90122773507852
 10
72.43778292034995
 20
98.56807767207852
 10
73.03424863444997
 20
98.24623431317852
 10
73.72817281344996
 20
97.93775608717851
 10
74.51511817404995
 20
97.64461561367851
 10
75.39005159684996
 20
97.36868834267851
 10
76.34737755614995
 20
97.11173837377852
 10
77.38097293574995
 20
96.87540935697852
 10
78.48422832734997
 20
96.66121275537851
 10
79.65008667744996
 20
96.47051817257852
  0
ELLIPSE
  5
146
330
1F
100
AcDbEntity
  8
0
  6
Continuous
 62
     7
370
    25
100
AcDbEllipse
 10
145.08378999485
 20
91.38535953687851
 30
0.0
 11
16.48324919699655
 21
-4.501824176790621
 31
0.0
210
0.0
220
0.0
230
1.0
 40
0.1838623594
 41
0.8400002023483659
 42
0.8460482944551342
  0
ELLIPSE
  5
147
330
1F
100
AcDbEntity
  8
0
  6
Continuous
 62
     7
370
    25
100
AcDbEllipse
 10
144.9398994061499
 20
96.58166809587851
 30
0.0
 11
16.0538311906794
 21
5.716367186237818
 31
0.0
210
0.0
220
0.0
230
1.0
 40
0.5941072512
 41
5.29808241764154
 42
5.304229451564424
  0
ELLIPSE
  5
148
330
1F
100
AcDbEntity
  8
0
  6
Continuous
 62
     7
370
    25
100
AcDbEllipse
 10
140.30624526285
 20
-50.88880717882148
 30
0.0
 11
9.466895071164458
 21
524.341085799472
 31
0.0
210
0.0
220
0.0
230
1.0
 40
0.0274085477
 41
4.988598997931075
 42
4.995854831822782
  0
ELLIPSE
  5
149
330
1F
100
AcDbEntity
  8
0
  6
Continuous
 62
     7
370
    25
100
AcDbEllipse
 10
145.08336683805
 20
96.30830853197851
 30
0.0
 11
16.39439904968359
 21
-4.477557860331572
 31
0.0
210
0.0
220
0.0
230
1.0
 40
0.1838623594
 41
0.8302747247837368
 42
0.8358165274281293
  0
ELLIPSE
  5
14A
330
1F
100
AcDbEntity
  8
0
  6
Continuous
 62
     7
370
    25
100
AcDbEllipse
 10
144.94024158335
 20
101.3337873020785
 30
0.0
 11
15.96982059847217
 21
5.686453118568818
 31
0.0
210
0.0
220
0.0
230
1.0
 40
0.5941072512000001
 41
5.308400889773986
 42
5.314017255314923
  0
ELLIPSE
  5
14B
330
1F
100
AcDbEntity
  8
0
  6
Continuous
 62
     7
370
    25
100
AcDbEllipse
 10
140.30624526265
 20
-50.88880719132149
 30
0.0
 11
9.466895071282758
 21
524.3410858178895
 31
0.0
210
0.0
220
0.0
230
1.0
 40
0.0274085477
 41
4.998274863495735
 42
5.001455365321706
  0
SPLINE
  5
14C
330
1F
100
AcDbEntity
  8
0
  6
Continuous
 62
     7
370
    25
100
AcDbSpline
210
0.0
220
0.0
230
1.0
 70
     8
 71
     3
 72
    13
 73
     9
 74
     0
 42
0.000000001
 43
0.00000001
 40
0.0
 40
0.0
 40
0.0
 40
0.0
 40
0.1959449027718003
 40
0.391868260813526
 40
0.5879595152145474
 40
0.7840463298884304
 40
0.9778273977845897
 40
1.0
 40
1.0
 40
1.0
 40
1.0
 10
157.9633496471956
 20
101.7963145441593
 30
0.0
 10
158.0758483630837
 20
101.9366547297007
 30
0.0
 10
158.3008334252888
 20
102.217319669959
 30
0.0
 10
158.6496146932013
 20
102.53433549095
 30
0.0
 10
158.9906398200806
 20
102.7636775972591
 30
0.0
 10
159.3099973315741
 20
102.8820805019205
 30
0.0
 10
159.5238623249336
 20
102.9185107469962
 30
0.0
 10
159.61959454974
 20
102.8872703566593
 30
0.0
 10
159.6294236604872
 20
102.8840628133579
 30
0.0
  0
ELLIPSE
  5
14D
330
1F
100
AcDbEntity
  8
0
  6
Continuous
 62
     7
370
    25
100
AcDbEllipse
 10
144.94253006355
 20
103.3904777801785
 30
0.0
 11
15.97672289992684
 21
5.391704038370293
 31
0.0
210
0.0
220
0.0
230
1.0
 40
0.5859894259
 41
5.708232414938082
 42
5.762249891919949
  0
SPLINE
  5
14E
330
1F
100
AcDbEntity
  8
0
  6
Continuous
 62
     7
370
    25
100
AcDbSpline
210
0.0
220
0.0
230
1.0
 70
     8
 71
     3
 72
     8
 73
     4
 74
     0
 42
0.000000001
 43
0.00000001
 40
0.0
 40
0.0
 40
0.0
 40
0.0
 40
1.0
 40
1.0
 40
1.0
 40
1.0
 10
160.3724524699408
 20
103.4075093856637
 30
0.0
 10
160.3971580402641
 20
103.3693949790786
 30
0.0
 10
160.420885194131
 20
103.3290683864665
 30
0.0
 10
160.4436977936197
 20
103.2865305113485
 30
0.0
  0
ELLIPSE
  5
14F
330
1F
100
AcDbEntity
  8
0
  6
Continuous
 62
     7
370
    25
100
AcDbEllipse
 10
144.4736999684499
 20
88.90674203627852
 30
0.0
 11
8.213951723533652
 21
62.55028531620979
 31
0.0
210
0.0
220
0.0
230
1.0
 40
0.2291249037
 41
4.965513554266312
 42
4.974327534816992
  0
SPLINE
  5
150
330
1F
100
AcDbEntity
  8
0
  6
Continuous
 62
     7
370
    25
100
AcDbSpline
210
0.0
220
0.0
230
1.0
 70
     8
 71
     3
 72
    13
 73
     9
 74
     0
 42
0.000000001
 43
0.00000001
 40
0.0
 40
0.0
 40
0.0
 40
0.0
 40
0.0834511548540526
 40
0.2770719632885017
 40
0.4706876311884837
 40
0.6578143809401156
 40
0.8449268109460359
 40
0.9999999999999999
 40
0.9999999999999999
 40
0.9999999999999999
 40
0.9999999999999999
 10
159.6115854471083
 20
102.8745869738741
 30
0.0
 10
159.5726542887617
 20
102.8830857462016
 30
0.0
 10
159.4433962515895
 20
102.9113031092619
 30
0.0
 10
159.1881460405102
 20
102.8441420415843
 30
0.0
 10
158.8610075890808
 20
102.6849314459325
 30
0.0
 10
158.5222305078944
 20
102.4222760752033
 30
0.0
 10
158.2032217307795
 20
102.1051534481204
 30
0.0
 10
158.0067732496697
 20
101.8418454243187
 30
0.0
 10
157.9177458599911
 20
101.7225183320037
 30
0.0
  0
LINE
  5
151
330
1F
100
AcDbEntity
  8
0
  6
Continuous
 62
     7
370
    25
100
AcDbLine
 10
156.78059941375
 20
98.29364721887852
 30
0.0
 11
156.7806286420499
 21
98.35235917517852
 31
0.0
  0
ELLIPSE
  5
152
330
1F
100
AcDbEntity
  8
0
  6
Continuous
 62
     7
370
    25
100
AcDbEllipse
 10
140.29726556375
 20
-51.45510571362148
 30
0.0
 11
9.482134423023902
 21
524.779566512926
 31
0.0
210
0.0
220
0.0
230
1.0
 40
0.0273880327
 41
4.983523415753504
 42
5.002261177117726
  0
ARC
  5
153
330
1F
100
AcDbEntity
  8
0
  6
Continuous
 62
     7
370
    25
100
AcDbCircle
 10
156.65758592325
 20
88.94482907537852
 30
0.0
 40
0.1047623838760889
100
AcDbArc
 50
284.2774226978934
 51
284.8437956722001
  0
ELLIPSE
  5
154
330
1F
100
AcDbEntity
  8
0
  6
Continuous
 62
     7
370
    25
100
AcDbEllipse
 10
140.30624526285
 20
-50.88880717852149
 30
0.0
 11
9.466895071163417
 21
524.3410857990414
 31
0.0
210
0.0
220
0.0
230
1.0
 40
0.0274085477
 41
4.982634196863869
 42
4.986185774743852
  0
SPLINE
  5
155
330
1F
100
AcDbEntity
  8
0
  6
Continuous
 62
     7
370
    25
100
AcDbSpline
210
0.0
220
0.0
230
1.0
 70
     8
 71
     3
 72
    12
 73
     8
 74
     0
 42
0.000000001
 43
0.00000001
 40
0.0
 40
0.0
 40
0.0
 40
0.0
 40
0.25
 40
0.25
 40
0.5
 40
0.5
 40
1.0
 40
1.0
 40
1.0
 40
1.0
 10
83.88889655836036
 20
173.6019316300689
 30
0.0
 10
83.58393026968156
 20
173.6350990216398
 30
0.0
 10
83.28130461488735
 20
173.6599311674529
 30
0.0
 10
82.68049654565985
 20
173.7021680615817
 30
0.0
 10
82.38282712606855
 20
173.7193422430646
 30
0.0
 10
81.49738802809006
 20
173.7658984167999
 30
0.0
 10
80.91715058673847
 20
173.7903783136292
 30
0.0
 10
80.34614565808386
 20
173.8193519562736
 30
0.0
  0
LINE
  5
156
330
1F
100
AcDbEntity
  8
0
  6
Continuous
 62
     7
370
    25
100
AcDbLine
 10
158.03379682915
 20
100.7153721538785
 30
0.0
 11
158.03298521005
 21
100.7192120291785
 31
0.0
  0
SPLINE
  5
157
330
1F
100
AcDbEntity
  8
0
  6
Continuous
 62
     7
370
    25
100
AcDbSpline
210
0.0
220
0.0
230
1.0
 70
     8
 71
     3
 72
     8
 73
     4
 74
     0
 42
0.000000001
 43
0.00000001
 40
0.0
 40
0.0
 40
0.0
 40
0.0
 40
1.0
 40
1.0
 40
1.0
 40
1.0
 10
158.0329852100254
 20
100.7192120291509
 30
0.0
 10
158.2037101960595
 20
101.0827247511029
 30
0.0
 10
158.401708750534
 20
101.4136926329329
 30
0.0
 10
158.61327060282
 20
101.7001666417824
 30
0.0
  0
ELLIPSE
  5
158
330
1F
100
AcDbEntity
  8
0
  6
Continuous
 62
     7
370
    25
100
AcDbEllipse
 10
145.07093462345
 20
103.4455744751785
 30
0.0
 11
17.03184649177459
 21
-3.674727764456321
 31
0.0
210
0.0
220
0.0
230
1.0
 40
0.1056541775
 41
0.6742760628049644
 42
0.6747254414745674
  0
SPLINE
  5
159
330
1F
100
AcDbEntity
  8
0
  6
Continuous
 62
     7
370
    25
100
AcDbSpline
210
0.0
220
0.0
230
1.0
 70
     8
 71
     3
 72
    20
 73
    16
 74
     0
 42
0.000000001
 43
0.00000001
 40
0.0
 40
0.0
 40
0.0
 40
0.0
 40
0.2499999999999999
 40
0.2499999999999999
 40
0.375
 40
0.375
 40
0.5000000000000001
 40
0.5000000000000001
 40
0.6250000000000001
 40
0.6250000000000001
 40
0.75
 40
0.75
 40
0.875
 40
0.875
 40
1.0
 40
1.0
 40
1.0
 40
1.0
 10
158.6179141604578
 20
101.6985037936847
 30
0.0
 10
158.8007184783781
 20
101.9446243881244
 30
0.0
 10
158.9882963261764
 20
102.15151406905
 30
0.0
 10
159.2726361854895
 20
102.4047729083474
 30
0.0
 10
159.3683093552692
 20
102.4796230859527
 30
0.0
 10
159.5544623315575
 20
102.6051488086414
 30
0.0
 10
159.6456582755083
 20
102.6565450876198
 30
0.0
 10
159.8241853871559
 20
102.7367859140188
 30
0.0
 10
159.9119769680514
 20
102.7657153835763
 30
0.0
 10
160.0815380026505
 20
102.7994832965324
 30
0.0
 10
160.1623488515036
 20
102.804263664143
 30
0.0
 10
160.3167028333414
 20
102.7904168740224
 30
0.0
 10
160.3902438776068
 20
102.7717886190187
 30
0.0
 10
160.5305343398783
 20
102.7105244885161
 30
0.0
 10
160.597069394303
 20
102.6678257294817
 30
0.0
 10
160.6592114471665
 20
102.6135923330178
 30
0.0
  0
ELLIPSE
  5
15A
330
1F
100
AcDbEntity
  8
0
  6
Continuous
 62
     7
370
    25
100
AcDbEllipse
 10
144.93963946055
 20
103.3867164638785
 30
0.0
 11
16.71261368925644
 21
5.64004691603553
 31
0.0
210
0.0
220
0.0
230
1.0
 40
0.5859894259
 41
5.692210234543644
 42
5.692659613213253
  0
SPLINE
  5
15B
330
1F
100
AcDbEntity
  8
0
  6
Continuous
 62
     7
370
    25
100
AcDbSpline
210
0.0
220
0.0
230
1.0
 70
     8
 71
     3
 72
    10
 73
     6
 74
     0
 42
0.000000001
 43
0.00000001
 40
0.0
 40
0.0
 40
0.0
 40
0.0
 40
0.5
 40
0.5
 40
1.0
 40
1.0
 40
1.0
 40
1.0
 10
160.6621610698813
 20
102.6186591107455
 30
0.0
 10
160.7335603711905
 20
102.5554103812278
 30
0.0
 10
160.7996538131942
 20
102.4764878229035
 30
0.0
 10
160.9207741442508
 20
102.2881262129326
 30
0.0
 10
160.9747814076649
 20
102.1804944929712
 30
0.0
 10
161.0232753582045
 20
102.0597224299125
 30
0.0
  0
LINE
  5
15C
330
1F
100
AcDbEntity
  8
0
  6
Continuous
 62
     7
370
    25
100
AcDbLine
 10
161.02294534075
 20
102.0553707728785
 30
0.0
 11
161.0232753582499
 21
102.0597224298785
 31
0.0
  0
SPLINE
  5
15D
330
1F
100
AcDbEntity
  8
0
  6
Continuous
 62
     7
370
    25
100
AcDbSpline
210
0.0
220
0.0
230
1.0
 70
     8
 71
     3
 72
    10
 73
     6
 74
     0
 42
0.000000001
 43
0.00000001
 40
0.0
 40
0.0
 40
0.0
 40
0.0
 40
0.5
 40
0.5
 40
1.0
 40
1.0
 40
1.0
 40
1.0
 10
161.0229453407309
 20
102.0553707729265
 30
0.0
 10
161.1251010892303
 20
101.8020929693156
 30
0.0
 10
161.2005622255727
 20
101.4988396864434
 30
0.0
 10
161.3108730980352
 20
100.7886229376395
 30
0.0
 10
161.3427732983474
 20
100.4010068984876
 30
0.0
 10
161.354162867139
 20
99.98099049272577
 30
0.0
  0
LINE
  5
15E
330
1F
100
AcDbEntity
  8
0
  6
Continuous
 62
     7
370
    25
100
AcDbLine
 10
161.35475496365
 20
99.95915506597852
 30
0.0
 11
161.35416286715
 21
99.98099049277852
 31
0.0
  0
SPLINE
  5
15F
330
1F
100
AcDbEntity
  8
0
  6
Continuous
 62
     7
370
    25
100
AcDbSpline
210
0.0
220
0.0
230
1.0
 70
     8
 71
     3
 72
     8
 73
     4
 74
     0
 42
0.000000001
 43
0.00000001
 40
0.0
 40
0.0
 40
0.0
 40
0.0
 40
1.0
 40
1.0
 40
1.0
 40
1.0
 10
161.3547549636152
 20
99.95915506599867
 30
0.0
 10
161.3552365537559
 20
99.93995999747456
 30
0.0
 10
161.3556730756024
 20
99.92071019640645
 30
0.0
 10
161.3560643689887
 20
99.90140543226572
 30
0.0
  0
ELLIPSE
  5
160
330
1F
100
AcDbEntity
  8
0
  6
Continuous
 62
     7
370
    25
100
AcDbEllipse
 10
149.94794354295
 20
-60.51626550612148
 30
0.0
 11
-10.0791238952915
 21
543.1286580433859
 31
0.0
210
0.0
220
0.0
230
1.0
 40
0.0277084238
 41
4.993920608080722
 42
5.011705487508196
  0
ARC
  5
161
330
1F
100
AcDbEntity
  8
0
  6
Continuous
 62
     7
370
    25
100
AcDbCircle
 10
155.22342295345
 20
99.19054900807852
 30
0.0
 40
10.6626904653356
100
AcDbArc
 50
281.5336092397
 51
306.7586076628999
  0
ELLIPSE
  5
162
330
1F
100
AcDbEntity
  8
0
  6
Continuous
 62
     7
370
    25
100
AcDbEllipse
 10
140.05205548605
 20
-64.95247076022149
 30
0.0
 11
9.975996840729133
 21
552.1119047732933
 31
0.0
210
0.0
220
0.0
230
1.0
 40
0.0273880327
 41
4.994988429100804
 42
5.012882079678785
  0
LINE
  5
163
330
1F
100
AcDbEntity
  8
0
  6
Continuous
 62
     7
370
    25
100
AcDbLine
 10
157.44854839805
 20
98.20684013457851
 30
0.0
 11
157.44856520935
 21
98.26099303457852
 31
0.0
  0
SPLINE
  5
164
330
1F
100
AcDbEntity
  8
0
  6
Continuous
 62
     7
370
    25
100
AcDbSpline
210
0.0
220
0.0
230
1.0
 70
     8
 71
     3
 72
    10
 73
     6
 74
     0
 42
0.000000001
 43
0.00000001
 40
0.0
 40
0.0
 40
0.0
 40
0.0
 40
0.5
 40
0.5
 40
1.0
 40
1.0
 40
1.0
 40
1.0
 10
157.4485652099771
 20
98.2609950353133
 30
0.0
 10
157.4550753415106
 20
98.68274722135978
 30
0.0
 10
157.5110277187848
 20
99.10440167653782
 30
0.0
 10
157.7149810269925
 20
99.94439416638119
 30
0.0
 10
157.8573600619725
 20
100.3408246778477
 30
0.0
 10
158.0337968291201
 20
100.7153721538377
 30
0.0
  0
LINE
  5
165
330
1F
100
AcDbEntity
  8
0
  6
Continuous
 62
     7
370
    25
100
AcDbLine
 10
160.64950442735
 20
102.6203770903785
 30
0.0
 11
160.6621612165499
 21
102.6186590507785
 31
0.0
  0
LINE
  5
166
330
1F
100
AcDbEntity
  8
0
  6
Continuous
 62
     7
370
    25
100
AcDbLine
 10
158.61327064445
 20
101.7001665347785
 30
0.0
 11
158.21934185015
 21
101.7580618224785
 31
0.0
  0
LINE
  5
167
330
1F
100
AcDbEntity
  8
0
  6
Continuous
 62
     7
370
    25
100
AcDbLine
 10
157.7577338556499
 20
100.7566244103785
 30
0.0
 11
158.03298347515
 21
100.7192127429785
 31
0.0
  0
SPLINE
  5
168
330
1F
100
AcDbEntity
  8
0
  6
Continuous
 62
     7
370
    25
100
AcDbSpline
210
0.0
220
0.0
230
1.0
 70
     8
 71
     3
 72
    10
 73
     6
 74
     0
 42
0.000000001
 43
0.00000001
 40
0.0
 40
0.0
 40
0.0
 40
0.0
 40
0.5
 40
0.5
 40
1.0
 40
1.0
 40
1.0
 40
1.0
 10
157.7577370119594
 20
100.7566235639906
 30
0.0
 10
157.6241444167763
 20
100.3759991015584
 30
0.0
 10
157.5193153484023
 20
99.96584573507974
 30
0.0
 10
157.3756605105705
 20
99.11990008064662
 30
0.0
 10
157.3384295063126
 20
98.698692417853
 30
0.0
 10
157.335458078191
 20
98.28025318044541
 30
0.0
  0
LINE
  5
169
330
1F
100
AcDbEntity
  8
0
  6
Continuous
 62
     7
370
    25
100
AcDbLine
 10
156.7806285720499
 20
98.35235889147852
 30
0.0
 11
157.33545686135
 21
98.28025357797851
 31
0.0
  0
LWPOLYLINE
  5
16A
330
1F
100
AcDbEntity
  8
0
  6
Continuous
 62
     0
370
    25
100
AcDbPolyline
 90
       29
 70
   128
 43
0.0
 10
74.68438815854995
 20
195.1345217554785
 10
74.93514016374996
 20
195.0126128770785
 10
75.57956049564996
 20
194.7389141605785
 10
76.30763555414995
 20
194.4796462679785
 10
77.11456645244996
 20
194.2365179960785
 10
77.99503579074997
 20
194.0111316441785
 10
78.94324074934997
 20
193.8049727806785
 10
79.95293185094997
 20
193.6193997189785
 10
81.01745527054996
 20
193.4556358039785
 10
82.12979481974995
 20
193.3147600758785
 10
83.28261967074997
 20
193.1977009745785
 10
84.46833254464997
 20
193.1052302520785
 10
85.67911899624997
 20
193.0379569992785
 10
86.90699870724995
 20
192.9963247133785
 10
88.14388105174996
 20
192.9806080041785
 10
89.38161226884995
 20
192.9909099992785
 10
90.61203658684997
 20
193.0271632295785
 10
91.82704477904997
 20
193.0891284972785
 10
93.01862815334997
 20
193.1763973849785
 10
94.17893595534997
 20
193.2883950896785
 10
95.30031896494995
 20
193.4243830929785
 10
96.37538770994996
 20
193.5834654925785
 10
97.39705713494996
 20
193.7645935994785
 10
98.35859409804996
 20
193.9665737319785
 10
99.25366059294996
 20
194.1880750213785
 10
100.0763585923499
 20
194.4276374626785
 10
100.82126597885
 20
194.6836822365785
 10
101.48347328105
 20
194.9545219112785
 10
101.68502950295
 20
195.0477686576785
  0
LINE
  5
16D
330
1F
100
AcDbEntity
  8
0
  6
Continuous
 62
     7
370
    25
100
AcDbLine
 10
161.04258891525
 20
103.3271963646785
 30
0.0
 11
159.71895811075
 21
103.5249855168785
 31
0.0
  0
ELLIPSE
  5
16E
330
1F
100
AcDbEntity
  8
0
  6
Continuous
 62
     7
370
    25
100
AcDbEllipse
 10
-8460.04374001715
 20
1386.969237128879
 30
0.0
 11
8619.389104694032
 21
-1289.071891546936
 31
0.0
210
0.0
220
0.0
230
1.0
 40
0.0004312866
 41
0.0210441149669946
 42
0.0216605890667659
  0
LINE
  5
16F
330
1F
100
AcDbEntity
  8
0
  6
Continuous
 62
     7
370
    25
100
AcDbLine
 10
158.03379945035
 20
100.7153721368785
 30
0.0
 11
157.7577338556499
 21
100.7566244103785
 31
0.0
  0
LINE
  5
172
330
1F
100
AcDbEntity
  8
0
  6
Continuous
 62
     0
370
    25
100
AcDbLine
 10
72.59944666894995
 20
197.9257770605785
 30
0.0
 11
73.16925226743473
 21
197.8406314399942
 31
0.0
  0
LINE
  5
173
330
1F
100
AcDbEntity
  8
0
  6
Continuous
 62
     0
370
    25
100
AcDbLine
 10
73.22444653854996
 20
198.2059568371785
 30
0.0
 11
72.59944666894995
 21
197.9257770605785
 31
0.0
  0
LINE
  5
174
330
1F
100
AcDbEntity
  8
0
  6
Continuous
 62
     0
370
    25
100
AcDbLine
 10
73.22444653854996
 20
198.2059568371785
 30
0.0
 11
73.29828858296321
 21
198.1949226761984
 31
0.0
  0
LINE
  5
178
330
1F
100
AcDbEntity
  8
0
  6
Continuous
 62
     7
370
    25
100
AcDbLine
 10
156.76410561165
 20
96.73036264847852
 30
0.0
 11
156.70146578945
 21
96.73972286987852
 31
0.0
  0
LINE
  5
179
330
1F
100
AcDbEntity
  8
0
  6
Continuous
 62
     7
370
    25
100
AcDbLine
 10
156.69288524915
 20
95.99113473827852
 30
0.0
 11
156.69552334625
 21
95.99073907317852
 31
0.0
  0
LINE
  5
17A
330
1F
100
AcDbEntity
  8
0
  6
Continuous
 62
     7
370
    25
100
AcDbLine
 10
157.35535024455
 20
88.74316397707852
 30
0.0
 11
156.68442444335
 21
88.84356283767852
 31
0.0
  0
LINE
  5
17B
330
1F
100
AcDbEntity
  8
0
  6
Continuous
 62
     7
370
    25
100
AcDbLine
 10
156.78060098025
 20
98.29364656647851
 30
0.0
 11
157.44854615495
 21
98.20684047487852
 31
0.0
  0
LINE
  5
17C
330
1F
100
AcDbEntity
  8
0
  6
Continuous
 62
     7
370
    25
100
AcDbLine
 10
156.75188041455
 20
95.51233647237852
 30
0.0
 11
156.68749199405
 21
95.52195798537852
 31
0.0
  0
LINE
  5
17D
330
1F
100
AcDbEntity
  8
0
  6
Continuous
 62
     7
370
    25
100
AcDbLine
 10
156.69262574935
 20
95.74383438077852
 30
0.0
 11
156.69004572375
 21
95.74421956907851
 31
0.0
  0
LINE
  5
17E
330
1F
100
AcDbEntity
  8
0
  6
Continuous
 62
     7
370
    25
100
AcDbLine
 10
156.71466571295
 20
91.85528762567851
 30
0.0
 11
156.64503795005
 21
91.86569204967851
 31
0.0
  0
LINE
  5
17F
330
1F
100
AcDbEntity
  8
0
  6
Continuous
 62
     7
370
    25
100
AcDbLine
 10
156.6362411457499
 20
91.11595638807852
 30
0.0
 11
156.63770537315
 21
91.11573686157851
 31
0.0
  0
LINE
  5
180
330
1F
100
AcDbEntity
  8
0
  6
Continuous
 62
     7
370
    25
100
AcDbLine
 10
156.70209853905
 20
90.63731210107852
 30
0.0
 11
156.63073508275
 21
90.64797588847851
 31
0.0
  0
LINE
  5
181
330
1F
100
AcDbEntity
  8
0
  6
Continuous
 62
     7
370
    25
100
AcDbLine
 10
156.63475828715
 20
90.87036802277852
 30
0.0
 11
156.63335213135
 21
90.87057797207852
 31
0.0
  0
LINE
  5
182
330
1F
100
AcDbEntity
  8
0
  6
Continuous
 62
     7
370
    25
100
AcDbLine
 10
156.68342212425
 20
88.84330248877852
 30
0.0
 11
156.1910981569499
 21
88.91687008767852
 31
0.0
  0
ARC
  5
183
330
1F
100
AcDbEntity
  8
0
  6
Continuous
 62
     7
370
    25
100
AcDbCircle
 10
83.43300669924997
 20
173.8630584918785
 30
0.0
 40
0.5253796599358938
100
AcDbArc
 50
330.1964115821008
 51
4.190225006998802
  0
LINE
  5
184
330
1F
100
AcDbEntity
  8
0
  6
Continuous
 62
     7
370
    25
100
AcDbLine
 10
161.03703134905
 20
103.3159213352785
 30
0.0
 11
160.37244998255
 21
103.4075093848785
 31
0.0
  0
LINE
  5
185
330
1F
100
AcDbEntity
  8
0
  6
Continuous
 62
     7
370
    25
100
AcDbLine
 10
160.4436989984499
 20
103.2865303640785
 30
0.0
 11
161.10716984925
 21
103.1986099125785
 31
0.0
  0
LINE
  5
186
330
1F
100
AcDbEntity
  8
0
  6
Continuous
 62
     7
370
    25
100
AcDbLine
 10
112.39800805875
 20
101.4365973006785
 30
0.0
 11
112.23487384315
 21
101.4609743233785
 31
0.0
  0
LINE
  5
187
330
1F
100
AcDbEntity
  8
0
  6
Continuous
 62
     7
370
    25
100
AcDbLine
 10
104.75516739605
 20
102.5786612132785
 30
0.0
 11
104.60056485585
 21
102.6017633541785
 31
0.0
  0
LWPOLYLINE
  5
188
330
1F
100
AcDbEntity
  8
0
  6
Continuous
 62
     7
370
    25
100
AcDbPolyline
 90
        3
 70
   128
 43
0.0
 10
128.77090504785
 20
176.2216784787785
 10
128.7950235085499
 20
176.2279565627785
 10
128.8078524770499
 20
176.2274536925785
  0
LINE
  5
189
330
1F
100
AcDbEntity
  8
0
  6
Continuous
 62
     7
370
    25
100
AcDbLine
 10
161.40697465965
 20
98.01975134127852
 30
0.0
 11
161.67916150705
 21
97.97923720647852
 31
0.0
  0
LINE
  5
18A
330
1F
100
AcDbEntity
  8
0
  6
Continuous
 62
     7
370
    25
100
AcDbLine
 10
161.67302480935
 20
98.22209193547852
 30
0.0
 11
161.4004086115499
 21
98.26285705377852
 31
0.0
  0
LINE
  5
18B
330
1F
100
AcDbEntity
  8
0
  6
Continuous
 62
     7
370
    25
100
AcDbLine
 10
161.53577629465
 20
93.22498310497852
 30
0.0
 11
161.79961717225
 21
93.18571091957851
 31
0.0
  0
LINE
  5
18C
330
1F
100
AcDbEntity
  8
0
  6
Continuous
 62
     7
370
    25
100
AcDbLine
 10
161.79358584295
 20
93.42705484487851
 30
0.0
 11
161.52932206735
 21
93.46657097747851
 31
0.0
  0
LINE
  5
18D
330
1F
100
AcDbEntity
  8
0
  6
Continuous
 62
     7
370
    25
100
AcDbLine
 10
161.57095022735
 20
91.90706765247852
 30
0.0
 11
161.83282055955
 21
91.86793656637852
 31
0.0
  0
LINE
  5
18E
330
1F
100
AcDbEntity
  8
0
  6
Continuous
 62
     7
370
    25
100
AcDbLine
 10
162.05011654075
 20
91.17956240337851
 30
0.0
 11
161.5884866025499
 21
91.24854341667852
 31
0.0
  0
LINE
  5
18F
330
1F
100
AcDbEntity
  8
0
  6
Continuous
 62
     7
370
    25
100
AcDbLine
 10
103.50102750075
 20
93.87730100417852
 30
0.0
 11
104.25114171065
 21
94.21356800517852
 31
0.0
  0
LINE
  5
190
330
1F
100
AcDbEntity
  8
0
  6
Continuous
 62
     7
370
    25
100
AcDbLine
 10
104.25114171065
 20
94.21356800517852
 30
0.0
 11
104.25153966945
 21
94.22577668827851
 31
0.0
  0
LINE
  5
191
330
1F
100
AcDbEntity
  8
0
  6
Continuous
 62
     7
370
    25
100
AcDbLine
 10
103.35376622225
 20
93.37685122727852
 30
0.0
 11
102.60365201225
 21
93.04058422627851
 31
0.0
  0
LINE
  5
192
330
1F
100
AcDbEntity
  8
0
  6
Continuous
 62
     7
370
    25
100
AcDbLine
 10
104.25114171065
 20
94.21356800517852
 30
0.0
 11
103.35376622225
 21
93.37685122727852
 31
0.0
  0
LINE
  5
193
330
1F
100
AcDbEntity
  8
0
  6
Continuous
 62
     7
370
    25
100
AcDbLine
 10
129.5187421740499
 20
176.5569246910785
 30
0.0
 11
129.52270029505
 21
176.1206354388785
 31
0.0
  0
LWPOLYLINE
  5
194
330
1F
100
AcDbEntity
  8
0
  6
Continuous
 62
     7
370
    25
100
AcDbPolyline
 90
        3
 70
   128
 43
0.0
 10
121.19318192595
 20
177.3540119264785
 10
121.21730038665
 20
177.3602900104785
 10
121.23012935505
 20
177.3597871402785
  0
LINE
  5
195
330
1F
100
AcDbEntity
  8
0
  6
Continuous
 62
     0
370
    25
100
AcDbLine
 10
71.40354096554995
 20
190.8600363622785
 30
0.0
 11
72.65961441844996
 21
190.6723422540785
 31
0.0
  0
LINE
  5
196
330
1F
100
AcDbEntity
  8
0
  6
Continuous
 62
     0
370
    25
100
AcDbLine
 10
71.47912912554995
 20
195.6787400349785
 30
0.0
 11
71.40354096554995
 21
190.8600363622785
 31
0.0
  0
LINE
  5
197
330
1F
100
AcDbEntity
  8
0
  6
Continuous
 62
     0
370
    25
100
AcDbLine
 10
72.59944666894995
 20
197.9257770605785
 30
0.0
 11
71.47912912554995
 21
195.6787400349785
 31
0.0
  0
LINE
  5
198
330
1F
100
AcDbEntity
  8
0
  6
Continuous
 62
     7
370
    25
100
AcDbLine
 10
121.94101905215
 20
177.6892581387785
 30
0.0
 11
121.94497717315
 21
177.2529688865785
 31
0.0
  0
ARC
  5
19A
330
1F
100
AcDbEntity
  8
0
  6
Continuous
 62
     8
370
    25
100
AcDbCircle
 10
159.54580237555
 20
168.9392527614785
 30
0.0
 40
1.312932294254586
100
AcDbArc
 50
322.9439510570001
 51
358.9194360282
  0
LWPOLYLINE
  5
19B
330
1F
100
AcDbEntity
  8
0
  6
Continuous
 62
     8
370
    25
100
AcDbPolyline
 90
       13
 70
   128
 43
0.0
 10
160.19409196315
 20
168.2077819248785
 10
160.43080372265
 20
168.5244575322785
 10
160.5691051969499
 20
168.8450137007785
 10
160.60813612845
 20
169.1674025480785
 10
160.54762576305
 20
169.4895704893785
 10
160.3879756011499
 20
169.8094606239785
 10
160.13019989715
 20
170.1250323420785
 10
159.77593673655
 20
170.4342740037785
 10
159.32745741555
 20
170.7352110006785
 10
158.78760810445
 20
171.0259258848785
 10
158.15984457205
 20
171.3045623654785
 10
157.44816919225
 20
171.5693433490785
 10
156.78807935715
 20
171.7800344227785
  0
LWPOLYLINE
  5
19C
330
1F
100
AcDbEntity
  8
0
  6
Continuous
 62
     8
370
    25
100
AcDbPolyline
 90
       12
 70
   128
 43
0.0
 10
104.10866607145
 20
178.3542881561785
 10
104.16718689115
 20
178.2654136787785
 10
104.31893674745
 20
177.9337960790785
 10
104.36757027735
 20
177.6000979787785
 10
104.31277262285
 20
177.2664638101785
 10
104.15489730585
 20
176.9350377733785
 10
103.8949591678499
 20
176.6079495832785
 10
103.53462767505
 20
176.2873013443785
 10
103.07622009045
 20
175.9751534017785
 10
102.52268038145
 20
175.6735119932785
 10
101.87756668005
 20
175.3843154325785
 10
101.41530307925
 20
175.2054418553785
  0
LINE
  5
19D
330
1F
100
AcDbEntity
  8
0
  6
Continuous
 62
     8
370
    25
100
AcDbLine
 10
120.11064959045
 20
177.5157739164785
 30
0.0
 11
104.08053159555
 21
179.9111423514785
 31
0.0
  0
LINE
  5
19E
330
1F
100
AcDbEntity
  8
0
  6
Continuous
 62
     8
370
    25
100
AcDbLine
 10
103.98528766475
 20
170.2869700294785
 30
0.0
 11
80.34614599384997
 21
173.8193491303785
 31
0.0
  0
SPLINE
  5
19F
330
1F
100
AcDbEntity
  8
0
  6
Continuous
 62
     8
370
    25
100
AcDbSpline
210
0.0
220
0.0
230
1.0
 70
     8
 71
     3
 72
    11
 73
     7
 74
     0
 42
0.000000001
 43
0.00000001
 40
0.0
 40
0.0
 40
0.0
 40
0.0
 40
0.0000051150065523
 40
0.4334008196256425
 40
0.7262203864371622
 40
1.0
 40
1.0
 40
1.0
 40
1.0
 10
160.1298243215677
 20
167.6064577208351
 30
0.0
 10
160.1298194321143
 20
167.6064555289588
 30
0.0
 10
159.7155300121635
 20
167.4207351421344
 30
0.0
 10
159.3768232823818
 20
167.0647592397817
 30
0.0
 10
158.3668306500599
 20
166.6409412699535
 30
0.0
 10
157.7132638932684
 20
166.417495710949
 30
0.0
 10
157.3974617172157
 20
166.309527254736
 30
0.0
  0
LINE
  5
1A0
330
1F
100
AcDbEntity
  8
0
  6
Continuous
 62
     8
370
    25
100
AcDbLine
 10
111.56300917355
 20
169.1546368228785
 30
0.0
 11
105.46477438645
 21
170.0658914451785
 31
0.0
  0
LWPOLYLINE
  5
1A2
330
1F
100
AcDbEntity
  8
0
  6
Continuous
 62
     8
370
    25
100
AcDbPolyline
 90
       25
 70
   128
 43
0.0
 10
83.95698199714997
 20
173.9014469583785
 10
85.19202930944996
 20
173.8246519248785
 10
86.44687521764996
 20
173.7737078842785
 10
87.71345513064995
 20
173.7489423361785
 10
88.98363034274996
 20
173.7505143299785
 10
90.24923711754997
 20
173.7784138103785
 10
91.50214334214996
 20
173.8324612226785
 10
92.73429655964995
 20
173.9123095210785
 10
93.93777938424995
 20
174.0174456292785
 10
95.10485784614997
 20
174.1471937929785
 10
96.22803125644995
 20
174.3007200972785
 10
97.30008128354996
 20
174.4770380752785
 10
98.31412045524996
 20
174.6750145427785
 10
99.26363006774997
 20
174.8933774319785
 10
100.14251021795
 20
175.1307232761785
 10
100.94511121835
 20
175.3855269538785
 10
101.66627747675
 20
175.6561507533785
 10
102.3013721846499
 20
175.9408559220785
 10
102.84631393705
 20
176.2378128164785
 10
103.29760315955
 20
176.5451127480785
 10
103.65233775775
 20
176.8607812665785
 10
103.90823941925
 20
177.1827894684785
 10
104.06366200445
 20
177.5090683644785
 10
104.1176084440499
 20
177.8375207933785
 10
104.11748041655
 20
177.8665058299785
  0
SPLINE
  5
1A3
330
1F
100
AcDbEntity
  8
0
  6
Continuous
 62
     8
370
    25
100
AcDbSpline
210
0.0
220
0.0
230
1.0
 70
     8
 71
     3
 72
    13
 73
     9
 74
     0
 42
0.000000001
 43
0.00000001
 40
0.0
 40
0.0
 40
0.0
 40
0.0
 40
0.1978548438734195
 40
0.3957085222847867
 40
0.5935559573124991
 40
0.7971410188880559
 40
0.9949877092907431
 40
0.9999999999999999
 40
0.9999999999999999
 40
0.9999999999999999
 40
0.9999999999999999
 10
158.2193418501759
 20
101.7580618224495
 30
0.0
 10
158.3128448446488
 20
101.9016452306849
 30
0.0
 10
158.4998502828161
 20
102.188811201379
 30
0.0
 10
158.8099274355341
 20
102.5100020083105
 30
0.0
 10
159.1347797779473
 20
102.7452755781282
 30
0.0
 10
159.4626539388096
 20
102.8597608894524
 30
0.0
 10
159.6867101621901
 20
102.8966547950247
 30
0.0
 10
159.7911849519722
 20
102.8644818963718
 30
0.0
 10
159.7937663413458
 20
102.8636869603028
 30
0.0
  0
LWPOLYLINE
  5
1A4
330
1F
100
AcDbEntity
  8
0
  6
Continuous
 62
     0
370
    25
100
AcDbPolyline
 90
        9
 70
   128
 43
0.0
 10
73.16136732438807
 20
197.4589443864701
 10
73.04757608234996
 20
197.1721669277785
 10
73.02140512044997
 20
196.8517244278785
 10
73.09574794244995
 20
196.5317883763785
 10
73.27011406484996
 20
196.2144673807785
 10
73.54335575614996
 20
195.9018526129785
 10
73.91367185234995
 20
195.5960045750785
 10
74.37862148384997
 20
195.2989385228785
 10
74.68438815854995
 20
195.1345217554785
  0
LWPOLYLINE
  5
1A5
330
1F
100
AcDbEntity
  8
0
  6
Continuous
 62
     0
370
    25
100
AcDbPolyline
 90
       10
 70
   128
 43
0.0
 10
101.68502950295
 20
195.0477686576785
 10
102.05861684405
 20
195.2383714547785
 10
102.54290566245
 20
195.5333602646785
 10
102.93314821435
 20
195.8375441970785
 10
103.22677272645
 20
196.1489185080785
 10
103.4218429404499
 20
196.4654311885785
 10
103.51707468585
 20
196.7849961787785
 10
103.51184039675
 20
197.1055074454785
 10
103.4061736195499
 20
197.4248525724785
 10
103.3707293387048
 20
197.4793945264112
  0
LINE
  5
1A6
330
1F
100
AcDbEntity
  8
0
  6
Continuous
 62
     8
370
    25
100
AcDbLine
 10
161.62204966035
 20
100.2737629748785
 30
0.0
 11
161.33580864335
 21
100.3165357539785
 31
0.0
  0
LINE
  5
1A7
330
1F
100
AcDbEntity
  8
0
  6
Continuous
 62
     8
370
    25
100
AcDbLine
 10
103.7717138078499
 20
102.2187602968785
 30
0.0
 11
104.14677137855
 21
102.3868940061785
 31
0.0
  0
POLYLINE
  5
456
330
1F
100
AcDbEntity
  8
レイヤー 1
 62
     0
370
     0
100
AcDb2dPolyline
 66
     1
 10
0.0
 20
0.0
 30
0.0
  0
VERTEX
  5
457
330
456
100
AcDbEntity
  8
レイヤー 1
 62
     0
370
     0
100
AcDbVertex
100
AcDb2dVertex
 10
86.89078082585365
 20
199.8405835270683
 30
0.0
  0
VERTEX
  5
458
330
456
100
AcDbEntity
  8
レイヤー 1
 62
     0
370
     0
100
AcDbVertex
100
AcDb2dVertex
 10
81.75541814267564
 20
197.6034203399648
 30
0.0
  0
SEQEND
  5
459
330
456
100
AcDbEntity
  8
レイヤー 1
 62
     0
370
     0
  0
POLYLINE
  5
45A
330
1F
100
AcDbEntity
  8
レイヤー 1
 62
     0
370
     0
100
AcDb2dPolyline
 66
     1
 10
0.0
 20
0.0
 30
0.0
  0
VERTEX
  5
45B
330
45A
100
AcDbEntity
  8
レイヤー 1
 62
     0
370
     0
100
AcDbVertex
100
AcDb2dVertex
 10
88.1720462877729
 20
199.8405835270683
 30
0.0
  0
VERTEX
  5
45C
330
45A
100
AcDbEntity
  8
レイヤー 1
 62
     0
370
     0
100
AcDbVertex
100
AcDb2dVertex
 10
83.03648551160455
 20
197.6034203399648
 30
0.0
  0
SEQEND
  5
45D
330
45A
100
AcDbEntity
  8
レイヤー 1
 62
     0
370
     0
  0
POLYLINE
  5
45E
330
1F
100
AcDbEntity
  8
レイヤー 1
 62
     0
370
     0
100
AcDb2dPolyline
 66
     1
 10
0.0
 20
0.0
 30
0.0
  0
VERTEX
  5
45F
330
45E
100
AcDbEntity
  8
レイヤー 1
 62
     0
370
     0
100
AcDbVertex
100
AcDb2dVertex
 10
89.61891748966815
 20
199.8405835270683
 30
0.0
  0
VERTEX
  5
460
330
45E
100
AcDbEntity
  8
レイヤー 1
 62
     0
370
     0
100
AcDbVertex
100
AcDb2dVertex
 10
84.48414908546141
 20
197.6034203399648
 30
0.0
  0
SEQEND
  5
461
330
45E
100
AcDbEntity
  8
レイヤー 1
 62
     0
370
     0
  0
SPLINE
  5
462
330
1F
100
AcDbEntity
  8
レイヤー 1
 62
     0
370
    18
100
AcDbSpline
210
0.0
220
0.0
230
1.0
 70
    11
 71
     3
 72
    17
 73
    13
 74
     0
 42
0.000000001
 43
0.0000000001
 40
0.0
 40
0.0
 40
0.0
 40
0.0
 40
1.0
 40
1.0
 40
1.0
 40
2.0
 40
2.0
 40
2.0
 40
3.0
 40
3.0
 40
3.0
 40
4.0
 40
4.0
 40
4.0
 40
4.0
 10
99.51018820375896
 20
197.2277458105459
 30
0.0
 10
99.51018820375896
 20
197.458028911888
 30
0.0
 10
98.86896119382806
 20
197.6452267878178
 30
0.0
 10
98.07738160418228
 20
197.6452267878178
 30
0.0
 10
97.28619820051716
 20
197.6452267878178
 30
0.0
 10
96.6451692835767
 20
197.458028911888
 30
0.0
 10
96.6451692835767
 20
197.2277458105459
 30
0.0
 10
96.6451692835767
 20
196.9969674767277
 30
0.0
 10
97.28619820051716
 20
196.8105619727595
 30
0.0
 10
98.07738160418228
 20
196.8105619727595
 30
0.0
 10
98.86896119382806
 20
196.8105619727595
 30
0.0
 10
99.51018820375896
 20
196.9969674767277
 30
0.0
 10
99.51018820375896
 20
197.2277458105459
 30
0.0
  0
SPLINE
  5
463
330
1F
100
AcDbEntity
  8
レイヤー 1
 62
     0
370
     9
100
AcDbSpline
210
0.0
220
0.0
230
1.0
 70
     8
 71
     3
 72
    11
 73
     7
 74
     0
 42
0.000000001
 43
0.0000000001
 40
0.0
 40
0.0
 40
0.0
 40
0.0
 40
1.0
 40
1.0
 40
1.0
 40
2.0
 40
2.0
 40
2.0
 40
2.0
 10
99.39687901324908
 20
197.1443486615866
 30
0.0
 10
99.18016528174945
 20
197.2937107763497
 30
0.0
 10
98.67126438940704
 20
197.398898154253
 30
0.0
 10
98.07738160418228
 20
197.398898154253
 30
0.0
 10
97.48429119091907
 20
197.398898154253
 30
0.0
 10
96.97519220558627
 20
197.2937107763497
 30
0.0
 10
96.75788419511542
 20
197.1443486615866
 30
0.0
  0
SPLINE
  5
464
330
1F
100
AcDbEntity
  8
レイヤー 1
 62
     0
370
    18
100
AcDbSpline
210
0.0
220
0.0
230
1.0
 70
    11
 71
     3
 72
    17
 73
    13
 74
     0
 42
0.000000001
 43
0.0000000001
 40
0.0
 40
0.0
 40
0.0
 40
0.0
 40
1.0
 40
1.0
 40
1.0
 40
2.0
 40
2.0
 40
2.0
 40
3.0
 40
3.0
 40
3.0
 40
4.0
 40
4.0
 40
4.0
 40
4.0
 10
80.6753371969541
 20
200.0410191071232
 30
0.0
 10
80.6753371969541
 20
200.2713022084654
 30
0.0
 10
80.03450637300409
 20
200.4585000843952
 30
0.0
 10
79.24272869036781
 20
200.4585000843952
 30
0.0
 10
78.45154528670275
 20
200.4585000843952
 30
0.0
 10
77.81071446275268
 20
200.2713022084654
 30
0.0
 10
77.81071446275268
 20
200.0410191071232
 30
0.0
 10
77.81071446275268
 20
199.8102407733051
 30
0.0
 10
78.45154528670275
 20
199.6238352693369
 30
0.0
 10
79.24272869036781
 20
199.6238352693369
 30
0.0
 10
80.03450637300409
 20
199.6238352693369
 30
0.0
 10
80.6753371969541
 20
199.8102407733051
 30
0.0
 10
80.6753371969541
 20
200.0410191071232
 30
0.0
  0
SPLINE
  5
465
330
1F
100
AcDbEntity
  8
レイヤー 1
 62
     0
370
     9
100
AcDbSpline
210
0.0
220
0.0
230
1.0
 70
     8
 71
     3
 72
    11
 73
     7
 74
     0
 42
0.000000001
 43
0.0000000001
 40
0.0
 40
0.0
 40
0.0
 40
0.0
 40
1.0
 40
1.0
 40
1.0
 40
2.0
 40
2.0
 40
2.0
 40
2.0
 10
80.56222609943461
 20
199.957621958164
 30
0.0
 10
80.34551236793499
 20
200.106984072927
 30
0.0
 10
79.83641338260219
 20
200.2121714508304
 30
0.0
 10
79.24272869036781
 20
200.2121714508304
 30
0.0
 10
78.64944018411421
 20
200.2121714508304
 30
0.0
 10
78.1405392917718
 20
200.106984072927
 30
0.0
 10
77.92303318831051
 20
199.957621958164
 30
0.0
  0
SPLINE
  5
466
330
1F
100
AcDbEntity
  8
レイヤー 1
 62
     0
370
    18
100
AcDbSpline
210
0.0
220
0.0
230
1.0
 70
    11
 71
     3
 72
    17
 73
    13
 74
     0
 42
0.000000001
 43
0.0000000001
 40
0.0
 40
0.0
 40
0.0
 40
0.0
 40
1.0
 40
1.0
 40
1.0
 40
2.0
 40
2.0
 40
2.0
 40
3.0
 40
3.0
 40
3.0
 40
4.0
 40
4.0
 40
4.0
 40
4.0
 10
102.4369206196017
 20
198.4057959975876
 30
0.0
 10
102.4369206196017
 20
200.4889418846536
 30
0.0
 10
95.98859759604011
 20
202.1760998839063
 30
0.0
 10
88.0341735664532
 20
202.1760998839063
 30
0.0
 10
80.07955144387586
 20
202.1760998839063
 30
0.0
 10
73.63122842031436
 20
200.4889418846536
 30
0.0
 10
73.63122842031436
 20
198.4057959975876
 30
0.0
 10
73.63122842031436
 20
196.3241358079495
 30
0.0
 10
80.07955144387586
 20
194.6354921112689
 30
0.0
 10
88.0341735664532
 20
194.6354921112689
 30
0.0
 10
95.98859759604011
 20
194.6354921112689
 30
0.0
 10
102.4369206196017
 20
196.3241358079495
 30
0.0
 10
102.4369206196017
 20
198.4057959975876
 30
0.0
  0
SPLINE
  5
467
330
1F
100
AcDbEntity
  8
レイヤー 1
 62
     0
370
    18
100
AcDbSpline
210
0.0
220
0.0
230
1.0
 70
     8
 71
     3
 72
    17
 73
    13
 74
     0
 42
0.000000001
 43
0.0000000001
 40
0.0
 40
0.0
 40
0.0
 40
0.0
 40
1.0
 40
1.0
 40
1.0
 40
2.0
 40
2.0
 40
2.0
 40
3.0
 40
3.0
 40
3.0
 40
4.0
 40
4.0
 40
4.0
 40
4.0
 10
73.67223366932751
 20
198.6792633708374
 30
0.0
 10
73.3309194468651
 20
198.343891938087
 30
0.0
 10
73.14827770971465
 20
197.9910883221813
 30
0.0
 10
73.14827770971465
 20
197.6276867312891
 30
0.0
 10
73.14827770971465
 20
195.4085500063122
 30
0.0
 10
79.91671900576557
 20
193.6094694674824
 30
0.0
 10
88.2649519002714
 20
193.6094694674824
 30
0.0
 10
96.612590515806
 20
193.6094694674824
 30
0.0
 10
103.3808337188665
 20
195.4085500063122
 30
0.0
 10
103.3808337188665
 20
197.6276867312891
 30
0.0
 10
103.3808337188665
 20
198.1606559219653
 30
0.0
 10
102.7043461566441
 20
198.8712154785368
 30
0.0
 10
101.9947770650247
 20
199.3363378200003
 30
0.0
  0
SPLINE
  5
468
330
1F
100
AcDbEntity
  8
レイヤー 1
 62
     0
370
    18
100
AcDbSpline
210
0.0
220
0.0
230
1.0
 70
     8
 71
     3
 72
    17
 73
    13
 74
     0
 42
0.000000001
 43
0.0000000001
 40
0.0
 40
0.0
 40
0.0
 40
0.0
 40
1.0
 40
1.0
 40
1.0
 40
2.0
 40
2.0
 40
2.0
 40
3.0
 40
3.0
 40
3.0
 40
4.0
 40
4.0
 40
4.0
 40
4.0
 10
103.3701366973849
 20
197.714451461085
 30
0.0
 10
103.3701366973849
 20
197.714451461085
 30
0.0
 10
103.3808337188665
 20
197.0404400612427
 30
0.0
 10
103.3808337188665
 20
197.0404400612427
 30
0.0
 10
103.3808337188665
 20
194.8215014292562
 30
0.0
 10
96.612590515806
 20
193.0224208904265
 30
0.0
 10
88.2649519002714
 20
193.0224208904265
 30
0.0
 10
79.91671900576557
 20
193.0224208904265
 30
0.0
 10
73.14827770971465
 20
194.8215014292562
 30
0.0
 10
73.14827770971465
 20
197.0404400612427
 30
0.0
 10
73.14827770971465
 20
197.0404400612427
 30
0.0
 10
73.14827770971465
 20
197.6276867312891
 30
0.0
 10
73.14827770971465
 20
197.6276867312891
 30
0.0
  0
SPLINE
  5
469
330
1F
100
AcDbEntity
  8
レイヤー 1
 62
     0
370
    18
100
AcDbSpline
210
0.0
220
0.0
230
1.0
 70
    11
 71
     3
 72
    17
 73
    13
 74
     0
 42
0.000000001
 43
0.0000000001
 40
0.0
 40
0.0
 40
0.0
 40
0.0
 40
1.0
 40
1.0
 40
1.0
 40
2.0
 40
2.0
 40
2.0
 40
3.0
 40
3.0
 40
3.0
 40
4.0
 40
4.0
 40
4.0
 40
4.0
 10
95.68610959969641
 20
198.3889580934034
 30
0.0
 10
95.68610959969641
 20
199.4212206663875
 30
0.0
 10
92.33893234087611
 20
200.2572721323786
 30
0.0
 10
88.20988204893962
 20
200.2572721323786
 30
0.0
 10
84.0806336640128
 20
200.2572721323786
 30
0.0
 10
80.73325831220205
 20
199.4212206663875
 30
0.0
 10
80.73325831220205
 20
198.3889580934034
 30
0.0
 10
80.73325831220205
 20
197.3576859853713
 30
0.0
 10
84.0806336640128
 20
196.5207431009234
 30
0.0
 10
88.20988204893962
 20
196.5207431009234
 30
0.0
 10
92.33893234087611
 20
196.5207431009234
 30
0.0
 10
95.68610959969641
 20
197.3576859853713
 30
0.0
 10
95.68610959969641
 20
198.3889580934034
 30
0.0
  0
SPLINE
  5
46A
330
1F
100
AcDbEntity
  8
レイヤー 1
 62
     0
370
     9
100
AcDbSpline
210
0.0
220
0.0
230
1.0
 70
     8
 71
     3
 72
    11
 73
     7
 74
     0
 42
0.000000001
 43
0.0000000001
 40
0.0
 40
0.0
 40
0.0
 40
0.0
 40
1.0
 40
1.0
 40
1.0
 40
2.0
 40
2.0
 40
2.0
 40
2.0
 10
95.68610959969641
 20
198.193044125896
 30
0.0
 10
95.68610959969641
 20
199.2252076523849
 30
0.0
 10
92.33893234087611
 20
200.0621505368328
 30
0.0
 10
88.20988204893962
 20
200.0621505368328
 30
0.0
 10
84.0806336640128
 20
200.0621505368328
 30
0.0
 10
80.73325831220205
 20
199.2252076523849
 30
0.0
 10
80.73325831220205
 20
198.193044125896
 30
0.0
  0
MTEXT
  5
481
330
1F
100
AcDbEntity
  8
0
100
AcDbMText
 10
174.0581243825033
 20
104.9571895752695
 30
0.0
 40
3.5
 41
41.05745015105737
 46
3.5
 71
     1
 72
     5
  1
{\fＭＳ Ｐゴシック|b0|i0|c0|p0;HFF-D27S}
 73
     1
 44
1.0
  0
ENDSEC
  0
SECTION
  2
OBJECTS
  0
DICTIONARY
  5
C
330
0
100
AcDbDictionary
281
     1
  3
ACAD_DETAILVIEWSTYLE
350
1CF
  3
ACAD_GROUP
350
D
  3
ACAD_LAYOUT
350
1A
  3
ACAD_MATERIAL
350
1C1
  3
ACAD_MLEADERSTYLE
350
1C7
  3
ACAD_MLINESTYLE
350
17
  3
ACAD_PLOTSETTINGS
350
19
  3
ACAD_PLOTSTYLENAME
350
E
  3
ACAD_SCALELIST
350
47
  3
ACAD_SECTIONVIEWSTYLE
350
1D0
  3
ACAD_TABLESTYLE
350
1C5
  3
ACAD_VISUALSTYLE
350
1A8
  3
ACDB_RECOMPOSE_DATA
350
489
  3
AcDbVariableDictionary
350
1CA
  3
APPDATA
350
1C9
  0
SUN
  5
482
330
29
100
AcDbSun
 90
        1
290
     0
 63
     7
421
 16777215
 40
1.0
291
     1
 91
  2455826
 92
 54000000
292
     0
 70
     2
 71
   256
280
     1
  0
DICTIONARY
  5
1CF
102
{ACAD_REACTORS
330
C
102
}
330
C
100
AcDbDictionary
281
     1
  0
DICTIONARY
  5
D
102
{ACAD_REACTORS
330
C
102
}
330
C
100
AcDbDictionary
281
     1
  0
DICTIONARY
  5
1A
102
{ACAD_REACTORS
330
C
102
}
330
C
100
AcDbDictionary
281
     1
  3
Layout1
350
1E
  3
Layout2
350
26
  3
Model
350
22
  0
DICTIONARY
  5
1C1
102
{ACAD_REACTORS
330
C
102
}
330
C
100
AcDbDictionary
281
     1
  3
ByBlock
350
1C3
  3
ByLayer
350
1C2
  3
Global
350
1C4
  0
DICTIONARY
  5
1C7
102
{ACAD_REACTORS
330
C
102
}
330
C
100
AcDbDictionary
281
     1
  3
Standard
350
1C8
  0
DICTIONARY
  5
17
102
{ACAD_REACTORS
330
C
102
}
330
C
100
AcDbDictionary
281
     1
  3
Standard
350
18
  0
DICTIONARY
  5
19
102
{ACAD_REACTORS
330
C
102
}
330
C
100
AcDbDictionary
281
     1
  0
ACDBDICTIONARYWDFLT
  5
E
102
{ACAD_REACTORS
330
C
102
}
330
C
100
AcDbDictionary
281
     1
  3
Normal
350
F
100
AcDbDictionaryWithDefault
340
F
  0
DICTIONARY
  5
47
102
{ACAD_REACTORS
330
C
102
}
330
C
100
AcDbDictionary
281
     1
  3
A0
350
48
  3
A1
350
49
  3
A2
350
4A
  3
A3
350
4B
  3
A4
350
4C
  3
A5
350
4D
  3
A6
350
4E
  3
A7
350
4F
  3
A8
350
50
  3
A9
350
51
  3
B0
350
52
  3
B1
350
53
  3
B2
350
54
  3
B3
350
55
  3
B4
350
56
  3
B5
350
57
  3
B6
350
58
  3
B7
350
59
  3
B8
350
5A
  3
B9
350
5B
  3
C0
350
5C
  3
C1
350
5D
  3
C2
350
5E
  3
C3
350
5F
  3
C4
350
60
  3
C5
350
61
  3
C6
350
62
  3
C7
350
63
  3
C8
350
64
  3
C9
350
65
  3
D0
350
66
  3
D1
350
67
  3
D2
350
68
  0
DICTIONARY
  5
1D0
102
{ACAD_REACTORS
330
C
102
}
330
C
100
AcDbDictionary
281
     1
  0
DICTIONARY
  5
1C5
102
{ACAD_REACTORS
330
C
102
}
330
C
100
AcDbDictionary
281
     1
  3
Standard
350
1C6
  0
DICTIONARY
  5
1A8
102
{ACAD_REACTORS
330
C
102
}
330
C
100
AcDbDictionary
281
     1
  3
2dWireframe
350
1AD
  3
Basic
350
1B0
  3
Brighten
350
1B4
  3
ColorChange
350
1B8
  3
Conceptual
350
1B2
  3
Dim
350
1B3
  3
EdgeColorOff
350
1BB
  3
Facepattern
350
1B7
  3
Flat
350
1A9
  3
FlatWithEdges
350
1AA
  3
Gouraud
350
1AB
  3
GouraudWithEdges
350
1AC
  3
Hidden
350
1AF
  3
JitterOff
350
1B9
  3
Linepattern
350
1B6
  3
OverhangOff
350
1BA
  3
Realistic
350
1B1
  3
Shaded
350
1C0
  3
Shaded with edges
350
1BF
  3
Shades of Gray
350
1BC
  3
Sketchy
350
1BD
  3
Thicken
350
1B5
  3
Wireframe
350
1AE
  3
X-Ray
350
1BE
  0
XRECORD
  5
489
102
{ACAD_REACTORS
330
C
102
}
330
C
100
AcDbXrecord
280
     1
 90
        1
330
1C6
  0
DICTIONARY
  5
1CA
102
{ACAD_REACTORS
330
C
102
}
330
C
100
AcDbDictionary
281
     1
  3
CANNOSCALE
350
1CB
  3
CMLEADERSTYLE
350
1CD
  3
CTABLESTYLE
350
1CC
  3
MSLTSCALE
350
1CE
  0
DICTIONARY
  5
1C9
102
{ACAD_REACTORS
330
C
102
}
330
C
100
AcDbDictionary
281
     1
  0
LAYOUT
  5
1E
102
{ACAD_REACTORS
330
1A
102
}
330
1A
100
AcDbPlotSettings
  1

  2
none_device
  4

  6

 40
0.0
 41
0.0
 42
0.0
 43
0.0
 44
0.0
 45
0.0
 46
0.0
 47
0.0
 48
0.0
 49
0.0
140
0.0
141
0.0
142
1.0
143
1.0
 70
   688
 72
     1
 73
     0
 74
     5
  7

 75
    16
 76
     0
 77
     2
 78
   300
147
1.0
148
0.0
149
0.0
100
AcDbLayout
  1
Layout1
 70
     1
 71
     1
 10
0.0
 20
0.0
 11
420.0
 21
297.0
 12
0.0
 22
0.0
 32
0.0
 14
1.000000000000000E+20
 24
1.000000000000000E+20
 34
1.000000000000000E+20
 15
-1.000000000000000E+20
 25
-1.000000000000000E+20
 35
-1.000000000000000E+20
146
0.0
 13
0.0
 23
0.0
 33
0.0
 16
1.0
 26
0.0
 36
0.0
 17
0.0
 27
1.0
 37
0.0
 76
     0
330
1B
  0
LAYOUT
  5
26
102
{ACAD_REACTORS
330
1A
102
}
330
1A
100
AcDbPlotSettings
  1

  2
none_device
  4

  6

 40
0.0
 41
0.0
 42
0.0
 43
0.0
 44
0.0
 45
0.0
 46
0.0
 47
0.0
 48
0.0
 49
0.0
140
0.0
141
0.0
142
1.0
143
1.0
 70
   688
 72
     1
 73
     0
 74
     5
  7

 75
    16
 76
     0
 77
     2
 78
   300
147
1.0
148
0.0
149
0.0
100
AcDbLayout
  1
Layout2
 70
     1
 71
     2
 10
0.0
 20
0.0
 11
0.0
 21
0.0
 12
0.0
 22
0.0
 32
0.0
 14
0.0
 24
0.0
 34
0.0
 15
0.0
 25
0.0
 35
0.0
146
0.0
 13
0.0
 23
0.0
 33
0.0
 16
1.0
 26
0.0
 36
0.0
 17
0.0
 27
1.0
 37
0.0
 76
     0
330
23
  0
LAYOUT
  5
22
102
{ACAD_REACTORS
330
1A
102
}
330
1A
100
AcDbPlotSettings
  1

  2
none_device
  4
Letter_(8.50_x_11.00_Inches)
  6

 40
6.35
 41
6.35
 42
6.35000508
 43
6.35000508
 44
215.9
 45
279.4
 46
0.0
 47
0.0
 48
0.0
 49
0.0
140
0.0
141
0.0
142
1.0
143
1.0
 70
  1712
 72
     1
 73
     0
 74
     0
  7

 75
     0
 76
     0
 77
     2
 78
   300
147
1.0
148
0.0
149
0.0
100
AcDbLayout
  1
Model
 70
     1
 71
     0
 10
0.0
 20
0.0
 11
431.8
 21
279.4
 12
0.0
 22
0.0
 32
0.0
 14
71.02752242084995
 24
87.38022192636456
 34
0.0
 15
196.3334776399748
 25
202.1760998839063
 35
0.0
146
0.0
 13
0.0
 23
0.0
 33
0.0
 16
1.0
 26
0.0
 36
0.0
 17
0.0
 27
1.0
 37
0.0
 76
     0
330
1F
331
29
  0
MATERIAL
  5
1C3
102
{ACAD_REACTORS
330
1C1
102
}
330
1C1
100
AcDbMaterial
  1
ByBlock
 72
     1
 94
      127
  0
MATERIAL
  5
1C2
102
{ACAD_REACTORS
330
1C1
102
}
330
1C1
100
AcDbMaterial
  1
ByLayer
 72
     1
 94
      127
  0
MATERIAL
  5
1C4
102
{ACAD_REACTORS
330
1C1
102
}
330
1C1
100
AcDbMaterial
  1
Global
 72
     1
 94
      127
  0
MLEADERSTYLE
  5
1C8
102
{ACAD_REACTORS
330
1C7
102
}
330
1C7
100
AcDbMLeaderStyle
179
     2
170
     2
171
     1
172
     0
 90
        2
 40
0.0
 41
0.0
173
     1
 91
-1056964608
340
14
 92
       -2
290
     1
 42
2.0
291
     1
 43
8.0
  3
Standard
341
0
 44
4.0
300

342
11
174
     1
178
     1
175
     1
176
     0
 93
-1056964608
 45
4.0
292
     0
297
     0
 46
4.0
343
0
 94
-1056964608
 47
1.0
 49
1.0
140
1.0
293
     1
141
0.0
294
     1
177
     0
142
1.0
295
     0
296
     0
143
3.75
271
     0
272
     9
273
     9
298
     0
  0
MLINESTYLE
  5
18
102
{ACAD_REACTORS
330
17
102
}
330
17
100
AcDbMlineStyle
  2
Standard
 70
     0
  3

 62
   256
 51
90.0
 52
90.0
 71
     2
 49
0.5
 62
   256
  6
BYLAYER
 49
-0.5
 62
   256
  6
BYLAYER
  0
ACDBPLACEHOLDER
  5
F
102
{ACAD_REACTORS
330
E
102
}
330
E
  0
SCALE
  5
48
102
{ACAD_REACTORS
330
47
102
}
330
47
100
AcDbScale
 70
     0
300
1:1
140
1.0
141
1.0
290
     1
  0
SCALE
  5
49
102
{ACAD_REACTORS
330
47
102
}
330
47
100
AcDbScale
 70
     0
300
1:2
140
1.0
141
2.0
290
     0
  0
SCALE
  5
4A
102
{ACAD_REACTORS
330
47
102
}
330
47
100
AcDbScale
 70
     0
300
1:4
140
1.0
141
4.0
290
     0
  0
SCALE
  5
4B
102
{ACAD_REACTORS
330
47
102
}
330
47
100
AcDbScale
 70
     0
300
1:5
140
1.0
141
5.0
290
     0
  0
SCALE
  5
4C
102
{ACAD_REACTORS
330
47
102
}
330
47
100
AcDbScale
 70
     0
300
1:8
140
1.0
141
8.0
290
     0
  0
SCALE
  5
4D
102
{ACAD_REACTORS
330
47
102
}
330
47
100
AcDbScale
 70
     0
300
1:10
140
1.0
141
10.0
290
     0
  0
SCALE
  5
4E
102
{ACAD_REACTORS
330
47
102
}
330
47
100
AcDbScale
 70
     0
300
1:16
140
1.0
141
16.0
290
     0
  0
SCALE
  5
4F
102
{ACAD_REACTORS
330
47
102
}
330
47
100
AcDbScale
 70
     0
300
1:20
140
1.0
141
20.0
290
     0
  0
SCALE
  5
50
102
{ACAD_REACTORS
330
47
102
}
330
47
100
AcDbScale
 70
     0
300
1:30
140
1.0
141
30.0
290
     0
  0
SCALE
  5
51
102
{ACAD_REACTORS
330
47
102
}
330
47
100
AcDbScale
 70
     0
300
1:40
140
1.0
141
40.0
290
     0
  0
SCALE
  5
52
102
{ACAD_REACTORS
330
47
102
}
330
47
100
AcDbScale
 70
     0
300
1:50
140
1.0
141
50.0
290
     0
  0
SCALE
  5
53
102
{ACAD_REACTORS
330
47
102
}
330
47
100
AcDbScale
 70
     0
300
1:100
140
1.0
141
100.0
290
     0
  0
SCALE
  5
54
102
{ACAD_REACTORS
330
47
102
}
330
47
100
AcDbScale
 70
     0
300
2:1
140
2.0
141
1.0
290
     0
  0
SCALE
  5
55
102
{ACAD_REACTORS
330
47
102
}
330
47
100
AcDbScale
 70
     0
300
4:1
140
4.0
141
1.0
290
     0
  0
SCALE
  5
56
102
{ACAD_REACTORS
330
47
102
}
330
47
100
AcDbScale
 70
     0
300
8:1
140
8.0
141
1.0
290
     0
  0
SCALE
  5
57
102
{ACAD_REACTORS
330
47
102
}
330
47
100
AcDbScale
 70
     0
300
10:1
140
10.0
141
1.0
290
     0
  0
SCALE
  5
58
102
{ACAD_REACTORS
330
47
102
}
330
47
100
AcDbScale
 70
     0
300
100:1
140
100.0
141
1.0
290
     0
  0
SCALE
  5
59
102
{ACAD_REACTORS
330
47
102
}
330
47
100
AcDbScale
 70
     0
300
1/128" = 1'-0"
140
0.0078125
141
12.0
290
     0
  0
SCALE
  5
5A
102
{ACAD_REACTORS
330
47
102
}
330
47
100
AcDbScale
 70
     0
300
1/64" = 1'-0"
140
0.015625
141
12.0
290
     0
  0
SCALE
  5
5B
102
{ACAD_REACTORS
330
47
102
}
330
47
100
AcDbScale
 70
     0
300
1/32" = 1'-0"
140
0.03125
141
12.0
290
     0
  0
SCALE
  5
5C
102
{ACAD_REACTORS
330
47
102
}
330
47
100
AcDbScale
 70
     0
300
1/16" = 1'-0"
140
0.0625
141
12.0
290
     0
  0
SCALE
  5
5D
102
{ACAD_REACTORS
330
47
102
}
330
47
100
AcDbScale
 70
     0
300
3/32" = 1'-0"
140
0.09375
141
12.0
290
     0
  0
SCALE
  5
5E
102
{ACAD_REACTORS
330
47
102
}
330
47
100
AcDbScale
 70
     0
300
1/8" = 1'-0"
140
0.125
141
12.0
290
     0
  0
SCALE
  5
5F
102
{ACAD_REACTORS
330
47
102
}
330
47
100
AcDbScale
 70
     0
300
3/16" = 1'-0"
140
0.1875
141
12.0
290
     0
  0
SCALE
  5
60
102
{ACAD_REACTORS
330
47
102
}
330
47
100
AcDbScale
 70
     0
300
1/4" = 1'-0"
140
0.25
141
12.0
290
     0
  0
SCALE
  5
61
102
{ACAD_REACTORS
330
47
102
}
330
47
100
AcDbScale
 70
     0
300
3/8" = 1'-0"
140
0.375
141
12.0
290
     0
  0
SCALE
  5
62
102
{ACAD_REACTORS
330
47
102
}
330
47
100
AcDbScale
 70
     0
300
1/2" = 1'-0"
140
0.5
141
12.0
290
     0
  0
SCALE
  5
63
102
{ACAD_REACTORS
330
47
102
}
330
47
100
AcDbScale
 70
     0
300
3/4" = 1'-0"
140
0.75
141
12.0
290
     0
  0
SCALE
  5
64
102
{ACAD_REACTORS
330
47
102
}
330
47
100
AcDbScale
 70
     0
300
1" = 1'-0"
140
1.0
141
12.0
290
     0
  0
SCALE
  5
65
102
{ACAD_REACTORS
330
47
102
}
330
47
100
AcDbScale
 70
     0
300
1-1/2" = 1'-0"
140
1.5
141
12.0
290
     0
  0
SCALE
  5
66
102
{ACAD_REACTORS
330
47
102
}
330
47
100
AcDbScale
 70
     0
300
3" = 1'-0"
140
3.0
141
12.0
290
     0
  0
SCALE
  5
67
102
{ACAD_REACTORS
330
47
102
}
330
47
100
AcDbScale
 70
     0
300
6" = 1'-0"
140
6.0
141
12.0
290
     0
  0
SCALE
  5
68
102
{ACAD_REACTORS
330
47
102
}
330
47
100
AcDbScale
 70
     0
300
1'-0" = 1'-0"
140
12.0
141
12.0
290
     0
  0
TABLESTYLE
  5
1C6
102
{ACAD_REACTORS
330
1C5
102
}
102
{ACAD_XDICTIONARY
360
487
102
}
330
1C5
100
AcDbTableStyle
  3
Standard
 70
     0
 71
     0
 40
1.5
 41
1.5
280
     0
281
     0
  7
Standard
140
4.5
170
     2
 62
     0
 63
   257
283
     0
 90
        4
 91
        0
  1

274
    -2
284
     1
 64
     0
275
    -2
285
     1
 65
     0
276
    -2
286
     1
 66
     0
277
    -2
287
     1
 67
     0
278
    -2
288
     1
 68
     0
279
    -2
289
     1
 69
     0
  7
Standard
140
6.0
170
     5
 62
     0
 63
   257
283
     0
 90
        4
 91
        0
  1

274
    -2
284
     1
 64
     0
275
    -2
285
     1
 65
     0
276
    -2
286
     1
 66
     0
277
    -2
287
     1
 67
     0
278
    -2
288
     1
 68
     0
279
    -2
289
     1
 69
     0
  7
Standard
140
4.5
170
     5
 62
     0
 63
   257
283
     0
 90
        4
 91
        0
  1

274
    -2
284
     1
 64
     0
275
    -2
285
     1
 65
     0
276
    -2
286
     1
 66
     0
277
    -2
287
     1
 67
     0
278
    -2
288
     1
 68
     0
279
    -2
289
     1
 69
     0
  0
VISUALSTYLE
  5
1AD
102
{ACAD_REACTORS
330
1A8
102
}
330
1A8
100
AcDbVisualStyle
  2
2dWireframe
 70
     4
177
     3
291
     0
 70
    58
 90
        0
176
     1
 90
        2
176
     1
 90
        0
176
     1
 90
        0
176
     1
 40
0.6
176
     1
 40
30.0
176
     1
 62
     7
420
 16777215
176
     1
 90
        1
176
     1
 90
        4
176
     1
 62
     7
176
     1
 62
   257
176
     1
 90
        1
176
     1
 90
        1
176
     1
 40
1.0
176
     1
 90
        0
176
     1
 62
   257
176
     1
 40
1.0
176
     1
 90
        1
176
     1
 90
        6
176
     1
 90
        2
176
     1
 62
     7
176
     1
 90
        5
176
     1
 90
        0
176
     1
 90
        0
176
     1
290
     0
176
     1
 90
        1
176
     1
 40
0.0
176
     1
 90
        0
176
     1
290
     1
176
     1
290
     1
176
     1
290
     0
176
     1
290
     0
176
     1
290
     0
176
     1
290
     0
176
     1
290
     0
176
     1
290
     0
176
     1
290
     0
176
     1
 90
       50
176
     1
 40
0.0
176
     1
 40
1.0
176
     1
 90
        0
176
     1
 62
    18
420
        0
176
     1
 90
       50
176
     1
 90
        3
176
     1
 62
     5
420
      255
176
     1
290
     0
176
     1
 90
       50
176
     1
 90
       50
176
     1
 90
       50
176
     1
290
     0
176
     1
 90
       50
176
     1
 62
   256
176
     0
 40
1.0
176
     0
 90
        2
176
     1
  1
strokes_ogs.tif
176
     1
290
     0
176
     1
 40
1.0
176
     1
 40
1.0
176
     1
  0
VISUALSTYLE
  5
1B0
102
{ACAD_REACTORS
330
1A8
102
}
330
1A8
100
AcDbVisualStyle
  2
Basic
 70
     7
177
     3
291
     1
 70
    58
 90
        1
176
     1
 90
        0
176
     1
 90
        1
176
     1
 90
        0
176
     1
 40
0.6
176
     1
 40
30.0
176
     1
 62
     7
420
 16777215
176
     1
 90
        0
176
     1
 90
        4
176
     1
 62
     7
176
     1
 62
   257
176
     1
 90
        1
176
     1
 90
        1
176
     1
 40
1.0
176
     1
 90
        8
176
     1
 62
     7
176
     1
 40
1.0
176
     1
 90
        1
176
     1
 90
        6
176
     1
 90
        2
176
     1
 62
     7
176
     1
 90
        5
176
     1
 90
        0
176
     1
 90
        0
176
     1
290
     0
176
     1
 90
        1
176
     1
 40
0.0
176
     1
 90
        0
176
     1
290
     0
176
     1
290
     1
176
     1
290
     1
176
     1
290
     0
176
     1
290
     0
176
     1
290
     0
176
     1
290
     0
176
     1
290
     0
176
     1
290
     0
176
     1
 90
       50
176
     1
 40
0.0
176
     1
 40
1.0
176
     1
 90
        0
176
     1
 62
    18
420
        0
176
     1
 90
       50
176
     1
 90
        3
176
     1
 62
     5
420
      255
176
     1
290
     0
176
     1
 90
       50
176
     1
 90
       50
176
     1
 90
       50
176
     1
290
     0
176
     1
 90
       50
176
     1
 62
   256
176
     0
 40
1.0
176
     0
 90
        2
176
     1
  1
strokes_ogs.tif
176
     1
290
     0
176
     1
 40
1.0
176
     1
 40
1.0
176
     1
  0
VISUALSTYLE
  5
1B4
102
{ACAD_REACTORS
330
1A8
102
}
330
1A8
100
AcDbVisualStyle
  2
Brighten
 70
    12
177
     3
291
     1
 70
    58
 90
        2
176
     1
 90
        2
176
     1
 90
        0
176
     1
 90
        0
176
     1
 40
0.6
176
     1
 40
30.0
176
     1
 62
     7
420
 16777215
176
     1
 90
        1
176
     1
 90
        4
176
     1
 62
     7
176
     1
 62
   257
176
     1
 90
        1
176
     1
 90
        1
176
     1
 40
1.0
176
     1
 90
        8
176
     1
 62
     7
176
     1
 40
1.0
176
     1
 90
        1
176
     1
 90
        6
176
     1
 90
        2
176
     1
 62
     7
176
     1
 90
        5
176
     1
 90
        0
176
     1
 90
        0
176
     1
290
     0
176
     1
 90
        1
176
     1
 40
50.0
176
     1
 90
        0
176
     1
290
     0
176
     1
290
     1
176
     1
290
     1
176
     1
290
     0
176
     1
290
     0
176
     1
290
     0
176
     1
290
     0
176
     1
290
     0
176
     1
290
     0
176
     1
 90
       50
176
     1
 40
0.0
176
     1
 40
1.0
176
     1
 90
        0
176
     1
 62
    18
420
        0
176
     1
 90
       50
176
     1
 90
        3
176
     1
 62
     5
420
      255
176
     1
290
     0
176
     1
 90
       50
176
     1
 90
       50
176
     1
 90
       50
176
     1
290
     0
176
     1
 90
       50
176
     1
 62
   256
176
     0
 40
1.0
176
     0
 90
        2
176
     1
  1
strokes_ogs.tif
176
     1
290
     0
176
     1
 40
1.0
176
     1
 40
1.0
176
     1
  0
VISUALSTYLE
  5
1B8
102
{ACAD_REACTORS
330
1A8
102
}
330
1A8
100
AcDbVisualStyle
  2
ColorChange
 70
    16
177
     3
291
     1
 70
    58
 90
        2
176
     1
 90
        2
176
     1
 90
        3
176
     1
 90
        0
176
     1
 40
0.6
176
     1
 40
30.0
176
     1
 62
     8
420
  8421504
176
     1
 90
        1
176
     1
 90
        4
176
     1
 62
     7
176
     1
 62
   257
176
     1
 90
        1
176
     1
 90
        1
176
     1
 40
1.0
176
     1
 90
        8
176
     1
 62
     8
420
  8421504
176
     1
 40
1.0
176
     1
 90
        1
176
     1
 90
        6
176
     1
 90
        2
176
     1
 62
     7
176
     1
 90
        5
176
     1
 90
        0
176
     1
 90
        0
176
     1
290
     0
176
     1
 90
        1
176
     1
 40
0.0
176
     1
 90
        0
176
     1
290
     0
176
     1
290
     1
176
     1
290
     1
176
     1
290
     0
176
     1
290
     0
176
     1
290
     0
176
     1
290
     0
176
     1
290
     0
176
     1
290
     0
176
     1
 90
       50
176
     1
 40
0.0
176
     1
 40
1.0
176
     1
 90
        0
176
     1
 62
    18
420
        0
176
     1
 90
       50
176
     1
 90
        3
176
     1
 62
     5
420
      255
176
     1
290
     0
176
     1
 90
       50
176
     1
 90
       50
176
     1
 90
       50
176
     1
290
     0
176
     1
 90
       50
176
     1
 62
   256
176
     0
 40
1.0
176
     0
 90
        2
176
     1
  1
strokes_ogs.tif
176
     1
290
     0
176
     1
 40
1.0
176
     1
 40
1.0
176
     1
  0
VISUALSTYLE
  5
1B2
102
{ACAD_REACTORS
330
1A8
102
}
330
1A8
100
AcDbVisualStyle
  2
Conceptual
 70
     9
177
     3
291
     0
 70
    58
 90
        3
176
     1
 90
        2
176
     1
 90
        0
176
     1
 90
        0
176
     1
 40
0.6
176
     1
 40
30.0
176
     1
 62
     7
420
 16777215
176
     1
 90
        2
176
     1
 90
        2
176
     1
 62
     7
176
     1
 62
   257
176
     1
 90
        1
176
     1
 90
        1
176
     1
 40
179.0
176
     1
 90
        8
176
     1
 62
     7
176
     1
 40
1.0
176
     1
 90
        1
176
     1
 90
        6
176
     1
 90
        2
176
     1
 62
     7
176
     1
 90
        3
176
     1
 90
        0
176
     1
 90
        0
176
     1
290
     0
176
     1
 90
        1
176
     1
 40
0.0
176
     1
 90
        0
176
     1
290
     0
176
     1
290
     1
176
     1
290
     1
176
     1
290
     0
176
     1
290
     0
176
     1
290
     0
176
     1
290
     0
176
     1
290
     0
176
     1
290
     0
176
     1
 90
       50
176
     1
 40
0.0
176
     1
 40
1.0
176
     1
 90
        0
176
     1
 62
    18
420
        0
176
     1
 90
       50
176
     1
 90
        3
176
     1
 62
     5
420
      255
176
     1
290
     0
176
     1
 90
       50
176
     1
 90
       50
176
     1
 90
       50
176
     1
290
     0
176
     1
 90
       50
176
     1
 62
   256
176
     0
 40
1.0
176
     0
 90
        2
176
     1
  1
strokes_ogs.tif
176
     1
290
     0
176
     1
 40
1.0
176
     1
 40
1.0
176
     1
  0
VISUALSTYLE
  5
1B3
102
{ACAD_REACTORS
330
1A8
102
}
330
1A8
100
AcDbVisualStyle
  2
Dim
 70
    11
177
     3
291
     1
 70
    58
 90
        2
176
     1
 90
        2
176
     1
 90
        0
176
     1
 90
        0
176
     1
 40
0.6
176
     1
 40
30.0
176
     1
 62
     7
420
 16777215
176
     1
 90
        1
176
     1
 90
        4
176
     1
 62
     7
176
     1
 62
   257
176
     1
 90
        1
176
     1
 90
        1
176
     1
 40
1.0
176
     1
 90
        8
176
     1
 62
     7
176
     1
 40
1.0
176
     1
 90
        1
176
     1
 90
        6
176
     1
 90
        2
176
     1
 62
     7
176
     1
 90
        5
176
     1
 90
        0
176
     1
 90
        0
176
     1
290
     0
176
     1
 90
        1
176
     1
 40
-50.0
176
     1
 90
        0
176
     1
290
     0
176
     1
290
     1
176
     1
290
     1
176
     1
290
     0
176
     1
290
     0
176
     1
290
     0
176
     1
290
     0
176
     1
290
     0
176
     1
290
     0
176
     1
 90
       50
176
     1
 40
0.0
176
     1
 40
1.0
176
     1
 90
        0
176
     1
 62
    18
420
        0
176
     1
 90
       50
176
     1
 90
        3
176
     1
 62
     5
420
      255
176
     1
290
     0
176
     1
 90
       50
176
     1
 90
       50
176
     1
 90
       50
176
     1
290
     0
176
     1
 90
       50
176
     1
 62
   256
176
     0
 40
1.0
176
     0
 90
        2
176
     1
  1
strokes_ogs.tif
176
     1
290
     0
176
     1
 40
1.0
176
     1
 40
1.0
176
     1
  0
VISUALSTYLE
  5
1BB
102
{ACAD_REACTORS
330
1A8
102
}
330
1A8
100
AcDbVisualStyle
  2
EdgeColorOff
 70
    22
177
     3
291
     1
 70
    58
 90
        2
176
     0
 90
        2
176
     0
 90
        0
176
     0
 90
        0
176
     0
 40
0.6
176
     0
 40
30.0
176
     0
 62
     7
420
 16777215
176
     0
 90
        1
176
     0
 90
        4
176
     0
 62
     7
176
     0
 62
   257
176
     0
 90
        1
176
     0
 90
        1
176
     0
 40
1.0
176
     0
 90
        8
176
     2
 62
     7
176
     0
 40
1.0
176
     0
 90
        1
176
     0
 90
        6
176
     0
 90
        2
176
     0
 62
     7
176
     0
 90
        5
176
     0
 90
        0
176
     0
 90
        0
176
     0
290
     0
176
     0
 90
        1
176
     0
 40
0.0
176
     0
 90
        0
176
     0
290
     0
176
     0
290
     1
176
     0
290
     1
176
     0
290
     0
176
     0
290
     0
176
     0
290
     0
176
     0
290
     0
176
     0
290
     0
176
     0
290
     0
176
     0
 90
       50
176
     0
 40
0.0
176
     0
 40
1.0
176
     0
 90
        0
176
     0
 62
    18
420
        0
176
     0
 90
       50
176
     0
 90
        3
176
     0
 62
     5
420
      255
176
     0
290
     0
176
     0
 90
       50
176
     0
 90
       50
176
     0
 90
       50
176
     0
290
     0
176
     0
 90
       50
176
     0
 62
   256
176
     0
 40
1.0
176
     0
 90
        2
176
     0
  1
strokes_ogs.tif
176
     0
290
     0
176
     0
 40
1.0
176
     0
 40
1.0
176
     0
  0
VISUALSTYLE
  5
1B7
102
{ACAD_REACTORS
330
1A8
102
}
330
1A8
100
AcDbVisualStyle
  2
Facepattern
 70
    15
177
     3
291
     1
 70
    58
 90
        2
176
     1
 90
        2
176
     1
 90
        0
176
     1
 90
        0
176
     1
 40
0.6
176
     1
 40
30.0
176
     1
 62
     7
420
 16777215
176
     1
 90
        1
176
     1
 90
        4
176
     1
 62
     7
176
     1
 62
   257
176
     1
 90
        1
176
     1
 90
        1
176
     1
 40
1.0
176
     1
 90
        8
176
     1
 62
     7
176
     1
 40
1.0
176
     1
 90
        1
176
     1
 90
        6
176
     1
 90
        2
176
     1
 62
     7
176
     1
 90
        5
176
     1
 90
        0
176
     1
 90
        0
176
     1
290
     0
176
     1
 90
        1
176
     1
 40
0.0
176
     1
 90
        0
176
     1
290
     0
176
     1
290
     1
176
     1
290
     1
176
     1
290
     0
176
     1
290
     0
176
     1
290
     0
176
     1
290
     0
176
     1
290
     0
176
     1
290
     0
176
     1
 90
       50
176
     1
 40
0.0
176
     1
 40
1.0
176
     1
 90
        0
176
     1
 62
    18
420
        0
176
     1
 90
       50
176
     1
 90
        3
176
     1
 62
     5
420
      255
176
     1
290
     0
176
     1
 90
       50
176
     1
 90
       50
176
     1
 90
       50
176
     1
290
     0
176
     1
 90
       50
176
     1
 62
   256
176
     0
 40
1.0
176
     0
 90
        2
176
     1
  1
strokes_ogs.tif
176
     1
290
     0
176
     1
 40
1.0
176
     1
 40
1.0
176
     1
  0
VISUALSTYLE
  5
1A9
102
{ACAD_REACTORS
330
1A8
102
}
330
1A8
100
AcDbVisualStyle
  2
Flat
 70
     0
177
     3
291
     1
 70
    58
 90
        2
176
     1
 90
        1
176
     1
 90
        1
176
     1
 90
        2
176
     1
 40
0.6
176
     1
 40
30.0
176
     1
 62
     7
420
 16777215
176
     1
 90
        0
176
     1
 90
        0
176
     1
 62
     7
176
     1
 62
   257
176
     1
 90
        1
176
     1
 90
        1
176
     1
 40
1.0
176
     1
 90
        8
176
     1
 62
     7
176
     1
 40
1.0
176
     1
 90
        1
176
     1
 90
        6
176
     1
 90
        2
176
     1
 62
     7
176
     1
 90
        5
176
     1
 90
        0
176
     1
 90
        0
176
     1
290
     0
176
     1
 90
       13
176
     1
 40
0.0
176
     1
 90
        0
176
     1
290
     0
176
     1
290
     1
176
     1
290
     1
176
     1
290
     0
176
     1
290
     0
176
     1
290
     0
176
     1
290
     0
176
     1
290
     0
176
     1
290
     0
176
     1
 90
       50
176
     1
 40
0.0
176
     1
 40
1.0
176
     1
 90
        0
176
     1
 62
    18
420
        0
176
     1
 90
       50
176
     1
 90
        3
176
     1
 62
     5
420
      255
176
     1
290
     0
176
     1
 90
       50
176
     1
 90
       50
176
     1
 90
       50
176
     1
290
     0
176
     1
 90
       50
176
     1
 62
   256
176
     0
 40
1.0
176
     0
 90
        2
176
     1
  1
strokes_ogs.tif
176
     1
290
     0
176
     1
 40
1.0
176
     1
 40
1.0
176
     1
  0
VISUALSTYLE
  5
1AA
102
{ACAD_REACTORS
330
1A8
102
}
330
1A8
100
AcDbVisualStyle
  2
FlatWithEdges
 70
     1
177
     3
291
     1
 70
    58
 90
        2
176
     1
 90
        1
176
     1
 90
        1
176
     1
 90
        2
176
     1
 40
0.6
176
     1
 40
30.0
176
     1
 62
     7
420
 16777215
176
     1
 90
        1
176
     1
 90
        0
176
     1
 62
     7
176
     1
 62
   257
176
     1
 90
        1
176
     1
 90
        1
176
     1
 40
1.0
176
     1
 90
        0
176
     1
 62
   257
176
     1
 40
1.0
176
     1
 90
        1
176
     1
 90
        6
176
     1
 90
        2
176
     1
 62
     7
176
     1
 90
        5
176
     1
 90
        0
176
     1
 90
        0
176
     1
290
     0
176
     1
 90
       13
176
     1
 40
0.0
176
     1
 90
        0
176
     1
290
     0
176
     1
290
     1
176
     1
290
     1
176
     1
290
     0
176
     1
290
     0
176
     1
290
     0
176
     1
290
     0
176
     1
290
     0
176
     1
290
     0
176
     1
 90
       50
176
     1
 40
0.0
176
     1
 40
1.0
176
     1
 90
        0
176
     1
 62
    18
420
        0
176
     1
 90
       50
176
     1
 90
        3
176
     1
 62
     5
420
      255
176
     1
290
     0
176
     1
 90
       50
176
     1
 90
       50
176
     1
 90
       50
176
     1
290
     0
176
     1
 90
       50
176
     1
 62
   256
176
     0
 40
1.0
176
     0
 90
        2
176
     1
  1
strokes_ogs.tif
176
     1
290
     0
176
     1
 40
1.0
176
     1
 40
1.0
176
     1
  0
VISUALSTYLE
  5
1AB
102
{ACAD_REACTORS
330
1A8
102
}
330
1A8
100
AcDbVisualStyle
  2
Gouraud
 70
     2
177
     3
291
     1
 70
    58
 90
        2
176
     1
 90
        2
176
     1
 90
        1
176
     1
 90
        2
176
     1
 40
0.6
176
     1
 40
30.0
176
     1
 62
     7
420
 16777215
176
     1
 90
        0
176
     1
 90
        0
176
     1
 62
     7
176
     1
 62
   257
176
     1
 90
        1
176
     1
 90
        1
176
     1
 40
1.0
176
     1
 90
        0
176
     1
 62
     7
176
     1
 40
1.0
176
     1
 90
        1
176
     1
 90
        6
176
     1
 90
        2
176
     1
 62
     7
176
     1
 90
        5
176
     1
 90
        0
176
     1
 90
        0
176
     1
290
     0
176
     1
 90
       13
176
     1
 40
0.0
176
     1
 90
        0
176
     1
290
     0
176
     1
290
     1
176
     1
290
     1
176
     1
290
     0
176
     1
290
     0
176
     1
290
     0
176
     1
290
     0
176
     1
290
     0
176
     1
290
     0
176
     1
 90
       50
176
     1
 40
0.0
176
     1
 40
1.0
176
     1
 90
        0
176
     1
 62
    18
420
        0
176
     1
 90
       50
176
     1
 90
        3
176
     1
 62
     5
420
      255
176
     1
290
     0
176
     1
 90
       50
176
     1
 90
       50
176
     1
 90
       50
176
     1
290
     0
176
     1
 90
       50
176
     1
 62
   256
176
     0
 40
1.0
176
     0
 90
        2
176
     1
  1
strokes_ogs.tif
176
     1
290
     0
176
     1
 40
1.0
176
     1
 40
1.0
176
     1
  0
VISUALSTYLE
  5
1AC
102
{ACAD_REACTORS
330
1A8
102
}
330
1A8
100
AcDbVisualStyle
  2
GouraudWithEdges
 70
     3
177
     3
291
     1
 70
    58
 90
        2
176
     1
 90
        2
176
     1
 90
        1
176
     1
 90
        2
176
     1
 40
0.6
176
     1
 40
30.0
176
     1
 62
     7
420
 16777215
176
     1
 90
        1
176
     1
 90
        0
176
     1
 62
     7
176
     1
 62
   257
176
     1
 90
        1
176
     1
 90
        1
176
     1
 40
1.0
176
     1
 90
        0
176
     1
 62
   257
176
     1
 40
1.0
176
     1
 90
        1
176
     1
 90
        6
176
     1
 90
        2
176
     1
 62
     7
176
     1
 90
        5
176
     1
 90
        0
176
     1
 90
        0
176
     1
290
     0
176
     1
 90
       13
176
     1
 40
0.0
176
     1
 90
        0
176
     1
290
     0
176
     1
290
     1
176
     1
290
     1
176
     1
290
     0
176
     1
290
     0
176
     1
290
     0
176
     1
290
     0
176
     1
290
     0
176
     1
290
     0
176
     1
 90
       50
176
     1
 40
0.0
176
     1
 40
1.0
176
     1
 90
        0
176
     1
 62
    18
420
        0
176
     1
 90
       50
176
     1
 90
        3
176
     1
 62
     5
420
      255
176
     1
290
     0
176
     1
 90
       50
176
     1
 90
       50
176
     1
 90
       50
176
     1
290
     0
176
     1
 90
       50
176
     1
 62
   256
176
     0
 40
1.0
176
     0
 90
        2
176
     1
  1
strokes_ogs.tif
176
     1
290
     0
176
     1
 40
1.0
176
     1
 40
1.0
176
     1
  0
VISUALSTYLE
  5
1AF
102
{ACAD_REACTORS
330
1A8
102
}
330
1A8
100
AcDbVisualStyle
  2
Hidden
 70
     6
177
     3
291
     0
 70
    58
 90
        1
176
     1
 90
        2
176
     1
 90
        2
176
     1
 90
        0
176
     1
 40
0.6
176
     1
 40
30.0
176
     1
 62
     7
420
 16777215
176
     1
 90
        2
176
     1
 90
        2
176
     1
 62
     7
176
     1
 62
   257
176
     1
 90
        2
176
     1
 90
        1
176
     1
 40
40.0
176
     1
 90
        0
176
     1
 62
   257
176
     1
 40
1.0
176
     1
 90
        1
176
     1
 90
        6
176
     1
 90
        2
176
     1
 62
     7
176
     1
 90
        3
176
     1
 90
        0
176
     1
 90
        0
176
     1
290
     0
176
     1
 90
        1
176
     1
 40
0.0
176
     1
 90
        0
176
     1
290
     0
176
     1
290
     1
176
     1
290
     1
176
     1
290
     0
176
     1
290
     0
176
     1
290
     0
176
     1
290
     0
176
     1
290
     0
176
     1
290
     0
176
     1
 90
       50
176
     1
 40
0.0
176
     1
 40
1.0
176
     1
 90
        0
176
     1
 62
    18
420
        0
176
     1
 90
       50
176
     1
 90
        3
176
     1
 62
     5
420
      255
176
     1
290
     0
176
     1
 90
       50
176
     1
 90
       50
176
     1
 90
       50
176
     1
290
     0
176
     1
 90
       50
176
     1
 62
   256
176
     0
 40
1.0
176
     0
 90
        2
176
     1
  1
strokes_ogs.tif
176
     1
290
     0
176
     1
 40
1.0
176
     1
 40
1.0
176
     1
  0
VISUALSTYLE
  5
1B9
102
{ACAD_REACTORS
330
1A8
102
}
330
1A8
100
AcDbVisualStyle
  2
JitterOff
 70
    20
177
     3
291
     1
 70
    58
 90
        2
176
     0
 90
        2
176
     0
 90
        0
176
     0
 90
        0
176
     0
 40
0.6
176
     0
 40
30.0
176
     0
 62
     7
420
 16777215
176
     0
 90
        1
176
     0
 90
        4
176
     0
 62
     7
176
     0
 62
   257
176
     0
 90
        1
176
     0
 90
        1
176
     0
 40
1.0
176
     0
 90
       10
176
     2
 62
     7
176
     0
 40
1.0
176
     0
 90
        1
176
     0
 90
        6
176
     0
 90
        2
176
     0
 62
     7
176
     0
 90
        5
176
     0
 90
        0
176
     0
 90
        0
176
     0
290
     0
176
     0
 90
        1
176
     0
 40
0.0
176
     0
 90
        0
176
     0
290
     0
176
     0
290
     1
176
     0
290
     1
176
     0
290
     0
176
     0
290
     0
176
     0
290
     0
176
     0
290
     0
176
     0
290
     0
176
     0
290
     0
176
     0
 90
       50
176
     0
 40
0.0
176
     0
 40
1.0
176
     0
 90
        0
176
     0
 62
    18
420
        0
176
     0
 90
       50
176
     0
 90
        3
176
     0
 62
     5
420
      255
176
     0
290
     0
176
     0
 90
       50
176
     0
 90
       50
176
     0
 90
       50
176
     0
290
     0
176
     0
 90
       50
176
     0
 62
   256
176
     0
 40
1.0
176
     0
 90
        2
176
     0
  1
strokes_ogs.tif
176
     0
290
     0
176
     0
 40
1.0
176
     0
 40
1.0
176
     0
  0
VISUALSTYLE
  5
1B6
102
{ACAD_REACTORS
330
1A8
102
}
330
1A8
100
AcDbVisualStyle
  2
Linepattern
 70
    14
177
     3
291
     1
 70
    58
 90
        2
176
     1
 90
        2
176
     1
 90
        0
176
     1
 90
        0
176
     1
 40
0.6
176
     1
 40
30.0
176
     1
 62
     7
420
 16777215
176
     1
 90
        1
176
     1
 90
        4
176
     1
 62
     7
176
     1
 62
   257
176
     1
 90
        7
176
     1
 90
        7
176
     1
 40
1.0
176
     1
 90
        8
176
     1
 62
     7
176
     1
 40
1.0
176
     1
 90
        1
176
     1
 90
        6
176
     1
 90
        2
176
     1
 62
     7
176
     1
 90
        5
176
     1
 90
        0
176
     1
 90
        0
176
     1
290
     0
176
     1
 90
        1
176
     1
 40
0.0
176
     1
 90
        0
176
     1
290
     0
176
     1
290
     1
176
     1
290
     1
176
     1
290
     0
176
     1
290
     0
176
     1
290
     0
176
     1
290
     0
176
     1
290
     0
176
     1
290
     0
176
     1
 90
       50
176
     1
 40
0.0
176
     1
 40
1.0
176
     1
 90
        0
176
     1
 62
    18
420
        0
176
     1
 90
       50
176
     1
 90
        3
176
     1
 62
     5
420
      255
176
     1
290
     0
176
     1
 90
       50
176
     1
 90
       50
176
     1
 90
       50
176
     1
290
     0
176
     1
 90
       50
176
     1
 62
   256
176
     0
 40
1.0
176
     0
 90
        2
176
     1
  1
strokes_ogs.tif
176
     1
290
     0
176
     1
 40
1.0
176
     1
 40
1.0
176
     1
  0
VISUALSTYLE
  5
1BA
102
{ACAD_REACTORS
330
1A8
102
}
330
1A8
100
AcDbVisualStyle
  2
OverhangOff
 70
    21
177
     3
291
     1
 70
    58
 90
        2
176
     0
 90
        2
176
     0
 90
        0
176
     0
 90
        0
176
     0
 40
0.6
176
     0
 40
30.0
176
     0
 62
     7
420
 16777215
176
     0
 90
        1
176
     0
 90
        4
176
     0
 62
     7
176
     0
 62
   257
176
     0
 90
        1
176
     0
 90
        1
176
     0
 40
1.0
176
     0
 90
        9
176
     2
 62
     7
176
     0
 40
1.0
176
     0
 90
        1
176
     0
 90
        6
176
     0
 90
        2
176
     0
 62
     7
176
     0
 90
        5
176
     0
 90
        0
176
     0
 90
        0
176
     0
290
     0
176
     0
 90
        1
176
     0
 40
0.0
176
     0
 90
        0
176
     0
290
     0
176
     0
290
     1
176
     0
290
     1
176
     0
290
     0
176
     0
290
     0
176
     0
290
     0
176
     0
290
     0
176
     0
290
     0
176
     0
290
     0
176
     0
 90
       50
176
     0
 40
0.0
176
     0
 40
1.0
176
     0
 90
        0
176
     0
 62
    18
420
        0
176
     0
 90
       50
176
     0
 90
        3
176
     0
 62
     5
420
      255
176
     0
290
     0
176
     0
 90
       50
176
     0
 90
       50
176
     0
 90
       50
176
     0
290
     0
176
     0
 90
       50
176
     0
 62
   256
176
     0
 40
1.0
176
     0
 90
        2
176
     0
  1
strokes_ogs.tif
176
     0
290
     0
176
     0
 40
1.0
176
     0
 40
1.0
176
     0
  0
VISUALSTYLE
  5
1B1
102
{ACAD_REACTORS
330
1A8
102
}
330
1A8
100
AcDbVisualStyle
  2
Realistic
 70
     8
177
     3
291
     0
 70
    58
 90
        2
176
     1
 90
        3
176
     1
 90
        0
176
     1
 90
        2
176
     1
 40
0.6
176
     1
 40
30.0
176
     1
 62
     7
420
 16777215
176
     1
 90
        0
176
     1
 90
        0
176
     1
 62
     7
176
     1
 62
   257
176
     1
 90
        1
176
     1
 90
        1
176
     1
 40
1.0
176
     1
 90
        8
176
     1
 62
   257
176
     1
 40
1.0
176
     1
 90
        1
176
     1
 90
        6
176
     1
 90
        2
176
     1
 62
     7
176
     1
 90
        3
176
     1
 90
        0
176
     1
 90
        0
176
     1
290
     0
176
     1
 90
       13
176
     1
 40
0.0
176
     1
 90
        0
176
     1
290
     0
176
     1
290
     1
176
     1
290
     1
176
     1
290
     0
176
     1
290
     0
176
     1
290
     0
176
     1
290
     0
176
     1
290
     0
176
     1
290
     0
176
     1
 90
       50
176
     1
 40
0.0
176
     1
 40
1.0
176
     1
 90
        0
176
     1
 62
    18
420
        0
176
     1
 90
       50
176
     1
 90
        3
176
     1
 62
     5
420
      255
176
     1
290
     0
176
     1
 90
       50
176
     1
 90
       50
176
     1
 90
       50
176
     1
290
     0
176
     1
 90
       50
176
     1
 62
   256
176
     0
 40
1.0
176
     0
 90
        2
176
     1
  1
strokes_ogs.tif
176
     1
290
     0
176
     1
 40
1.0
176
     1
 40
1.0
176
     1
  0
VISUALSTYLE
  5
1C0
102
{ACAD_REACTORS
330
1A8
102
}
330
1A8
100
AcDbVisualStyle
  2
Shaded
 70
    27
177
     3
291
     0
 70
    58
 90
        2
176
     1
 90
        2
176
     1
 90
        1
176
     1
 90
        2
176
     1
 40
0.6
176
     1
 40
30.0
176
     1
 62
     7
420
 16777215
176
     1
 90
        0
176
     1
 90
        4
176
     1
 62
     7
176
     1
 62
   257
176
     1
 90
        1
176
     1
 90
        1
176
     1
 40
1.0
176
     1
 90
        8
176
     1
 62
   257
176
     1
 40
1.0
176
     1
 90
        1
176
     1
 90
        6
176
     1
 90
        2
176
     1
 62
     8
420
  7895160
176
     1
 90
        3
176
     1
 90
        0
176
     1
 90
        0
176
     1
290
     0
176
     1
 90
        5
176
     1
 40
0.0
176
     1
 90
        0
176
     1
290
     0
176
     1
290
     1
176
     1
290
     1
176
     1
290
     0
176
     1
290
     0
176
     1
290
     0
176
     1
290
     0
176
     1
290
     0
176
     1
290
     0
176
     1
 90
       50
176
     1
 40
0.0
176
     1
 40
1.0
176
     1
 90
        0
176
     1
 62
    18
420
        0
176
     1
 90
       50
176
     1
 90
        3
176
     1
 62
     5
420
      255
176
     1
290
     0
176
     1
 90
       50
176
     1
 90
       50
176
     1
 90
       50
176
     1
290
     0
176
     1
 90
       50
176
     1
 62
   256
176
     0
 40
1.0
176
     0
 90
        2
176
     1
  1
strokes_ogs.tif
176
     1
290
     0
176
     1
 40
1.0
176
     1
 40
1.0
176
     1
  0
VISUALSTYLE
  5
1BF
102
{ACAD_REACTORS
330
1A8
102
}
330
1A8
100
AcDbVisualStyle
  2
Shaded with edges
 70
    26
177
     3
291
     0
 70
    58
 90
        2
176
     1
 90
        2
176
     1
 90
        1
176
     1
 90
        2
176
     1
 40
0.6
176
     1
 40
30.0
176
     1
 62
     7
420
 16777215
176
     1
 90
        1
176
     1
 90
       10
176
     1
 62
     7
176
     1
 62
   257
176
     1
 90
        2
176
     1
 90
        1
176
     1
 40
1.0
176
     1
 90
        8
176
     1
 62
   257
176
     1
 40
1.0
176
     1
 90
        1
176
     1
 90
        6
176
     1
 90
        2
176
     1
 62
     7
176
     1
 90
        3
176
     1
 90
        0
176
     1
 90
        0
176
     1
290
     0
176
     1
 90
        5
176
     1
 40
0.0
176
     1
 90
        0
176
     1
290
     0
176
     1
290
     1
176
     1
290
     1
176
     1
290
     0
176
     1
290
     0
176
     1
290
     0
176
     1
290
     0
176
     1
290
     0
176
     1
290
     0
176
     1
 90
       50
176
     1
 40
0.0
176
     1
 40
1.0
176
     1
 90
        0
176
     1
 62
    18
420
        0
176
     1
 90
       50
176
     1
 90
        3
176
     1
 62
     5
420
      255
176
     1
290
     0
176
     1
 90
       50
176
     1
 90
       50
176
     1
 90
       50
176
     1
290
     0
176
     1
 90
       50
176
     1
 62
   256
176
     0
 40
1.0
176
     0
 90
        2
176
     1
  1
strokes_ogs.tif
176
     1
290
     0
176
     1
 40
1.0
176
     1
 40
1.0
176
     1
  0
VISUALSTYLE
  5
1BC
102
{ACAD_REACTORS
330
1A8
102
}
330
1A8
100
AcDbVisualStyle
  2
Shades of Gray
 70
    23
177
     3
291
     0
 70
    58
 90
        2
176
     1
 90
        2
176
     1
 90
        3
176
     1
 90
        0
176
     1
 40
0.6
176
     1
 40
30.0
176
     1
 62
     7
420
 16777215
176
     1
 90
        2
176
     1
 90
        2
176
     1
 62
     7
176
     1
 62
     7
176
     1
 90
        1
176
     1
 90
        1
176
     1
 40
40.0
176
     1
 90
        8
176
     1
 62
     7
176
     1
 40
1.0
176
     1
 90
        1
176
     1
 90
        6
176
     1
 90
        2
176
     1
 62
     7
176
     1
 90
        3
176
     1
 90
        0
176
     1
 90
        0
176
     1
290
     0
176
     1
 90
        1
176
     1
 40
0.0
176
     1
 90
        0
176
     1
290
     0
176
     1
290
     1
176
     1
290
     1
176
     1
290
     0
176
     1
290
     0
176
     1
290
     0
176
     1
290
     0
176
     1
290
     0
176
     1
290
     0
176
     1
 90
       50
176
     1
 40
0.0
176
     1
 40
1.0
176
     1
 90
        0
176
     1
 62
    18
420
        0
176
     1
 90
       50
176
     1
 90
        3
176
     1
 62
     5
420
      255
176
     1
290
     0
176
     1
 90
       50
176
     1
 90
       50
176
     1
 90
       50
176
     1
290
     0
176
     1
 90
       50
176
     1
 62
   256
176
     0
 40
1.0
176
     0
 90
        2
176
     1
  1
strokes_ogs.tif
176
     1
290
     0
176
     1
 40
1.0
176
     1
 40
1.0
176
     1
  0
VISUALSTYLE
  5
1BD
102
{ACAD_REACTORS
330
1A8
102
}
330
1A8
100
AcDbVisualStyle
  2
Sketchy
 70
    24
177
     3
291
     0
 70
    58
 90
        1
176
     1
 90
        2
176
     1
 90
        2
176
     1
 90
        0
176
     1
 40
0.6
176
     1
 40
30.0
176
     1
 62
     7
420
 16777215
176
     1
 90
        2
176
     1
 90
        2
176
     1
 62
     7
176
     1
 62
     7
176
     1
 90
        1
176
     1
 90
        1
176
     1
 40
40.0
176
     1
 90
       11
176
     1
 62
     7
176
     1
 40
1.0
176
     1
 90
        1
176
     1
 90
        6
176
     1
 90
        2
176
     1
 62
     7
176
     1
 90
        6
176
     1
 90
        0
176
     1
 90
        0
176
     1
290
     0
176
     1
 90
        1
176
     1
 40
0.0
176
     1
 90
        0
176
     1
290
     0
176
     1
290
     1
176
     1
290
     1
176
     1
290
     0
176
     1
290
     0
176
     1
290
     0
176
     1
290
     0
176
     1
290
     0
176
     1
290
     0
176
     1
 90
       50
176
     1
 40
0.0
176
     1
 40
1.0
176
     1
 90
        0
176
     1
 62
    18
420
        0
176
     1
 90
       50
176
     1
 90
        3
176
     1
 62
     5
420
      255
176
     1
290
     0
176
     1
 90
       50
176
     1
 90
       50
176
     1
 90
       50
176
     1
290
     0
176
     1
 90
       50
176
     1
 62
   256
176
     0
 40
1.0
176
     0
 90
        2
176
     1
  1
strokes_ogs.tif
176
     1
290
     0
176
     1
 40
1.0
176
     1
 40
1.0
176
     1
  0
VISUALSTYLE
  5
1B5
102
{ACAD_REACTORS
330
1A8
102
}
330
1A8
100
AcDbVisualStyle
  2
Thicken
 70
    13
177
     3
291
     1
 70
    58
 90
        2
176
     1
 90
        2
176
     1
 90
        0
176
     1
 90
        0
176
     1
 40
0.6
176
     1
 40
30.0
176
     1
 62
     7
420
 16777215
176
     1
 90
        1
176
     1
 90
        4
176
     1
 62
     7
176
     1
 62
   257
176
     1
 90
        1
176
     1
 90
        1
176
     1
 40
1.0
176
     1
 90
       12
176
     1
 62
     7
176
     1
 40
1.0
176
     1
 90
        1
176
     1
 90
        6
176
     1
 90
        2
176
     1
 62
     7
176
     1
 90
        5
176
     1
 90
        0
176
     1
 90
        0
176
     1
290
     0
176
     1
 90
        1
176
     1
 40
0.0
176
     1
 90
        0
176
     1
290
     0
176
     1
290
     1
176
     1
290
     1
176
     1
290
     0
176
     1
290
     0
176
     1
290
     0
176
     1
290
     0
176
     1
290
     0
176
     1
290
     0
176
     1
 90
       50
176
     1
 40
0.0
176
     1
 40
1.0
176
     1
 90
        0
176
     1
 62
    18
420
        0
176
     1
 90
       50
176
     1
 90
        3
176
     1
 62
     5
420
      255
176
     1
290
     0
176
     1
 90
       50
176
     1
 90
       50
176
     1
 90
       50
176
     1
290
     0
176
     1
 90
       50
176
     1
 62
   256
176
     0
 40
1.0
176
     0
 90
        2
176
     1
  1
strokes_ogs.tif
176
     1
290
     0
176
     1
 40
1.0
176
     1
 40
1.0
176
     1
  0
VISUALSTYLE
  5
1AE
102
{ACAD_REACTORS
330
1A8
102
}
330
1A8
100
AcDbVisualStyle
  2
Wireframe
 70
     5
177
     3
291
     0
 70
    58
 90
        0
176
     1
 90
        2
176
     1
 90
        0
176
     1
 90
        0
176
     1
 40
0.6
176
     1
 40
30.0
176
     1
 62
     7
420
 16777215
176
     1
 90
        1
176
     1
 90
        4
176
     1
 62
     7
176
     1
 62
   257
176
     1
 90
        1
176
     1
 90
        1
176
     1
 40
1.0
176
     1
 90
        0
176
     1
 62
   257
176
     1
 40
1.0
176
     1
 90
        1
176
     1
 90
        6
176
     1
 90
        2
176
     1
 62
     7
176
     1
 90
        3
176
     1
 90
        0
176
     1
 90
        0
176
     1
290
     0
176
     1
 90
        1
176
     1
 40
0.0
176
     1
 90
        0
176
     1
290
     0
176
     1
290
     1
176
     1
290
     1
176
     1
290
     0
176
     1
290
     0
176
     1
290
     0
176
     1
290
     0
176
     1
290
     0
176
     1
290
     0
176
     1
 90
       50
176
     1
 40
0.0
176
     1
 40
1.0
176
     1
 90
        0
176
     1
 62
    18
420
        0
176
     1
 90
       50
176
     1
 90
        3
176
     1
 62
     5
420
      255
176
     1
290
     0
176
     1
 90
       50
176
     1
 90
       50
176
     1
 90
       50
176
     1
290
     0
176
     1
 90
       50
176
     1
 62
   256
176
     0
 40
1.0
176
     0
 90
        2
176
     1
  1
strokes_ogs.tif
176
     1
290
     0
176
     1
 40
1.0
176
     1
 40
1.0
176
     1
  0
VISUALSTYLE
  5
1BE
102
{ACAD_REACTORS
330
1A8
102
}
330
1A8
100
AcDbVisualStyle
  2
X-Ray
 70
    25
177
     3
291
     0
 70
    58
 90
        2
176
     1
 90
        2
176
     1
 90
        1
176
     1
 90
        1
176
     1
 40
0.5
176
     1
 40
30.0
176
     1
 62
     7
420
 16777215
176
     1
 90
        1
176
     1
 90
        0
176
     1
 62
     7
176
     1
 62
   257
176
     1
 90
        1
176
     1
 90
        1
176
     1
 40
1.0
176
     1
 90
        8
176
     1
 62
     7
176
     1
 40
1.0
176
     1
 90
        1
176
     1
 90
        6
176
     1
 90
        2
176
     1
 62
     7
176
     1
 90
        3
176
     1
 90
        0
176
     1
 90
        0
176
     1
290
     0
176
     1
 90
       13
176
     1
 40
0.0
176
     1
 90
        0
176
     1
290
     0
176
     1
290
     1
176
     1
290
     1
176
     1
290
     0
176
     1
290
     0
176
     1
290
     0
176
     1
290
     0
176
     1
290
     0
176
     1
290
     0
176
     1
 90
       50
176
     1
 40
0.0
176
     1
 40
1.0
176
     1
 90
        0
176
     1
 62
    18
420
        0
176
     1
 90
       50
176
     1
 90
        3
176
     1
 62
     5
420
      255
176
     1
290
     0
176
     1
 90
       50
176
     1
 90
       50
176
     1
 90
       50
176
     1
290
     0
176
     1
 90
       50
176
     1
 62
   256
176
     0
 40
1.0
176
     0
 90
        2
176
     1
  1
strokes_ogs.tif
176
     1
290
     0
176
     1
 40
1.0
176
     1
 40
1.0
176
     1
  0
DICTIONARYVAR
  5
1CB
102
{ACAD_REACTORS
330
1CA
102
}
330
1CA
100
DictionaryVariables
280
     0
  1
1:1
  0
DICTIONARYVAR
  5
1CD
102
{ACAD_REACTORS
330
1CA
102
}
330
1CA
100
DictionaryVariables
280
     0
  1
Standard
  0
DICTIONARYVAR
  5
1CC
102
{ACAD_REACTORS
330
1CA
102
}
330
1CA
100
DictionaryVariables
280
     0
  1
Standard
  0
DICTIONARYVAR
  5
1CE
102
{ACAD_REACTORS
330
1CA
102
}
330
1CA
100
DictionaryVariables
280
     0
  1
0
  0
DICTIONARY
  5
487
330
1C6
100
AcDbDictionary
280
     1
281
     1
  3
ACAD_ROUNDTRIP_2008_TABLESTYLE_CELLSTYLEMAP
360
488
  0
CELLSTYLEMAP
  5
488
102
{ACAD_REACTORS
330
487
102
}
330
487
100
AcDbCellStyleMap
 90
        3
300
CELLSTYLE
  1
TABLEFORMAT_BEGIN
 90
        5
170
     1
 91
        0
 92
    32768
 62
   257
 93
        1
300
CONTENTFORMAT
  1
CONTENTFORMAT_BEGIN
 90
        0
 91
        0
 92
        4
 93
        0
300

 40
0.0
140
1.0
 94
        5
 62
     0
340
11
144
6.0
309
CONTENTFORMAT_END
171
     1
301
MARGIN
  1
CELLMARGIN_BEGIN
 40
1.5
 40
1.5
 40
1.5
 40
1.5
 40
1.5
 40
1.5
309
CELLMARGIN_END
 94
        6
 95
        1
302
GRIDFORMAT
  1
GRIDFORMAT_BEGIN
 90
        0
 91
        1
 62
     0
 92
       -2
340
14
 93
        0
 40
0.045
309
GRIDFORMAT_END
 95
        2
302
GRIDFORMAT
  1
GRIDFORMAT_BEGIN
 90
        0
 91
        1
 62
     0
 92
       -2
340
14
 93
        0
 40
0.045
309
GRIDFORMAT_END
 95
        4
302
GRIDFORMAT
  1
GRIDFORMAT_BEGIN
 90
        0
 91
        1
 62
     0
 92
       -2
340
14
 93
        0
 40
0.045
309
GRIDFORMAT_END
 95
        8
302
GRIDFORMAT
  1
GRIDFORMAT_BEGIN
 90
        0
 91
        1
 62
     0
 92
       -2
340
14
 93
        0
 40
0.045
309
GRIDFORMAT_END
 95
       16
302
GRIDFORMAT
  1
GRIDFORMAT_BEGIN
 90
        0
 91
        1
 62
     0
 92
       -2
340
14
 93
        0
 40
0.045
309
GRIDFORMAT_END
 95
       32
302
GRIDFORMAT
  1
GRIDFORMAT_BEGIN
 90
        0
 91
        1
 62
     0
 92
       -2
340
14
 93
        0
 40
0.045
309
GRIDFORMAT_END
309
TABLEFORMAT_END
  1
CELLSTYLE_BEGIN
 90
        1
 91
        1
300
_TITLE
309
CELLSTYLE_END
300
CELLSTYLE
  1
TABLEFORMAT_BEGIN
 90
        5
170
     1
 91
        0
 92
        0
 62
   257
 93
        1
300
CONTENTFORMAT
  1
CONTENTFORMAT_BEGIN
 90
        0
 91
        0
 92
        4
 93
        0
300

 40
0.0
140
1.0
 94
        5
 62
     0
340
11
144
4.5
309
CONTENTFORMAT_END
171
     1
301
MARGIN
  1
CELLMARGIN_BEGIN
 40
1.5
 40
1.5
 40
1.5
 40
1.5
 40
1.5
 40
1.5
309
CELLMARGIN_END
 94
        6
 95
        1
302
GRIDFORMAT
  1
GRIDFORMAT_BEGIN
 90
        0
 91
        1
 62
     0
 92
       -2
340
14
 93
        0
 40
0.045
309
GRIDFORMAT_END
 95
        2
302
GRIDFORMAT
  1
GRIDFORMAT_BEGIN
 90
        0
 91
        1
 62
     0
 92
       -2
340
14
 93
        0
 40
0.045
309
GRIDFORMAT_END
 95
        4
302
GRIDFORMAT
  1
GRIDFORMAT_BEGIN
 90
        0
 91
        1
 62
     0
 92
       -2
340
14
 93
        0
 40
0.045
309
GRIDFORMAT_END
 95
        8
302
GRIDFORMAT
  1
GRIDFORMAT_BEGIN
 90
        0
 91
        1
 62
     0
 92
       -2
340
14
 93
        0
 40
0.045
309
GRIDFORMAT_END
 95
       16
302
GRIDFORMAT
  1
GRIDFORMAT_BEGIN
 90
        0
 91
        1
 62
     0
 92
       -2
340
14
 93
        0
 40
0.045
309
GRIDFORMAT_END
 95
       32
302
GRIDFORMAT
  1
GRIDFORMAT_BEGIN
 90
        0
 91
        1
 62
     0
 92
       -2
340
14
 93
        0
 40
0.045
309
GRIDFORMAT_END
309
TABLEFORMAT_END
  1
CELLSTYLE_BEGIN
 90
        2
 91
        1
300
_HEADER
309
CELLSTYLE_END
300
CELLSTYLE
  1
TABLEFORMAT_BEGIN
 90
        5
170
     1
 91
        0
 92
        0
 62
   257
 93
        1
300
CONTENTFORMAT
  1
CONTENTFORMAT_BEGIN
 90
        0
 91
        0
 92
        4
 93
        0
300

 40
0.0
140
1.0
 94
        2
 62
     0
340
11
144
4.5
309
CONTENTFORMAT_END
171
     1
301
MARGIN
  1
CELLMARGIN_BEGIN
 40
1.5
 40
1.5
 40
1.5
 40
1.5
 40
1.5
 40
1.5
309
CELLMARGIN_END
 94
        6
 95
        1
302
GRIDFORMAT
  1
GRIDFORMAT_BEGIN
 90
        0
 91
        1
 62
     0
 92
       -2
340
14
 93
        0
 40
0.045
309
GRIDFORMAT_END
 95
        2
302
GRIDFORMAT
  1
GRIDFORMAT_BEGIN
 90
        0
 91
        1
 62
     0
 92
       -2
340
14
 93
        0
 40
0.045
309
GRIDFORMAT_END
 95
        4
302
GRIDFORMAT
  1
GRIDFORMAT_BEGIN
 90
        0
 91
        1
 62
     0
 92
       -2
340
14
 93
        0
 40
0.045
309
GRIDFORMAT_END
 95
        8
302
GRIDFORMAT
  1
GRIDFORMAT_BEGIN
 90
        0
 91
        1
 62
     0
 92
       -2
340
14
 93
        0
 40
0.045
309
GRIDFORMAT_END
 95
       16
302
GRIDFORMAT
  1
GRIDFORMAT_BEGIN
 90
        0
 91
        1
 62
     0
 92
       -2
340
14
 93
        0
 40
0.045
309
GRIDFORMAT_END
 95
       32
302
GRIDFORMAT
  1
GRIDFORMAT_BEGIN
 90
        0
 91
        1
 62
     0
 92
       -2
340
14
 93
        0
 40
0.045
309
GRIDFORMAT_END
309
TABLEFORMAT_END
  1
CELLSTYLE_BEGIN
 90
        3
 91
        2
300
_DATA
309
CELLSTYLE_END
  0
ENDSEC
  0
EOF
