  0
SECTION
  2
HEADER
  9
$ACADVER
  1
AC1015
  9
$ACADMAINTVER
 70
     6
  9
$DWGCODEPAGE
  3
DOS932
  9
$INSBASE
 10
0.0
 20
0.0
 30
0.0
  9
$EXTMIN
 10
0.0
 20
0.0
 30
0.0
  9
$EXTMAX
 10
210.0
 20
297.0
 30
0.0
  9
$LIMMIN
 10
0.0
 20
0.0
  9
$LIMMAX
 10
210.0
 20
297.0
  9
$ORTHOMODE
 70
     0
  9
$REGENMODE
 70
     1
  9
$FILLMODE
 70
     1
  9
$QTEXTMODE
 70
     0
  9
$MIRRTEXT
 70
     1
  9
$LTSCALE
 40
1.0
  9
$ATTMODE
 70
     1
  9
$TEXTSIZE
 40
3.5
  9
$TRACEWID
 40
1.0
  9
$TEXTSTYLE
  7
Standard
  9
$CLAYER
  8
0
  9
$CELTYPE
  6
ByLayer
  9
$CECOLOR
 62
   256
  9
$CELTSCALE
 40
1.0
  9
$DISPSILH
 70
     0
  9
$DIMSCALE
 40
1.0
  9
$DIMASZ
 40
1.5
  9
$DIMEXO
 40
1.0
  9
$DIMDLI
 40
3.75
  9
$DIMRND
 40
0.0
  9
$DIMDLE
 40
0.0
  9
$DIMEXE
 40
1.0
  9
$DIMTP
 40
0.0
  9
$DIMTM
 40
0.0
  9
$DIMTXT
 40
3.5
  9
$DIMCEN
 40
2.5
  9
$DIMTSZ
 40
0.0
  9
$DIMTOL
 70
     0
  9
$DIMLIM
 70
     0
  9
$DIMTIH
 70
     1
  9
$DIMTOH
 70
     1
  9
$DIMSE1
 70
     0
  9
$DIMSE2
 70
     0
  9
$DIMTAD
 70
     1
  9
$DIMZIN
 70
     0
  9
$DIMBLK
  1

  9
$DIMASO
 70
     1
  9
$DIMSHO
 70
     1
  9
$DIMPOST
  1

  9
$DIMAPOST
  1

  9
$DIMALT
 70
     0
  9
$DIMALTD
 70
     3
  9
$DIMALTF
 40
0.0393700787
  9
$DIMLFAC
 40
5.0
  9
$DIMTOFL
 70
     1
  9
$DIMTVP
 40
0.0
  9
$DIMTIX
 70
     0
  9
$DIMSOXD
 70
     0
  9
$DIMSAH
 70
     0
  9
$DIMBLK1
  1

  9
$DIMBLK2
  1

  9
$DIMSTYLE
  2
ISO-25
  9
$DIMCLRD
 70
     0
  9
$DIMCLRE
 70
     0
  9
$DIMCLRT
 70
     0
  9
$DIMTFAC
 40
1.0
  9
$DIMGAP
 40
1.5
  9
$DIMJUST
 70
     0
  9
$DIMSD1
 70
     0
  9
$DIMSD2
 70
     0
  9
$DIMTOLJ
 70
     0
  9
$DIMTZIN
 70
     0
  9
$DIMALTZ
 70
     0
  9
$DIMALTTZ
 70
     0
  9
$DIMUPT
 70
     0
  9
$DIMDEC
 70
     1
  9
$DIMTDEC
 70
     1
  9
$DIMALTU
 70
     2
  9
$DIMALTTD
 70
     3
  9
$DIMTXSTY
  7
Standard
  9
$DIMAUNIT
 70
     0
  9
$DIMADEC
 70
     2
  9
$DIMALTRND
 40
0.0
  9
$DIMAZIN
 70
     0
  9
$DIMDSEP
 70
    44
  9
$DIMATFIT
 70
     3
  9
$DIMFRAC
 70
     0
  9
$DIMLDRBLK
  1

  9
$DIMLUNIT
 70
     2
  9
$DIMLWD
 70
    -2
  9
$DIMLWE
 70
    -2
  9
$DIMTMOVE
 70
     0
  9
$LUNITS
 70
     2
  9
$LUPREC
 70
     2
  9
$SKETCHINC
 40
1.0
  9
$FILLETRAD
 40
10.0
  9
$AUNITS
 70
     0
  9
$AUPREC
 70
     2
  9
$MENU
  1
.
  9
$ELEVATION
 40
0.0
  9
$PELEVATION
 40
0.0
  9
$THICKNESS
 40
0.0
  9
$LIMCHECK
 70
     0
  9
$CHAMFERA
 40
0.0
  9
$CHAMFERB
 40
0.0
  9
$CHAMFERC
 40
0.0
  9
$CHAMFERD
 40
0.0
  9
$SKPOLY
 70
     0
  9
$TDCREATE
 40
2460018.592651829
  9
$TDUCREATE
 40
2460018.217651829
  9
$TDUPDATE
 40
2460018.59265206
  9
$TDUUPDATE
 40
2460018.21765206
  9
$TDINDWG
 40
0.0000000116
  9
$TDUSRTIMER
 40
0.0000000116
  9
$USRTIMER
 70
     1
  9
$ANGBASE
 50
0.0
  9
$ANGDIR
 70
     0
  9
$PDMODE
 70
     0
  9
$PDSIZE
 40
-1.0
  9
$PLINEWID
 40
0.0
  9
$SPLFRAME
 70
     0
  9
$SPLINETYPE
 70
     6
  9
$SPLINESEGS
 70
     8
  9
$HANDSEED
  5
26C
  9
$SURFTAB1
 70
     6
  9
$SURFTAB2
 70
     6
  9
$SURFTYPE
 70
     6
  9
$SURFU
 70
     6
  9
$SURFV
 70
     6
  9
$UCSBASE
  2

  9
$UCSNAME
  2

  9
$UCSORG
 10
0.0
 20
0.0
 30
0.0
  9
$UCSXDIR
 10
1.0
 20
0.0
 30
0.0
  9
$UCSYDIR
 10
0.0
 20
1.0
 30
0.0
  9
$UCSORTHOREF
  2

  9
$UCSORTHOVIEW
 70
     0
  9
$UCSORGTOP
 10
0.0
 20
0.0
 30
0.0
  9
$UCSORGBOTTOM
 10
0.0
 20
0.0
 30
0.0
  9
$UCSORGLEFT
 10
0.0
 20
0.0
 30
0.0
  9
$UCSORGRIGHT
 10
0.0
 20
0.0
 30
0.0
  9
$UCSORGFRONT
 10
0.0
 20
0.0
 30
0.0
  9
$UCSORGBACK
 10
0.0
 20
0.0
 30
0.0
  9
$PUCSBASE
  2

  9
$PUCSNAME
  2

  9
$PUCSORG
 10
0.0
 20
0.0
 30
0.0
  9
$PUCSXDIR
 10
1.0
 20
0.0
 30
0.0
  9
$PUCSYDIR
 10
0.0
 20
1.0
 30
0.0
  9
$PUCSORTHOREF
  2

  9
$PUCSORTHOVIEW
 70
     0
  9
$PUCSORGTOP
 10
0.0
 20
0.0
 30
0.0
  9
$PUCSORGBOTTOM
 10
0.0
 20
0.0
 30
0.0
  9
$PUCSORGLEFT
 10
0.0
 20
0.0
 30
0.0
  9
$PUCSORGRIGHT
 10
0.0
 20
0.0
 30
0.0
  9
$PUCSORGFRONT
 10
0.0
 20
0.0
 30
0.0
  9
$PUCSORGBACK
 10
0.0
 20
0.0
 30
0.0
  9
$USERI1
 70
     0
  9
$USERI2
 70
     0
  9
$USERI3
 70
     0
  9
$USERI4
 70
     0
  9
$USERI5
 70
     0
  9
$USERR1
 40
0.0
  9
$USERR2
 40
0.0
  9
$USERR3
 40
0.0
  9
$USERR4
 40
0.0
  9
$USERR5
 40
0.0
  9
$WORLDVIEW
 70
     1
  9
$SHADEDGE
 70
     3
  9
$SHADEDIF
 70
    70
  9
$TILEMODE
 70
     1
  9
$MAXACTVP
 70
    64
  9
$PINSBASE
 10
0.0
 20
0.0
 30
0.0
  9
$PLIMCHECK
 70
     0
  9
$PEXTMIN
 10
1.0000000000E+20
 20
1.0000000000E+20
 30
1.0000000000E+20
  9
$PEXTMAX
 10
-1.0000000000E+20
 20
-1.0000000000E+20
 30
-1.0000000000E+20
  9
$PLIMMIN
 10
0.0
 20
0.0
  9
$PLIMMAX
 10
420.0
 20
297.0
  9
$UNITMODE
 70
     0
  9
$VISRETAIN
 70
     1
  9
$PLINEGEN
 70
     0
  9
$PSLTSCALE
 70
     1
  9
$TREEDEPTH
 70
  3020
  9
$CMLSTYLE
  2
Standard
  9
$CMLJUST
 70
     0
  9
$CMLSCALE
 40
20.0
  9
$PROXYGRAPHICS
 70
     1
  9
$MEASUREMENT
 70
     1
  9
$CELWEIGHT
370
    -1
  9
$ENDCAPS
280
     0
  9
$JOINSTYLE
280
     0
  9
$LWDISPLAY
290
     1
  9
$INSUNITS
 70
     4
  9
$HYPERLINKBASE
  1

  9
$STYLESHEET
  1

  9
$XEDIT
290
     1
  9
$CEPSNTYPE
380
     0
  9
$PSTYLEMODE
290
     1
  9
$FINGERPRINTGUID
  2
{150c0a25-725a-4a0a-877e-4db6e88be6d6}
  9
$VERSIONGUID
  2
{FAEB1C32-E019-11D5-929B-00C0DF256EC4}
  9
$EXTNAMES
290
     1
  9
$PSVPSCALE
 40
0.0
  9
$OLESTARTUP
290
     0
  0
ENDSEC
  0
SECTION
  2
CLASSES
  0
CLASS
  1
ACDBDICTIONARYWDFLT
  2
AcDbDictionaryWithDefault
  3
ObjectDBX Classes
 90
        0
280
     0
281
     0
  0
CLASS
  1
VISUALSTYLE
  2
AcDbVisualStyle
  3
ObjectDBX Classes
 90
     4095
280
     0
281
     0
  0
CLASS
  1
MATERIAL
  2
AcDbMaterial
  3
ObjectDBX Classes
 90
     1153
280
     0
281
     0
  0
CLASS
  1
SCALE
  2
AcDbScale
  3
ObjectDBX Classes
 90
     1153
280
     0
281
     0
  0
CLASS
  1
TABLESTYLE
  2
AcDbTableStyle
  3
ObjectDBX Classes
 90
     4095
280
     0
281
     0
  0
CLASS
  1
MLEADERSTYLE
  2
AcDbMLeaderStyle
  3
ACDB_MLEADERSTYLE_CLASS
 90
     4095
280
     0
281
     0
  0
CLASS
  1
SUN
  2
AcDbSun
  3
SCENEOE
 90
     1153
280
     0
281
     0
  0
CLASS
  1
ACDBPLACEHOLDER
  2
AcDbPlaceHolder
  3
ObjectDBX Classes
 90
        0
280
     0
281
     0
  0
CLASS
  1
LAYOUT
  2
AcDbLayout
  3
ObjectDBX Classes
 90
        0
280
     0
281
     0
  0
ENDSEC
  0
SECTION
  2
TABLES
  0
TABLE
  2
VPORT
  5
8
330
0
100
AcDbSymbolTable
 70
     1
  0
VPORT
  5
29
330
8
100
AcDbSymbolTableRecord
100
AcDbViewportTableRecord
  2
*Active
 70
     0
 10
0.0
 20
0.0
 11
1.0
 21
1.0
 12
105.0
 22
148.5
 13
0.0
 23
0.0
 14
10.0
 24
10.0
 15
10.0
 25
10.0
 16
0.0
 26
0.0
 36
1.0
 17
0.0
 27
0.0
 37
0.0
 40
297.0
 41
0.7070707071
 42
50.0
 43
0.0
 44
0.0
 50
0.0
 51
0.0
 71
     0
 72
  2000
 73
     1
 74
     3
 75
     0
 76
     0
 77
     0
 78
     0
281
     0
 65
     1
110
0.0
120
0.0
130
0.0
111
1.0
121
0.0
131
0.0
112
0.0
122
1.0
132
0.0
 79
     0
146
0.0
  0
ENDTAB
  0
TABLE
  2
LTYPE
  5
5
330
0
100
AcDbSymbolTable
 70
     6
  0
LTYPE
  5
14
330
5
100
AcDbSymbolTableRecord
100
AcDbLinetypeTableRecord
  2
ByBlock
 70
     0
  3

 72
    65
 73
     0
 40
0.0
  0
LTYPE
  5
15
330
5
100
AcDbSymbolTableRecord
100
AcDbLinetypeTableRecord
  2
ByLayer
 70
     0
  3

 72
    65
 73
     0
 40
0.0
  0
LTYPE
  5
16
330
5
100
AcDbSymbolTableRecord
100
AcDbLinetypeTableRecord
  2
Continuous
 70
     0
  3
Solid line
 72
    65
 73
     0
 40
0.0
  0
LTYPE
  5
6E
330
5
100
AcDbSymbolTableRecord
100
AcDbLinetypeTableRecord
  2
HIDDEN
 70
     0
  3
Hidden __ __ __ __ __ __ __ __ __ __ __ __ __ __
 72
    65
 73
     2
 40
1.905
 49
1.27
 74
     0
 49
-0.635
 74
     0
  0
LTYPE
  5
6F
330
5
100
AcDbSymbolTableRecord
100
AcDbLinetypeTableRecord
  2
PHANTOM
 70
     0
  3
Phantom ______  __  __  ______  __  __  ______
 72
    65
 73
     6
 40
12.7
 49
6.35
 74
     0
 49
-1.27
 74
     0
 49
1.27
 74
     0
 49
-1.27
 74
     0
 49
1.27
 74
     0
 49
-1.27
 74
     0
  0
LTYPE
  5
70
330
5
100
AcDbSymbolTableRecord
100
AcDbLinetypeTableRecord
  2
CENTER
 70
     0
  3
Center ____ _ ____ _ ____ _ ____ _ ____ _ ____
 72
    65
 73
     4
 40
10.16
 49
6.35
 74
     0
 49
-1.27
 74
     0
 49
1.27
 74
     0
 49
-1.27
 74
     0
  0
LTYPE
  5
71
330
5
100
AcDbSymbolTableRecord
100
AcDbLinetypeTableRecord
  2
CENTERX2
 70
     0
  3
Center (2x) ________  __  ________  __  _____
 72
    65
 73
     4
 40
20.32
 49
12.7
 74
     0
 49
-2.54
 74
     0
 49
2.54
 74
     0
 49
-2.54
 74
     0
  0
LTYPE
  5
72
330
5
100
AcDbSymbolTableRecord
100
AcDbLinetypeTableRecord
  2
DOT2
 70
     0
  3
Dot (.5x) ........................................
 72
    65
 73
     2
 40
0.635
 49
0.0
 74
     0
 49
-0.635
 74
     0
  0
ENDTAB
  0
TABLE
  2
LAYER
  5
2
330
0
100
AcDbSymbolTable
 70
     1
  0
LAYER
  5
10
330
2
100
AcDbSymbolTableRecord
100
AcDbLayerTableRecord
  2
0
 70
     0
 62
     7
  6
Continuous
370
    -3
390
F
  0
ENDTAB
  0
TABLE
  2
STYLE
  5
3
330
0
100
AcDbSymbolTable
 70
     2
  0
STYLE
  5
11
330
3
100
AcDbSymbolTableRecord
100
AcDbTextStyleTableRecord
  2
Standard
 70
     0
 40
0.0
 41
1.0
 50
0.0
 71
     0
 42
3.5
  3
txt
  4
bigfont
  0
STYLE
  5
76
330
3
100
AcDbSymbolTableRecord
100
AcDbTextStyleTableRecord
  2
SLDTEXTSTYLE0
 70
     0
 40
0.0
 41
0.7
 50
0.0
 71
     0
 42
3.5
  3
TXT
  4
bigfont
  0
ENDTAB
  0
TABLE
  2
VIEW
  5
6
330
0
100
AcDbSymbolTable
 70
     0
  0
ENDTAB
  0
TABLE
  2
UCS
  5
7
330
0
100
AcDbSymbolTable
 70
     0
  0
ENDTAB
  0
TABLE
  2
APPID
  5
9
330
0
100
AcDbSymbolTable
 70
     1
  0
APPID
  5
12
330
9
100
AcDbSymbolTableRecord
100
AcDbRegAppTableRecord
  2
ACAD
 70
     0
  0
ENDTAB
  0
TABLE
  2
DIMSTYLE
  5
A
330
0
100
AcDbSymbolTable
 70
     1
100
AcDbDimStyleTable
  0
DIMSTYLE
105
27
330
A
100
AcDbSymbolTableRecord
100
AcDbDimStyleTableRecord
  2
ISO-25
 70
     0
 41
2.5
 42
0.625
 43
3.75
 44
1.25
 73
     0
 74
     0
 77
     1
 78
     8
140
2.5
141
2.5
143
0.0393700787
147
0.625
171
     3
172
     1
178
     0
271
     2
272
     2
274
     3
278
    44
283
     0
284
     8
340
11
  0
ENDTAB
  0
TABLE
  2
BLOCK_RECORD
  5
1
330
0
100
AcDbSymbolTable
 70
     2
  0
BLOCK_RECORD
  5
1F
330
1
100
AcDbSymbolTableRecord
100
AcDbBlockTableRecord
  2
*Model_Space
340
22
  0
BLOCK_RECORD
  5
1B
330
1
100
AcDbSymbolTableRecord
100
AcDbBlockTableRecord
  2
*Paper_Space
340
1E
  0
BLOCK_RECORD
  5
23
330
1
100
AcDbSymbolTableRecord
100
AcDbBlockTableRecord
  2
*Paper_Space0
340
26
  0
BLOCK_RECORD
  5
73
330
1
100
AcDbSymbolTableRecord
100
AcDbBlockTableRecord
  2
SW_NOTE_0
340
0
102
{BLKREFS
331
7F
102
}
  0
ENDTAB
  0
ENDSEC
  0
SECTION
  2
BLOCKS
  0
BLOCK
  5
20
330
1F
100
AcDbEntity
  8
0
100
AcDbBlockBegin
  2
*Model_Space
 70
     0
 10
0.0
 20
0.0
 30
0.0
  3
*Model_Space
  1

  0
ENDBLK
  5
21
330
1F
100
AcDbEntity
  8
0
100
AcDbBlockEnd
  0
BLOCK
  5
1C
330
1B
100
AcDbEntity
 67
     1
  8
0
100
AcDbBlockBegin
  2
*Paper_Space
 70
     0
 10
0.0
 20
0.0
 30
0.0
  3
*Paper_Space
  1

  0
ENDBLK
  5
1D
330
1B
100
AcDbEntity
 67
     1
  8
0
100
AcDbBlockEnd
  0
BLOCK
  5
24
330
23
100
AcDbEntity
  8
0
100
AcDbBlockBegin
  2
*Paper_Space0
 70
     0
 10
0.0
 20
0.0
 30
0.0
  3
*Paper_Space0
  1

  0
ENDBLK
  5
25
330
23
100
AcDbEntity
  8
0
100
AcDbBlockEnd
  0
BLOCK
  5
74
330
73
100
AcDbEntity
  8
0
100
AcDbBlockBegin
  2
SW_NOTE_0
 70
     0
 10
0.0
 20
0.0
 30
0.0
  3
SW_NOTE_0
  1

  0
MTEXT
  5
77
330
73
100
AcDbEntity
  8
0
  6
Continuous
 62
     0
370
     0
100
AcDbMText
 10
0.0
 20
4.5117370892
 30
0.0
 40
3.5
 41
0.0
 71
     1
 72
     1
  1
HBD-D30S
  7
SLDTEXTSTYLE0
 73
     1
 44
1.0
  0
MTEXT
  5
78
330
73
100
AcDbEntity
  8
0
  6
Continuous
 62
     0
370
     0
100
AcDbMText
 10
0.0
 20
0.0117372829
 30
0.0
 40
3.5
 41
0.0
 71
     1
 72
     1
  1
HBD-D44S
  7
SLDTEXTSTYLE0
 73
     1
 44
1.0
  0
MTEXT
  5
79
330
73
100
AcDbEntity
  8
0
  6
Continuous
 62
     0
370
     0
100
AcDbMText
 10
0.0
 20
-4.4882625234
 30
0.0
 40
3.5
 41
0.0
 71
     1
 72
     1
  1
HBD-D31S
  7
SLDTEXTSTYLE0
 73
     1
 44
1.0
  0
MTEXT
  5
7A
330
73
100
AcDbEntity
  8
0
  6
Continuous
 62
     0
370
     0
100
AcDbMText
 10
0.0
 20
-8.9882623297
 30
0.0
 40
3.5
 41
0.0
 71
     1
 72
     1
  1
HBD-D45S
  7
SLDTEXTSTYLE0
 73
     1
 44
1.0
  0
MTEXT
  5
7B
330
73
100
AcDbEntity
  8
0
  6
Continuous
 62
     0
370
     0
100
AcDbMText
 10
0.0
 20
-17.9882619422
 30
0.0
 40
3.5
 41
0.0
 71
     1
 72
     1
  1
HFF-D31S
  7
SLDTEXTSTYLE0
 73
     1
 44
1.0
  0
MTEXT
  5
7C
330
73
100
AcDbEntity
  8
0
  6
Continuous
 62
     0
370
     0
100
AcDbMText
 10
0.0
 20
-22.4882617485
 30
0.0
 40
3.5
 41
0.0
 71
     1
 72
     1
  1
HFF-D41S
  7
SLDTEXTSTYLE0
 73
     1
 44
1.0
  0
MTEXT
  5
7D
330
73
100
AcDbEntity
  8
0
  6
Continuous
 62
     0
370
     0
100
AcDbMText
 10
0.0
 20
-26.9882615548
 30
0.0
 40
3.5
 41
0.0
 71
     1
 72
     1
  1
HFF-D32S
  7
SLDTEXTSTYLE0
 73
     1
 44
1.0
  0
MTEXT
  5
7E
330
73
100
AcDbEntity
  8
0
  6
Continuous
 62
     0
370
     0
100
AcDbMText
 10
0.0
 20
-31.4882613611
 30
0.0
 40
3.5
 41
0.0
 71
     1
 72
     1
  1
HFF-D42S
  7
SLDTEXTSTYLE0
 73
     1
 44
1.0
  0
ENDBLK
  5
75
330
73
100
AcDbEntity
  8
0
100
AcDbBlockEnd
  0
ENDSEC
  0
SECTION
  2
ENTITIES
  0
INSERT
  5
7F
330
1F
100
AcDbEntity
  8
0
  6
Continuous
 62
     7
370
     0
100
AcDbBlockReference
  2
SW_NOTE_0
 10
164.0254902537
 20
113.1804558498
 30
0.0
  0
LINE
  5
80
330
1F
100
AcDbEntity
  8
0
  6
Continuous
 62
     7
370
    25
100
AcDbLine
 10
73.1215997228
 20
199.0726706935
 30
0.0
 11
73.0273188187
 21
199.1669515977
 31
0.0
  0
LINE
  5
81
330
1F
100
AcDbEntity
  8
0
  6
Continuous
 62
     7
370
    25
100
AcDbLine
 10
47.7159248099
 20
199.1669515977
 30
0.0
 11
47.6216439057
 21
199.0726706935
 31
0.0
  0
LINE
  5
82
330
1F
100
AcDbEntity
  8
0
  6
Continuous
 62
     7
370
    25
100
AcDbLine
 10
43.5223794094
 20
184.8846875073
 30
0.0
 11
43.5223794094
 21
184.7786214901
 31
0.0
  0
LINE
  5
83
330
1F
100
AcDbEntity
  8
0
  6
Continuous
 62
     7
370
    25
100
AcDbLine
 10
47.5223794093
 20
184.7786214901
 30
0.0
 11
47.5223794093
 21
184.8846875073
 31
0.0
  0
LINE
  5
84
330
1F
100
AcDbEntity
  8
0
  6
Continuous
 62
     7
370
    25
100
AcDbLine
 10
73.2208642192
 20
205.8846875073
 30
0.0
 11
73.2208642192
 21
205.7786214901
 31
0.0
  0
LINE
  5
85
330
1F
100
AcDbEntity
  8
0
  6
Continuous
 62
     7
370
    25
100
AcDbLine
 10
77.2208642192
 20
205.7786214901
 30
0.0
 11
77.2208642192
 21
205.8846875073
 31
0.0
  0
LINE
  5
86
330
1F
100
AcDbEntity
  8
0
  6
Continuous
 62
     7
370
    25
100
AcDbLine
 10
74.7862575614
 20
205.1680038527
 30
0.0
 11
74.7862575614
 21
205.5745902519
 31
0.0
  0
LINE
  5
87
330
1F
100
AcDbEntity
  8
0
  6
Continuous
 62
     7
370
    25
100
AcDbLine
 10
75.655470877
 20
206.1947847627
 30
0.0
 11
75.655470877
 21
205.7881983635
 31
0.0
  0
LINE
  5
88
330
1F
100
AcDbEntity
  8
0
  6
Continuous
 62
     7
370
    25
100
AcDbLine
 10
34.3534930046
 20
189.3636366002
 30
0.0
 11
34.2054418014
 21
186.3675926883
 31
0.0
  0
LINE
  5
89
330
1F
100
AcDbEntity
  8
0
  6
Continuous
 62
     7
370
    25
100
AcDbLine
 10
88.1359145517
 20
189.3324236556
 30
0.0
 11
86.8575874135
 21
190.7577791898
 31
0.0
  0
LINE
  5
8A
330
1F
100
AcDbEntity
  8
0
  6
Continuous
 62
     7
370
    25
100
AcDbLine
 10
95.8502743801
 20
124.6313694076
 30
0.0
 11
93.2281514545
 21
177.6940616274
 31
0.0
  0
LINE
  5
8B
330
1F
100
AcDbEntity
  8
0
  6
Continuous
 62
     7
370
    25
100
AcDbLine
 10
86.5378018271
 20
186.3675926883
 30
0.0
 11
86.3897506239
 21
189.3636366002
 31
0.0
  0
LINE
  5
8C
330
1F
100
AcDbEntity
  8
0
  6
Continuous
 62
     7
370
    25
100
AcDbLine
 10
33.8856562151
 20
190.7577791898
 30
0.0
 11
32.6073290768
 21
189.3324236556
 31
0.0
  0
LINE
  5
8D
330
1F
100
AcDbEntity
  8
0
  6
Continuous
 62
     7
370
    25
100
AcDbLine
 10
27.515092174
 20
177.6940616274
 30
0.0
 11
24.8929692485
 21
124.6313694076
 31
0.0
  0
LINE
  5
8E
330
1F
100
AcDbEntity
  8
0
  6
Continuous
 62
     7
370
    25
100
AcDbLine
 10
32.5685887244
 20
123.3949914925
 30
0.0
 11
31.5079285526
 21
122.6449914925
 31
0.0
  0
LINE
  5
8F
330
1F
100
AcDbEntity
  8
0
  6
Continuous
 62
     7
370
    25
100
AcDbLine
 10
89.235315076
 20
122.6449914925
 30
0.0
 11
88.1746549042
 21
123.3949914925
 31
0.0
  0
LINE
  5
90
330
1F
100
AcDbEntity
  8
0
  6
Continuous
 62
     7
370
    25
100
AcDbLine
 10
89.9570029125
 20
117.301651188
 30
0.0
 11
88.8963427407
 21
118.051651188
 31
0.0
  0
LINE
  5
91
330
1F
100
AcDbEntity
  8
0
  6
Continuous
 62
     7
370
    25
100
AcDbLine
 10
31.8469008879
 20
118.051651188
 30
0.0
 11
30.7862407161
 21
117.301651188
 31
0.0
  0
LINE
  5
92
330
1F
100
AcDbEntity
  8
0
  6
Continuous
 62
     7
370
    25
100
AcDbLine
 10
37.4257688118
 20
107.9119405073
 30
0.0
 11
38.4864289836
 21
108.6619405073
 31
0.0
  0
LINE
  5
93
330
1F
100
AcDbEntity
  8
0
  6
Continuous
 62
     7
370
    25
100
AcDbLine
 10
82.256814645
 20
108.6619405073
 30
0.0
 11
83.3174748168
 21
107.9119405073
 31
0.0
  0
SPLINE
  5
94
330
1F
100
AcDbEntity
  8
0
  6
Continuous
 62
     7
370
    25
100
AcDbSpline
210
0.0
220
0.0
230
1.0
 70
     8
 71
     3
 72
    29
 73
    25
 74
     0
 42
0.00000001
 43
0.00000001
 40
0.0
 40
0.0
 40
0.0
 40
0.0
 40
0.0306162538873814
 40
0.0765084157390711
 40
0.1226206144130903
 40
0.1689182692069286
 40
0.2153480765070336
 40
0.2618579578952481
 40
0.3084076167175285
 40
0.3549683795059284
 40
0.4015267030534357
 40
0.4480802115727745
 40
0.4946316177029355
 40
0.5411865950017524
 40
0.5877513480788007
 40
0.6343315800185453
 40
0.680933730473889
 40
0.7275618376190066
 40
0.7742153746519702
 40
0.8208851359438983
 40
0.8675435333800444
 40
0.914150365912618
 40
0.9606488745087324
 40
1.0
 40
1.0
 40
1.0
 40
1.0
 10
70.7415833520018
 20
190.8955253081836
 30
0.0
 10
70.64942764848456
 20
191.0860503947553
 30
0.0
 10
70.41913536963953
 20
191.5621626123299
 30
0.0
 10
69.90057489337418
 20
192.2763676042829
 30
0.0
 10
69.21330255496045
 20
193.0323930184474
 30
0.0
 10
68.40501597843078
 20
193.7255133048519
 30
0.0
 10
67.49277957706772
 20
194.348309531453
 30
0.0
 10
66.48695061111576
 20
194.8919202365121
 30
0.0
 10
65.40148353049553
 20
195.3493306766414
 30
0.0
 10
64.25070340598373
 20
195.7146460317221
 30
0.0
 10
63.04978635673178
 20
195.9833221465807
 30
0.0
 10
61.81432288993707
 20
196.1520753762333
 30
0.0
 10
60.56022686980442
 20
196.2188626026694
 30
0.0
 10
59.30358858853236
 20
196.182861388503
 30
0.0
 10
58.06051333157645
 20
196.0444664686507
 30
0.0
 10
56.84693305024353
 20
195.805275734916
 30
0.0
 10
55.67841836710686
 20
195.4680644009574
 30
0.0
 10
54.5700586012799
 20
195.0367362600039
 30
0.0
 10
53.53620323276109
 20
194.5163479988698
 30
0.0
 10
52.59093185081415
 20
193.912976513286
 30
0.0
 10
51.7458468904982
 20
193.2343675209817
 30
0.0
 10
51.01747873318274
 20
192.4877568523516
 30
0.0
 10
50.42962334982519
 20
191.7282851009069
 30
0.0
 10
50.1522231384028
 20
191.1995052078105
 30
0.0
 10
50.02507046446274
 20
190.9571269594733
 30
0.0
  0
SPLINE
  5
95
330
1F
100
AcDbEntity
  8
0
  6
Continuous
 62
     7
370
    25
100
AcDbSpline
210
0.0
220
0.0
230
1.0
 70
     8
 71
     3
 72
    12
 73
     8
 74
     0
 42
0.00000001
 43
0.00000001
 40
0.0
 40
0.0
 40
0.0
 40
0.0
 40
0.1074984353500256
 40
0.3381417478371937
 40
0.5674907038094247
 40
0.796293231711911
 40
1.0
 40
1.0
 40
1.0
 40
1.0
 10
67.882033053636
 20
191.2521080727337
 30
0.0
 10
67.77486687442521
 20
191.3858088559866
 30
0.0
 10
67.43777025502445
 20
191.8063714101218
 30
0.0
 10
66.77314055933614
 20
192.4251888620922
 30
0.0
 10
65.9049455065141
 20
193.0969388843047
 30
0.0
 10
65.00343434227612
 20
193.651265064822
 30
0.0
 10
64.37116657198553
 20
193.9265657405217
 30
0.0
 10
64.07337592259826
 20
194.0562291060222
 30
0.0
  0
LINE
  5
96
330
1F
100
AcDbEntity
  8
0
  6
Continuous
 62
     7
370
    25
100
AcDbLine
 10
60.3732378663
 20
213.9108851394
 30
0.0
 11
60.373179608
 21
213.9108851418
 31
0.0
  0
LINE
  5
97
330
1F
100
AcDbEntity
  8
0
  6
Continuous
 62
     7
370
    25
100
AcDbLine
 10
60.3700640205
 20
213.9108851418
 30
0.0
 11
60.3700057622
 21
213.9108851394
 31
0.0
  0
LINE
  5
98
330
1F
100
AcDbEntity
  8
0
  6
Continuous
 62
     7
370
    25
100
AcDbLine
 10
87.3345175525
 20
195.4660118863
 30
0.0
 11
87.3069024256
 21
195.8380942249
 31
0.0
  0
LINE
  5
99
330
1F
100
AcDbEntity
  8
0
  6
Continuous
 62
     7
370
    25
100
AcDbLine
 10
33.4363412029
 20
195.8380942249
 30
0.0
 11
33.4087260761
 21
195.4660118863
 31
0.0
  0
LWPOLYLINE
  5
9A
330
1F
100
AcDbEntity
  8
0
  6
Continuous
 62
     7
370
    25
100
AcDbPolyline
 90
       34
 70
   128
 43
0.0
 10
45.7233289909
 20
193.2427432164
 10
45.6561105838
 20
193.7526271062
 10
45.6313504365
 20
194.8441964382
 10
45.768087787
 20
195.9316161306
 10
46.0648245123
 20
197.0029721857
 10
46.5183095027
 20
198.0465266025
 10
47.1235742818
 20
199.0508459802
 10
47.873987442
 20
200.0049267857
 10
48.7613272997
 20
200.89831591
 10
49.7758719737
 20
201.7212251949
 10
50.9065059002
 20
202.4646386741
 10
52.1408416174
 20
203.1204113539
 10
53.4653554848
 20
203.6813584516
 10
54.8655358514
 20
204.1413341134
 10
56.326042048
 20
204.4952987498
 10
57.8308724631
 20
204.73937425
 10
59.3635398598
 20
204.8708864719
 10
60.9072520134
 20
204.88839454
 10
62.4450956904
 20
204.7917066322
 10
63.9602219537
 20
204.5818820815
 10
65.4360307629
 20
204.2612197696
 10
66.8563528478
 20
203.8332329399
 10
68.2056268626
 20
203.3026107056
 10
69.4690698787
 20
202.6751666751
 10
70.63283935
 20
201.9577752563
 10
71.6841847747
 20
201.1582963398
 10
72.6115873923
 20
200.2854891839
 10
73.4048863856
 20
199.3489164464
 10
74.055390205
 20
198.3588394143
 10
74.5559717943
 20
197.3261055788
 10
74.9011466769
 20
196.2620297877
 10
75.0871330447
 20
195.1782702782
 10
75.111893192
 20
194.0867009462
 10
75.0199146376
 20
193.2427432164
  0
LWPOLYLINE
  5
9B
330
1F
100
AcDbEntity
  8
0
  6
Continuous
 62
     7
370
    25
100
AcDbPolyline
 90
       32
 70
   128
 43
0.0
 10
45.6237406105
 20
194.288671997
 10
45.6313504365
 20
194.4906430476
 10
45.768087787
 20
195.57806274
 10
46.0648245123
 20
196.6494187951
 10
46.5183095027
 20
197.6929732119
 10
47.1235742818
 20
198.6972925896
 10
47.873987442
 20
199.6513733951
 10
48.7613272997
 20
200.5447625194
 10
49.7758719737
 20
201.3676718044
 10
50.9065059002
 20
202.1110852835
 10
52.1408416174
 20
202.7668579633
 10
53.4653554848
 20
203.327805061
 10
54.8655358514
 20
203.7877807229
 10
56.326042048
 20
204.1417453592
 10
57.8308724631
 20
204.3858208594
 10
59.3635398598
 20
204.5173330813
 10
60.9072520134
 20
204.5348411494
 10
62.4450956904
 20
204.4381532416
 10
63.9602219537
 20
204.2283286909
 10
65.4360307629
 20
203.907666379
 10
66.8563528478
 20
203.4796795493
 10
68.2056268626
 20
202.949057315
 10
69.4690698787
 20
202.3216132845
 10
70.63283935
 20
201.6042218657
 10
71.6841847747
 20
200.8047429492
 10
72.6115873923
 20
199.9319357933
 10
73.4048863856
 20
198.9953630558
 10
74.055390205
 20
198.0052860238
 10
74.5559717943
 20
196.9725521882
 10
74.9011466769
 20
195.9084763971
 10
75.0871330447
 20
194.8247168876
 10
75.119503018
 20
194.2886719974
  0
ARC
  5
9C
330
1F
100
AcDbEntity
  8
0
  6
Continuous
 62
     7
370
    25
100
AcDbCircle
 10
60.3716218143
 20
182.3796058783
 30
0.0
 40
21.96335727475337
100
AcDbArc
 50
67.0801088144
 51
112.9198911853
  0
ARC
  5
9D
330
1F
100
AcDbEntity
  8
0
  6
Continuous
 62
     7
370
    25
100
AcDbCircle
 10
60.3716218143
 20
183.1592931607
 30
0.0
 40
20.99205199058186
100
AcDbArc
 50
58.0118252461
 51
121.9881747538
  0
LWPOLYLINE
  5
9E
330
1F
100
AcDbEntity
  8
0
  6
Continuous
 62
     7
370
    25
100
AcDbPolyline
 90
        3
 70
   128
 43
0.0
 10
46.7137862589
 20
198.0505516678
 10
47.4283370993
 20
198.874828564
 10
47.6216439057
 20
199.0726706935
  0
LWPOLYLINE
  5
9F
330
1F
100
AcDbEntity
  8
0
  6
Continuous
 62
     7
370
    25
100
AcDbPolyline
 90
        3
 70
   128
 43
0.0
 10
73.1215997228
 20
199.0726706935
 10
73.9148139256
 20
198.1942648796
 10
74.0294573696
 20
198.0505516679
  0
LWPOLYLINE
  5
A0
330
1F
100
AcDbEntity
  8
0
  6
Continuous
 62
     7
370
    25
100
AcDbPolyline
 90
       24
 70
   128
 43
0.0
 10
46.6464625926
 20
197.9317450592
 10
46.7127127071
 20
198.0200394009
 10
47.5240474287
 20
198.9705724303
 10
48.467215649
 20
199.858188287
 10
49.5325391858
 20
200.6737788314
 10
50.709086378
 20
201.4089750007
 10
51.9847842593
 20
202.0562326874
 10
53.3465424431
 20
202.6089101516
 10
54.7803874477
 20
203.0613361749
 10
56.2716060831
 20
203.4088682538
 10
57.804896428
 20
203.647940239
 10
59.3645248488
 20
203.7760989285
 10
60.9344874472
 20
203.7920292406
 10
62.4986742826
 20
203.6955677087
 10
64.0410346813
 20
203.4877041588
 10
65.5457419384
 20
203.1705715521
 10
66.9973557214
 20
202.7474240984
 10
68.3809805085
 20
202.222603863
 10
69.6824184369
 20
201.6014962119
 10
70.8883149925
 20
200.8904745499
 10
71.9862960447
 20
200.0968349217
 10
72.9650948221
 20
199.2287211436
 10
73.8146675248
 20
198.2950412377
 10
74.0967810359
 20
197.9317450591
  0
LWPOLYLINE
  5
A1
330
1F
100
AcDbEntity
  8
0
  6
Continuous
 62
     7
370
    25
100
AcDbPolyline
 90
       25
 70
   128
 43
0.0
 10
46.1142828145
 20
196.7849819674
 10
46.3404300221
 20
197.1591511472
 10
47.0635431367
 20
198.1556485574
 10
47.927725196
 20
199.0942901616
 10
48.923815655
 20
199.9651261252
 10
50.0412557073
 20
200.7589253703
 10
51.2682002102
 20
201.4672734276
 10
52.5916432467
 20
202.0826616314
 10
53.9975559915
 20
202.5985667136
 10
55.4710354197
 20
203.009519952
 10
56.9964622828
 20
203.3111651401
 10
58.5576666766
 20
203.5003047638
 10
60.1380994461
 20
203.5749338961
 10
61.7210076107
 20
203.5342614496
 10
63.2896119503
 20
203.3787185623
 10
64.8272848685
 20
203.1099540276
 10
66.3177266499
 20
202.7308168163
 10
67.7451382408
 20
202.2453258773
 10
69.0943887233
 20
201.6586275352
 10
70.3511757066
 20
200.9769409384
 10
71.502176936
 20
200.2074921346
 10
72.5351915121
 20
199.3584374723
 10
73.4392692235
 20
198.4387771422
 10
74.2048266216
 20
197.4582597727
 10
74.6289608141
 20
196.7849819674
  0
LWPOLYLINE
  5
A2
330
1F
100
AcDbEntity
  8
0
  6
Continuous
 62
     7
370
    25
100
AcDbPolyline
 90
       30
 70
   128
 43
0.0
 10
45.6746833576
 20
193.5815652157
 10
45.768087787
 20
194.1638491776
 10
46.0648245123
 20
195.2352052328
 10
46.5183095027
 20
196.2787596495
 10
47.1235742818
 20
197.2830790273
 10
47.873987442
 20
198.2371598328
 10
48.7613272997
 20
199.1305489571
 10
49.7758719737
 20
199.953458242
 10
50.9065059002
 20
200.6968717212
 10
52.1408416174
 20
201.3526444009
 10
53.4653554848
 20
201.9135914987
 10
54.8655358514
 20
202.3735671605
 10
56.326042048
 20
202.7275317968
 10
57.8308724631
 20
202.9716072971
 10
59.3635398598
 20
203.1031195189
 10
60.9072520134
 20
203.120627587
 10
62.4450956904
 20
203.0239396792
 10
63.9602219537
 20
202.8141151285
 10
65.4360307629
 20
202.4934528166
 10
66.8563528478
 20
202.0654659869
 10
68.2056268626
 20
201.5348437527
 10
69.4690698787
 20
200.9073997221
 10
70.63283935
 20
200.1900083033
 10
71.6841847747
 20
199.3905293868
 10
72.6115873923
 20
198.5177222309
 10
73.4048863856
 20
197.5811494935
 10
74.055390205
 20
196.5910724614
 10
74.5559717943
 20
195.5583386258
 10
74.9011466769
 20
194.4942628347
 10
75.068560271
 20
193.5815652157
  0
LWPOLYLINE
  5
A3
330
1F
100
AcDbEntity
  8
0
  6
Continuous
 62
     7
370
    25
100
AcDbPolyline
 90
       30
 70
   128
 43
0.0
 10
45.6904831866
 20
193.3507734191
 10
45.768087787
 20
193.810295787
 10
46.0648245123
 20
194.8816518422
 10
46.5183095027
 20
195.9252062589
 10
47.1235742818
 20
196.9295256367
 10
47.873987442
 20
197.8836064422
 10
48.7613272997
 20
198.7769955665
 10
49.7758719737
 20
199.5999048514
 10
50.9065059002
 20
200.3433183306
 10
52.1408416174
 20
200.9990910104
 10
53.4653554848
 20
201.5600381081
 10
54.8655358514
 20
202.0200137699
 10
56.326042048
 20
202.3739784062
 10
57.8308724631
 20
202.6180539065
 10
59.3635398598
 20
202.7495661283
 10
60.9072520134
 20
202.7670741964
 10
62.4450956904
 20
202.6703862886
 10
63.9602219537
 20
202.4605617379
 10
65.4360307629
 20
202.139899426
 10
66.8563528478
 20
201.7119125963
 10
68.2056268626
 20
201.1812903621
 10
69.4690698787
 20
200.5538463315
 10
70.63283935
 20
199.8364549127
 10
71.6841847747
 20
199.0369759962
 10
72.6115873923
 20
198.1641688403
 10
73.4048863856
 20
197.2275961029
 10
74.055390205
 20
196.2375190708
 10
74.5559717943
 20
195.2047852352
 10
74.9011466769
 20
194.1407094441
 10
75.0451524051
 20
193.4047885204
  0
LWPOLYLINE
  5
A4
330
1F
100
AcDbEntity
  8
0
  6
Continuous
 62
     7
370
    25
100
AcDbPolyline
 90
       23
 70
   128
 43
0.0
 10
45.4945292715
 20
183.4706110649
 10
46.0590678787
 20
183.5223429314
 10
46.5801271779
 20
183.6844438533
 10
47.0154940437
 20
183.9437813779
 10
47.3298976416
 20
184.2793455213
 10
47.4978668621
 20
184.6639508723
 10
47.5057938378
 20
185.0664389927
 10
47.3530363724
 20
185.4542026887
 10
47.0519699671
 20
185.7958276517
 10
46.6269852317
 20
186.0636374589
 10
46.112511902
 20
186.2359357526
 10
45.5502295473
 20
186.2987639496
 10
44.98569094
 20
186.2470320831
 10
44.4646316408
 20
186.0849311613
 10
44.0292647751
 20
185.8255936367
 10
43.7148611771
 20
185.4900294933
 10
43.5468919566
 20
185.1054241423
 10
43.5389649809
 20
184.7029360219
 10
43.6917224463
 20
184.3151723259
 10
43.9927888516
 20
183.9735473629
 10
44.417773587
 20
183.7057375556
 10
44.9322469168
 20
183.5334392619
 10
45.4945292715
 20
183.4706110649
  0
LINE
  5
A5
330
1F
100
AcDbEntity
  8
0
  6
Continuous
 62
     7
370
    25
100
AcDbLine
 10
46.6435569794
 20
184.6850666571
 30
0.0
 11
46.6509836828
 21
185.0621537084
 31
0.0
  0
LINE
  5
A6
330
1F
100
AcDbEntity
  8
0
  6
Continuous
 62
     7
370
    25
100
AcDbLine
 10
46.6509836828
 20
185.0621537084
 30
0.0
 11
46.1926947888
 21
185.0666666925
 31
0.0
  0
ARC
  5
A7
330
1F
100
AcDbEntity
  8
0
  6
Continuous
 62
     7
370
    25
100
AcDbCircle
 10
46.1456783788
 20
185.4165947918
 30
0.0
 40
0.3530725385613814
100
AcDbArc
 50
190.3072662471
 51
277.6524431056
  0
LINE
  5
A8
330
1F
100
AcDbEntity
  8
0
  6
Continuous
 62
     7
370
    25
100
AcDbLine
 10
45.7983035997
 20
185.3534205852
 30
0.0
 11
45.804685923
 21
185.6774797699
 31
0.0
  0
LINE
  5
A9
330
1F
100
AcDbEntity
  8
0
  6
Continuous
 62
     7
370
    25
100
AcDbLine
 10
45.804685923
 20
185.6774797699
 30
0.0
 11
45.2714043009
 21
185.6827312423
 31
0.0
  0
LINE
  5
AA
330
1F
100
AcDbEntity
  8
0
  6
Continuous
 62
     7
370
    25
100
AcDbLine
 10
45.2714043009
 20
185.6827312423
 30
0.0
 11
45.2650219776
 21
185.3586720576
 31
0.0
  0
ARC
  5
AB
330
1F
100
AcDbEntity
  8
0
  6
Continuous
 62
     7
370
    25
100
AcDbCircle
 10
44.9125166846
 20
185.4369791151
 30
0.0
 40
0.3610982924732502
100
AcDbArc
 50
261.5557905268
 51
347.4754444088
  0
LINE
  5
AC
330
1F
100
AcDbEntity
  8
0
  6
Continuous
 62
     7
370
    25
100
AcDbLine
 10
44.8594907334
 20
185.0797953734
 30
0.0
 11
44.4012018394
 21
185.0843083575
 31
0.0
  0
LINE
  5
AD
330
1F
100
AcDbEntity
  8
0
  6
Continuous
 62
     7
370
    25
100
AcDbLine
 10
44.4012018394
 20
185.0843083575
 30
0.0
 11
44.3937751359
 21
184.7072213062
 31
0.0
  0
LINE
  5
AE
330
1F
100
AcDbEntity
  8
0
  6
Continuous
 62
     7
370
    25
100
AcDbLine
 10
44.3937751359
 20
184.7072213062
 30
0.0
 11
44.85206403
 21
184.7027083221
 31
0.0
  0
ARC
  5
AF
330
1F
100
AcDbEntity
  8
0
  6
Continuous
 62
     7
370
    25
100
AcDbCircle
 10
44.8990804399
 20
184.3527802228
 30
0.0
 40
0.3530725385613532
100
AcDbArc
 50
10.3072662471
 51
97.6524431055
  0
LINE
  5
B0
330
1F
100
AcDbEntity
  8
0
  6
Continuous
 62
     7
370
    25
100
AcDbLine
 10
45.246455219
 20
184.4159544293
 30
0.0
 11
45.2400728957
 21
184.0918952446
 31
0.0
  0
LINE
  5
B1
330
1F
100
AcDbEntity
  8
0
  6
Continuous
 62
     7
370
    25
100
AcDbLine
 10
45.2400728957
 20
184.0918952446
 30
0.0
 11
45.7733545179
 21
184.0866437723
 31
0.0
  0
LINE
  5
B2
330
1F
100
AcDbEntity
  8
0
  6
Continuous
 62
     7
370
    25
100
AcDbLine
 10
45.7733545179
 20
184.0866437723
 30
0.0
 11
45.7797368411
 21
184.410702957
 31
0.0
  0
ARC
  5
B3
330
1F
100
AcDbEntity
  8
0
  6
Continuous
 62
     7
370
    25
100
AcDbCircle
 10
46.1322421341
 20
184.3323958995
 30
0.0
 40
0.3610982924732877
100
AcDbArc
 50
81.5557905268
 51
167.4754444088
  0
LINE
  5
B4
330
1F
100
AcDbEntity
  8
0
  6
Continuous
 62
     7
370
    25
100
AcDbLine
 10
46.1852680853
 20
184.6895796412
 30
0.0
 11
46.6435569794
 21
184.6850666571
 31
0.0
  0
LWPOLYLINE
  5
B5
330
1F
100
AcDbEntity
  8
0
  6
Continuous
 62
     7
370
    25
100
AcDbPolyline
 90
        7
 70
   128
 43
0.0
 10
45.4945292715
 20
183.3645450477
 10
46.0590678787
 20
183.4162769142
 10
46.5801271779
 20
183.5783778361
 10
47.0154940437
 20
183.8377153607
 10
47.3298976416
 20
184.1732795041
 10
47.4978668621
 20
184.5578848551
 10
47.5223794093
 20
184.7786214901
  0
LWPOLYLINE
  5
B6
330
1F
100
AcDbEntity
  8
0
  6
Continuous
 62
     7
370
    25
100
AcDbPolyline
 90
        7
 70
   128
 43
0.0
 10
43.5223794094
 20
184.7786214901
 10
43.5389649809
 20
184.5968700047
 10
43.6917224463
 20
184.2091063087
 10
43.9927888516
 20
183.8674813457
 10
44.417773587
 20
183.5996715384
 10
44.9322469168
 20
183.4273732448
 10
45.4945292715
 20
183.3645450477
  0
LINE
  5
B7
330
1F
100
AcDbEntity
  8
0
  6
Continuous
 62
     7
370
    25
100
AcDbLine
 10
45.246455219
 20
184.0918323949
 30
0.0
 11
45.246455219
 21
184.4159544293
 31
0.0
  0
ARC
  5
B8
330
1F
100
AcDbEntity
  8
0
  6
Continuous
 62
     7
370
    25
100
AcDbCircle
 10
44.9395553066
 20
185.0142442988
 30
0.0
 40
0.3313491368303888
100
AcDbArc
 50
277.5341199281
 51
349.1876766892
  0
LINE
  5
B9
330
1F
100
AcDbEntity
  8
0
  6
Continuous
 62
     7
370
    25
100
AcDbLine
 10
45.2714043009
 20
185.2761448431
 30
0.0
 11
45.2650219776
 21
184.9520856584
 31
0.0
  0
LINE
  5
BA
330
1F
100
AcDbEntity
  8
0
  6
Continuous
 62
     7
370
    25
100
AcDbLine
 10
45.7983035997
 20
185.2709562205
 30
0.0
 11
45.2714043009
 21
185.2761448431
 31
0.0
  0
ARC
  5
BB
330
1F
100
AcDbEntity
  8
0
  6
Continuous
 62
     7
370
    25
100
AcDbCircle
 10
46.1014094039
 20
184.9792806094
 30
0.0
 40
0.3048374958726938
100
AcDbArc
 50
186.1100467819
 51
262.5261646918
  0
LINE
  5
BC
330
1F
100
AcDbEntity
  8
0
  6
Continuous
 62
     7
370
    25
100
AcDbLine
 10
44.4012018394
 20
184.7071481719
 30
0.0
 11
44.4012018394
 21
185.0843083575
 31
0.0
  0
LINE
  5
BD
330
1F
100
AcDbEntity
  8
0
  6
Continuous
 62
     7
370
    25
100
AcDbLine
 10
45.7983035997
 20
184.946834186
 30
0.0
 11
45.7983035997
 21
185.3534205852
 31
0.0
  0
LINE
  5
BE
330
1F
100
AcDbEntity
  8
0
  6
Continuous
 62
     7
370
    25
100
AcDbLine
 10
45.2650219776
 20
185.3586720576
 30
0.0
 11
45.2650219776
 21
184.9520856584
 31
0.0
  0
LINE
  5
BF
330
1F
100
AcDbEntity
  8
0
  6
Continuous
 62
     7
370
    25
100
AcDbLine
 10
45.2714043009
 20
185.2761448431
 30
0.0
 11
45.2714043009
 21
185.6827312423
 31
0.0
  0
LWPOLYLINE
  5
C0
330
1F
100
AcDbEntity
  8
0
  6
Continuous
 62
     7
370
    25
100
AcDbPolyline
 90
       23
 70
   128
 43
0.0
 10
74.6267698489
 20
204.5343075831
 10
75.1888667222
 20
204.4706549475
 10
75.7535558425
 20
204.5215588203
 10
76.2750894555
 20
204.6828952725
 10
76.7112160095
 20
204.9415937842
 10
77.026603125
 20
205.2766961406
 10
77.1957000135
 20
205.6610543416
 10
77.2048074507
 20
206.0635299717
 10
77.0531876062
 20
206.451516849
 10
76.7531238182
 20
206.793582584
 10
76.3289254702
 20
207.0620150454
 10
75.8149585895
 20
207.2350674314
 10
75.2528617162
 20
207.298720067
 10
74.6881725959
 20
207.2478161942
 10
74.1666389829
 20
207.086479742
 10
73.7305124289
 20
206.8277812303
 10
73.4151253134
 20
206.492678874
 10
73.2460284249
 20
206.108320673
 10
73.2369209877
 20
205.7058450429
 10
73.3885408322
 20
205.3178581656
 10
73.6886046202
 20
204.9757924305
 10
74.1128029682
 20
204.7073599692
 10
74.6267698489
 20
204.5343075831
  0
LWPOLYLINE
  5
C1
330
1F
100
AcDbEntity
  8
0
  6
Continuous
 62
     7
370
    25
100
AcDbPolyline
 90
        8
 70
   128
 43
0.0
 10
74.6267698489
 20
204.428241566
 10
75.1888667222
 20
204.3645889304
 10
75.7535558425
 20
204.4154928032
 10
76.2750894555
 20
204.5768292553
 10
76.7112160095
 20
204.835527767
 10
77.026603125
 20
205.1706301234
 10
77.1957000135
 20
205.5549883244
 10
77.2208642192
 20
205.7786214901
  0
ARC
  5
C2
330
1F
100
AcDbEntity
  8
0
  6
Continuous
 62
     7
370
    25
100
AcDbCircle
 10
74.7741361604
 20
205.9887145698
 30
0.0
 40
1.567415970740877
100
AcDbArc
 50
187.7029875821
 51
264.6051610183
  0
LINE
  5
C3
330
1F
100
AcDbEntity
  8
0
  6
Continuous
 62
     7
370
    25
100
AcDbLine
 10
76.2158722882
 20
205.4683372619
 30
0.0
 11
76.3742974537
 21
205.828438575
 31
0.0
  0
LINE
  5
C4
330
1F
100
AcDbEntity
  8
0
  6
Continuous
 62
     7
370
    25
100
AcDbLine
 10
76.3742974537
 20
205.828438575
 30
0.0
 11
75.9366520029
 21
205.9247087779
 31
0.0
  0
LWPOLYLINE
  5
C5
330
1F
100
AcDbEntity
  8
0
  6
Continuous
 62
     7
370
    25
100
AcDbPolyline
 90
        9
 70
   128
 43
0.0
 10
75.6735257564
 20
206.2788023943
 10
75.6576843124
 20
206.2244988082
 10
75.657129583
 20
206.169053328
 10
75.6718828861
 20
206.1145966924
 10
75.7013772606
 20
206.0632216394
 10
75.7444792542
 20
206.0169024834
 10
75.7995324814
 20
205.9774192437
 10
75.8644212777
 20
205.946289239
 10
75.9366520029
 20
205.9247087779
  0
LINE
  5
C6
330
1F
100
AcDbEntity
  8
0
  6
Continuous
 62
     7
370
    25
100
AcDbLine
 10
75.6735257564
 20
206.2788023943
 30
0.0
 11
75.8096723829
 21
206.5882644602
 31
0.0
  0
LINE
  5
C7
330
1F
100
AcDbEntity
  8
0
  6
Continuous
 62
     7
370
    25
100
AcDbLine
 10
75.8096723829
 20
206.5882644602
 30
0.0
 11
75.3004122221
 21
206.700287969
 31
0.0
  0
LINE
  5
C8
330
1F
100
AcDbEntity
  8
0
  6
Continuous
 62
     7
370
    25
100
AcDbLine
 10
75.3004122221
 20
206.700287969
 30
0.0
 11
75.1642655956
 21
206.3908259031
 31
0.0
  0
ARC
  5
C9
330
1F
100
AcDbEntity
  8
0
  6
Continuous
 62
     7
370
    25
100
AcDbCircle
 10
74.7901635714
 20
206.6307811572
 30
0.0
 40
0.4444444267498144
100
AcDbArc
 50
253.4417823322
 51
327.3232130254
  0
LINE
  5
CA
330
1F
100
AcDbEntity
  8
0
  6
Continuous
 62
     7
370
    25
100
AcDbLine
 10
74.6635016009
 20
206.2047675498
 30
0.0
 11
74.2258561502
 21
206.3010377527
 31
0.0
  0
LINE
  5
CB
330
1F
100
AcDbEntity
  8
0
  6
Continuous
 62
     7
370
    25
100
AcDbLine
 10
74.2258561502
 20
206.3010377527
 30
0.0
 11
74.0674309847
 21
205.9409364396
 31
0.0
  0
LINE
  5
CC
330
1F
100
AcDbEntity
  8
0
  6
Continuous
 62
     7
370
    25
100
AcDbLine
 10
74.0674309847
 20
205.9409364396
 30
0.0
 11
74.5050764355
 21
205.8446662367
 31
0.0
  0
LWPOLYLINE
  5
CD
330
1F
100
AcDbEntity
  8
0
  6
Continuous
 62
     7
370
    25
100
AcDbPolyline
 90
        9
 70
   128
 43
0.0
 10
74.768202682
 20
205.4905726203
 10
74.784044126
 20
205.5448762064
 10
74.7845988554
 20
205.6003216866
 10
74.7698455523
 20
205.6547783221
 10
74.7403511778
 20
205.7061533751
 10
74.6972491842
 20
205.7524725311
 10
74.6421959569
 20
205.7919557708
 10
74.5773071607
 20
205.8230857756
 10
74.5050764355
 20
205.8446662367
  0
LINE
  5
CE
330
1F
100
AcDbEntity
  8
0
  6
Continuous
 62
     7
370
    25
100
AcDbLine
 10
74.768202682
 20
205.4905726203
 30
0.0
 11
74.6320560555
 21
205.1811105543
 31
0.0
  0
LINE
  5
CF
330
1F
100
AcDbEntity
  8
0
  6
Continuous
 62
     7
370
    25
100
AcDbLine
 10
74.6320560555
 20
205.1811105543
 30
0.0
 11
75.1413162163
 21
205.0690870456
 31
0.0
  0
LINE
  5
D0
330
1F
100
AcDbEntity
  8
0
  6
Continuous
 62
     7
370
    25
100
AcDbLine
 10
75.1413162163
 20
205.0690870456
 30
0.0
 11
75.2774628428
 21
205.3785491115
 31
0.0
  0
ARC
  5
D1
330
1F
100
AcDbEntity
  8
0
  6
Continuous
 62
     7
370
    25
100
AcDbCircle
 10
75.651564867
 20
205.1385938574
 30
0.0
 40
0.4444444267498328
100
AcDbArc
 50
73.4417823322
 51
147.3232130254
  0
LINE
  5
D2
330
1F
100
AcDbEntity
  8
0
  6
Continuous
 62
     7
370
    25
100
AcDbLine
 10
75.7782268375
 20
205.5646074648
 30
0.0
 11
76.2158722882
 21
205.4683372619
 31
0.0
  0
LINE
  5
D3
330
1F
100
AcDbEntity
  8
0
  6
Continuous
 62
     7
370
    25
100
AcDbLine
 10
74.7862575614
 20
205.1680038527
 30
0.0
 11
74.7851972902
 21
205.1474236105
 31
0.0
  0
LINE
  5
D4
330
1F
100
AcDbEntity
  8
0
  6
Continuous
 62
     7
370
    25
100
AcDbLine
 10
74.6635016009
 20
205.7981811506
 30
0.0
 11
74.6064087942
 21
205.8107400292
 31
0.0
  0
ARC
  5
D5
330
1F
100
AcDbEntity
  8
0
  6
Continuous
 62
     7
370
    25
100
AcDbCircle
 10
74.7901635714
 20
206.224194758
 30
0.0
 40
0.4444444267499663
100
AcDbArc
 50
253.4417823322
 51
327.3232130254
  0
LINE
  5
D6
330
1F
100
AcDbEntity
  8
0
  6
Continuous
 62
     7
370
    25
100
AcDbLine
 10
75.3004122221
 20
206.2937015698
 30
0.0
 11
75.1642655956
 21
205.9842395039
 31
0.0
  0
LINE
  5
D7
330
1F
100
AcDbEntity
  8
0
  6
Continuous
 62
     7
370
    25
100
AcDbLine
 10
75.6565311482
 20
206.2153650049
 30
0.0
 11
75.3004122221
 21
206.2937015698
 31
0.0
  0
ARC
  5
D8
330
1F
100
AcDbEntity
  8
0
  6
Continuous
 62
     7
370
    25
100
AcDbCircle
 10
75.9312444561
 20
205.8116639373
 30
0.0
 40
0.2767701213474466
100
AcDbArc
 50
184.8635824939
 51
249.7213228994
  0
LINE
  5
D9
330
1F
100
AcDbEntity
  8
0
  6
Continuous
 62
     7
370
    25
100
AcDbLine
 10
74.2258561502
 20
205.9060871734
 30
0.0
 11
74.2258561502
 21
206.3010377527
 31
0.0
  0
LINE
  5
DA
330
1F
100
AcDbEntity
  8
0
  6
Continuous
 62
     7
370
    25
100
AcDbLine
 10
74.6635016009
 20
205.7981811506
 30
0.0
 11
74.6635016009
 21
206.2047675498
 31
0.0
  0
LINE
  5
DB
330
1F
100
AcDbEntity
  8
0
  6
Continuous
 62
     7
370
    25
100
AcDbLine
 10
75.1642655956
 20
206.3908259031
 30
0.0
 11
75.1642655956
 21
205.9842395039
 31
0.0
  0
LINE
  5
DC
330
1F
100
AcDbEntity
  8
0
  6
Continuous
 62
     7
370
    25
100
AcDbLine
 10
75.3004122221
 20
206.2937015698
 30
0.0
 11
75.3004122221
 21
206.700287969
 31
0.0
  0
LWPOLYLINE
  5
DD
330
1F
100
AcDbEntity
  8
0
  6
Continuous
 62
     7
370
    25
100
AcDbPolyline
 90
       21
 70
   128
 43
0.0
 10
78.885196866
 20
172.6300099383
 10
77.3755673355
 20
171.6432514875
 10
75.7611028264
 20
170.7432875579
 10
74.0517570494
 20
169.9356667265
 10
72.2580686895
 20
169.2253682442
 10
70.3910964321
 20
168.6167713375
 10
68.4623507817
 20
168.1136282085
 10
66.4837230969
 20
167.7190409021
 10
64.4674122752
 20
167.4354421801
 10
62.4258495432
 20
167.2645805229
 10
60.3716218143
 20
167.2075093497
 10
58.3173940853
 20
167.2645805229
 10
56.2758313534
 20
167.4354421801
 10
54.2595205317
 20
167.7190409021
 10
52.2808928468
 20
168.1136282085
 10
50.3521471965
 20
168.6167713375
 10
48.485174939
 20
169.2253682442
 10
46.6914865792
 20
169.9356667265
 10
44.9821408021
 20
170.7432875579
 10
43.3676762931
 20
171.6432514875
 10
41.8580467625
 20
172.6300099383
  0
LWPOLYLINE
  5
DE
330
1F
100
AcDbEntity
  8
0
  6
Continuous
 62
     7
370
    25
100
AcDbPolyline
 90
       12
 70
   128
 43
0.0
 10
41.8580467625
 20
172.6300099383
 10
40.4625595786
 20
173.6974792164
 10
39.1898183837
 20
174.8390780188
 10
38.0476700507
 20
176.0477680091
 10
37.0431563038
 20
177.3160972117
 10
36.1824703042
 20
178.6362459553
 10
35.4709184674
 20
180.0000750838
 10
34.9128877471
 20
181.3991761372
 10
34.5118185881
 20
182.8249231922
 10
34.2701837154
 20
184.2685260442
 10
34.1894728881
 20
185.7210844014
 10
34.2054418014
 20
186.3675926883
  0
LWPOLYLINE
  5
DF
330
1F
100
AcDbEntity
  8
0
  6
Continuous
 62
     7
370
    25
100
AcDbPolyline
 90
       12
 70
   128
 43
0.0
 10
86.5378018271
 20
186.3675926883
 10
86.5537707405
 20
185.7210844014
 10
86.4730599132
 20
184.2685260442
 10
86.2314250404
 20
182.8249231922
 10
85.8303558815
 20
181.3991761372
 10
85.2723251612
 20
180.0000750838
 10
84.5607733244
 20
178.6362459553
 10
83.7000873248
 20
177.3160972117
 10
82.6955735779
 20
176.0477680091
 10
81.5534252448
 20
174.8390780188
 10
80.28068405
 20
173.6974792164
 10
78.885196866
 20
172.6300099383
  0
LWPOLYLINE
  5
E0
330
1F
100
AcDbEntity
  8
0
  6
Continuous
 62
     7
370
    25
100
AcDbPolyline
 90
       43
 70
   128
 43
0.0
 10
88.1359145517
 20
189.3324236556
 10
89.1261279812
 20
188.1527419176
 10
90.1679237256
 20
186.7069636229
 10
91.0645548821
 20
185.2133203093
 10
91.811653154
 20
183.6790888569
 10
92.4055787536
 20
182.1117438869
 10
92.843438135
 20
180.5189213466
 10
93.1230980913
 20
178.9083813074
 10
93.2431961473
 20
177.2879701582
 10
93.2031471975
 20
175.6655823795
 10
93.0031463562
 20
174.0491220814
 10
92.6441680074
 20
172.4464644959
 10
92.1279610576
 20
170.8654176098
 10
91.4570404152
 20
169.3136841244
 10
90.634674738
 20
167.7988239295
 10
89.664870509
 20
166.3282172715
 10
88.552352517
 20
164.9090287984
 10
87.3025408376
 20
163.5481726536
 10
85.9215244279
 20
162.2522787915
 10
84.4160314609
 20
161.0276606768
 10
82.793396547
 20
159.8802845259
 10
81.0615250005
 20
158.8157402399
 10
79.2288543253
 20
157.8392141716
 10
77.3043131089
 20
156.9554638579
 10
75.2972775226
 20
156.1687948415
 10
73.217525642
 20
155.4830396948
 10
71.0751898092
 20
154.9015393478
 10
68.8807072691
 20
154.4271268119
 10
66.64476932
 20
154.0621133772
 10
64.3782692267
 20
153.8082773525
 10
62.0922491501
 20
153.6668554014
 10
59.79784635
 20
153.6385365174
 10
57.5062389263
 20
153.7234586672
 10
55.22859136
 20
153.9212081188
 10
52.9760001211
 20
154.2308214566
 10
50.7594396077
 20
154.6507902755
 10
48.5897086798
 20
155.1790685298
 10
46.4773780483
 20
155.8130825008
 10
44.4327387759
 20
156.5497433363
 10
42.4657521394
 20
157.3854620986
 10
40.5860011001
 20
158.31616725
 10
38.8026436161
 20
159.3373244885
 10
37.1243680257
 20
160.4439588387
  0
ARC
  5
E1
330
1F
100
AcDbEntity
  8
0
  6
Continuous
 62
     7
370
    25
100
AcDbCircle
 10
77.1112667517
 20
123.8470703578
 30
0.0
 40
18.75541340238842
100
AcDbArc
 50
330.0050230482
 51
2.3966484514
  0
ARC
  5
E2
330
1F
100
AcDbEntity
  8
0
  6
Continuous
 62
     7
370
    25
100
AcDbCircle
 10
66.241993576
 20
151.5021664178
 30
0.0
 40
31.59337976149754
100
AcDbArc
 50
290.1699807135
 51
320.358798652
  0
LWPOLYLINE
  5
E3
330
1F
100
AcDbEntity
  8
0
  6
Continuous
 62
     7
370
    25
100
AcDbPolyline
 90
        3
 70
   128
 43
0.0
 10
77.1355944398
 20
121.8462883331
 10
77.5308687905
 20
110.6773495852
 10
77.8411043016
 20
101.9019810429
  0
ARC
  5
E4
330
1F
100
AcDbEntity
  8
0
  6
Continuous
 62
     7
370
    25
100
AcDbCircle
 10
60.3716218143
 20
146.9121829068
 30
0.0
 40
48.28147771348277
100
AcDbArc
 50
248.7876352424
 51
291.2123647576
  0
LWPOLYLINE
  5
E5
330
1F
100
AcDbEntity
  8
0
  6
Continuous
 62
     7
370
    25
100
AcDbPolyline
 90
        3
 70
   128
 43
0.0
 10
42.9021393269
 20
101.9019810429
 10
43.2970353494
 20
113.0706660008
 10
43.6076491888
 20
121.8462883331
  0
ARC
  5
E6
330
1F
100
AcDbEntity
  8
0
  6
Continuous
 62
     7
370
    25
100
AcDbCircle
 10
56.6507777098
 20
155.5336471585
 30
0.0
 40
36.12424872922558
100
AcDbArc
 50
235.0336939553
 51
248.8345090201
  0
LINE
  5
E7
330
1F
100
AcDbEntity
  8
0
  6
Continuous
 62
     7
370
    25
100
AcDbLine
 10
31.7856262707
 20
123.6981702613
 30
0.0
 11
31.7548053801
 21
122.8195597714
 31
0.0
  0
LINE
  5
E8
330
1F
100
AcDbEntity
  8
0
  6
Continuous
 62
     7
370
    25
100
AcDbLine
 10
31.5989573722
 20
118.375889019
 30
0.0
 11
31.5810021328
 21
117.8636323752
 31
0.0
  0
LWPOLYLINE
  5
E9
330
1F
100
AcDbEntity
  8
0
  6
Continuous
 62
     7
370
    25
100
AcDbPolyline
 90
       21
 70
   128
 43
0.0
 10
37.1243680257
 20
160.4439588387
 10
35.559350719
 20
161.6306788894
 10
34.115216303
 20
162.8917030596
 10
32.7990004553
 20
164.2208877664
 10
31.6171156473
 20
165.6117573556
 10
30.575319903
 20
167.0575356502
 10
29.6786887464
 20
168.5511789638
 10
28.9315904745
 20
170.0854104163
 10
28.337664875
 20
171.6527553862
 10
27.8998054936
 20
173.2455779265
 10
27.6201455373
 20
174.8561179658
 10
27.5000474812
 20
176.4765291149
 10
27.5400964311
 20
178.0989168936
 10
27.7400972724
 20
179.7153771918
 10
28.0990756211
 20
181.3180347772
 10
28.6152825709
 20
182.8990816634
 10
29.2862032134
 20
184.4508151487
 10
30.1085688905
 20
185.9656753437
 10
31.0783731195
 20
187.4362820016
 10
32.1908911116
 20
188.8554704748
 10
32.6073290768
 20
189.3324236556
  0
ARC
  5
EA
330
1F
100
AcDbEntity
  8
0
  6
Continuous
 62
     7
370
    25
100
AcDbCircle
 10
51.6505626826
 20
148.4622752523
 30
0.0
 40
27.46377641952507
100
AcDbArc
 50
218.5516916068
 51
235.1276934301
  0
ARC
  5
EB
330
1F
100
AcDbEntity
  8
0
  6
Continuous
 62
     7
370
    25
100
AcDbCircle
 10
43.6319768768
 20
123.8470703578
 30
0.0
 40
18.7554134023877
100
AcDbArc
 50
177.6033515486
 51
209.9949769518
  0
LINE
  5
EC
330
1F
100
AcDbEntity
  8
0
  6
Continuous
 62
     7
370
    25
100
AcDbLine
 10
89.1622190405
 20
117.8636482535
 30
0.0
 11
89.1423484006
 21
118.4304971929
 31
0.0
  0
LINE
  5
ED
330
1F
100
AcDbEntity
  8
0
  6
Continuous
 62
     7
370
    25
100
AcDbLine
 10
88.9884635657
 20
122.8195418694
 30
0.0
 11
88.9586151391
 21
123.6703479263
 31
0.0
  0
LINE
  5
EE
330
1F
100
AcDbEntity
  8
0
  6
Continuous
 62
     7
370
    25
100
AcDbLine
 10
90.5706232823
 20
131.3462883331
 30
0.0
 11
93.3547532859
 21
129.3776111279
 31
0.0
  0
LINE
  5
EF
330
1F
100
AcDbEntity
  8
0
  6
Continuous
 62
     7
370
    25
100
AcDbLine
 10
93.3547532859
 20
129.3776111279
 30
0.0
 11
79.9197244433
 21
119.8776111278
 31
0.0
  0
LINE
  5
F0
330
1F
100
AcDbEntity
  8
0
  6
Continuous
 62
     7
370
    25
100
AcDbLine
 10
79.9197244433
 20
119.8776111278
 30
0.0
 11
77.1355944398
 21
121.8462883331
 31
0.0
  0
LINE
  5
F1
330
1F
100
AcDbEntity
  8
0
  6
Continuous
 62
     7
370
    25
100
AcDbLine
 10
83.5359525493
 20
117.4898719033
 30
0.0
 11
82.7807404303
 21
116.746214683
 31
0.0
  0
LWPOLYLINE
  5
F2
330
1F
100
AcDbEntity
  8
0
  6
Continuous
 62
     7
370
    25
100
AcDbPolyline
 90
       15
 70
   128
 43
0.0
 10
89.73852518
 20
121.8757530713
 10
89.5454571026
 20
122.3184045277
 10
89.2453336874
 20
122.6378246717
 10
88.8492028719
 20
122.8222552279
 10
88.3716467525
 20
122.8649070648
 10
87.8302447978
 20
122.7642101123
 10
87.2449267259
 20
122.5238711576
 10
86.6372388646
 20
122.1527373937
 10
86.0295510033
 20
121.6644707425
 10
85.4442329314
 20
121.0770449415
 10
84.9028309767
 20
120.4120839071
 10
84.4252748573
 20
119.6940657292
 10
84.0291440418
 20
118.9494216014
 10
83.7290206266
 20
118.2055628532
 10
83.5359525493
 20
117.4898719033
  0
LINE
  5
F3
330
1F
100
AcDbEntity
  8
0
  6
Continuous
 62
     7
370
    25
100
AcDbLine
 10
90.4937372989
 20
122.200127072
 30
0.0
 11
89.73852518
 21
121.8757530713
 31
0.0
  0
LWPOLYLINE
  5
F4
330
1F
100
AcDbEntity
  8
0
  6
Continuous
 62
     7
370
    25
100
AcDbPolyline
 90
       17
 70
   128
 43
0.0
 10
90.4937372989
 20
122.200127072
 10
90.3412985967
 20
122.7752249153
 10
90.0689649385
 20
123.2271777336
 10
89.6855513635
 20
123.5413564801
 10
89.2034684041
 20
123.7075916517
 10
88.6383203755
 20
123.7205024607
 10
88.0084002867
 20
123.5796710033
 10
87.3340977229
 20
123.2896557862
 10
86.6372388646
 20
122.8598441749
 10
85.9403800063
 20
122.3041485378
 10
85.2660774425
 20
121.6405559239
 10
84.6361573537
 20
120.8905458486
 10
84.0710093252
 20
120.0783950328
 10
83.5889263658
 20
119.2303916019
 10
83.2055127907
 20
118.3739841776
 10
82.9331791325
 20
117.5368934063
 10
82.7807404303
 20
116.746214683
  0
LINE
  5
F5
330
1F
100
AcDbEntity
  8
0
  6
Continuous
 62
     7
370
    25
100
AcDbLine
 10
90.3814168501
 20
118.2144614499
 30
0.0
 11
90.5226246118
 21
121.5484998824
 31
0.0
  0
ARC
  5
F6
330
1F
100
AcDbEntity
  8
0
  6
Continuous
 62
     7
370
    25
100
AcDbCircle
 10
86.4547482679
 20
121.7220808273
 30
0.0
 40
4.071578108447139
100
AcDbArc
 50
357.5566057141
 51
359.9813692171
  0
ARC
  5
F7
330
1F
100
AcDbEntity
  8
0
  6
Continuous
 62
     7
370
    25
100
AcDbCircle
 10
86.8581569065
 20
121.7227708196
 30
0.0
 40
3.66816980745453
100
AcDbArc
 50
359.9685428033
 51
3.2197333194
  0
LINE
  5
F8
330
1F
100
AcDbEntity
  8
0
  6
Continuous
 62
     7
370
    25
100
AcDbLine
 10
89.8140716232
 20
121.0297827891
 30
0.0
 11
90.5205364324
 21
121.9287949563
 31
0.0
  0
LINE
  5
F9
330
1F
100
AcDbEntity
  8
0
  6
Continuous
 62
     7
370
    25
100
AcDbLine
 10
89.7040749732
 20
118.432665929
 30
0.0
 11
89.8140716232
 21
121.0297827891
 31
0.0
  0
LWPOLYLINE
  5
FA
330
1F
100
AcDbEntity
  8
0
  6
Continuous
 62
     7
370
    25
100
AcDbPolyline
 90
       10
 70
   128
 43
0.0
 10
83.570402756
 20
114.0955047107
 10
84.1720651837
 20
114.9507281901
 10
84.8328876542
 20
115.7497012159
 10
85.5370115341
 20
116.4732497726
 10
86.2675390287
 20
117.1040099058
 10
87.0069387006
 20
117.6268444278
 10
87.7374661951
 20
118.0292061851
 10
88.441590075
 20
118.3014391689
 10
89.1024125455
 20
118.4370102432
 10
89.7040749732
 20
118.432665929
  0
LINE
  5
FB
330
1F
100
AcDbEntity
  8
0
  6
Continuous
 62
     7
370
    25
100
AcDbLine
 10
83.460406106
 20
116.5370628165
 30
0.0
 11
83.570402756
 21
114.0955047107
 31
0.0
  0
LINE
  5
FC
330
1F
100
AcDbEntity
  8
0
  6
Continuous
 62
     7
370
    25
100
AcDbLine
 10
82.7539412968
 20
116.4369828692
 30
0.0
 11
83.460406106
 21
116.5370628165
 31
0.0
  0
ARC
  5
FD
330
1F
100
AcDbEntity
  8
0
  6
Continuous
 62
     7
370
    25
100
AcDbCircle
 10
86.8662347493
 20
116.2186804189
 30
0.0
 40
4.118083704684639
100
AcDbArc
 50
176.961286978
 51
179.9711097742
  0
ARC
  5
FE
330
1F
100
AcDbEntity
  8
0
  6
Continuous
 62
     7
370
    25
100
AcDbCircle
 10
86.4599135206
 20
116.21946489
 30
0.0
 40
3.711762177357156
100
AcDbArc
 50
179.9800565122
 51
182.5591080474
  0
LINE
  5
FF
330
1F
100
AcDbEntity
  8
0
  6
Continuous
 62
     7
370
    25
100
AcDbLine
 10
82.7518531174
 20
116.0537346637
 30
0.0
 11
82.8930608791
 21
112.9193941628
 31
0.0
  0
ARC
  5
100
330
1F
100
AcDbEntity
  8
0
  6
Continuous
 62
     7
370
    25
100
AcDbCircle
 10
90.5460881655
 20
108.7816242792
 30
0.0
 40
8.699998060741683
100
AcDbArc
 50
151.6011964753
 51
176.0852191561
  0
LINE
  5
101
330
1F
100
AcDbEntity
  8
0
  6
Continuous
 62
     7
370
    25
100
AcDbLine
 10
82.5957348932
 20
110.1934258092
 30
0.0
 11
81.8663898152
 21
109.3755963358
 31
0.0
  0
LWPOLYLINE
  5
102
330
1F
100
AcDbEntity
  8
0
  6
Continuous
 62
     7
370
    25
100
AcDbPolyline
 90
       18
 70
   128
 43
0.0
 10
90.678742836
 20
115.9089755379
 10
90.5431430371
 20
116.49791815
 10
90.2923894073
 20
116.9721427302
 10
89.9338746628
 20
117.3176681937
 10
89.478168532
 20
117.5243077621
 10
88.938706139
 20
117.5859692894
 10
88.3313919089
 20
117.5008348711
 10
87.6741306743
 20
117.2714144394
 10
86.986299805
 20
116.9044717653
 10
86.2881779242
 20
116.4108250493
 10
85.6003470549
 20
115.8050279794
 10
84.9430858203
 20
115.1049406592
 10
84.3357715903
 20
114.3312030567
 10
83.7963091972
 20
113.5066264967
 10
83.3406030665
 20
112.6555211377
 10
82.982088322
 20
111.8029792602
 10
82.7313346922
 20
110.974135496
 10
82.5957348932
 20
110.1934258092
  0
LINE
  5
103
330
1F
100
AcDbEntity
  8
0
  6
Continuous
 62
     7
370
    25
100
AcDbLine
 10
91.408087914
 20
116.1225957655
 30
0.0
 11
90.678742836
 21
115.9089755379
 31
0.0
  0
ARC
  5
104
330
1F
100
AcDbEntity
  8
0
  6
Continuous
 62
     7
370
    25
100
AcDbCircle
 10
89.0772951808
 20
116.2765350479
 30
0.0
 40
2.335870730162338
100
AcDbArc
 50
356.2213370755
 51
56.0615382106
  0
LINE
  5
105
330
1F
100
AcDbEntity
  8
0
  6
Continuous
 62
     7
370
    25
100
AcDbLine
 10
90.678742836
 20
115.0201658861
 30
0.0
 11
91.4102096376
 21
115.8403744914
 31
0.0
  0
LWPOLYLINE
  5
106
330
1F
100
AcDbEntity
  8
0
  6
Continuous
 62
     7
370
    25
100
AcDbPolyline
 90
       18
 70
   128
 43
0.0
 10
82.5957348932
 20
109.3046161574
 10
82.7313346922
 20
108.7156735454
 10
82.982088322
 20
108.2414489652
 10
83.3406030665
 20
107.8959235017
 10
83.7963091972
 20
107.6892839333
 10
84.3357715903
 20
107.627622406
 10
84.9430858203
 20
107.7127568242
 10
85.6003470549
 20
107.9421772559
 10
86.2881779242
 20
108.3091199301
 10
86.986299805
 20
108.802766646
 10
87.6741306743
 20
109.4085637159
 10
88.3313919089
 20
110.1086510361
 10
88.938706139
 20
110.8823886387
 10
89.478168532
 20
111.7069651987
 10
89.9338746628
 20
112.5580705576
 10
90.2923894073
 20
113.4106124351
 10
90.5431430371
 20
114.2394561994
 10
90.678742836
 20
115.0201658861
  0
LINE
  5
107
330
1F
100
AcDbEntity
  8
0
  6
Continuous
 62
     7
370
    25
100
AcDbLine
 10
81.8642680916
 20
109.0903744914
 30
0.0
 11
82.5957348932
 21
109.3046161574
 31
0.0
  0
LINE
  5
108
330
1F
100
AcDbEntity
  8
0
  6
Continuous
 62
     7
370
    25
100
AcDbLine
 10
81.8642680916
 20
109.0903744914
 30
0.0
 11
81.8642680916
 21
104.4234697356
 31
0.0
  0
LINE
  5
109
330
1F
100
AcDbEntity
  8
0
  6
Continuous
 62
     7
370
    25
100
AcDbLine
 10
82.5713748728
 20
105.2163629544
 30
0.0
 11
81.8642680916
 21
104.4234697356
 31
0.0
  0
LINE
  5
10A
330
1F
100
AcDbEntity
  8
0
  6
Continuous
 62
     7
370
    25
100
AcDbLine
 10
82.5713748728
 20
107.2317958477
 30
0.0
 11
82.5713748728
 21
105.2163629544
 31
0.0
  0
LWPOLYLINE
  5
10B
330
1F
100
AcDbEntity
  8
0
  6
Continuous
 62
     7
370
    25
100
AcDbPolyline
 90
       14
 70
   128
 43
0.0
 10
90.7031028564
 20
112.9817958477
 10
90.2626789515
 20
112.0659474041
 10
89.7332474469
 20
111.1633772442
 10
89.127806331
 20
110.2962442235
 10
88.4612196916
 20
109.485837186
 10
87.7498527908
 20
108.7520523054
 10
87.0111702835
 20
108.1129046167
 10
86.2633074457
 20
107.5840857328
 10
85.5246249384
 20
107.1785786013
 10
84.8132580376
 20
106.9063387629
 10
84.1466713982
 20
106.7740499345
 10
83.5412302823
 20
106.7849599179
 10
83.0117987778
 20
106.9388008638
 10
82.5713748728
 20
107.2317958477
  0
LINE
  5
10C
330
1F
100
AcDbEntity
  8
0
  6
Continuous
 62
     7
370
    25
100
AcDbLine
 10
90.7031028564
 20
110.9663629544
 30
0.0
 11
90.7031028564
 21
112.9817958477
 31
0.0
  0
LINE
  5
10D
330
1F
100
AcDbEntity
  8
0
  6
Continuous
 62
     7
370
    25
100
AcDbLine
 10
91.4102096376
 20
111.1734697356
 30
0.0
 11
90.7031028564
 21
110.9663629544
 31
0.0
  0
LINE
  5
10E
330
1F
100
AcDbEntity
  8
0
  6
Continuous
 62
     7
370
    25
100
AcDbLine
 10
91.4102096376
 20
111.1734697356
 30
0.0
 11
91.4102096376
 21
115.8403744914
 31
0.0
  0
LINE
  5
10F
330
1F
100
AcDbEntity
  8
0
  6
Continuous
 62
     7
370
    25
100
AcDbLine
 10
90.7031028564
 20
108.0571746452
 30
0.0
 11
90.7031028564
 21
110.0977338043
 31
0.0
  0
LINE
  5
110
330
1F
100
AcDbEntity
  8
0
  6
Continuous
 62
     7
370
    25
100
AcDbLine
 10
82.5713748728
 20
102.3071746452
 30
0.0
 11
90.7031028564
 21
108.0571746452
 31
0.0
  0
LINE
  5
111
330
1F
100
AcDbEntity
  8
0
  6
Continuous
 62
     7
370
    25
100
AcDbLine
 10
82.5713748728
 20
104.3477338043
 30
0.0
 11
82.5713748728
 21
102.3071746452
 31
0.0
  0
LINE
  5
112
330
1F
100
AcDbEntity
  8
0
  6
Continuous
 62
     7
370
    25
100
AcDbLine
 10
81.8642680916
 20
104.1406270231
 30
0.0
 11
82.5713748728
 21
104.3477338043
 31
0.0
  0
LINE
  5
113
330
1F
100
AcDbEntity
  8
0
  6
Continuous
 62
     7
370
    25
100
AcDbLine
 10
81.8642680916
 20
104.1406270231
 30
0.0
 11
81.8642680916
 21
101.8071746452
 31
0.0
  0
LINE
  5
114
330
1F
100
AcDbEntity
  8
0
  6
Continuous
 62
     7
370
    25
100
AcDbLine
 10
81.8642680916
 20
101.8071746452
 30
0.0
 11
79.9197244433
 21
100.4321746452
 31
0.0
  0
LINE
  5
115
330
1F
100
AcDbEntity
  8
0
  6
Continuous
 62
     7
370
    25
100
AcDbLine
 10
79.9197244433
 20
119.8776111278
 30
0.0
 11
79.9197244433
 21
100.4321746452
 31
0.0
  0
LINE
  5
116
330
1F
100
AcDbEntity
  8
0
  6
Continuous
 62
     7
370
    25
100
AcDbLine
 10
93.3547532859
 20
129.3776111279
 30
0.0
 11
93.3547532859
 21
109.9321746452
 31
0.0
  0
LINE
  5
117
330
1F
100
AcDbEntity
  8
0
  6
Continuous
 62
     7
370
    25
100
AcDbLine
 10
93.3547532859
 20
109.9321746452
 30
0.0
 11
91.4102096376
 21
108.5571746452
 31
0.0
  0
LINE
  5
118
330
1F
100
AcDbEntity
  8
0
  6
Continuous
 62
     7
370
    25
100
AcDbLine
 10
91.4102096376
 20
108.5571746452
 30
0.0
 11
91.4102096376
 21
110.8906270231
 31
0.0
  0
LINE
  5
119
330
1F
100
AcDbEntity
  8
0
  6
Continuous
 62
     7
370
    25
100
AcDbLine
 10
90.7031028564
 20
110.0977338043
 30
0.0
 11
91.4102096376
 21
110.8906270231
 31
0.0
  0
LINE
  5
11A
330
1F
100
AcDbEntity
  8
0
  6
Continuous
 62
     7
370
    25
100
AcDbLine
 10
79.9197244433
 20
100.4321746452
 30
0.0
 11
77.8411043016
 21
101.9019810429
 31
0.0
  0
LINE
  5
11B
330
1F
100
AcDbEntity
  8
0
  6
Continuous
 62
     7
370
    25
100
AcDbLine
 10
37.9625031982
 20
116.746214683
 30
0.0
 11
37.2072910793
 21
117.4898719033
 31
0.0
  0
LWPOLYLINE
  5
11C
330
1F
100
AcDbEntity
  8
0
  6
Continuous
 62
     7
370
    25
100
AcDbPolyline
 90
       17
 70
   128
 43
0.0
 10
37.9625031982
 20
116.746214683
 10
37.8100644961
 20
117.5368934063
 10
37.5377308379
 20
118.3739841776
 10
37.1543172628
 20
119.2303916019
 10
36.6722343034
 20
120.0783950328
 10
36.1070862748
 20
120.8905458486
 10
35.477166186
 20
121.6405559239
 10
34.8028636223
 20
122.3041485378
 10
34.1060047639
 20
122.8598441749
 10
33.4091459056
 20
123.2896557862
 10
32.7348433418
 20
123.5796710033
 10
32.1049232531
 20
123.7205024607
 10
31.5397752245
 20
123.7075916517
 10
31.0576922651
 20
123.5413564801
 10
30.67427869
 20
123.2271777336
 10
30.4019450318
 20
122.7752249153
 10
30.2495063297
 20
122.200127072
  0
LINE
  5
11D
330
1F
100
AcDbEntity
  8
0
  6
Continuous
 62
     7
370
    25
100
AcDbLine
 10
31.0047184486
 20
121.8757530713
 30
0.0
 11
30.2495063297
 21
122.200127072
 31
0.0
  0
LWPOLYLINE
  5
11E
330
1F
100
AcDbEntity
  8
0
  6
Continuous
 62
     7
370
    25
100
AcDbPolyline
 90
       15
 70
   128
 43
0.0
 10
37.2072910793
 20
117.4898719033
 10
37.0142230019
 20
118.2055628532
 10
36.7140995867
 20
118.9494216014
 10
36.3179687713
 20
119.6940657292
 10
35.8404126518
 20
120.4120839071
 10
35.2990106972
 20
121.0770449415
 10
34.7136926252
 20
121.6644707425
 10
34.1060047639
 20
122.1527373937
 10
33.4983169027
 20
122.5238711576
 10
32.9129988307
 20
122.7642101123
 10
32.3715968761
 20
122.8649070648
 10
31.8940407566
 20
122.8222552279
 10
31.4979099412
 20
122.6378246717
 10
31.197786526
 20
122.3184045277
 10
31.0047184486
 20
121.8757530713
  0
LINE
  5
11F
330
1F
100
AcDbEntity
  8
0
  6
Continuous
 62
     7
370
    25
100
AcDbLine
 10
37.8501827495
 20
112.9193941628
 30
0.0
 11
37.9913905111
 21
116.0537346637
 31
0.0
  0
ARC
  5
120
330
1F
100
AcDbEntity
  8
0
  6
Continuous
 62
     7
370
    25
100
AcDbCircle
 10
34.283330108
 20
116.21946489
 30
0.0
 40
3.711762177366194
100
AcDbArc
 50
357.4408919526
 51
0.0199434878
  0
ARC
  5
121
330
1F
100
AcDbEntity
  8
0
  6
Continuous
 62
     7
370
    25
100
AcDbCircle
 10
33.8770088792
 20
116.2186804189
 30
0.0
 40
4.118083704794746
100
AcDbArc
 50
0.0288902259
 51
3.038713022
  0
LINE
  5
122
330
1F
100
AcDbEntity
  8
0
  6
Continuous
 62
     7
370
    25
100
AcDbLine
 10
37.2828375225
 20
116.5370628165
 30
0.0
 11
37.9893023317
 21
116.4369828692
 31
0.0
  0
LINE
  5
123
330
1F
100
AcDbEntity
  8
0
  6
Continuous
 62
     7
370
    25
100
AcDbLine
 10
37.1728408725
 20
114.0955047107
 30
0.0
 11
37.2828375225
 21
116.5370628165
 31
0.0
  0
LWPOLYLINE
  5
124
330
1F
100
AcDbEntity
  8
0
  6
Continuous
 62
     7
370
    25
100
AcDbPolyline
 90
       10
 70
   128
 43
0.0
 10
31.0391686554
 20
118.432665929
 10
31.6408310831
 20
118.4370102432
 10
32.3016535535
 20
118.3014391689
 10
33.0057774334
 20
118.0292061851
 10
33.736304928
 20
117.6268444278
 10
34.4757045999
 20
117.1040099058
 10
35.2062320945
 20
116.4732497726
 10
35.9103559744
 20
115.7497012159
 10
36.5711784448
 20
114.9507281901
 10
37.1728408725
 20
114.0955047107
  0
LINE
  5
125
330
1F
100
AcDbEntity
  8
0
  6
Continuous
 62
     7
370
    25
100
AcDbLine
 10
30.9291720054
 20
121.0297827891
 30
0.0
 11
31.0391686554
 21
118.432665929
 31
0.0
  0
LINE
  5
126
330
1F
100
AcDbEntity
  8
0
  6
Continuous
 62
     7
370
    25
100
AcDbLine
 10
30.2227071962
 20
121.9287949563
 30
0.0
 11
30.9291720054
 21
121.0297827891
 31
0.0
  0
ARC
  5
127
330
1F
100
AcDbEntity
  8
0
  6
Continuous
 62
     7
370
    25
100
AcDbCircle
 10
33.885086722
 20
121.7227708196
 30
0.0
 40
3.668169807474743
100
AcDbArc
 50
176.7802666806
 51
180.0314571967
  0
ARC
  5
128
330
1F
100
AcDbEntity
  8
0
  6
Continuous
 62
     7
370
    25
100
AcDbCircle
 10
34.2884953607
 20
121.7220808273
 30
0.0
 40
4.071578108500949
100
AcDbArc
 50
180.0186307829
 51
182.4433942859
  0
LINE
  5
129
330
1F
100
AcDbEntity
  8
0
  6
Continuous
 62
     7
370
    25
100
AcDbLine
 10
30.2206190168
 20
121.5484998824
 30
0.0
 11
30.3618267784
 21
118.2144614499
 31
0.0
  0
ARC
  5
12A
330
1F
100
AcDbEntity
  8
0
  6
Continuous
 62
     7
370
    25
100
AcDbCircle
 10
31.6659484478
 20
116.2765350479
 30
0.0
 40
2.335870730161906
100
AcDbArc
 50
123.9384617893
 51
183.7786629245
  0
LINE
  5
12B
330
1F
100
AcDbEntity
  8
0
  6
Continuous
 62
     7
370
    25
100
AcDbLine
 10
30.0645007926
 20
115.9089755379
 30
0.0
 11
29.3351557145
 21
116.1225957655
 31
0.0
  0
LWPOLYLINE
  5
12C
330
1F
100
AcDbEntity
  8
0
  6
Continuous
 62
     7
370
    25
100
AcDbPolyline
 90
       18
 70
   128
 43
0.0
 10
38.1475087353
 20
110.1934258092
 10
38.0119089364
 20
110.974135496
 10
37.7611553066
 20
111.8029792602
 10
37.4026405621
 20
112.6555211377
 10
36.9469344314
 20
113.5066264967
 10
36.4074720383
 20
114.3312030567
 10
35.8001578082
 20
115.1049406592
 10
35.1428965737
 20
115.8050279794
 10
34.4550657043
 20
116.4108250493
 10
33.7569438236
 20
116.9044717653
 10
33.0691129542
 20
117.2714144394
 10
32.4118517197
 20
117.5008348711
 10
31.8045374896
 20
117.5859692894
 10
31.2650750965
 20
117.5243077621
 10
30.8093689658
 20
117.3176681937
 10
30.4508542213
 20
116.9721427302
 10
30.2001005915
 20
116.49791815
 10
30.0645007926
 20
115.9089755379
  0
LINE
  5
12D
330
1F
100
AcDbEntity
  8
0
  6
Continuous
 62
     7
370
    25
100
AcDbLine
 10
38.8768538134
 20
109.3755963358
 30
0.0
 11
38.1475087353
 21
110.1934258092
 31
0.0
  0
ARC
  5
12E
330
1F
100
AcDbEntity
  8
0
  6
Continuous
 62
     7
370
    25
100
AcDbCircle
 10
30.197155463
 20
108.7816242792
 30
0.0
 40
8.699998060743974
100
AcDbArc
 50
3.9147808439
 51
28.3988035247
  0
LINE
  5
12F
330
1F
100
AcDbEntity
  8
0
  6
Continuous
 62
     7
370
    25
100
AcDbLine
 10
38.1475087353
 20
109.3046161574
 30
0.0
 11
38.878975537
 21
109.0903744914
 31
0.0
  0
LWPOLYLINE
  5
130
330
1F
100
AcDbEntity
  8
0
  6
Continuous
 62
     7
370
    25
100
AcDbPolyline
 90
       18
 70
   128
 43
0.0
 10
30.0645007926
 20
115.0201658861
 10
30.2001005915
 20
114.2394561994
 10
30.4508542213
 20
113.4106124351
 10
30.8093689658
 20
112.5580705576
 10
31.2650750965
 20
111.7069651987
 10
31.8045374896
 20
110.8823886387
 10
32.4118517197
 20
110.1086510361
 10
33.0691129542
 20
109.4085637159
 10
33.7569438236
 20
108.802766646
 10
34.4550657043
 20
108.3091199301
 10
35.1428965737
 20
107.9421772559
 10
35.8001578082
 20
107.7127568242
 10
36.4074720383
 20
107.627622406
 10
36.9469344314
 20
107.6892839333
 10
37.4026405621
 20
107.8959235017
 10
37.7611553066
 20
108.2414489652
 10
38.0119089364
 20
108.7156735454
 10
38.1475087353
 20
109.3046161574
  0
LINE
  5
131
330
1F
100
AcDbEntity
  8
0
  6
Continuous
 62
     7
370
    25
100
AcDbLine
 10
29.3330339909
 20
115.8403744914
 30
0.0
 11
30.0645007926
 21
115.0201658861
 31
0.0
  0
LINE
  5
132
330
1F
100
AcDbEntity
  8
0
  6
Continuous
 62
     7
370
    25
100
AcDbLine
 10
29.3330339909
 20
115.8403744914
 30
0.0
 11
29.3330339909
 21
111.1734697356
 31
0.0
  0
LINE
  5
133
330
1F
100
AcDbEntity
  8
0
  6
Continuous
 62
     7
370
    25
100
AcDbLine
 10
30.0401407721
 20
110.9663629544
 30
0.0
 11
29.3330339909
 21
111.1734697356
 31
0.0
  0
LINE
  5
134
330
1F
100
AcDbEntity
  8
0
  6
Continuous
 62
     7
370
    25
100
AcDbLine
 10
30.0401407721
 20
112.9817958477
 30
0.0
 11
30.0401407721
 21
110.9663629544
 31
0.0
  0
LWPOLYLINE
  5
135
330
1F
100
AcDbEntity
  8
0
  6
Continuous
 62
     7
370
    25
100
AcDbPolyline
 90
       14
 70
   128
 43
0.0
 10
38.1718687558
 20
107.2317958477
 10
37.7314448508
 20
106.9388008638
 10
37.2020133463
 20
106.7849599179
 10
36.5965722303
 20
106.7740499345
 10
35.929985591
 20
106.9063387629
 10
35.2186186902
 20
107.1785786013
 10
34.4799361828
 20
107.5840857328
 10
33.7320733451
 20
108.1129046167
 10
32.9933908377
 20
108.7520523054
 10
32.2820239369
 20
109.485837186
 10
31.6154372976
 20
110.2962442235
 10
31.0099961816
 20
111.1633772442
 10
30.4805646771
 20
112.0659474041
 10
30.0401407721
 20
112.9817958477
  0
LINE
  5
136
330
1F
100
AcDbEntity
  8
0
  6
Continuous
 62
     7
370
    25
100
AcDbLine
 10
38.1718687558
 20
105.2163629544
 30
0.0
 11
38.1718687558
 21
107.2317958477
 31
0.0
  0
LINE
  5
137
330
1F
100
AcDbEntity
  8
0
  6
Continuous
 62
     7
370
    25
100
AcDbLine
 10
38.878975537
 20
104.4234697356
 30
0.0
 11
38.1718687558
 21
105.2163629544
 31
0.0
  0
LINE
  5
138
330
1F
100
AcDbEntity
  8
0
  6
Continuous
 62
     7
370
    25
100
AcDbLine
 10
38.878975537
 20
104.4234697356
 30
0.0
 11
38.878975537
 21
109.0903744914
 31
0.0
  0
LINE
  5
139
330
1F
100
AcDbEntity
  8
0
  6
Continuous
 62
     7
370
    25
100
AcDbLine
 10
38.1718687558
 20
102.3071746452
 30
0.0
 11
38.1718687558
 21
104.3477338043
 31
0.0
  0
LINE
  5
13A
330
1F
100
AcDbEntity
  8
0
  6
Continuous
 62
     7
370
    25
100
AcDbLine
 10
30.0401407721
 20
108.0571746452
 30
0.0
 11
38.1718687558
 21
102.3071746452
 31
0.0
  0
LINE
  5
13B
330
1F
100
AcDbEntity
  8
0
  6
Continuous
 62
     7
370
    25
100
AcDbLine
 10
30.0401407721
 20
110.0977338043
 30
0.0
 11
30.0401407721
 21
108.0571746452
 31
0.0
  0
LINE
  5
13C
330
1F
100
AcDbEntity
  8
0
  6
Continuous
 62
     7
370
    25
100
AcDbLine
 10
29.3330339909
 20
110.8906270231
 30
0.0
 11
30.0401407721
 21
110.0977338043
 31
0.0
  0
LINE
  5
13D
330
1F
100
AcDbEntity
  8
0
  6
Continuous
 62
     7
370
    25
100
AcDbLine
 10
29.3330339909
 20
110.8906270231
 30
0.0
 11
29.3330339909
 21
108.5571746452
 31
0.0
  0
LINE
  5
13E
330
1F
100
AcDbEntity
  8
0
  6
Continuous
 62
     7
370
    25
100
AcDbLine
 10
29.3330339909
 20
108.5571746452
 30
0.0
 11
27.3884903427
 21
109.9321746452
 31
0.0
  0
LINE
  5
13F
330
1F
100
AcDbEntity
  8
0
  6
Continuous
 62
     7
370
    25
100
AcDbLine
 10
27.3884903427
 20
129.3776111278
 30
0.0
 11
27.3884903427
 21
109.9321746452
 31
0.0
  0
LINE
  5
140
330
1F
100
AcDbEntity
  8
0
  6
Continuous
 62
     7
370
    25
100
AcDbLine
 10
40.8235191852
 20
119.8776111278
 30
0.0
 11
27.3884903427
 21
129.3776111278
 31
0.0
  0
LINE
  5
141
330
1F
100
AcDbEntity
  8
0
  6
Continuous
 62
     7
370
    25
100
AcDbLine
 10
40.8235191852
 20
119.8776111278
 30
0.0
 11
40.8235191852
 21
100.4321746452
 31
0.0
  0
LINE
  5
142
330
1F
100
AcDbEntity
  8
0
  6
Continuous
 62
     7
370
    25
100
AcDbLine
 10
40.8235191852
 20
100.4321746452
 30
0.0
 11
38.878975537
 21
101.8071746452
 31
0.0
  0
LINE
  5
143
330
1F
100
AcDbEntity
  8
0
  6
Continuous
 62
     7
370
    25
100
AcDbLine
 10
38.878975537
 20
101.8071746452
 30
0.0
 11
38.878975537
 21
104.1406270231
 31
0.0
  0
LINE
  5
144
330
1F
100
AcDbEntity
  8
0
  6
Continuous
 62
     7
370
    25
100
AcDbLine
 10
38.1718687558
 20
104.3477338043
 30
0.0
 11
38.878975537
 21
104.1406270231
 31
0.0
  0
LINE
  5
145
330
1F
100
AcDbEntity
  8
0
  6
Continuous
 62
     7
370
    25
100
AcDbLine
 10
43.6076491888
 20
121.8462883331
 30
0.0
 11
40.8235191852
 21
119.8776111278
 31
0.0
  0
LINE
  5
146
330
1F
100
AcDbEntity
  8
0
  6
Continuous
 62
     7
370
    25
100
AcDbLine
 10
42.9021393269
 20
101.9019810429
 30
0.0
 11
40.8235191852
 21
100.4321746452
 31
0.0
  0
LINE
  5
147
330
1F
100
AcDbEntity
  8
0
  6
Continuous
 62
     7
370
    25
100
AcDbLine
 10
27.3884903427
 20
129.3776111278
 30
0.0
 11
30.1726203462
 21
131.3462883331
 31
0.0
  0
LINE
  5
148
330
1F
100
AcDbEntity
  8
0
  6
Continuous
 62
     7
370
    25
100
AcDbLine
 10
89.7866305177
 20
122.700127072
 30
0.0
 11
90.4937372989
 21
122.200127072
 31
0.0
  0
ARC
  5
149
330
1F
100
AcDbEntity
  8
0
  6
Continuous
 62
     7
370
    25
100
AcDbCircle
 10
87.0647398651
 20
122.5988998434
 30
0.0
 40
2.400128941118725
100
AcDbArc
 50
359.1143866671
 51
27.5612880124
  0
LINE
  5
14A
330
1F
100
AcDbEntity
  8
0
  6
Continuous
 62
     7
370
    25
100
AcDbLine
 10
30.2495063297
 20
122.200127072
 30
0.0
 11
30.9566131109
 21
122.700127072
 31
0.0
  0
ARC
  5
14B
330
1F
100
AcDbEntity
  8
0
  6
Continuous
 62
     7
370
    25
100
AcDbCircle
 10
33.6785037634
 20
122.5988998434
 30
0.0
 40
2.400128941119662
100
AcDbArc
 50
152.4387119876
 51
180.8856133329
  0
LINE
  5
14C
330
1F
100
AcDbEntity
  8
0
  6
Continuous
 62
     7
370
    25
100
AcDbLine
 10
37.7198831023
 20
117.8523291987
 30
0.0
 11
37.2072910793
 21
117.4898719033
 31
0.0
  0
LINE
  5
14D
330
1F
100
AcDbEntity
  8
0
  6
Continuous
 62
     7
370
    25
100
AcDbLine
 10
32.8491509584
 20
123.5398832427
 30
0.0
 11
32.5685887244
 21
123.3949914925
 31
0.0
  0
LINE
  5
14E
330
1F
100
AcDbEntity
  8
0
  6
Continuous
 62
     7
370
    25
100
AcDbLine
 10
83.0233605262
 20
117.8523291987
 30
0.0
 11
83.5359525493
 21
117.4898719033
 31
0.0
  0
LINE
  5
14F
330
1F
100
AcDbEntity
  8
0
  6
Continuous
 62
     7
370
    25
100
AcDbLine
 10
88.1746549042
 20
123.3949914925
 30
0.0
 11
87.8940926702
 21
123.5398832427
 31
0.0
  0
LINE
  5
150
330
1F
100
AcDbEntity
  8
0
  6
Continuous
 62
     7
370
    25
100
AcDbLine
 10
37.9271998777
 20
114.6289170787
 30
0.0
 11
37.1728408725
 21
114.0955047107
 31
0.0
  0
LINE
  5
151
330
1F
100
AcDbEntity
  8
0
  6
Continuous
 62
     7
370
    25
100
AcDbLine
 10
82.8160437508
 20
114.6289170787
 30
0.0
 11
83.570402756
 21
114.0955047107
 31
0.0
  0
LINE
  5
152
330
1F
100
AcDbEntity
  8
0
  6
Continuous
 62
     7
370
    25
100
AcDbLine
 10
82.0295381076
 20
110.5937873958
 30
0.0
 11
82.5957348932
 21
110.1934258092
 31
0.0
  0
LWPOLYLINE
  5
153
330
1F
100
AcDbEntity
  8
0
  6
Continuous
 62
     7
370
    25
100
AcDbPolyline
 90
        3
 70
   128
 43
0.0
 10
88.8963427407
 20
118.051651188
 10
88.6912112102
 20
118.1726606183
 10
88.3825229385
 20
118.2833335885
  0
LINE
  5
154
330
1F
100
AcDbEntity
  8
0
  6
Continuous
 62
     7
370
    25
100
AcDbLine
 10
82.9196213098
 20
114.5556766843
 30
0.0
 11
82.8260765234
 21
114.4062230488
 31
0.0
  0
LINE
  5
155
330
1F
100
AcDbEntity
  8
0
  6
Continuous
 62
     7
370
    25
100
AcDbLine
 10
38.7137055209
 20
110.5937873958
 30
0.0
 11
38.1475087353
 21
110.1934258092
 31
0.0
  0
LINE
  5
156
330
1F
100
AcDbEntity
  8
0
  6
Continuous
 62
     7
370
    25
100
AcDbLine
 10
37.9171671051
 20
114.4062230488
 30
0.0
 11
37.8236223187
 21
114.5556766843
 31
0.0
  0
LWPOLYLINE
  5
157
330
1F
100
AcDbEntity
  8
0
  6
Continuous
 62
     7
370
    25
100
AcDbPolyline
 90
        3
 70
   128
 43
0.0
 10
32.36072069
 20
118.2833335885
 10
32.0520324183
 20
118.1726606183
 10
31.8469008879
 20
118.051651188
  0
LINE
  5
158
330
1F
100
AcDbEntity
  8
0
  6
Continuous
 62
     7
370
    25
100
AcDbLine
 10
89.7866305177
 20
122.700127072
 30
0.0
 11
89.378494431
 21
122.5248270047
 31
0.0
  0
LINE
  5
159
330
1F
100
AcDbEntity
  8
0
  6
Continuous
 62
     7
370
    25
100
AcDbLine
 10
31.3647491976
 20
122.5248270047
 30
0.0
 11
30.9566131109
 21
122.700127072
 31
0.0
  0
LINE
  5
15A
330
1F
100
AcDbEntity
  8
0
  6
Continuous
 62
     7
370
    25
100
AcDbLine
 10
89.7147974331
 20
118.6858325602
 30
0.0
 11
90.3814168501
 21
118.2144614499
 31
0.0
  0
LINE
  5
15B
330
1F
100
AcDbEntity
  8
0
  6
Continuous
 62
     7
370
    25
100
AcDbLine
 10
31.0284461955
 20
118.6858325602
 30
0.0
 11
30.3618267784
 21
118.2144614499
 31
0.0
  0
LWPOLYLINE
  5
15C
330
1F
100
AcDbEntity
  8
0
  6
Continuous
 62
     7
370
    25
100
AcDbPolyline
 90
        3
 70
   128
 43
0.0
 10
38.4864289836
 20
108.6619405073
 10
38.687806441
 20
108.8340408159
 10
38.878975537
 20
109.0734834525
  0
LWPOLYLINE
  5
15D
330
1F
100
AcDbEntity
  8
0
  6
Continuous
 62
     7
370
    25
100
AcDbPolyline
 90
        3
 70
   128
 43
0.0
 10
81.8642680916
 20
109.0734834525
 10
82.0554371876
 20
108.8340408159
 10
82.256814645
 20
108.6619405073
  0
LINE
  5
15E
330
1F
100
AcDbEntity
  8
0
  6
Continuous
 62
     7
370
    25
100
AcDbLine
 10
30.4914402381
 20
113.3009127604
 30
0.0
 11
30.0401407721
 21
112.9817958477
 31
0.0
  0
ARC
  5
15F
330
1F
100
AcDbEntity
  8
0
  6
Continuous
 62
     7
370
    25
100
AcDbCircle
 10
37.83141384
 20
110.1505455995
 30
0.0
 40
2.635855813741174
100
AcDbArc
 50
249.5842480878
 51
293.4174598911
  0
LINE
  5
160
330
1F
100
AcDbEntity
  8
0
  6
Continuous
 62
     7
370
    25
100
AcDbLine
 10
38.878975537
 20
107.7317958477
 30
0.0
 11
38.1718687558
 21
107.2317958477
 31
0.0
  0
LINE
  5
161
330
1F
100
AcDbEntity
  8
0
  6
Continuous
 62
     7
370
    25
100
AcDbLine
 10
38.878975537
 20
105.7163629544
 30
0.0
 11
38.1718687558
 21
105.2163629544
 31
0.0
  0
LINE
  5
162
330
1F
100
AcDbEntity
  8
0
  6
Continuous
 62
     7
370
    25
100
AcDbLine
 10
38.878975537
 20
102.8071746452
 30
0.0
 11
38.1718687558
 21
102.3071746452
 31
0.0
  0
LINE
  5
163
330
1F
100
AcDbEntity
  8
0
  6
Continuous
 62
     7
370
    25
100
AcDbLine
 10
81.8642680916
 20
107.7317958477
 30
0.0
 11
82.5713748728
 21
107.2317958477
 31
0.0
  0
ARC
  5
164
330
1F
100
AcDbEntity
  8
0
  6
Continuous
 62
     7
370
    25
100
AcDbCircle
 10
82.9094374867
 20
110.0592392857
 30
0.0
 40
2.551347099439047
100
AcDbArc
 50
245.8169022042
 51
291.1813898169
  0
LINE
  5
165
330
1F
100
AcDbEntity
  8
0
  6
Continuous
 62
     7
370
    25
100
AcDbLine
 10
90.2518033904
 20
113.3009127604
 30
0.0
 11
90.7031028564
 21
112.9817958477
 31
0.0
  0
LINE
  5
166
330
1F
100
AcDbEntity
  8
0
  6
Continuous
 62
     7
370
    25
100
AcDbLine
 10
81.8642680916
 20
102.8071746452
 30
0.0
 11
82.5713748728
 21
102.3071746452
 31
0.0
  0
LINE
  5
167
330
1F
100
AcDbEntity
  8
0
  6
Continuous
 62
     7
370
    25
100
AcDbLine
 10
81.8642680916
 20
105.7163629544
 30
0.0
 11
82.5713748728
 21
105.2163629544
 31
0.0
  0
LINE
  5
168
330
1F
100
AcDbEntity
  8
0
  6
Continuous
 62
     7
370
    25
100
AcDbLine
 10
90.7009811328
 20
116.6225957655
 30
0.0
 11
91.408087914
 21
116.1225957655
 31
0.0
  0
ARC
  5
169
330
1F
100
AcDbEntity
  8
0
  6
Continuous
 62
     7
370
    25
100
AcDbCircle
 10
87.805303699
 20
116.981825016
 30
0.0
 40
2.542906484062017
100
AcDbArc
 50
358.0307930497
 51
41.3647260475
  0
LINE
  5
16A
330
1F
100
AcDbEntity
  8
0
  6
Continuous
 62
     7
370
    25
100
AcDbLine
 10
29.3351557145
 20
116.1225957655
 30
0.0
 11
30.0422624957
 21
116.6225957655
 31
0.0
  0
ARC
  5
16B
330
1F
100
AcDbEntity
  8
0
  6
Continuous
 62
     7
370
    25
100
AcDbCircle
 10
33.0774146755
 20
116.9318919799
 30
0.0
 40
2.68114101311359
100
AcDbArc
 50
139.8042093511
 51
180.8002715516
  0
LINE
  5
16C
330
1F
100
AcDbEntity
  8
0
  6
Continuous
 62
     7
370
    25
100
AcDbLine
 10
30.2271411569
 20
116.5684460593
 30
0.0
 11
30.0422624957
 21
116.6225957655
 31
0.0
  0
LINE
  5
16D
330
1F
100
AcDbEntity
  8
0
  6
Continuous
 62
     7
370
    25
100
AcDbLine
 10
90.7009811328
 20
116.6225957655
 30
0.0
 11
90.5161024717
 21
116.5684460593
 31
0.0
  0
LINE
  5
16E
330
1F
100
AcDbEntity
  8
0
  6
Continuous
 62
     7
370
    25
100
AcDbLine
 10
90.7031028564
 20
109.0571746452
 30
0.0
 11
91.4102096376
 21
108.5571746452
 31
0.0
  0
LINE
  5
16F
330
1F
100
AcDbEntity
  8
0
  6
Continuous
 62
     7
370
    25
100
AcDbLine
 10
90.7031028564
 20
111.6734697356
 30
0.0
 11
91.4102096376
 21
111.1734697356
 31
0.0
  0
LINE
  5
170
330
1F
100
AcDbEntity
  8
0
  6
Continuous
 62
     7
370
    25
100
AcDbLine
 10
90.3495494658
 20
113.2317958477
 30
0.0
 11
90.3495494658
 21
113.5734834525
 31
0.0
  0
LINE
  5
171
330
1F
100
AcDbEntity
  8
0
  6
Continuous
 62
     7
370
    25
100
AcDbLine
 10
30.0401407721
 20
109.0571746452
 30
0.0
 11
29.3330339909
 21
108.5571746452
 31
0.0
  0
LINE
  5
172
330
1F
100
AcDbEntity
  8
0
  6
Continuous
 62
     7
370
    25
100
AcDbLine
 10
30.0401407721
 20
111.6734697356
 30
0.0
 11
29.3330339909
 21
111.1734697356
 31
0.0
  0
LINE
  5
173
330
1F
100
AcDbEntity
  8
0
  6
Continuous
 62
     7
370
    25
100
AcDbLine
 10
30.3936941627
 20
113.5734834525
 30
0.0
 11
30.3936941627
 21
113.2317958477
 31
0.0
  0
ARC
  5
174
330
1F
100
AcDbEntity
  8
0
  6
Continuous
 62
     7
370
    25
100
AcDbCircle
 10
55.1651729311
 20
188.2449352568
 30
0.0
 40
5.793646983692142
100
AcDbArc
 50
153.2232874782
 51
179.6703928796
  0
ARC
  5
175
330
1F
100
AcDbEntity
  8
0
  6
Continuous
 62
     7
370
    25
100
AcDbCircle
 10
65.5870582793
 20
188.24615942
 30
0.0
 40
5.784652627199697
100
AcDbArc
 50
0.3179943453
 51
26.1578968196
  0
LWPOLYLINE
  5
176
330
1F
100
AcDbEntity
  8
0
  6
Continuous
 62
     7
370
    25
100
AcDbPolyline
 90
       29
 70
   128
 43
0.0
 10
51.0921966519
 20
187.1926741383
 10
50.9528956312
 20
187.7550061688
 10
50.8716218143
 20
188.6318177474
 10
50.9528956312
 20
189.508629326
 10
51.1953264645
 20
190.3704384154
 10
51.5947662554
 20
191.2024992231
 10
52.1443804783
 20
191.9905749581
 10
52.8347650815
 20
192.7211814259
 10
53.654107393
 20
193.3818177474
 10
54.5883882387
 20
193.961180252
 10
55.6216218143
 20
194.4493558865
 10
56.7361292068
 20
194.8379918306
 10
57.9128408858
 20
195.1204384154
 10
59.1316229882
 20
195.2918629016
 10
60.3716218143
 20
195.3493321687
 10
61.6116206404
 20
195.2918629016
 10
62.8304027428
 20
195.1204384154
 10
64.0071144217
 20
194.8379918306
 10
65.1216218143
 20
194.4493558865
 10
66.1548553899
 20
193.961180252
 10
67.0891362356
 20
193.3818177474
 10
67.908478547
 20
192.7211814259
 10
68.5988631502
 20
191.9905749581
 10
69.1484773731
 20
191.2024992231
 10
69.547917164
 20
190.3704384154
 10
69.7903479973
 20
189.508629326
 10
69.8716218143
 20
188.6318177474
 10
69.7903479973
 20
187.7550061688
 10
69.6510469767
 20
187.1926741383
  0
LWPOLYLINE
  5
177
330
1F
100
AcDbEntity
  8
0
  6
Continuous
 62
     7
370
    25
100
AcDbPolyline
 90
       29
 70
   128
 43
0.0
 10
69.4090002497
 20
187.060714868
 10
69.542486782
 20
187.6013034624
 10
69.6216218143
 20
188.4550410521
 10
69.542486782
 20
189.3087786418
 10
69.3064357075
 20
190.1479085446
 10
68.91750749
 20
190.9580730153
 10
68.3823567993
 20
191.7254099151
 10
67.710140212
 20
192.436789897
 10
66.9123595403
 20
193.0800410521
 10
66.0026650326
 20
193.644157175
 10
64.9966218143
 20
194.1194860823
 10
63.9114435637
 20
194.4978947647
 10
62.7656979815
 20
194.7729085446
 10
61.5789890923
 20
194.9398218601
 10
60.3716218143
 20
194.9957787781
 10
59.1642545362
 20
194.9398218601
 10
57.9775456471
 20
194.7729085446
 10
56.8318000649
 20
194.4978947647
 10
55.7466218143
 20
194.1194860823
 10
54.7405785959
 20
193.644157175
 10
53.8308840883
 20
193.0800410521
 10
53.0331034166
 20
192.436789897
 10
52.3608868293
 20
191.7254099151
 10
51.8257361385
 20
190.9580730153
 10
51.4368079211
 20
190.1479085446
 10
51.2007568466
 20
189.3087786418
 10
51.1216218143
 20
188.4550410521
 10
51.2007568466
 20
187.6013034624
 10
51.3342433789
 20
187.060714868
  0
LWPOLYLINE
  5
178
330
1F
100
AcDbEntity
  8
0
  6
Continuous
 62
     7
370
    25
100
AcDbPolyline
 90
       19
 70
   128
 43
0.0
 10
53.8308840883
 20
192.7264876615
 10
54.7405785959
 20
193.2906037844
 10
55.7466218143
 20
193.7659326917
 10
56.8318000649
 20
194.1443413741
 10
57.9775456471
 20
194.419355154
 10
59.1642545362
 20
194.5862684695
 10
60.3716218143
 20
194.6422253875
 10
61.5789890923
 20
194.5862684695
 10
62.7656979815
 20
194.419355154
 10
63.9114435637
 20
194.1443413741
 10
64.9966218143
 20
193.7659326917
 10
66.0026650326
 20
193.2906037844
 10
66.9123595403
 20
192.7264876615
 10
67.710140212
 20
192.0832365064
 10
68.3823567993
 20
191.3718565245
 10
68.91750749
 20
190.6045196247
 10
69.3064357075
 20
189.794355154
 10
69.542486782
 20
188.9552252512
 10
69.6182428187
 20
188.2782643568
  0
ARC
  5
179
330
1F
100
AcDbEntity
  8
0
  6
Continuous
 62
     7
370
    25
100
AcDbCircle
 10
56.9501794431
 20
187.7818850467
 30
0.0
 40
5.846289295657011
100
AcDbArc
 50
122.2457185621
 51
175.1294368223
  0
LINE
  5
17A
330
1F
100
AcDbEntity
  8
0
  6
Continuous
 62
     7
370
    25
100
AcDbLine
 10
53.6335116277
 20
186.4661974971
 30
0.0
 11
53.3724340165
 21
186.1845782702
 31
0.0
  0
SPLINE
  5
17B
330
1F
100
AcDbEntity
  8
0
  6
Continuous
 62
     7
370
    25
100
AcDbSpline
210
0.0
220
0.0
230
1.0
 70
     8
 71
     3
 72
    19
 73
    15
 74
     0
 42
0.00000001
 43
0.00000001
 40
0.0
 40
0.0
 40
0.0
 40
0.0
 40
0.0342294324135409
 40
0.1305745868746757
 40
0.2299338536304135
 40
0.322473143817572
 40
0.4179861838965903
 40
0.505720754960344
 40
0.596708483865012
 40
0.6764000025193538
 40
0.7579532100803753
 40
0.8465951919769826
 40
0.9375867409933524
 40
1.0
 40
1.0
 40
1.0
 40
1.0
 10
64.06827570874849
 20
194.0451917154685
 30
0.0
 10
64.01372550175799
 20
194.0712506807602
 30
0.0
 10
63.80563351075858
 20
194.1706574890953
 30
0.0
 10
63.31066829096038
 20
194.1429313180223
 30
0.0
 10
62.55462112243052
 20
193.9199301941754
 30
0.0
 10
61.64319895135331
 20
193.4810204449938
 30
0.0
 10
60.64232663485863
 20
192.8889281849826
 30
0.0
 10
59.54567868829806
 20
192.1401691486314
 30
0.0
 10
58.45534168224018
 20
191.2931812530439
 30
0.0
 10
57.37302949043737
 20
190.3896085357686
 30
0.0
 10
56.31130873196371
 20
189.4330543725625
 30
0.0
 10
55.24976325058164
 20
188.3839831110618
 30
0.0
 10
54.33751891067776
 20
187.3791840265469
 30
0.0
 10
53.83710620855275
 20
186.7302275920287
 30
0.0
 10
53.633511627715
 20
186.4661974970558
 30
0.0
  0
ARC
  5
17C
330
1F
100
AcDbEntity
  8
0
  6
Continuous
 62
     7
370
    25
100
AcDbCircle
 10
64.4210931644
 20
188.1074145352
 30
0.0
 40
4.690854414370175
100
AcDbArc
 50
344.0153467339
 51
41.9855939287
  0
LWPOLYLINE
  5
17D
330
1F
100
AcDbEntity
  8
0
  6
Continuous
 62
     7
370
    25
100
AcDbPolyline
 90
       17
 70
   128
 43
0.0
 10
51.8126656315
 20
186.8156476517
 10
51.6801618866
 20
187.3869863229
 10
51.6239154907
 20
188.2431458342
 10
51.7355315806
 20
189.0965870223
 10
52.0128683202
 20
189.9309329361
 10
52.4506038076
 20
190.7301730495
 10
53.040338199
 20
191.4789704929
 10
53.7707548958
 20
192.1629563567
 10
54.6278377024
 20
192.7690054213
 10
55.5951397875
 20
193.2854880207
 10
56.6540992874
 20
193.7024932079
 10
57.7843954954
 20
194.0120189395
 10
58.9643388023
 20
194.2081256287
 10
60.1712869053
 20
194.2870501228
 10
61.3820792978
 20
194.2472779148
 10
62.573481704
 20
194.0895722061
 10
62.9083548046
 20
194.0229522496
  0
LWPOLYLINE
  5
17E
330
1F
100
AcDbEntity
  8
0
  6
Continuous
 62
     7
370
    25
100
AcDbPolyline
 90
       10
 70
   128
 43
0.0
 10
52.5894306062
 20
190.2228080051
 10
53.0331034166
 20
190.669022944
 10
53.8308840883
 20
191.3122740992
 10
54.7405785959
 20
191.876390222
 10
55.7466218143
 20
192.3517191293
 10
56.8318000649
 20
192.7301278117
 10
57.9775456471
 20
193.0051415917
 10
59.1642545362
 20
193.1720549072
 10
60.3716218143
 20
193.2280118251
 10
61.1338667534
 20
193.2057663578
  0
LWPOLYLINE
  5
17F
330
1F
100
AcDbEntity
  8
0
  6
Continuous
 62
     7
370
    25
100
AcDbPolyline
 90
       14
 70
   128
 43
0.0
 10
51.6359192094
 20
187.7479342709
 10
51.7355315806
 20
188.3894802412
 10
52.0128683202
 20
189.2238261549
 10
52.4506038076
 20
190.0230662683
 10
53.040338199
 20
190.7718637117
 10
53.7707548958
 20
191.4558495755
 10
54.6278377024
 20
192.0618986401
 10
55.5951397875
 20
192.5783812395
 10
56.6540992874
 20
192.9953864267
 10
57.7843954954
 20
193.3049121583
 10
58.9643388023
 20
193.5010188475
 10
60.1712869053
 20
193.5799433416
 10
61.3820792978
 20
193.5401711336
 10
61.6909943959
 20
193.5108241275
  0
LWPOLYLINE
  5
180
330
1F
100
AcDbEntity
  8
0
  6
Continuous
 62
     7
370
    25
100
AcDbPolyline
 90
       81
 70
   128
 43
0.0
 10
78.7563981251
 20
182.526108864
 10
80.1421769199
 20
183.5861517699
 10
81.406063668
 20
184.7198084818
 10
82.5402660875
 20
185.920089629
 10
83.5377914432
 20
187.179595079
 10
84.3924896596
 20
188.4905595621
 10
85.099091238
 20
189.8449005462
 10
85.6532397446
 20
191.2342680687
 10
86.0515186698
 20
192.6500962169
 10
86.2914724913
 20
194.0836559395
 10
86.3716218143
 20
195.526108864
 10
86.2914724913
 20
196.9685617885
 10
86.0515186698
 20
198.4021215111
 10
85.6532397446
 20
199.8179496593
 10
85.099091238
 20
201.2073171818
 10
84.3924896596
 20
202.5616581659
 10
83.5377914432
 20
203.872622649
 10
82.5402660875
 20
205.132128099
 10
81.406063668
 20
206.3324092462
 10
80.1421769199
 20
207.4660659581
 10
78.7563981251
 20
208.526108864
 10
77.2572710709
 20
209.506002447
 10
75.6540383739
 20
210.3997053373
 10
73.9565844969
 20
211.2017075593
 10
72.1753748075
 20
211.9070645027
 10
70.3213910558
 20
212.5114274074
 10
68.406063668
 20
213.0110701751
 10
66.4412012745
 20
213.4029123419
 10
64.4389179053
 20
213.6845380707
 10
62.4115583032
 20
213.8542110451
 10
60.3716218143
 20
213.9108851748
 10
58.3316853254
 20
213.8542110451
 10
56.3043257232
 20
213.6845380707
 10
54.302042354
 20
213.4029123419
 10
52.3371799605
 20
213.0110701751
 10
50.4218525728
 20
212.5114274074
 10
48.567868821
 20
211.9070645027
 10
46.7866591317
 20
211.2017075593
 10
45.0892052547
 20
210.3997053373
 10
43.4859725577
 20
209.506002447
 10
41.9868455034
 20
208.526108864
 10
40.6010667087
 20
207.4660659581
 10
39.3371799605
 20
206.3324092462
 10
38.2029775411
 20
205.132128099
 10
37.2054521854
 20
203.872622649
 10
36.350753969
 20
202.5616581659
 10
35.6441523906
 20
201.2073171818
 10
35.0900038839
 20
199.8179496593
 10
34.6917249588
 20
198.4021215111
 10
34.4517711372
 20
196.9685617885
 10
34.3716218143
 20
195.526108864
 10
34.4517711372
 20
194.0836559395
 10
34.6917249588
 20
192.6500962169
 10
35.0900038839
 20
191.2342680687
 10
35.6441523906
 20
189.8449005462
 10
36.350753969
 20
188.4905595621
 10
37.2054521854
 20
187.179595079
 10
38.2029775411
 20
185.920089629
 10
39.3371799605
 20
184.7198084818
 10
40.6010667087
 20
183.5861517699
 10
41.9868455034
 20
182.526108864
 10
43.4859725577
 20
181.546215281
 10
45.0892052547
 20
180.6525123907
 10
46.7866591317
 20
179.8505101687
 10
48.5678688211
 20
179.1451532253
 10
50.4218525728
 20
178.5407903206
 10
52.3371799605
 20
178.0411475529
 10
54.302042354
 20
177.6493053861
 10
56.3043257232
 20
177.3676796573
 10
58.3316853254
 20
177.1980066829
 10
60.3716218143
 20
177.1413325531
 10
62.4115583032
 20
177.1980066829
 10
64.4389179053
 20
177.3676796573
 10
66.4412012745
 20
177.6493053861
 10
68.406063668
 20
178.0411475529
 10
70.3213910558
 20
178.5407903206
 10
72.1753748075
 20
179.1451532253
 10
73.9565844969
 20
179.8505101687
 10
75.6540383739
 20
180.6525123907
 10
77.2572710709
 20
181.546215281
 10
78.7563981251
 20
182.526108864
  0
LWPOLYLINE
  5
181
330
1F
100
AcDbEntity
  8
0
  6
Continuous
 62
     7
370
    25
100
AcDbPolyline
 90
       83
 70
   128
 43
0.0
 10
79.4439511915
 20
181.352382362
 10
77.9280166215
 20
180.359596976
 10
76.3090541459
 20
179.4517798777
 10
74.59656448
 20
178.6342584987
 10
72.8005971943
 20
177.9118303797
 10
70.9316917389
 20
177.288735016
 10
69.0008155942
 20
176.7686289791
 10
67.0192999091
 20
176.3545644579
 10
64.9987730056
 20
176.0489713477
 10
62.951092139
 20
175.8536429905
 10
60.8882739149
 20
175.7697256506
 10
58.8224237708
 20
175.7977117884
 10
56.7656649368
 20
175.9374371701
 10
54.7300672916
 20
176.1880818316
 10
52.7275765317
 20
176.5481748904
 10
50.769944069
 20
177.0156031772
 10
48.8686580692
 20
177.5876236369
 10
47.0348760346
 20
178.2608794261
 10
45.2793593274
 20
179.0314196121
 10
43.6124100177
 20
179.8947223587
 10
42.0438104267
 20
180.845721462
 10
40.5827657208
 20
181.8788360812
 10
39.237849891
 20
182.9880034889
 10
38.0169554384
 20
184.1667146497
 10
36.9272470571
 20
185.4080524179
 10
35.975119589
 20
186.7047321297
 10
35.1661604969
 20
188.0491443531
 10
34.5051170743
 20
189.4333995426
 10
33.9958685868
 20
190.8493743382
 10
33.6414035072
 20
192.2887592369
 10
33.4438019774
 20
193.7431073557
 10
33.4042236017
 20
195.2038840015
 10
33.5229006419
 20
196.6625167561
 10
33.7991366539
 20
198.1104457826
 10
34.2313105748
 20
199.5391740576
 10
34.8168862364
 20
200.9403172356
 10
35.5524272477
 20
202.3056528511
 10
36.4336171616
 20
203.6271685721
 10
37.4552848054
 20
204.8971092186
 10
38.6114346271
 20
206.108022274
 10
39.8952818797
 20
207.252801619
 10
41.299292437
 20
208.3247292333
 10
42.815227007
 20
209.3175146193
 10
44.4341894827
 20
210.2253317176
 10
46.1466791485
 20
211.0428530966
 10
47.9426464342
 20
211.7652812156
 10
49.8115518897
 20
212.3883765793
 10
51.7424280344
 20
212.9084826162
 10
53.7239437195
 20
213.3225471374
 10
55.744470623
 20
213.6281402475
 10
57.7921514896
 20
213.8234686048
 10
59.8549697137
 20
213.9073859447
 10
61.9208198578
 20
213.8793998069
 10
63.9775786918
 20
213.7396744252
 10
66.0131763369
 20
213.4890297637
 10
68.0156670969
 20
213.1289367049
 10
69.9732995596
 20
212.6615084181
 10
71.8745855594
 20
212.0894879583
 10
73.7083675939
 20
211.4162321691
 10
75.4638843011
 20
210.6456919832
 10
77.1308336109
 20
209.7823892366
 10
78.6994332018
 20
208.8313901333
 10
80.1604779078
 20
207.7982755141
 10
81.5053937375
 20
206.6891081064
 10
82.7262881901
 20
205.5103969455
 10
83.8159965715
 20
204.2690591774
 10
84.7681240395
 20
202.9723794655
 10
85.5770831317
 20
201.6279672421
 10
86.2381265543
 20
200.2437120527
 10
86.7473750417
 20
198.827737257
 10
87.1018401214
 20
197.3883523584
 10
87.2994416512
 20
195.9340042396
 10
87.3390200268
 20
194.4732275938
 10
87.2203429866
 20
193.0145948392
 10
86.9441069747
 20
191.5666658127
 10
86.5119330537
 20
190.1379375377
 10
85.9263573922
 20
188.7367943597
 10
85.1908163809
 20
187.3714587441
 10
84.3096264669
 20
186.0499430232
 10
83.2879588231
 20
184.7800023767
 10
82.1318090015
 20
183.5690893213
 10
80.8479617489
 20
182.4243099762
 10
79.4439511915
 20
181.352382362
  0
LWPOLYLINE
  5
182
330
1F
100
AcDbEntity
  8
0
  6
Continuous
 62
     7
370
    25
100
AcDbPolyline
 90
       12
 70
   128
 43
0.0
 10
79.4635049063
 20
180.9654486922
 10
80.8689549115
 20
182.0384752895
 10
82.1541184156
 20
183.1844283081
 10
83.3114535683
 20
184.3965828401
 10
84.3341686666
 20
185.6678254805
 10
85.2162620117
 20
186.9906960722
 10
85.9525571291
 20
188.3574314844
 10
86.5387331462
 20
189.7600111704
 10
86.9713501491
 20
191.1902042348
 10
87.2478693693
 20
192.639617736
 10
87.3666680819
 20
194.0997459393
 10
87.3345175525
 20
195.4660118863
  0
LWPOLYLINE
  5
183
330
1F
100
AcDbEntity
  8
0
  6
Continuous
 62
     7
370
    25
100
AcDbPolyline
 90
       33
 70
   128
 43
0.0
 10
33.4087260761
 20
195.4660118863
 10
33.3765755466
 20
194.8311514451
 10
33.4161944996
 20
193.3688771527
 10
33.6139986184
 20
191.9130379781
 10
33.9688271098
 20
190.4721773644
 10
34.4785976992
 20
189.0547508548
 10
35.14031885
 20
187.6690764716
 10
35.9501073193
 20
186.323285903
 10
36.9032109465
 20
185.0252767833
 10
37.9940365405
 20
183.782666346
 10
39.2161827029
 20
182.6027467233
 10
40.5624773941
 20
181.4924421528
 10
42.0250200215
 20
180.4582683432
 10
43.5952278035
 20
179.5062942376
 10
45.2638861364
 20
178.6421063985
 10
47.0212026695
 20
177.8707762239
 10
48.8568647707
 20
177.196830186
 10
50.7601000449
 20
176.624223268
 10
52.7197395507
 20
176.156315755
 10
54.7242833443
 20
175.7958535144
 10
56.7619679656
 20
175.544951882
 10
58.820835471
 20
175.4050832482
 10
60.8888036072
 20
175.3770684179
 10
62.9537367151
 20
175.4610717932
 10
65.003516946
 20
175.6566004089
 10
67.0261153745
 20
175.9625068254
 10
69.0096625887
 20
176.376995862
 10
70.9425183449
 20
176.8976351325
 10
72.8133398769
 20
177.5213693184
 10
74.6111484601
 20
178.2445380997
 10
76.3253938389
 20
179.0628976342
 10
77.9460161396
 20
179.9716454629
 10
79.4635049063
 20
180.9654486922
  0
LWPOLYLINE
  5
184
330
1F
100
AcDbEntity
  8
0
  6
Continuous
 62
     7
370
    25
100
AcDbPolyline
 90
       25
 70
   128
 43
0.0
 10
43.8606784736
 20
186.201108864
 10
44.3473794094
 20
186.4651840879
 10
44.9141546534
 20
186.6311887134
 10
45.5223794094
 20
186.6878097998
 10
46.1306041654
 20
186.6311887134
 10
46.6973794094
 20
186.4651840879
 10
47.1840803452
 20
186.201108864
 10
47.5575391083
 20
185.8569593319
 10
47.7923051011
 20
185.4561887134
 10
47.8723794094
 20
185.026108864
 10
47.7923051011
 20
184.5960290145
 10
47.5575391083
 20
184.1952583961
 10
47.1840803452
 20
183.851108864
 10
46.6973794094
 20
183.5870336401
 10
46.1306041654
 20
183.4210290145
 10
45.5223794094
 20
183.3644079282
 10
44.9141546534
 20
183.4210290145
 10
44.3473794094
 20
183.5870336401
 10
43.8606784736
 20
183.851108864
 10
43.4872197105
 20
184.1952583961
 10
43.2524537176
 20
184.5960290145
 10
43.1723794094
 20
185.026108864
 10
43.2524537176
 20
185.4561887134
 10
43.4872197105
 20
185.8569593319
 10
43.8606784736
 20
186.201108864
  0
LWPOLYLINE
  5
185
330
1F
100
AcDbEntity
  8
0
  6
Continuous
 62
     7
370
    25
100
AcDbPolyline
 90
       25
 70
   128
 43
0.0
 10
73.5591632834
 20
207.201108864
 10
74.0458642192
 20
207.4651840879
 10
74.6126394632
 20
207.6311887134
 10
75.2208642192
 20
207.6878097998
 10
75.8290889752
 20
207.6311887134
 10
76.3958642192
 20
207.4651840879
 10
76.882565155
 20
207.201108864
 10
77.2560239181
 20
206.8569593319
 10
77.490789911
 20
206.4561887134
 10
77.5708642192
 20
206.026108864
 10
77.490789911
 20
205.5960290145
 10
77.2560239181
 20
205.1952583961
 10
76.882565155
 20
204.851108864
 10
76.3958642192
 20
204.5870336401
 10
75.8290889752
 20
204.4210290145
 10
75.2208642192
 20
204.3644079282
 10
74.6126394632
 20
204.4210290145
 10
74.0458642192
 20
204.5870336401
 10
73.5591632834
 20
204.851108864
 10
73.1857045203
 20
205.1952583961
 10
72.9509385274
 20
205.5960290145
 10
72.8708642192
 20
206.026108864
 10
72.9509385274
 20
206.4561887134
 10
73.1857045203
 20
206.8569593319
 10
73.5591632834
 20
207.201108864
  0
LWPOLYLINE
  5
186
330
1F
100
AcDbEntity
  8
0
  6
Continuous
 62
     7
370
    25
100
AcDbPolyline
 90
       62
 70
   128
 43
0.0
 10
70.9782235321
 20
188.026108864
 10
69.8314258588
 20
187.2947023184
 10
68.5843519093
 20
186.6505507298
 10
67.2502209778
 20
186.1004822655
 10
65.8431751839
 20
185.650327788
 10
64.3781295631
 20
185.3048590466
 10
62.8706139635
 20
185.0677380961
 10
61.3366084254
 20
184.9414784774
 10
59.7923737892
 20
184.927418574
 10
58.2542793262
 20
185.0257074243
 10
56.7386292202
 20
185.2353031421
 10
55.2614897396
 20
185.5539839606
 10
53.8385189302
 20
185.9783717838
 10
52.4848006366
 20
186.5039679953
 10
51.2146846095
 20
187.1252011444
 10
50.0416343947
 20
187.8354860052
 10
48.9780846164
 20
188.6272933816
 10
48.0353091668
 20
189.4922299183
 10
47.2233017001
 20
190.4211270728
 10
46.5506696976
 20
191.4041383044
 10
46.0245432258
 20
192.4308434493
 10
45.6504993561
 20
193.4903591776
 10
45.4325030467
 20
194.571454359
 10
45.3728651126
 20
195.6626691156
 10
45.4722177308
 20
196.7524362996
 10
45.7295077389
 20
197.8292041077
 10
46.1420077987
 20
198.8815585333
 10
46.7053453069
 20
199.8983443577
 10
47.4135487459
 20
200.8687833981
 10
48.259110983
 20
201.7825887594
 10
49.2330688482
 20
202.6300738774
 10
50.3250981458
 20
203.4022551989
 10
51.5236230935
 20
204.09094741
 10
52.8159390288
 20
204.6888502017
 10
54.1883470812
 20
205.1896256559
 10
55.6262993841
 20
205.5879654281
 10
57.1145532851
 20
205.8796470176
 10
58.6373329229
 20
206.061578527
 10
60.1784964544
 20
206.1318314371
 10
61.7217071627
 20
206.0896610495
 10
63.2506066304
 20
205.9355143808
 10
64.7489881429
 20
205.6710254241
 10
66.2009684834
 20
205.2989978281
 10
67.591156299
 20
204.8233751779
 10
68.904815253
 20
204.2491991919
 10
70.1280202338
 20
203.5825562783
 10
71.2478049642
 20
202.8305130179
 10
72.2522994476
 20
202.0010412564
 10
73.1308557925
 20
201.1029336008
 10
73.8741610831
 20
200.1457102155
 10
74.4743360984
 20
199.1395179068
 10
74.9250188339
 20
198.0950225632
 10
75.2214319406
 20
197.0232960954
 10
75.3604333657
 20
195.9356990705
 10
75.3405496597
 20
194.8437602875
 10
75.1619915946
 20
193.7590545692
 10
74.8266519304
 20
192.6930800659
 10
74.338085351
 20
191.6571363727
 10
73.7014707837
 20
190.6622047504
 10
72.9235565012
 20
189.7188317217
 10
72.0125885885
 20
188.8370172754
 10
70.9782235321
 20
188.026108864
  0
LWPOLYLINE
  5
187
330
1F
100
AcDbEntity
  8
0
  6
Continuous
 62
     7
370
    25
100
AcDbPolyline
 90
       31
 70
   128
 43
0.0
 10
45.3716703962
 20
195.5531038108
 10
45.3941332629
 20
195.6982030376
 10
45.6527716707
 20
196.7806139467
 10
46.0674335517
 20
197.8384835281
 10
46.6337233867
 20
198.8605981011
 10
47.3456383627
 20
199.8361229971
 10
48.1956320037
 20
200.7547174093
 10
49.1746941657
 20
201.6066440086
 10
50.2724465463
 20
202.3828721609
 10
51.4772526971
 20
203.0751736549
 10
52.7763413732
 20
203.6762099225
 10
54.1559419115
 20
204.1796098296
 10
55.601430203
 20
204.5800372121
 10
57.0974837123
 20
204.87324744
 10
58.6282439
 20
205.0561324121
 10
60.1774843272
 20
205.126753502
 10
61.7287826602
 20
205.0843621088
 10
63.2656947505
 20
204.9294075917
 10
64.7719289478
 20
204.6635325071
 10
66.2315187947
 20
204.2895551971
 10
67.6289922759
 20
203.8114399142
 10
68.9495358248
 20
203.2342547993
 10
70.1791513513
 20
202.5641181583
 10
71.3048046248
 20
201.8081336062
 10
72.3145634407
 20
200.9743147674
 10
73.1977241042
 20
200.0715003289
 10
73.9449248928
 20
199.1092603485
 10
74.548245292
 20
198.0977948093
 10
75.0012899557
 20
197.0478254977
 10
75.2992564977
 20
195.9704823494
 10
75.3715732324
 20
195.5531038108
  0
LWPOLYLINE
  5
188
330
1F
100
AcDbEntity
  8
0
  6
Continuous
 62
     7
370
    25
100
AcDbPolyline
 90
       11
 70
   128
 43
0.0
 10
58.9826369724
 20
191.7330078577
 10
58.4197898884
 20
191.6531919925
 10
57.3114805832
 20
191.4107757372
 10
56.2601759191
 20
191.0639045068
 10
55.2854597128
 20
190.619039856
 10
54.4054890831
 20
190.0844687716
 10
53.6366562179
 20
189.4701493014
 10
52.9932830186
 20
188.7875250547
 10
52.4873543108
 20
188.0493120298
 10
52.128294589
 20
187.2692617385
 10
51.9748129089
 20
186.737092986
  0
LWPOLYLINE
  5
189
330
1F
100
AcDbEntity
  8
0
  6
Continuous
 62
     7
370
    25
100
AcDbPolyline
 90
       10
 70
   128
 43
0.0
 10
58.1765648923
 20
191.0795967293
 10
57.3114805832
 20
190.8804456513
 10
56.2601759191
 20
190.5335744209
 10
55.2854597128
 20
190.0887097702
 10
54.4054890831
 20
189.5541386857
 10
53.6366562179
 20
188.9398192155
 10
52.9932830186
 20
188.2571949688
 10
52.4873543108
 20
187.5189819439
 10
52.128294589
 20
186.7389316526
 10
52.1061110465
 20
186.6750826029
  0
LWPOLYLINE
  5
18A
330
1F
100
AcDbEntity
  8
0
  6
Continuous
 62
     7
370
    25
100
AcDbPolyline
 90
        9
 70
   128
 43
0.0
 10
57.4859397881
 20
190.5490836245
 10
57.4452057913
 20
190.53785347
 10
56.4153814425
 20
190.1897749947
 10
55.4660947389
 20
189.7416063916
 10
54.6166704202
 20
189.2024710811
 10
53.884400316
 20
188.5833443034
 10
53.2841913338
 20
187.8968296944
 10
52.8282619978
 20
187.1569027115
 10
52.5539585383
 20
186.4739229152
  0
LWPOLYLINE
  5
18B
330
1F
100
AcDbEntity
  8
0
  6
Continuous
 62
     7
370
    25
100
AcDbPolyline
 90
       12
 70
   128
 43
0.0
 10
60.8675884958
 20
193.0415646597
 10
60.0911594803
 20
193.0481443573
 10
58.8946619093
 20
192.9649563722
 10
57.7245207229
 20
192.7697429982
 10
56.6016171182
 20
192.4659878226
 10
55.5459893366
 20
192.0591113637
 10
54.5764750809
 20
191.5563743416
 10
53.7103753559
 20
190.9667481102
 10
52.9631457318
 20
190.3007545638
 10
52.3481205388
 20
189.5702783729
 10
51.8762749163
 20
188.7883549024
 10
51.7920881186
 20
188.609720661
  0
LWPOLYLINE
  5
18C
330
1F
100
AcDbEntity
  8
0
  6
Continuous
 62
     7
370
    25
100
AcDbPolyline
 90
        3
 70
   128
 43
0.0
 10
58.3049762457
 20
192.1033639726
 10
59.4909440344
 20
192.2428761999
 10
59.648081814
 20
192.2528189134
  0
LWPOLYLINE
  5
18D
330
1F
100
AcDbEntity
  8
0
  6
Continuous
 62
     7
370
    25
100
AcDbPolyline
 90
       10
 70
   128
 43
0.0
 10
51.6614848136
 20
187.5115667219
 10
51.6967799635
 20
187.6046142821
 10
52.0937121505
 20
188.4070766669
 10
52.6383638316
 20
189.1649689631
 10
53.3210156846
 20
189.8647665647
 10
54.1294857709
 20
190.4939815671
 10
55.0493469229
 20
191.0413856135
 10
56.0641841964
 20
191.4972102658
 10
57.1558877962
 20
191.8533213222
 10
58.3049762457
 20
192.1033639726
  0
LINE
  5
18E
330
1F
100
AcDbEntity
  8
0
  6
Continuous
 62
     8
370
    25
100
AcDbLine
 10
46.1926947888
 20
185.0666666925
 30
0.0
 11
46.1926947888
 21
184.689506507
 31
0.0
  0
LINE
  5
18F
330
1F
100
AcDbEntity
  8
0
  6
Continuous
 62
     8
370
    25
100
AcDbLine
 10
44.8594907334
 20
184.7025864055
 30
0.0
 11
44.8594907334
 21
185.0797953734
 31
0.0
  0
LINE
  5
190
330
1F
100
AcDbEntity
  8
0
  6
Continuous
 62
     8
370
    25
100
AcDbLine
 10
74.768202682
 20
205.1511619662
 30
0.0
 11
74.768202682
 21
205.4905726203
 31
0.0
  0
LINE
  5
191
330
1F
100
AcDbEntity
  8
0
  6
Continuous
 62
     8
370
    25
100
AcDbLine
 10
75.9366520029
 20
205.9247087779
 30
0.0
 11
75.9366520029
 21
205.5297581986
 31
0.0
  0
LINE
  5
192
330
1F
100
AcDbEntity
  8
0
  6
Continuous
 62
     8
370
    25
100
AcDbLine
 10
90.4175165207
 20
121.797696913
 30
0.0
 11
90.5263261611
 21
121.7207568784
 31
0.0
  0
LINE
  5
193
330
1F
100
AcDbEntity
  8
0
  6
Continuous
 62
     8
370
    25
100
AcDbLine
 10
30.3257271079
 20
121.797696913
 30
0.0
 11
30.2169174674
 21
121.7207568784
 31
0.0
  0
LINE
  5
194
330
1F
100
AcDbEntity
  8
0
  6
Continuous
 62
     8
370
    25
100
AcDbLine
 10
90.3291808347
 20
121.685285289
 30
0.0
 11
90.5226246118
 21
121.5484998824
 31
0.0
  0
LINE
  5
195
330
1F
100
AcDbEntity
  8
0
  6
Continuous
 62
     8
370
    25
100
AcDbLine
 10
30.4140627939
 20
121.685285289
 30
0.0
 11
30.2206190168
 21
121.5484998824
 31
0.0
  0
LINE
  5
196
330
1F
100
AcDbEntity
  8
0
  6
Continuous
 62
     8
370
    25
100
AcDbLine
 10
90.4884851468
 20
116.6335534855
 30
0.0
 11
90.5616815002
 21
116.5817958477
 31
0.0
  0
LINE
  5
197
330
1F
100
AcDbEntity
  8
0
  6
Continuous
 62
     8
370
    25
100
AcDbLine
 10
30.2547584818
 20
116.6335534855
 30
0.0
 11
30.1815621284
 21
116.5817958477
 31
0.0
  0
LWPOLYLINE
  5
198
330
1F
100
AcDbEntity
  8
0
  6
Continuous
 62
     8
370
    25
100
AcDbPolyline
 90
       29
 70
   128
 43
0.0
 10
70.8229698984
 20
187.9179118626
 10
70.8604180497
 20
188.2889230612
 10
70.8405100861
 20
189.2029474838
 10
70.6619044477
 20
190.1083141618
 10
70.327308614
 20
190.9912986592
 10
69.8417947166
 20
191.8385158311
 10
69.2127226514
 20
192.6371227288
 10
68.4496285096
 20
193.3750132858
 10
67.5640800206
 20
194.0410018333
 10
66.5695011967
 20
194.624992664
 10
65.4809688392
 20
195.118133072
 10
64.314983989
 20
195.5129475514
 10
63.0892217879
 20
195.8034511173
 10
61.8222635413
 20
195.9852400316
 10
60.5333150448
 20
196.0555585598
 10
59.2419154438
 20
196.0133407446
 10
57.9676410398
 20
195.8592265651
 10
56.7298085339
 20
195.5955522351
 10
55.547182205
 20
195.2263147888
 10
54.4376894628
 20
194.7571114893
 10
53.4181490864
 20
194.1950549805
 10
52.5040162686
 20
193.5486654661
 10
51.709148331
 20
192.8277415522
 10
51.0455946614
 20
192.0432117106
 10
50.523414057
 20
191.2069686138
 10
50.1505222435
 20
190.3316888549
 10
49.9325718807
 20
189.4306407827
 10
49.8728668738
 20
188.5174833676
 10
49.9202737302
 20
187.9179118626
  0
LINE
  5
199
330
1F
100
AcDbEntity
  8
0
  6
Continuous
 62
     7
370
    25
100
AcDbLine
 10
164.4976227751
 20
198.9626656599
 30
0.0
 11
164.4033418709
 21
199.0569465641
 31
0.0
  0
LINE
  5
19A
330
1F
100
AcDbEntity
  8
0
  6
Continuous
 62
     7
370
    25
100
AcDbLine
 10
139.0919478622
 20
199.0569465641
 30
0.0
 11
138.997666958
 21
198.9626656599
 31
0.0
  0
LINE
  5
19B
330
1F
100
AcDbEntity
  8
0
  6
Continuous
 62
     7
370
    25
100
AcDbLine
 10
164.5968872715
 20
205.7746824737
 30
0.0
 11
164.5968872715
 21
205.6686164565
 31
0.0
  0
LINE
  5
19C
330
1F
100
AcDbEntity
  8
0
  6
Continuous
 62
     7
370
    25
100
AcDbLine
 10
168.5968872714
 20
205.6686164565
 30
0.0
 11
168.5968872714
 21
205.7746824737
 31
0.0
  0
LINE
  5
19D
330
1F
100
AcDbEntity
  8
0
  6
Continuous
 62
     7
370
    25
100
AcDbLine
 10
166.1622806137
 20
205.0579988191
 30
0.0
 11
166.1622806137
 21
205.4645852183
 31
0.0
  0
LINE
  5
19E
330
1F
100
AcDbEntity
  8
0
  6
Continuous
 62
     7
370
    25
100
AcDbLine
 10
167.0314939293
 20
206.0847797291
 30
0.0
 11
167.0314939293
 21
205.6781933299
 31
0.0
  0
LINE
  5
19F
330
1F
100
AcDbEntity
  8
0
  6
Continuous
 62
     7
370
    25
100
AcDbLine
 10
134.8984024617
 20
184.7746824737
 30
0.0
 11
134.8984024617
 21
184.6686164565
 31
0.0
  0
LINE
  5
1A0
330
1F
100
AcDbEntity
  8
0
  6
Continuous
 62
     7
370
    25
100
AcDbLine
 10
138.8984024616
 20
184.6686164565
 30
0.0
 11
138.8984024616
 21
184.7746824737
 31
0.0
  0
SPLINE
  5
1A1
330
1F
100
AcDbEntity
  8
0
  6
Continuous
 62
     7
370
    25
100
AcDbSpline
210
0.0
220
0.0
230
1.0
 70
     8
 71
     3
 72
    29
 73
    25
 74
     0
 42
0.00000001
 43
0.00000001
 40
0.0
 40
0.0
 40
0.0
 40
0.0
 40
0.0306162538873814
 40
0.0765084157390711
 40
0.1226206144130903
 40
0.1689182692069286
 40
0.2153480765070336
 40
0.2618579578952481
 40
0.3084076167175285
 40
0.3549683795059284
 40
0.4015267030534357
 40
0.4480802115727745
 40
0.4946316177029355
 40
0.5411865950017524
 40
0.5877513480788007
 40
0.6343315800185453
 40
0.680933730473889
 40
0.7275618376190066
 40
0.7742153746519702
 40
0.8208851359438983
 40
0.8675435333800444
 40
0.914150365912618
 40
0.9606488745087324
 40
1.0
 40
1.0
 40
1.0
 40
1.0
 10
162.1176064042777
 20
190.7855202745887
 30
0.0
 10
162.0254507007605
 20
190.9760453611603
 30
0.0
 10
161.7951584219154
 20
191.4521575787349
 30
0.0
 10
161.2765979456501
 20
192.1663625706879
 30
0.0
 10
160.5893256072363
 20
192.9223879848524
 30
0.0
 10
159.7810390307067
 20
193.615508271257
 30
0.0
 10
158.8688026293436
 20
194.2383044978581
 30
0.0
 10
157.8629736633916
 20
194.7819152029172
 30
0.0
 10
156.7775065827714
 20
195.2393256430465
 30
0.0
 10
155.6267264582596
 20
195.6046409981271
 30
0.0
 10
154.4258094090077
 20
195.8733171129857
 30
0.0
 10
153.190345942213
 20
196.0420703426383
 30
0.0
 10
151.9362499220803
 20
196.1088575690745
 30
0.0
 10
150.6796116408082
 20
196.0728563549081
 30
0.0
 10
149.4365363838523
 20
195.9344614350557
 30
0.0
 10
148.2229561025194
 20
195.695270701321
 30
0.0
 10
147.0544414193828
 20
195.3580593673625
 30
0.0
 10
145.9460816535558
 20
194.9267312264089
 30
0.0
 10
144.912226285037
 20
194.4063429652748
 30
0.0
 10
143.96695490309
 20
193.802971479691
 30
0.0
 10
143.1218699427741
 20
193.1243624873868
 30
0.0
 10
142.3935017854586
 20
192.3777518187566
 30
0.0
 10
141.8056464021011
 20
191.6182800673119
 30
0.0
 10
141.5282461906787
 20
191.0895001742156
 30
0.0
 10
141.4010935167386
 20
190.8471219258783
 30
0.0
  0
SPLINE
  5
1A2
330
1F
100
AcDbEntity
  8
0
  6
Continuous
 62
     7
370
    25
100
AcDbSpline
210
0.0
220
0.0
230
1.0
 70
     8
 71
     3
 72
    12
 73
     8
 74
     0
 42
0.00000001
 43
0.00000001
 40
0.0
 40
0.0
 40
0.0
 40
0.0
 40
0.1074984353500256
 40
0.3381417478371937
 40
0.5674907038094247
 40
0.796293231711911
 40
1.0
 40
1.0
 40
1.0
 40
1.0
 10
159.2580561059119
 20
191.1421030391388
 30
0.0
 10
159.1508899267011
 20
191.2758038223917
 30
0.0
 10
158.8137933073003
 20
191.6963663765268
 30
0.0
 10
158.149163611612
 20
192.3151838284973
 30
0.0
 10
157.28096855879
 20
192.9869338507098
 30
0.0
 10
156.379457394552
 20
193.541260031227
 30
0.0
 10
155.7471896242614
 20
193.8165607069267
 30
0.0
 10
155.4493989748741
 20
193.9462240724272
 30
0.0
  0
LINE
  5
1A3
330
1F
100
AcDbEntity
  8
0
  6
Continuous
 62
     7
370
    25
100
AcDbLine
 10
151.7492609186
 20
213.8008801058
 30
0.0
 11
151.7492026603
 21
213.8008801082
 31
0.0
  0
LINE
  5
1A4
330
1F
100
AcDbEntity
  8
0
  6
Continuous
 62
     7
370
    25
100
AcDbLine
 10
151.7460870728
 20
213.8008801082
 30
0.0
 11
151.7460288145
 21
213.8008801058
 31
0.0
  0
LINE
  5
1A5
330
1F
100
AcDbEntity
  8
0
  6
Continuous
 62
     7
370
    25
100
AcDbLine
 10
178.7105406048
 20
195.3560068527
 30
0.0
 11
178.6829254779
 21
195.7280891913
 31
0.0
  0
LINE
  5
1A6
330
1F
100
AcDbEntity
  8
0
  6
Continuous
 62
     7
370
    25
100
AcDbLine
 10
124.8123642552
 20
195.7280891913
 30
0.0
 11
124.7847491283
 21
195.3560068527
 31
0.0
  0
LINE
  5
1A7
330
1F
100
AcDbEntity
  8
0
  6
Continuous
 62
     7
370
    25
100
AcDbLine
 10
169.2476448666
 20
178.8811368223
 30
0.0
 11
169.2476448666
 21
179.8167023101
 31
0.0
  0
LINE
  5
1A8
330
1F
100
AcDbEntity
  8
0
  6
Continuous
 62
     7
370
    25
100
AcDbLine
 10
169.2476448666
 20
174.9920495257
 30
0.0
 11
169.2476448666
 21
176.2421783882
 31
0.0
  0
LINE
  5
1A9
330
1F
100
AcDbEntity
  8
0
  6
Continuous
 62
     7
370
    25
100
AcDbLine
 10
169.2476448666
 20
171.1029622292
 30
0.0
 11
169.2476448666
 21
172.3530910917
 31
0.0
  0
LINE
  5
1AA
330
1F
100
AcDbEntity
  8
0
  6
Continuous
 62
     7
370
    25
100
AcDbLine
 10
169.2476448666
 20
167.2138749327
 30
0.0
 11
169.2476448666
 21
168.4640037952
 31
0.0
  0
LINE
  5
1AB
330
1F
100
AcDbEntity
  8
0
  6
Continuous
 62
     7
370
    25
100
AcDbLine
 10
169.2476448666
 20
158.823327904
 30
0.0
 11
169.2476448666
 21
164.5749164987
 31
0.0
  0
LINE
  5
1AC
330
1F
100
AcDbEntity
  8
0
  6
Continuous
 62
     7
370
    25
100
AcDbLine
 10
134.2476448666
 20
164.5749164983
 30
0.0
 11
134.2476448666
 21
158.823327904
 31
0.0
  0
LINE
  5
1AD
330
1F
100
AcDbEntity
  8
0
  6
Continuous
 62
     7
370
    25
100
AcDbLine
 10
134.2476448666
 20
168.4640037949
 30
0.0
 11
134.2476448666
 21
167.2138749327
 31
0.0
  0
LINE
  5
1AE
330
1F
100
AcDbEntity
  8
0
  6
Continuous
 62
     7
370
    25
100
AcDbLine
 10
134.2476448666
 20
172.3530910914
 30
0.0
 11
134.2476448666
 21
171.1029622292
 31
0.0
  0
LINE
  5
1AF
330
1F
100
AcDbEntity
  8
0
  6
Continuous
 62
     7
370
    25
100
AcDbLine
 10
134.2476448666
 20
176.2421783879
 30
0.0
 11
134.2476448666
 21
174.9920495257
 31
0.0
  0
LINE
  5
1B0
330
1F
100
AcDbEntity
  8
0
  6
Continuous
 62
     7
370
    25
100
AcDbLine
 10
134.2476448666
 20
179.8167023101
 30
0.0
 11
134.2476448666
 21
178.8811368223
 31
0.0
  0
LINE
  5
1B1
330
1F
100
AcDbEntity
  8
0
  6
Continuous
 62
     7
370
    25
100
AcDbLine
 10
169.3564732125
 20
154.5233561007
 30
0.0
 11
169.2476448666
 21
158.9313338356
 31
0.0
  0
LINE
  5
1B2
330
1F
100
AcDbEntity
  8
0
  6
Continuous
 62
     7
370
    25
100
AcDbLine
 10
134.2476448666
 20
158.9313338356
 30
0.0
 11
134.1388165206
 21
154.5233561007
 31
0.0
  0
LINE
  5
1B3
330
1F
100
AcDbEntity
  8
0
  6
Continuous
 62
     7
370
    25
100
AcDbLine
 10
151.7465896695
 20
141.8527651793
 30
0.0
 11
151.7466562659
 21
141.8527651764
 31
0.0
  0
LINE
  5
1B4
330
1F
100
AcDbEntity
  8
0
  6
Continuous
 62
     7
370
    25
100
AcDbLine
 10
151.7486334672
 20
141.8527651764
 30
0.0
 11
151.7487000636
 21
141.8527651793
 31
0.0
  0
LWPOLYLINE
  5
1B5
330
1F
100
AcDbEntity
  8
0
  6
Continuous
 62
     7
370
    25
100
AcDbPolyline
 90
       34
 70
   128
 43
0.0
 10
137.0993520432
 20
193.1327381828
 10
137.0321336361
 20
193.6426220726
 10
137.0073734888
 20
194.7341914046
 10
137.1441108393
 20
195.821611097
 10
137.4408475646
 20
196.8929671521
 10
137.894332555
 20
197.9365215689
 10
138.4995973341
 20
198.9408409466
 10
139.2500104943
 20
199.8949217521
 10
140.137350352
 20
200.7883108764
 10
141.1518950259
 20
201.6112201614
 10
142.2825289525
 20
202.3546336405
 10
143.5168646697
 20
203.0104063203
 10
144.8413785371
 20
203.571353418
 10
146.2415589037
 20
204.0313290799
 10
147.7020651003
 20
204.3852937162
 10
149.2068955154
 20
204.6293692164
 10
150.7395629121
 20
204.7608814383
 10
152.2832750656
 20
204.7783895064
 10
153.8211187426
 20
204.6817015986
 10
155.3362450059
 20
204.4718770479
 10
156.8120538151
 20
204.151214736
 10
158.2323759001
 20
203.7232279063
 10
159.5816499149
 20
203.192605672
 10
160.8450929309
 20
202.5651616415
 10
162.0088624023
 20
201.8477702227
 10
163.060207827
 20
201.0482913062
 10
163.9876104446
 20
200.1754841503
 10
164.7809094379
 20
199.2389114128
 10
165.4314132572
 20
198.2488343808
 10
165.9319948465
 20
197.2161005452
 10
166.2771697292
 20
196.1520247541
 10
166.463156097
 20
195.0682652446
 10
166.4879162443
 20
193.9766959126
 10
166.3959376899
 20
193.1327381828
  0
LWPOLYLINE
  5
1B6
330
1F
100
AcDbEntity
  8
0
  6
Continuous
 62
     7
370
    25
100
AcDbPolyline
 90
       32
 70
   128
 43
0.0
 10
136.9997636628
 20
194.1786669634
 10
137.0073734888
 20
194.380638014
 10
137.1441108393
 20
195.4680577064
 10
137.4408475646
 20
196.5394137615
 10
137.894332555
 20
197.5829681783
 10
138.4995973341
 20
198.587287556
 10
139.2500104943
 20
199.5413683615
 10
140.137350352
 20
200.4347574859
 10
141.1518950259
 20
201.2576667708
 10
142.2825289525
 20
202.0010802499
 10
143.5168646697
 20
202.6568529297
 10
144.8413785371
 20
203.2178000274
 10
146.2415589037
 20
203.6777756893
 10
147.7020651003
 20
204.0317403256
 10
149.2068955154
 20
204.2758158258
 10
150.7395629121
 20
204.4073280477
 10
152.2832750656
 20
204.4248361158
 10
153.8211187426
 20
204.328148208
 10
155.3362450059
 20
204.1183236573
 10
156.8120538151
 20
203.7976613454
 10
158.2323759001
 20
203.3696745157
 10
159.5816499149
 20
202.8390522814
 10
160.8450929309
 20
202.2116082509
 10
162.0088624023
 20
201.4942168321
 10
163.060207827
 20
200.6947379156
 10
163.9876104446
 20
199.8219307597
 10
164.7809094379
 20
198.8853580222
 10
165.4314132572
 20
197.8952809902
 10
165.9319948465
 20
196.8625471546
 10
166.2771697292
 20
195.7984713635
 10
166.463156097
 20
194.714711854
 10
166.4955260703
 20
194.1786669638
  0
ARC
  5
1B7
330
1F
100
AcDbEntity
  8
0
  6
Continuous
 62
     7
370
    25
100
AcDbCircle
 10
151.7476448666
 20
182.2696008447
 30
0.0
 40
21.96335727475359
100
AcDbArc
 50
67.0801088144
 51
112.9198911853
  0
ARC
  5
1B8
330
1F
100
AcDbEntity
  8
0
  6
Continuous
 62
     7
370
    25
100
AcDbCircle
 10
151.7476448666
 20
183.0492881271
 30
0.0
 40
20.99205199058196
100
AcDbArc
 50
58.0118252461
 51
121.9881747538
  0
LWPOLYLINE
  5
1B9
330
1F
100
AcDbEntity
  8
0
  6
Continuous
 62
     7
370
    25
100
AcDbPolyline
 90
        3
 70
   128
 43
0.0
 10
138.0898093112
 20
197.9405466342
 10
138.8043601515
 20
198.7648235304
 10
138.997666958
 20
198.9626656599
  0
LWPOLYLINE
  5
1BA
330
1F
100
AcDbEntity
  8
0
  6
Continuous
 62
     7
370
    25
100
AcDbPolyline
 90
        3
 70
   128
 43
0.0
 10
164.4976227751
 20
198.9626656599
 10
165.2908369779
 20
198.084259846
 10
165.4054804219
 20
197.9405466343
  0
LWPOLYLINE
  5
1BB
330
1F
100
AcDbEntity
  8
0
  6
Continuous
 62
     7
370
    25
100
AcDbPolyline
 90
       24
 70
   128
 43
0.0
 10
138.0224856449
 20
197.8217400256
 10
138.0887357594
 20
197.9100343673
 10
138.900070481
 20
198.8605673967
 10
139.8432387013
 20
199.7481832534
 10
140.9085622381
 20
200.5637737978
 10
142.0851094303
 20
201.2989699671
 10
143.3608073116
 20
201.9462276538
 10
144.7225654954
 20
202.498905118
 10
146.1564105
 20
202.9513311413
 10
147.6476291353
 20
203.2988632202
 10
149.1809194803
 20
203.5379352054
 10
150.7405479011
 20
203.6660938949
 10
152.3105104995
 20
203.682024207
 10
153.8746973349
 20
203.5855626751
 10
155.4170577335
 20
203.3776991252
 10
156.9217649907
 20
203.0605665185
 10
158.3733787737
 20
202.6374190648
 10
159.7570035607
 20
202.1125988294
 10
161.0584414892
 20
201.4914911783
 10
162.2643380448
 20
200.7804695164
 10
163.362319097
 20
199.9868298881
 10
164.3411178744
 20
199.11871611
 10
165.1906905771
 20
198.1850362041
 10
165.4728040882
 20
197.8217400255
  0
LWPOLYLINE
  5
1BC
330
1F
100
AcDbEntity
  8
0
  6
Continuous
 62
     7
370
    25
100
AcDbPolyline
 90
       25
 70
   128
 43
0.0
 10
137.4903058668
 20
196.6749769338
 10
137.7164530744
 20
197.0491461136
 10
138.439566189
 20
198.0456435238
 10
139.3037482482
 20
198.984285128
 10
140.2998387073
 20
199.8551210916
 10
141.4172787596
 20
200.6489203368
 10
142.6442232624
 20
201.357268394
 10
143.967666299
 20
201.9726565978
 10
145.3735790438
 20
202.48856168
 10
146.847058472
 20
202.8995149184
 10
148.3724853351
 20
203.2011601065
 10
149.9336897288
 20
203.3902997302
 10
151.5141224983
 20
203.4649288625
 10
153.097030663
 20
203.424256416
 10
154.6656350026
 20
203.2687135287
 10
156.2033079208
 20
202.999948994
 10
157.6937497022
 20
202.6208117827
 10
159.1211612931
 20
202.1353208437
 10
160.4704117756
 20
201.5486225016
 10
161.7271987589
 20
200.8669359049
 10
162.8781999882
 20
200.097487101
 10
163.9112145644
 20
199.2484324387
 10
164.8152922758
 20
198.3287721086
 10
165.5808496738
 20
197.3482547391
 10
166.0049838663
 20
196.6749769338
  0
LWPOLYLINE
  5
1BD
330
1F
100
AcDbEntity
  8
0
  6
Continuous
 62
     7
370
    25
100
AcDbPolyline
 90
       30
 70
   128
 43
0.0
 10
137.0507064099
 20
193.4715601821
 10
137.1441108393
 20
194.053844144
 10
137.4408475646
 20
195.1252001992
 10
137.894332555
 20
196.1687546159
 10
138.4995973341
 20
197.1730739937
 10
139.2500104943
 20
198.1271547992
 10
140.137350352
 20
199.0205439235
 10
141.1518950259
 20
199.8434532084
 10
142.2825289525
 20
200.5868666876
 10
143.5168646697
 20
201.2426393674
 10
144.8413785371
 20
201.8035864651
 10
146.2415589037
 20
202.2635621269
 10
147.7020651003
 20
202.6175267632
 10
149.2068955154
 20
202.8616022635
 10
150.7395629121
 20
202.9931144853
 10
152.2832750656
 20
203.0106225534
 10
153.8211187426
 20
202.9139346456
 10
155.3362450059
 20
202.7041100949
 10
156.8120538151
 20
202.383447783
 10
158.2323759001
 20
201.9554609533
 10
159.5816499149
 20
201.4248387191
 10
160.8450929309
 20
200.7973946885
 10
162.0088624023
 20
200.0800032697
 10
163.060207827
 20
199.2805243532
 10
163.9876104446
 20
198.4077171973
 10
164.7809094379
 20
197.4711444599
 10
165.4314132572
 20
196.4810674278
 10
165.9319948465
 20
195.4483335922
 10
166.2771697292
 20
194.3842578011
 10
166.4445833233
 20
193.4715601821
  0
LWPOLYLINE
  5
1BE
330
1F
100
AcDbEntity
  8
0
  6
Continuous
 62
     7
370
    25
100
AcDbPolyline
 90
       30
 70
   128
 43
0.0
 10
137.0741142757
 20
193.2947834868
 10
137.1441108393
 20
193.7002907534
 10
137.4408475646
 20
194.7716468086
 10
137.894332555
 20
195.8152012253
 10
138.4995973341
 20
196.8195206031
 10
139.2500104943
 20
197.7736014086
 10
140.137350352
 20
198.6669905329
 10
141.1518950259
 20
199.4898998178
 10
142.2825289525
 20
200.233313297
 10
143.5168646697
 20
200.8890859768
 10
144.8413785371
 20
201.4500330745
 10
146.2415589037
 20
201.9100087363
 10
147.7020651003
 20
202.2639733726
 10
149.2068955154
 20
202.5080488729
 10
150.7395629121
 20
202.6395610947
 10
152.2832750656
 20
202.6570691628
 10
153.8211187426
 20
202.560381255
 10
155.3362450059
 20
202.3505567043
 10
156.8120538151
 20
202.0298943925
 10
158.2323759001
 20
201.6019075627
 10
159.5816499149
 20
201.0712853285
 10
160.8450929309
 20
200.4438412979
 10
162.0088624023
 20
199.7264498791
 10
163.060207827
 20
198.9269709626
 10
163.9876104446
 20
198.0541638067
 10
164.7809094379
 20
197.1175910693
 10
165.4314132572
 20
196.1275140372
 10
165.9319948465
 20
195.0947802016
 10
166.2771697292
 20
194.0307044105
 10
166.4211754574
 20
193.2947834868
  0
LWPOLYLINE
  5
1BF
330
1F
100
AcDbEntity
  8
0
  6
Continuous
 62
     7
370
    25
100
AcDbPolyline
 90
       23
 70
   128
 43
0.0
 10
166.0027929011
 20
204.4243025495
 10
166.5648897745
 20
204.3606499139
 10
167.1295788948
 20
204.4115537867
 10
167.6511125077
 20
204.5728902389
 10
168.0872390618
 20
204.8315887506
 10
168.4026261773
 20
205.166691107
 10
168.5717230657
 20
205.551049308
 10
168.5808305029
 20
205.9535249381
 10
168.4292106585
 20
206.3415118154
 10
168.1291468705
 20
206.6835775504
 10
167.7049485225
 20
206.9520100118
 10
167.1909816418
 20
207.1250623978
 10
166.6288847684
 20
207.1887150334
 10
166.0641956482
 20
207.1378111606
 10
165.5426620352
 20
206.9764747085
 10
165.1065354811
 20
206.7177761967
 10
164.7911483657
 20
206.3826738404
 10
164.6220514772
 20
205.9983156394
 10
164.61294404
 20
205.5958400093
 10
164.7645638844
 20
205.207853132
 10
165.0646276724
 20
204.8657873969
 10
165.4888260205
 20
204.5973549356
 10
166.0027929011
 20
204.4243025495
  0
LWPOLYLINE
  5
1C0
330
1F
100
AcDbEntity
  8
0
  6
Continuous
 62
     7
370
    25
100
AcDbPolyline
 90
        8
 70
   128
 43
0.0
 10
166.0027929011
 20
204.3182365324
 10
166.5648897745
 20
204.2545838968
 10
167.1295788948
 20
204.3054877696
 10
167.6511125077
 20
204.4668242217
 10
168.0872390618
 20
204.7255227335
 10
168.4026261773
 20
205.0606250898
 10
168.5717230657
 20
205.4449832908
 10
168.5968872714
 20
205.6686164565
  0
ARC
  5
1C1
330
1F
100
AcDbEntity
  8
0
  6
Continuous
 62
     7
370
    25
100
AcDbCircle
 10
166.1501592127
 20
205.8787095362
 30
0.0
 40
1.567415970740939
100
AcDbArc
 50
187.7029875821
 51
264.6051610182
  0
LINE
  5
1C2
330
1F
100
AcDbEntity
  8
0
  6
Continuous
 62
     7
370
    25
100
AcDbLine
 10
167.5918953405
 20
205.3583322283
 30
0.0
 11
167.7503205059
 21
205.7184335414
 31
0.0
  0
LINE
  5
1C3
330
1F
100
AcDbEntity
  8
0
  6
Continuous
 62
     7
370
    25
100
AcDbLine
 10
167.7503205059
 20
205.7184335414
 30
0.0
 11
167.3126750552
 21
205.8147037443
 31
0.0
  0
LWPOLYLINE
  5
1C4
330
1F
100
AcDbEntity
  8
0
  6
Continuous
 62
     7
370
    25
100
AcDbPolyline
 90
        9
 70
   128
 43
0.0
 10
167.0495488087
 20
206.1687973607
 10
167.0337073647
 20
206.1144937746
 10
167.0331526352
 20
206.0590482944
 10
167.0479059384
 20
206.0045916588
 10
167.0774003129
 20
205.9532166058
 10
167.1205023065
 20
205.9068974499
 10
167.1755555337
 20
205.8674142101
 10
167.24044433
 20
205.8362842054
 10
167.3126750552
 20
205.8147037443
  0
LINE
  5
1C5
330
1F
100
AcDbEntity
  8
0
  6
Continuous
 62
     7
370
    25
100
AcDbLine
 10
167.0495488087
 20
206.1687973607
 30
0.0
 11
167.1856954352
 21
206.4782594266
 31
0.0
  0
LINE
  5
1C6
330
1F
100
AcDbEntity
  8
0
  6
Continuous
 62
     7
370
    25
100
AcDbLine
 10
167.1856954352
 20
206.4782594266
 30
0.0
 11
166.6764352744
 21
206.5902829354
 31
0.0
  0
LINE
  5
1C7
330
1F
100
AcDbEntity
  8
0
  6
Continuous
 62
     7
370
    25
100
AcDbLine
 10
166.6764352744
 20
206.5902829354
 30
0.0
 11
166.5402886478
 21
206.2808208695
 31
0.0
  0
ARC
  5
1C8
330
1F
100
AcDbEntity
  8
0
  6
Continuous
 62
     7
370
    25
100
AcDbCircle
 10
166.1661866237
 20
206.5207761236
 30
0.0
 40
0.4444444267497129
100
AcDbArc
 50
253.4417823322
 51
327.3232130254
  0
LINE
  5
1C9
330
1F
100
AcDbEntity
  8
0
  6
Continuous
 62
     7
370
    25
100
AcDbLine
 10
166.0395246531
 20
206.0947625162
 30
0.0
 11
165.6018792024
 21
206.1910327191
 31
0.0
  0
LINE
  5
1CA
330
1F
100
AcDbEntity
  8
0
  6
Continuous
 62
     7
370
    25
100
AcDbLine
 10
165.6018792024
 20
206.1910327191
 30
0.0
 11
165.443454037
 21
205.830931406
 31
0.0
  0
LINE
  5
1CB
330
1F
100
AcDbEntity
  8
0
  6
Continuous
 62
     7
370
    25
100
AcDbLine
 10
165.443454037
 20
205.830931406
 30
0.0
 11
165.8810994877
 21
205.7346612031
 31
0.0
  0
LWPOLYLINE
  5
1CC
330
1F
100
AcDbEntity
  8
0
  6
Continuous
 62
     7
370
    25
100
AcDbPolyline
 90
        9
 70
   128
 43
0.0
 10
166.1442257343
 20
205.3805675867
 10
166.1600671783
 20
205.4348711728
 10
166.1606219077
 20
205.490316653
 10
166.1458686046
 20
205.5447732885
 10
166.1163742301
 20
205.5961483416
 10
166.0732722365
 20
205.6424674975
 10
166.0182190092
 20
205.6819507373
 10
165.953330213
 20
205.713080742
 10
165.8810994877
 20
205.7346612031
  0
LINE
  5
1CD
330
1F
100
AcDbEntity
  8
0
  6
Continuous
 62
     7
370
    25
100
AcDbLine
 10
166.1442257343
 20
205.3805675867
 30
0.0
 11
166.0080791077
 21
205.0711055207
 31
0.0
  0
LINE
  5
1CE
330
1F
100
AcDbEntity
  8
0
  6
Continuous
 62
     7
370
    25
100
AcDbLine
 10
166.0080791077
 20
205.0711055207
 30
0.0
 11
166.5173392686
 21
204.959082012
 31
0.0
  0
LINE
  5
1CF
330
1F
100
AcDbEntity
  8
0
  6
Continuous
 62
     7
370
    25
100
AcDbLine
 10
166.5173392686
 20
204.959082012
 30
0.0
 11
166.6534858951
 21
205.2685440779
 31
0.0
  0
ARC
  5
1D0
330
1F
100
AcDbEntity
  8
0
  6
Continuous
 62
     7
370
    25
100
AcDbCircle
 10
167.0275879193
 20
205.0285888238
 30
0.0
 40
0.4444444267498519
100
AcDbArc
 50
73.4417823322
 51
147.3232130254
  0
LINE
  5
1D1
330
1F
100
AcDbEntity
  8
0
  6
Continuous
 62
     7
370
    25
100
AcDbLine
 10
167.1542498898
 20
205.4546024312
 30
0.0
 11
167.5918953405
 21
205.3583322283
 31
0.0
  0
LINE
  5
1D2
330
1F
100
AcDbEntity
  8
0
  6
Continuous
 62
     7
370
    25
100
AcDbLine
 10
166.1622806137
 20
205.0579988191
 30
0.0
 11
166.1612203425
 21
205.0374185769
 31
0.0
  0
LINE
  5
1D3
330
1F
100
AcDbEntity
  8
0
  6
Continuous
 62
     7
370
    25
100
AcDbLine
 10
166.0395246531
 20
205.688176117
 30
0.0
 11
165.9824318465
 21
205.7007349956
 31
0.0
  0
ARC
  5
1D4
330
1F
100
AcDbEntity
  8
0
  6
Continuous
 62
     7
370
    25
100
AcDbCircle
 10
166.1661866237
 20
206.1141897244
 30
0.0
 40
0.4444444267497291
100
AcDbArc
 50
253.4417823322
 51
327.3232130254
  0
LINE
  5
1D5
330
1F
100
AcDbEntity
  8
0
  6
Continuous
 62
     7
370
    25
100
AcDbLine
 10
166.6764352744
 20
206.1836965362
 30
0.0
 11
166.5402886478
 21
205.8742344703
 31
0.0
  0
LINE
  5
1D6
330
1F
100
AcDbEntity
  8
0
  6
Continuous
 62
     7
370
    25
100
AcDbLine
 10
167.0325542004
 20
206.1053599713
 30
0.0
 11
166.6764352744
 21
206.1836965362
 31
0.0
  0
ARC
  5
1D7
330
1F
100
AcDbEntity
  8
0
  6
Continuous
 62
     7
370
    25
100
AcDbCircle
 10
167.3072675084
 20
205.7016589037
 30
0.0
 40
0.2767701213473356
100
AcDbArc
 50
184.8635824939
 51
249.7213228995
  0
LINE
  5
1D8
330
1F
100
AcDbEntity
  8
0
  6
Continuous
 62
     7
370
    25
100
AcDbLine
 10
165.6018792024
 20
205.7960821398
 30
0.0
 11
165.6018792024
 21
206.1910327191
 31
0.0
  0
LINE
  5
1D9
330
1F
100
AcDbEntity
  8
0
  6
Continuous
 62
     7
370
    25
100
AcDbLine
 10
166.0395246531
 20
205.688176117
 30
0.0
 11
166.0395246531
 21
206.0947625162
 31
0.0
  0
LINE
  5
1DA
330
1F
100
AcDbEntity
  8
0
  6
Continuous
 62
     7
370
    25
100
AcDbLine
 10
166.5402886478
 20
206.2808208695
 30
0.0
 11
166.5402886478
 21
205.8742344703
 31
0.0
  0
LINE
  5
1DB
330
1F
100
AcDbEntity
  8
0
  6
Continuous
 62
     7
370
    25
100
AcDbLine
 10
166.6764352744
 20
206.1836965362
 30
0.0
 11
166.6764352744
 21
206.5902829354
 31
0.0
  0
LWPOLYLINE
  5
1DC
330
1F
100
AcDbEntity
  8
0
  6
Continuous
 62
     7
370
    25
100
AcDbPolyline
 90
       23
 70
   128
 43
0.0
 10
136.8705523237
 20
183.3606060313
 10
137.435090931
 20
183.4123378978
 10
137.9561502302
 20
183.5744388197
 10
138.3915170959
 20
183.8337763443
 10
138.7059206939
 20
184.1693404877
 10
138.8738899143
 20
184.5539458387
 10
138.8818168901
 20
184.9564339591
 10
138.7290594247
 20
185.3441976551
 10
138.4279930194
 20
185.6858226181
 10
138.003008284
 20
185.9536324254
 10
137.4885349542
 20
186.125930719
 10
136.9262525995
 20
186.1887589161
 10
136.3617139923
 20
186.1370270496
 10
135.8406546931
 20
185.9749261277
 10
135.4052878273
 20
185.7155886031
 10
135.0908842294
 20
185.3800244597
 10
134.9229150089
 20
184.9954191087
 10
134.9149880332
 20
184.5929309883
 10
135.0677454986
 20
184.2051672923
 10
135.3688119039
 20
183.8635423293
 10
135.7937966393
 20
183.595732522
 10
136.308269969
 20
183.4234342283
 10
136.8705523237
 20
183.3606060313
  0
LWPOLYLINE
  5
1DD
330
1F
100
AcDbEntity
  8
0
  6
Continuous
 62
     7
370
    25
100
AcDbPolyline
 90
        7
 70
   128
 43
0.0
 10
136.8705523237
 20
183.2545400141
 10
137.435090931
 20
183.3062718806
 10
137.9561502302
 20
183.4683728025
 10
138.3915170959
 20
183.7277103271
 10
138.7059206939
 20
184.0632744705
 10
138.8738899143
 20
184.4478798215
 10
138.8984024616
 20
184.6686164565
  0
LWPOLYLINE
  5
1DE
330
1F
100
AcDbEntity
  8
0
  6
Continuous
 62
     7
370
    25
100
AcDbPolyline
 90
        7
 70
   128
 43
0.0
 10
134.8984024617
 20
184.6686164565
 10
134.9149880332
 20
184.4868649711
 10
135.0677454986
 20
184.0991012751
 10
135.3688119039
 20
183.7574763121
 10
135.7937966393
 20
183.4896665048
 10
136.308269969
 20
183.3173682112
 10
136.8705523237
 20
183.2545400141
  0
LINE
  5
1DF
330
1F
100
AcDbEntity
  8
0
  6
Continuous
 62
     7
370
    25
100
AcDbLine
 10
138.0195800316
 20
184.5750616235
 30
0.0
 11
138.0270067351
 21
184.9521486748
 31
0.0
  0
LINE
  5
1E0
330
1F
100
AcDbEntity
  8
0
  6
Continuous
 62
     7
370
    25
100
AcDbLine
 10
138.0270067351
 20
184.9521486748
 30
0.0
 11
137.568717841
 21
184.9566616589
 31
0.0
  0
ARC
  5
1E1
330
1F
100
AcDbEntity
  8
0
  6
Continuous
 62
     7
370
    25
100
AcDbCircle
 10
137.5217014311
 20
185.3065897582
 30
0.0
 40
0.3530725385613795
100
AcDbArc
 50
190.3072662471
 51
277.6524431055
  0
LINE
  5
1E2
330
1F
100
AcDbEntity
  8
0
  6
Continuous
 62
     7
370
    25
100
AcDbLine
 10
137.174326652
 20
185.2434155516
 30
0.0
 11
137.1807089753
 21
185.5674747363
 31
0.0
  0
LINE
  5
1E3
330
1F
100
AcDbEntity
  8
0
  6
Continuous
 62
     7
370
    25
100
AcDbLine
 10
137.1807089753
 20
185.5674747363
 30
0.0
 11
136.6474273531
 21
185.5727262087
 31
0.0
  0
LINE
  5
1E4
330
1F
100
AcDbEntity
  8
0
  6
Continuous
 62
     7
370
    25
100
AcDbLine
 10
136.6474273531
 20
185.5727262087
 30
0.0
 11
136.6410450299
 21
185.248667024
 31
0.0
  0
ARC
  5
1E5
330
1F
100
AcDbEntity
  8
0
  6
Continuous
 62
     7
370
    25
100
AcDbCircle
 10
136.2885397369
 20
185.3269740815
 30
0.0
 40
0.3610982924732867
100
AcDbArc
 50
261.5557905268
 51
347.4754444088
  0
LINE
  5
1E6
330
1F
100
AcDbEntity
  8
0
  6
Continuous
 62
     7
370
    25
100
AcDbLine
 10
136.2355137857
 20
184.9697903398
 30
0.0
 11
135.7772248916
 21
184.9743033239
 31
0.0
  0
LINE
  5
1E7
330
1F
100
AcDbEntity
  8
0
  6
Continuous
 62
     7
370
    25
100
AcDbLine
 10
135.7772248916
 20
184.9743033239
 30
0.0
 11
135.7697981882
 21
184.5972162726
 31
0.0
  0
LINE
  5
1E8
330
1F
100
AcDbEntity
  8
0
  6
Continuous
 62
     7
370
    25
100
AcDbLine
 10
135.7697981882
 20
184.5972162726
 30
0.0
 11
136.2280870822
 21
184.5927032885
 31
0.0
  0
ARC
  5
1E9
330
1F
100
AcDbEntity
  8
0
  6
Continuous
 62
     7
370
    25
100
AcDbCircle
 10
136.2751034922
 20
184.2427751892
 30
0.0
 40
0.3530725385614177
100
AcDbArc
 50
10.3072662471
 51
97.6524431055
  0
LINE
  5
1EA
330
1F
100
AcDbEntity
  8
0
  6
Continuous
 62
     7
370
    25
100
AcDbLine
 10
136.6224782713
 20
184.3059493957
 30
0.0
 11
136.616095948
 21
183.981890211
 31
0.0
  0
LINE
  5
1EB
330
1F
100
AcDbEntity
  8
0
  6
Continuous
 62
     7
370
    25
100
AcDbLine
 10
136.616095948
 20
183.981890211
 30
0.0
 11
137.1493775701
 21
183.9766387387
 31
0.0
  0
LINE
  5
1EC
330
1F
100
AcDbEntity
  8
0
  6
Continuous
 62
     7
370
    25
100
AcDbLine
 10
137.1493775701
 20
183.9766387387
 30
0.0
 11
137.1557598934
 21
184.3006979234
 31
0.0
  0
ARC
  5
1ED
330
1F
100
AcDbEntity
  8
0
  6
Continuous
 62
     7
370
    25
100
AcDbCircle
 10
137.5082651864
 20
184.2223908659
 30
0.0
 40
0.3610982924732371
100
AcDbArc
 50
81.5557905268
 51
167.4754444088
  0
LINE
  5
1EE
330
1F
100
AcDbEntity
  8
0
  6
Continuous
 62
     7
370
    25
100
AcDbLine
 10
137.5612911376
 20
184.5795746076
 30
0.0
 11
138.0195800316
 21
184.5750616235
 31
0.0
  0
LINE
  5
1EF
330
1F
100
AcDbEntity
  8
0
  6
Continuous
 62
     7
370
    25
100
AcDbLine
 10
136.6224782713
 20
183.9818273613
 30
0.0
 11
136.6224782713
 21
184.3059493957
 31
0.0
  0
ARC
  5
1F0
330
1F
100
AcDbEntity
  8
0
  6
Continuous
 62
     7
370
    25
100
AcDbCircle
 10
136.3155783589
 20
184.9042392652
 30
0.0
 40
0.3313491368307975
100
AcDbArc
 50
277.5341199279
 51
349.1876766892
  0
LINE
  5
1F1
330
1F
100
AcDbEntity
  8
0
  6
Continuous
 62
     7
370
    25
100
AcDbLine
 10
136.6474273531
 20
185.1661398095
 30
0.0
 11
136.6410450299
 21
184.8420806248
 31
0.0
  0
LINE
  5
1F2
330
1F
100
AcDbEntity
  8
0
  6
Continuous
 62
     7
370
    25
100
AcDbLine
 10
137.174326652
 20
185.1609511869
 30
0.0
 11
136.6474273531
 21
185.1661398095
 31
0.0
  0
ARC
  5
1F3
330
1F
100
AcDbEntity
  8
0
  6
Continuous
 62
     7
370
    25
100
AcDbCircle
 10
137.4774324562
 20
184.8692755758
 30
0.0
 40
0.3048374958728018
100
AcDbArc
 50
186.110046782
 51
262.5261646918
  0
LINE
  5
1F4
330
1F
100
AcDbEntity
  8
0
  6
Continuous
 62
     7
370
    25
100
AcDbLine
 10
135.7772248916
 20
184.5971431383
 30
0.0
 11
135.7772248916
 21
184.9743033239
 31
0.0
  0
LINE
  5
1F5
330
1F
100
AcDbEntity
  8
0
  6
Continuous
 62
     7
370
    25
100
AcDbLine
 10
137.174326652
 20
184.8368291525
 30
0.0
 11
137.174326652
 21
185.2434155516
 31
0.0
  0
LINE
  5
1F6
330
1F
100
AcDbEntity
  8
0
  6
Continuous
 62
     7
370
    25
100
AcDbLine
 10
136.6410450299
 20
185.248667024
 30
0.0
 11
136.6410450299
 21
184.8420806248
 31
0.0
  0
LINE
  5
1F7
330
1F
100
AcDbEntity
  8
0
  6
Continuous
 62
     7
370
    25
100
AcDbLine
 10
136.6474273531
 20
185.1661398095
 30
0.0
 11
136.6474273531
 21
185.5727262087
 31
0.0
  0
ARC
  5
1F8
330
1F
100
AcDbEntity
  8
0
  6
Continuous
 62
     7
370
    25
100
AcDbCircle
 10
146.5411959833
 20
188.1349302232
 30
0.0
 40
5.793646983692559
100
AcDbArc
 50
153.2232874782
 51
179.6703928796
  0
ARC
  5
1F9
330
1F
100
AcDbEntity
  8
0
  6
Continuous
 62
     7
370
    25
100
AcDbCircle
 10
156.9630813316
 20
188.1361543864
 30
0.0
 40
5.784652627199531
100
AcDbArc
 50
0.3179943453
 51
26.1578968196
  0
LWPOLYLINE
  5
1FA
330
1F
100
AcDbEntity
  8
0
  6
Continuous
 62
     7
370
    25
100
AcDbPolyline
 90
       29
 70
   128
 43
0.0
 10
142.4682197042
 20
187.0826691047
 10
142.3289186835
 20
187.6450011352
 10
142.2476448666
 20
188.5218127138
 10
142.3289186835
 20
189.3986242924
 10
142.5713495168
 20
190.2604333818
 10
142.9707893077
 20
191.0924941895
 10
143.5204035306
 20
191.8805699245
 10
144.2107881338
 20
192.6111763923
 10
145.0301304453
 20
193.2718127138
 10
145.964411291
 20
193.8511752184
 10
146.9976448666
 20
194.3393508529
 10
148.1121522591
 20
194.727986797
 10
149.2888639381
 20
195.0104333818
 10
150.5076460405
 20
195.181857868
 10
151.7476448666
 20
195.2393271351
 10
152.9876436926
 20
195.181857868
 10
154.206425795
 20
195.0104333818
 10
155.383137474
 20
194.727986797
 10
156.4976448666
 20
194.3393508529
 10
157.5308784421
 20
193.8511752184
 10
158.4651592878
 20
193.2718127138
 10
159.2845015993
 20
192.6111763923
 10
159.9748862025
 20
191.8805699245
 10
160.5245004254
 20
191.0924941895
 10
160.9239402163
 20
190.2604333818
 10
161.1663710496
 20
189.3986242924
 10
161.2476448666
 20
188.5218127138
 10
161.1663710496
 20
187.6450011352
 10
161.027070029
 20
187.0826691047
  0
LWPOLYLINE
  5
1FB
330
1F
100
AcDbEntity
  8
0
  6
Continuous
 62
     7
370
    25
100
AcDbPolyline
 90
       29
 70
   128
 43
0.0
 10
160.7863817879
 20
186.955119678
 10
160.9185098343
 20
187.4912984288
 10
160.9976448666
 20
188.3450360185
 10
160.9185098343
 20
189.1987736082
 10
160.6824587597
 20
190.037903511
 10
160.2935305423
 20
190.8480679817
 10
159.7583798516
 20
191.6154048815
 10
159.0861632642
 20
192.3267848634
 10
158.2883825925
 20
192.9700360185
 10
157.3786880849
 20
193.5341521414
 10
156.3726448666
 20
194.0094810487
 10
155.2874666159
 20
194.3878897311
 10
154.1417210338
 20
194.662903511
 10
152.9550121446
 20
194.8298168265
 10
151.7476448666
 20
194.8857737445
 10
150.5402775885
 20
194.8298168265
 10
149.3535686994
 20
194.662903511
 10
148.2078231172
 20
194.3878897311
 10
147.1226448666
 20
194.0094810487
 10
146.1166016482
 20
193.5341521414
 10
145.2069071406
 20
192.9700360185
 10
144.4091264689
 20
192.3267848634
 10
143.7369098815
 20
191.6154048815
 10
143.2017591908
 20
190.8480679817
 10
142.8128309734
 20
190.037903511
 10
142.5767798988
 20
189.1987736082
 10
142.4976448666
 20
188.3450360185
 10
142.5767798988
 20
187.4912984288
 10
142.7102664312
 20
186.9507098344
  0
LWPOLYLINE
  5
1FC
330
1F
100
AcDbEntity
  8
0
  6
Continuous
 62
     7
370
    25
100
AcDbPolyline
 90
       19
 70
   128
 43
0.0
 10
145.2069071406
 20
192.6164826279
 10
146.1166016482
 20
193.1805987508
 10
147.1226448666
 20
193.6559276581
 10
148.2078231172
 20
194.0343363405
 10
149.3535686994
 20
194.3093501204
 10
150.5402775885
 20
194.4762634359
 10
151.7476448666
 20
194.5322203539
 10
152.9550121446
 20
194.4762634359
 10
154.1417210338
 20
194.3093501204
 10
155.2874666159
 20
194.0343363405
 10
156.3726448666
 20
193.6559276581
 10
157.3786880849
 20
193.1805987508
 10
158.2883825925
 20
192.6164826279
 10
159.0861632642
 20
191.9732314728
 10
159.7583798516
 20
191.2618514909
 10
160.2935305423
 20
190.4945145911
 10
160.6824587597
 20
189.6843501204
 10
160.9185098343
 20
188.8452202176
 10
160.994265871
 20
188.1682593232
  0
ARC
  5
1FD
330
1F
100
AcDbEntity
  8
0
  6
Continuous
 62
     7
370
    25
100
AcDbCircle
 10
148.3262024953
 20
187.6718800131
 30
0.0
 40
5.846289295657006
100
AcDbArc
 50
122.2457185621
 51
175.1294368223
  0
LINE
  5
1FE
330
1F
100
AcDbEntity
  8
0
  6
Continuous
 62
     7
370
    25
100
AcDbLine
 10
145.00953468
 20
186.3561924635
 30
0.0
 11
144.7484570688
 21
186.0745732366
 31
0.0
  0
SPLINE
  5
1FF
330
1F
100
AcDbEntity
  8
0
  6
Continuous
 62
     7
370
    25
100
AcDbSpline
210
0.0
220
0.0
230
1.0
 70
     8
 71
     3
 72
    19
 73
    15
 74
     0
 42
0.00000001
 43
0.00000001
 40
0.0
 40
0.0
 40
0.0
 40
0.0
 40
0.0342294324135409
 40
0.1305745868746757
 40
0.2299338536304135
 40
0.322473143817572
 40
0.4179861838965903
 40
0.505720754960344
 40
0.596708483865012
 40
0.6764000025193538
 40
0.7579532100803753
 40
0.8465951919769826
 40
0.9375867409933524
 40
1.0
 40
1.0
 40
1.0
 40
1.0
 10
155.4442987610244
 20
193.9351866818736
 30
0.0
 10
155.3897485540339
 20
193.9612456471653
 30
0.0
 10
155.1816565630345
 20
194.0606524555003
 30
0.0
 10
154.6866913432362
 20
194.0329262844273
 30
0.0
 10
153.9306441747064
 20
193.8099251605804
 30
0.0
 10
153.0192220036292
 20
193.3710154113988
 30
0.0
 10
152.0183496871345
 20
192.7789231513876
 30
0.0
 10
150.921701740574
 20
192.0301641150365
 30
0.0
 10
149.8313647345161
 20
191.1831762194489
 30
0.0
 10
148.7490525427133
 20
190.2796035021736
 30
0.0
 10
147.6873317842396
 20
189.3230493389675
 30
0.0
 10
146.6257863028575
 20
188.2739780774668
 30
0.0
 10
145.7135419629536
 20
187.269178992952
 30
0.0
 10
145.2131292608286
 20
186.6202225584337
 30
0.0
 10
145.0095346799909
 20
186.3561924634608
 30
0.0
  0
ARC
  5
200
330
1F
100
AcDbEntity
  8
0
  6
Continuous
 62
     7
370
    25
100
AcDbCircle
 10
155.7971162167
 20
187.9974095016
 30
0.0
 40
4.690854414369928
100
AcDbArc
 50
344.0153467339
 51
41.9855939287
  0
LWPOLYLINE
  5
201
330
1F
100
AcDbEntity
  8
0
  6
Continuous
 62
     7
370
    25
100
AcDbPolyline
 90
       17
 70
   128
 43
0.0
 10
143.1886886838
 20
186.7056426181
 10
143.0561849389
 20
187.2769812893
 10
142.9999385429
 20
188.1331408006
 10
143.1115546329
 20
188.9865819887
 10
143.3888913725
 20
189.8209279025
 10
143.8266268599
 20
190.6201680159
 10
144.4163612513
 20
191.3689654593
 10
145.146777948
 20
192.0529513231
 10
146.0038607547
 20
192.6590003877
 10
146.9711628398
 20
193.1754829871
 10
148.0301223396
 20
193.5924881743
 10
149.1604185476
 20
193.9020139059
 10
150.3403618546
 20
194.0981205951
 10
151.5473099575
 20
194.1770450892
 10
152.75810235
 20
194.1372728812
 10
153.9495047563
 20
193.9795671725
 10
154.2843778569
 20
193.912947216
  0
LWPOLYLINE
  5
202
330
1F
100
AcDbEntity
  8
0
  6
Continuous
 62
     7
370
    25
100
AcDbPolyline
 90
       10
 70
   128
 43
0.0
 10
143.9654536584
 20
190.1128029715
 10
144.4091264689
 20
190.5590179104
 10
145.2069071406
 20
191.2022690656
 10
146.1166016482
 20
191.7663851884
 10
147.1226448666
 20
192.2417140957
 10
148.2078231172
 20
192.6201227781
 10
149.3535686994
 20
192.8951365581
 10
150.5402775885
 20
193.0620498736
 10
151.7476448666
 20
193.1180067915
 10
152.5098898057
 20
193.0957613242
  0
LWPOLYLINE
  5
203
330
1F
100
AcDbEntity
  8
0
  6
Continuous
 62
     7
370
    25
100
AcDbPolyline
 90
       14
 70
   128
 43
0.0
 10
143.0119422617
 20
187.6379292373
 10
143.1115546329
 20
188.2794752076
 10
143.3888913725
 20
189.1138211213
 10
143.8266268599
 20
189.9130612347
 10
144.4163612513
 20
190.6618586781
 10
145.146777948
 20
191.3458445419
 10
146.0038607547
 20
191.9518936065
 10
146.9711628398
 20
192.4683762059
 10
148.0301223396
 20
192.8853813932
 10
149.1604185476
 20
193.1949071247
 10
150.3403618546
 20
193.3910138139
 10
151.5473099575
 20
193.469938308
 10
152.75810235
 20
193.4301661
 10
153.0670174481
 20
193.4008190939
  0
LWPOLYLINE
  5
204
330
1F
100
AcDbEntity
  8
0
  6
Continuous
 62
     7
370
    25
100
AcDbPolyline
 90
       81
 70
   128
 43
0.0
 10
170.1324211774
 20
182.4161038304
 10
171.5181999722
 20
183.4761467363
 10
172.7820867203
 20
184.6098034482
 10
173.9162891398
 20
185.8100845954
 10
174.9138144955
 20
187.0695900454
 10
175.7685127118
 20
188.3805545285
 10
176.4751142902
 20
189.7348955126
 10
177.0292627969
 20
191.1242630351
 10
177.427541722
 20
192.5400911833
 10
177.6674955436
 20
193.9736509059
 10
177.7476448666
 20
195.4161038304
 10
177.6674955436
 20
196.8585567549
 10
177.427541722
 20
198.2921164775
 10
177.0292627969
 20
199.7079446257
 10
176.4751142902
 20
201.0973121482
 10
175.7685127118
 20
202.4516531323
 10
174.9138144955
 20
203.7626176154
 10
173.9162891398
 20
205.0221230654
 10
172.7820867203
 20
206.2224042126
 10
171.5181999722
 20
207.3560609245
 10
170.1324211774
 20
208.4161038304
 10
168.6332941231
 20
209.3959974134
 10
167.0300614262
 20
210.2897003037
 10
165.3326075492
 20
211.0917025257
 10
163.5513978598
 20
211.7970594691
 10
161.697414108
 20
212.4014223738
 10
159.7820867203
 20
212.9010651415
 10
157.8172243268
 20
213.2929073083
 10
155.8149409576
 20
213.5745330371
 10
153.7875813555
 20
213.7442060115
 10
151.7476448666
 20
213.8008801412
 10
149.7077083776
 20
213.7442060115
 10
147.6803487755
 20
213.5745330371
 10
145.6780654063
 20
213.2929073083
 10
143.7132030128
 20
212.9010651415
 10
141.7978756251
 20
212.4014223738
 10
139.9438918733
 20
211.7970594691
 10
138.1626821839
 20
211.0917025257
 10
136.4652283069
 20
210.2897003037
 10
134.86199561
 20
209.3959974134
 10
133.3628685557
 20
208.4161038304
 10
131.977089761
 20
207.3560609245
 10
130.7132030128
 20
206.2224042126
 10
129.5790005933
 20
205.0221230654
 10
128.5814752377
 20
203.7626176154
 10
127.7267770213
 20
202.4516531323
 10
127.0201754429
 20
201.0973121482
 10
126.4660269362
 20
199.7079446257
 10
126.0677480111
 20
198.2921164775
 10
125.8277941895
 20
196.8585567549
 10
125.7476448666
 20
195.4161038304
 10
125.8277941895
 20
193.9736509059
 10
126.0677480111
 20
192.5400911833
 10
126.4660269362
 20
191.1242630351
 10
127.0201754429
 20
189.7348955126
 10
127.7267770213
 20
188.3805545285
 10
128.5814752377
 20
187.0695900454
 10
129.5790005933
 20
185.8100845954
 10
130.7132030128
 20
184.6098034482
 10
131.977089761
 20
183.4761467363
 10
133.3628685557
 20
182.4161038304
 10
134.86199561
 20
181.4362102474
 10
136.4652283069
 20
180.5425073571
 10
138.1626821839
 20
179.7405051351
 10
139.9438918733
 20
179.0351481917
 10
141.7978756251
 20
178.430785287
 10
143.7132030128
 20
177.9311425193
 10
145.6780654063
 20
177.5393003525
 10
147.6803487755
 20
177.2576746237
 10
149.7077083776
 20
177.0880016493
 10
151.7476448666
 20
177.0313275195
 10
153.7875813555
 20
177.0880016493
 10
155.8149409576
 20
177.2576746237
 10
157.8172243268
 20
177.5393003525
 10
159.7820867203
 20
177.9311425193
 10
161.697414108
 20
178.430785287
 10
163.5513978598
 20
179.0351481917
 10
165.3326075492
 20
179.7405051351
 10
167.0300614262
 20
180.5425073571
 10
168.6332941231
 20
181.4362102474
 10
170.1324211774
 20
182.4161038304
  0
LWPOLYLINE
  5
205
330
1F
100
AcDbEntity
  8
0
  6
Continuous
 62
     7
370
    25
100
AcDbPolyline
 90
       83
 70
   128
 43
0.0
 10
170.8199742438
 20
181.2423773284
 10
169.3040396738
 20
180.2495919424
 10
167.6850771981
 20
179.3417748441
 10
165.9725875323
 20
178.5242534651
 10
164.1766202466
 20
177.8018253461
 10
162.3077147912
 20
177.1787299824
 10
160.3768386464
 20
176.6586239455
 10
158.3953229613
 20
176.2445594243
 10
156.3747960578
 20
175.9389663141
 10
154.3271151913
 20
175.7436379569
 10
152.2642969671
 20
175.659720617
 10
150.198446823
 20
175.6877067548
 10
148.1416879891
 20
175.8274321365
 10
146.1060903439
 20
176.078076798
 10
144.1035995839
 20
176.4381698568
 10
142.1459671212
 20
176.9055981436
 10
140.2446811215
 20
177.4776186033
 10
138.4108990869
 20
178.1508743926
 10
136.6553823797
 20
178.9214145785
 10
134.9884330699
 20
179.7847173251
 10
133.419833479
 20
180.7357164284
 10
131.958788773
 20
181.7688310476
 10
130.6138729433
 20
182.8779984553
 10
129.3929784907
 20
184.0567096161
 10
128.3032701094
 20
185.2980473843
 10
127.3511426413
 20
186.5947270961
 10
126.5421835492
 20
187.9391393196
 10
125.8811401266
 20
189.323394509
 10
125.3718916391
 20
190.7393693046
 10
125.0174265595
 20
192.1787542033
 10
124.8198250296
 20
193.6331023221
 10
124.780246654
 20
195.0938789679
 10
124.8989236942
 20
196.5525117225
 10
125.1751597061
 20
198.000440749
 10
125.6073336271
 20
199.429169024
 10
126.1929092887
 20
200.830312202
 10
126.9284503
 20
202.1956478176
 10
127.8096402139
 20
203.5171635385
 10
128.8313078577
 20
204.787104185
 10
129.9874576793
 20
205.9980172404
 10
131.2713049319
 20
207.1427965855
 10
132.6753154893
 20
208.2147241997
 10
134.1912500593
 20
209.2075095857
 10
135.810212535
 20
210.115326684
 10
137.5227022008
 20
210.932848063
 10
139.3186694865
 20
211.655276182
 10
141.1875749419
 20
212.2783715457
 10
143.1184510867
 20
212.7984775826
 10
145.0999667718
 20
213.2125421038
 10
147.1204936753
 20
213.5181352139
 10
149.1681745418
 20
213.7134635712
 10
151.230992766
 20
213.7973809111
 10
153.2968429101
 20
213.7693947733
 10
155.353601744
 20
213.6296693916
 10
157.3891993892
 20
213.3790247301
 10
159.3916901492
 20
213.0189316713
 10
161.3493226119
 20
212.5515033845
 10
163.2506086117
 20
211.9794829247
 10
165.0843906462
 20
211.3062271355
 10
166.8399073534
 20
210.5356869496
 10
168.5068566632
 20
209.672384203
 10
170.0754562541
 20
208.7213850997
 10
171.5365009601
 20
207.6882704805
 10
172.8814167898
 20
206.5791030728
 10
174.1023112424
 20
205.400391912
 10
175.1920196237
 20
204.1590541438
 10
176.1441470918
 20
202.8623744319
 10
176.9531061839
 20
201.5179622085
 10
177.6141496066
 20
200.1337070191
 10
178.123398094
 20
198.7177322234
 10
178.4778631736
 20
197.2783473248
 10
178.6754647035
 20
195.823999206
 10
178.7150430791
 20
194.3632225602
 10
178.5963660389
 20
192.9045898056
 10
178.320130027
 20
191.4566607791
 10
177.887956106
 20
190.0279325041
 10
177.3023804445
 20
188.6267893261
 10
176.5668394331
 20
187.2614537105
 10
175.6856495192
 20
185.9399379896
 10
174.6639818754
 20
184.6699973431
 10
173.5078320538
 20
183.4590842877
 10
172.2239848012
 20
182.3143049426
 10
170.8199742438
 20
181.2423773284
  0
LWPOLYLINE
  5
206
330
1F
100
AcDbEntity
  8
0
  6
Continuous
 62
     7
370
    25
100
AcDbPolyline
 90
       12
 70
   128
 43
0.0
 10
170.8395279586
 20
180.8554436586
 10
172.2449779638
 20
181.9284702559
 10
173.5301414679
 20
183.0744232745
 10
174.6874766206
 20
184.2865778065
 10
175.7101917189
 20
185.5578204469
 10
176.592285064
 20
186.8806910386
 10
177.3285801813
 20
188.2474264508
 10
177.9147561985
 20
189.6500061368
 10
178.3473732014
 20
191.0801992012
 10
178.6238924216
 20
192.5296127024
 10
178.7426911342
 20
193.9897409057
 10
178.7105406048
 20
195.3560068527
  0
LWPOLYLINE
  5
207
330
1F
100
AcDbEntity
  8
0
  6
Continuous
 62
     7
370
    25
100
AcDbPolyline
 90
       33
 70
   128
 43
0.0
 10
124.7847491283
 20
195.3560068527
 10
124.7525985989
 20
194.7211464115
 10
124.7922175519
 20
193.2588721191
 10
124.9900216707
 20
191.8030329445
 10
125.3448501621
 20
190.3621723309
 10
125.8546207515
 20
188.9447458212
 10
126.5163419022
 20
187.559071438
 10
127.3261303716
 20
186.2132808694
 10
128.2792339988
 20
184.9152717497
 10
129.3700595928
 20
183.6726613124
 10
130.5922057552
 20
182.4927416897
 10
131.9385004464
 20
181.3824371192
 10
133.4010430738
 20
180.3482633096
 10
134.9712508558
 20
179.396289204
 10
136.6399091886
 20
178.5321013649
 10
138.3972257218
 20
177.7607711903
 10
140.232887823
 20
177.0868251524
 10
142.1361230972
 20
176.5142182344
 10
144.095762603
 20
176.0463107214
 10
146.1003063966
 20
175.6858484808
 10
148.1379910179
 20
175.4349468484
 10
150.1968585232
 20
175.2950782146
 10
152.2648266595
 20
175.2670633843
 10
154.3297597674
 20
175.3510667596
 10
156.3795399983
 20
175.5465953753
 10
158.4021384268
 20
175.8525017918
 10
160.385685641
 20
176.2669908284
 10
162.3185413972
 20
176.7876300989
 10
164.1893629292
 20
177.4113642848
 10
165.9871715124
 20
178.1345330661
 10
167.7014168911
 20
178.9528926006
 10
169.3220391919
 20
179.8616404293
 10
170.8395279586
 20
180.8554436586
  0
LWPOLYLINE
  5
208
330
1F
100
AcDbEntity
  8
0
  6
Continuous
 62
     7
370
    25
100
AcDbPolyline
 90
       25
 70
   128
 43
0.0
 10
135.2367015258
 20
186.0911038304
 10
135.7234024616
 20
186.3551790543
 10
136.2901777056
 20
186.5211836798
 10
136.8984024616
 20
186.5778047662
 10
137.5066272176
 20
186.5211836798
 10
138.0734024616
 20
186.3551790543
 10
138.5601033974
 20
186.0911038304
 10
138.9335621605
 20
185.7469542983
 10
139.1683281534
 20
185.3461836798
 10
139.2484024616
 20
184.9161038304
 10
139.1683281534
 20
184.4860239809
 10
138.9335621605
 20
184.0852533625
 10
138.5601033974
 20
183.7411038304
 10
138.0734024616
 20
183.4770286065
 10
137.5066272176
 20
183.3110239809
 10
136.8984024616
 20
183.2544028946
 10
136.2901777056
 20
183.3110239809
 10
135.7234024616
 20
183.4770286065
 10
135.2367015258
 20
183.7411038304
 10
134.8632427627
 20
184.0852533625
 10
134.6284767699
 20
184.4860239809
 10
134.5484024616
 20
184.9161038304
 10
134.6284767699
 20
185.3461836798
 10
134.8632427627
 20
185.7469542983
 10
135.2367015258
 20
186.0911038304
  0
LWPOLYLINE
  5
209
330
1F
100
AcDbEntity
  8
0
  6
Continuous
 62
     7
370
    25
100
AcDbPolyline
 90
       25
 70
   128
 43
0.0
 10
164.9351863357
 20
207.0911038304
 10
165.4218872715
 20
207.3551790543
 10
165.9886625155
 20
207.5211836798
 10
166.5968872715
 20
207.5778047662
 10
167.2051120275
 20
207.5211836798
 10
167.7718872715
 20
207.3551790543
 10
168.2585882073
 20
207.0911038304
 10
168.6320469704
 20
206.7469542983
 10
168.8668129633
 20
206.3461836798
 10
168.9468872715
 20
205.9161038304
 10
168.8668129633
 20
205.4860239809
 10
168.6320469704
 20
205.0852533625
 10
168.2585882073
 20
204.7411038304
 10
167.7718872715
 20
204.4770286065
 10
167.2051120275
 20
204.3110239809
 10
166.5968872715
 20
204.2544028946
 10
165.9886625155
 20
204.3110239809
 10
165.4218872715
 20
204.4770286065
 10
164.9351863357
 20
204.7411038304
 10
164.5617275726
 20
205.0852533625
 10
164.3269615797
 20
205.4860239809
 10
164.2468872715
 20
205.9161038304
 10
164.3269615797
 20
206.3461836798
 10
164.5617275726
 20
206.7469542983
 10
164.9351863357
 20
207.0911038304
  0
LWPOLYLINE
  5
20A
330
1F
100
AcDbEntity
  8
0
  6
Continuous
 62
     7
370
    25
100
AcDbPolyline
 90
       62
 70
   128
 43
0.0
 10
162.3542465844
 20
187.9161038304
 10
161.2074489111
 20
187.1846972848
 10
159.9603749616
 20
186.5405456962
 10
158.62624403
 20
185.9904772319
 10
157.2191982362
 20
185.5403227544
 10
155.7541526154
 20
185.194854013
 10
154.2466370158
 20
184.9577330625
 10
152.7126314777
 20
184.8314734438
 10
151.1683968415
 20
184.8174135404
 10
149.6303023784
 20
184.9157023907
 10
148.1146522725
 20
185.1252981085
 10
146.6375127919
 20
185.443978927
 10
145.2145419824
 20
185.8683667502
 10
143.8608236888
 20
186.3939629617
 10
142.5907076617
 20
187.0151961108
 10
141.417657447
 20
187.7254809716
 10
140.3541076687
 20
188.517288348
 10
139.4113322191
 20
189.3822248847
 10
138.5993247524
 20
190.3111220392
 10
137.9266927499
 20
191.2941332708
 10
137.4005662781
 20
192.3208384157
 10
137.0265224084
 20
193.380354144
 10
136.808526099
 20
194.4614493254
 10
136.7488881649
 20
195.552664082
 10
136.8482407831
 20
196.642431266
 10
137.1055307912
 20
197.7191990741
 10
137.5180308509
 20
198.7715534997
 10
138.0813683592
 20
199.7883393241
 10
138.7895717982
 20
200.7587783645
 10
139.6351340353
 20
201.6725837258
 10
140.6090919005
 20
202.5200688438
 10
141.701121198
 20
203.2922501653
 10
142.8996461458
 20
203.9809423764
 10
144.191962081
 20
204.5788451681
 10
145.5643701335
 20
205.0796206223
 10
147.0023224363
 20
205.4779603945
 10
148.4905763374
 20
205.769641984
 10
150.0133559752
 20
205.9515734934
 10
151.5545195066
 20
206.0218264035
 10
153.097730215
 20
205.9796560159
 10
154.6266296827
 20
205.8255093472
 10
156.1250111952
 20
205.5610203905
 10
157.5769915357
 20
205.1889927945
 10
158.9671793513
 20
204.7133701443
 10
160.2808383053
 20
204.1391941583
 10
161.5040432861
 20
203.4725512447
 10
162.6238280165
 20
202.7205079843
 10
163.6283224999
 20
201.8910362228
 10
164.5068788448
 20
200.9929285672
 10
165.2501841354
 20
200.0357051819
 10
165.8503591507
 20
199.0295128732
 10
166.3010418862
 20
197.9850175296
 10
166.5974549929
 20
196.9132910618
 10
166.736456418
 20
195.8256940369
 10
166.7165727119
 20
194.7337552539
 10
166.5380146469
 20
193.6490495356
 10
166.2026749827
 20
192.5830750323
 10
165.7141084033
 20
191.5471313391
 10
165.077493836
 20
190.5521997168
 10
164.2995795535
 20
189.6088266881
 10
163.3886116408
 20
188.7270122418
 10
162.3542465844
 20
187.9161038304
  0
LWPOLYLINE
  5
20B
330
1F
100
AcDbEntity
  8
0
  6
Continuous
 62
     7
370
    25
100
AcDbPolyline
 90
       31
 70
   128
 43
0.0
 10
136.7476934484
 20
195.4430987772
 10
136.7701563151
 20
195.588198004
 10
137.028794723
 20
196.6706089131
 10
137.443456604
 20
197.7284784945
 10
138.009746439
 20
198.7505930675
 10
138.7216614149
 20
199.7261179635
 10
139.571655056
 20
200.6447123757
 10
140.550717218
 20
201.496638975
 10
141.6484695986
 20
202.2728671274
 10
142.8532757494
 20
202.9651686213
 10
144.1523644255
 20
203.5662048889
 10
145.5319649638
 20
204.069604796
 10
146.9774532553
 20
204.4700321785
 10
148.4735067646
 20
204.7632424064
 10
150.0042669523
 20
204.9461273785
 10
151.5535073795
 20
205.0167484684
 10
153.1048057124
 20
204.9743570752
 10
154.6417178028
 20
204.8194025581
 10
156.147952
 20
204.5535274735
 10
157.607541847
 20
204.1795501635
 10
159.0050153282
 20
203.7014348806
 10
160.3255588771
 20
203.1242497657
 10
161.5551744035
 20
202.4541131247
 10
162.6808276771
 20
201.6981285726
 10
163.6905864929
 20
200.8643097338
 10
164.5737471565
 20
199.9614952953
 10
165.3209479451
 20
198.9992553149
 10
165.9242683443
 20
197.9877897757
 10
166.377313008
 20
196.9378204641
 10
166.6752795499
 20
195.8604773158
 10
166.7475962847
 20
195.4430987772
  0
LWPOLYLINE
  5
20C
330
1F
100
AcDbEntity
  8
0
  6
Continuous
 62
     7
370
    25
100
AcDbPolyline
 90
       11
 70
   128
 43
0.0
 10
150.3586600247
 20
191.6230028242
 10
149.7958129407
 20
191.5431869589
 10
148.6875036355
 20
191.3007707036
 10
147.6361989713
 20
190.9538994732
 10
146.6614827651
 20
190.5090348224
 10
145.7815121354
 20
189.974463738
 10
145.0126792702
 20
189.3601442678
 10
144.3693060709
 20
188.6775200211
 10
143.8633773631
 20
187.9393069962
 10
143.5043176412
 20
187.1592567049
 10
143.3508359612
 20
186.6270879524
  0
LWPOLYLINE
  5
20D
330
1F
100
AcDbEntity
  8
0
  6
Continuous
 62
     7
370
    25
100
AcDbPolyline
 90
       10
 70
   128
 43
0.0
 10
149.5525879446
 20
190.9695916957
 10
148.6875036355
 20
190.7704406177
 10
147.6361989713
 20
190.4235693873
 10
146.6614827651
 20
189.9787047366
 10
145.7815121354
 20
189.4441336521
 10
145.0126792702
 20
188.8298141819
 10
144.3693060709
 20
188.1471899352
 10
143.8633773631
 20
187.4089769103
 10
143.5043176412
 20
186.628926619
 10
143.4821340988
 20
186.5650775693
  0
LWPOLYLINE
  5
20E
330
1F
100
AcDbEntity
  8
0
  6
Continuous
 62
     7
370
    25
100
AcDbPolyline
 90
        9
 70
   128
 43
0.0
 10
148.8619628404
 20
190.4390785909
 10
148.8212288435
 20
190.4278484364
 10
147.7914044948
 20
190.0797699611
 10
146.8421177912
 20
189.631601358
 10
145.9926934725
 20
189.0924660475
 10
145.2604233682
 20
188.4733392699
 10
144.6602143861
 20
187.7868246608
 10
144.2042850501
 20
187.0468976779
 10
143.9299815906
 20
186.3639178816
  0
LWPOLYLINE
  5
20F
330
1F
100
AcDbEntity
  8
0
  6
Continuous
 62
     7
370
    25
100
AcDbPolyline
 90
       12
 70
   128
 43
0.0
 10
152.2436115481
 20
192.9315596261
 10
151.4671825325
 20
192.9381393238
 10
150.2706849616
 20
192.8549513386
 10
149.1005437752
 20
192.6597379646
 10
147.9776401705
 20
192.355982789
 10
146.9220123889
 20
191.9491063301
 10
145.9524981331
 20
191.446369308
 10
145.0863984082
 20
190.8567430766
 10
144.339168784
 20
190.1907495302
 10
143.7241435911
 20
189.4602733393
 10
143.2522979685
 20
188.6783498688
 10
143.1681111709
 20
188.4997156274
  0
LWPOLYLINE
  5
210
330
1F
100
AcDbEntity
  8
0
  6
Continuous
 62
     7
370
    25
100
AcDbPolyline
 90
        3
 70
   128
 43
0.0
 10
149.680999298
 20
191.993358939
 10
150.8669670867
 20
192.1328711663
 10
151.0241048663
 20
192.1428138798
  0
LWPOLYLINE
  5
211
330
1F
100
AcDbEntity
  8
0
  6
Continuous
 62
     7
370
    25
100
AcDbPolyline
 90
       10
 70
   128
 43
0.0
 10
143.0375078659
 20
187.4015616883
 10
143.0728030158
 20
187.4946092485
 10
143.4697352028
 20
188.2970716333
 10
144.0143868839
 20
189.0549639295
 10
144.6970387368
 20
189.7547615311
 10
145.5055088232
 20
190.3839765335
 10
146.4253699752
 20
190.9313805799
 10
147.4402072486
 20
191.3872052322
 10
148.5319108485
 20
191.7433162886
 10
149.680999298
 20
191.993358939
  0
ARC
  5
212
330
1F
100
AcDbEntity
  8
0
  6
Continuous
 62
     7
370
    25
100
AcDbCircle
 10
151.7476448666
 20
205.833853063
 30
0.0
 40
31.16331890006964
100
AcDbArc
 50
242.2454534791
 51
297.7545465209
  0
ARC
  5
213
330
1F
100
AcDbEntity
  8
0
  6
Continuous
 62
     7
370
    25
100
AcDbCircle
 10
159.4286656871
 20
164.6669824022
 30
0.0
 40
9.796404436018419
100
AcDbArc
 50
312.7845231789
 51
7.1976317426
  0
ARC
  5
214
330
1F
100
AcDbEntity
  8
0
  6
Continuous
 62
     7
370
    25
100
AcDbCircle
 10
159.2781622336
 20
167.4048417104
 30
0.0
 40
9.971311462302014
100
AcDbArc
 50
313.0332064354
 51
358.9026258573
  0
LINE
  5
215
330
1F
100
AcDbEntity
  8
0
  6
Continuous
 62
     7
370
    25
100
AcDbLine
 10
166.0828056412
 20
157.4772702143
 30
0.0
 11
166.0828056416
 21
160.1162286484
 31
0.0
  0
ARC
  5
216
330
1F
100
AcDbEntity
  8
0
  6
Continuous
 62
     7
370
    25
100
AcDbCircle
 10
159.4286656871
 20
168.5560696987
 30
0.0
 40
9.796404436018706
100
AcDbArc
 50
312.7845231789
 51
7.1976317426
  0
ARC
  5
217
330
1F
100
AcDbEntity
  8
0
  6
Continuous
 62
     7
370
    25
100
AcDbCircle
 10
159.2781622336
 20
171.293929007
 30
0.0
 40
9.97131146230253
100
AcDbArc
 50
313.0332064354
 51
358.9026258573
  0
LINE
  5
218
330
1F
100
AcDbEntity
  8
0
  6
Continuous
 62
     7
370
    25
100
AcDbLine
 10
166.0828056412
 20
161.3663575108
 30
0.0
 11
166.0828056416
 21
164.0053159449
 31
0.0
  0
ARC
  5
219
330
1F
100
AcDbEntity
  8
0
  6
Continuous
 62
     7
370
    25
100
AcDbCircle
 10
159.4286656871
 20
172.4451569952
 30
0.0
 40
9.796404436018722
100
AcDbArc
 50
312.7845231789
 51
7.1976317426
  0
ARC
  5
21A
330
1F
100
AcDbEntity
  8
0
  6
Continuous
 62
     7
370
    25
100
AcDbCircle
 10
159.2781622336
 20
175.1830163035
 30
0.0
 40
9.971311462301934
100
AcDbArc
 50
313.0332064354
 51
358.9026258573
  0
LINE
  5
21B
330
1F
100
AcDbEntity
  8
0
  6
Continuous
 62
     7
370
    25
100
AcDbLine
 10
166.0828056412
 20
165.2554448073
 30
0.0
 11
166.0828056416
 21
167.8944032414
 31
0.0
  0
ARC
  5
21C
330
1F
100
AcDbEntity
  8
0
  6
Continuous
 62
     7
370
    25
100
AcDbCircle
 10
159.4286656871
 20
176.3342442918
 30
0.0
 40
9.796404436018662
100
AcDbArc
 50
312.7845231789
 51
7.1976317426
  0
ARC
  5
21D
330
1F
100
AcDbEntity
  8
0
  6
Continuous
 62
     7
370
    25
100
AcDbCircle
 10
159.2781622336
 20
179.0721036
 30
0.0
 40
9.97131146230245
100
AcDbArc
 50
313.0332064354
 51
358.9026258573
  0
LINE
  5
21E
330
1F
100
AcDbEntity
  8
0
  6
Continuous
 62
     7
370
    25
100
AcDbLine
 10
166.0828056412
 20
169.1445321039
 30
0.0
 11
166.0828056416
 21
171.783490538
 31
0.0
  0
LWPOLYLINE
  5
21F
330
1F
100
AcDbEntity
  8
0
  6
Continuous
 62
     7
370
    25
100
AcDbPolyline
 90
       35
 70
   128
 43
0.0
 10
134.2476448666
 20
158.823327904
 10
134.2922328609
 20
157.9405505504
 10
134.4899436765
 20
156.7712862823
 10
134.8439429065
 20
155.6206056209
 10
135.3510246791
 20
154.4989293084
 10
136.0065967831
 20
153.4164154193
 10
136.8047222562
 20
152.3828673669
 10
137.7381731504
 20
151.4076451224
 10
138.7984959899
 20
150.4995804496
 10
139.9760883268
 20
149.6668969227
 10
141.2602857026
 20
148.9171354526
 10
142.639458227
 20
148.2570859954
 10
144.1011159001
 20
147.6927260612
 10
145.6320217236
 20
147.2291665809
 10
147.2183115773
 20
146.8706056209
 10
148.8456197746
 20
146.6202903648
 10
150.4992091606
 20
146.4804877064
 10
152.1641045736
 20
146.4524637201
 10
153.8252284631
 20
146.5364721956
 10
155.4675374337
 20
146.731752339
 10
157.0761584813
 20
147.0365356631
 10
158.6365236844
 20
147.4480620031
 10
160.1345021342
 20
147.9626045125
 10
161.5565279058
 20
148.5755034148
 10
162.8897229136
 20
149.2812082026
 10
164.1220135373
 20
150.073327904
 10
165.2422399621
 20
150.9446889604
 10
166.240257244
 20
151.8874001911
 10
167.107027184
 20
152.8929242572
 10
167.8347001792
 20
153.9521549771
 10
168.4166863104
 20
155.0554997934
 10
168.847715021
 20
156.1929666444
 10
169.1238828483
 20
157.3542544544
 10
169.2426887737
 20
158.528846421
 10
169.2476448666
 20
158.823327904
  0
ARC
  5
220
330
1F
100
AcDbEntity
  8
0
  6
Continuous
 62
     7
370
    25
100
AcDbCircle
 10
158.2173088262
 20
183.6580309126
 30
0.0
 40
11.20863510950416
100
AcDbArc
 50
314.5664072869
 51
337.8953007282
  0
LINE
  5
221
330
1F
100
AcDbEntity
  8
0
  6
Continuous
 62
     7
370
    25
100
AcDbLine
 10
166.0828056412
 20
173.0336194004
 30
0.0
 11
166.0828056417
 21
175.6725778344
 31
0.0
  0
ARC
  5
222
330
1F
100
AcDbEntity
  8
0
  6
Continuous
 62
     7
370
    25
100
AcDbCircle
 10
159.0155378726
 20
180.4525261341
 30
0.0
 40
10.24628961317392
100
AcDbArc
 50
313.6094691292
 51
356.422791171
  0
LINE
  5
223
330
1F
100
AcDbEntity
  8
0
  6
Continuous
 62
     7
370
    25
100
AcDbLine
 10
166.0828056412
 20
176.9227066969
 30
0.0
 11
166.0828056416
 21
178.1586619356
 31
0.0
  0
LWPOLYLINE
  5
224
330
1F
100
AcDbEntity
  8
0
  6
Continuous
 62
     7
370
    25
100
AcDbPolyline
 90
        3
 70
   128
 43
0.0
 10
167.7186305535
 20
178.9618148436
 10
166.9788695453
 20
177.9269223069
 10
166.0828056412
 20
176.9227066969
  0
LINE
  5
225
330
1F
100
AcDbEntity
  8
0
  6
Continuous
 62
     7
370
    25
100
AcDbLine
 10
164.1220135374
 20
158.4638749326
 30
0.0
 11
164.1220135371
 21
155.8249164988
 31
0.0
  0
LWPOLYLINE
  5
226
330
1F
100
AcDbEntity
  8
0
  6
Continuous
 62
     7
370
    25
100
AcDbPolyline
 90
       21
 70
   128
 43
0.0
 10
135.8872585933
 20
161.9842407548
 10
136.6691345588
 20
160.9334081148
 10
137.5898474649
 20
159.9404035215
 10
138.6409197527
 20
159.0143701673
 10
139.8126735654
 20
158.1638346
 10
141.0943198588
 20
157.3966282136
 10
142.4740577424
 20
156.7198151402
 10
143.9391831371
 20
156.139627206
 10
145.4762057495
 20
155.6614065513
 10
147.0709732852
 20
155.2895564422
 10
148.7088017574
 20
155.027500727
 10
150.3746106913
 20
154.8776523107
 10
152.0530619792
 20
154.8413909381
 10
153.7287011075
 20
154.9190504896
 10
155.3860994559
 20
155.1099159067
 10
157.0099963579
 20
155.4122297765
 10
158.5854396152
 20
155.8232085128
 10
160.0979231711
 20
156.3390679864
 10
161.5335206773
 20
156.955058368
 10
162.8790137215
 20
157.6655078624
 10
164.1220135374
 20
158.4638749326
  0
LINE
  5
227
330
1F
100
AcDbEntity
  8
0
  6
Continuous
 62
     7
370
    25
100
AcDbLine
 10
135.8872585939
 20
159.3452823207
 30
0.0
 11
135.8872585933
 21
161.9842407548
 31
0.0
  0
LWPOLYLINE
  5
228
330
1F
100
AcDbEntity
  8
0
  6
Continuous
 62
     7
370
    25
100
AcDbPolyline
 90
       21
 70
   128
 43
0.0
 10
164.1220135371
 20
155.8249164988
 10
162.8790137213
 20
155.0265494285
 10
161.5335206771
 20
154.3160999341
 10
160.097923171
 20
153.7001095526
 10
158.585439615
 20
153.184250079
 10
157.0099963578
 20
152.7732713427
 10
155.3860994558
 20
152.470957473
 10
153.7287011075
 20
152.2800920559
 10
152.0530619792
 20
152.2024325044
 10
150.3746106913
 20
152.2386938771
 10
148.7088017574
 20
152.3885422934
 10
147.0709732853
 20
152.6505980086
 10
145.4762057496
 20
153.0224481177
 10
143.9391831372
 20
153.5006687724
 10
142.4740577426
 20
154.0808567067
 10
141.0943198591
 20
154.7576697801
 10
139.8126735656
 20
155.5248761665
 10
138.6409197529
 20
156.3754117338
 10
137.5898474652
 20
157.301445088
 10
136.6691345591
 20
158.2944496813
 10
135.8872585939
 20
159.3452823207
  0
LINE
  5
229
330
1F
100
AcDbEntity
  8
0
  6
Continuous
 62
     7
370
    25
100
AcDbLine
 10
164.1220135374
 20
162.3529622291
 30
0.0
 11
164.1220135371
 21
159.7140037953
 31
0.0
  0
LWPOLYLINE
  5
22A
330
1F
100
AcDbEntity
  8
0
  6
Continuous
 62
     7
370
    25
100
AcDbPolyline
 90
       21
 70
   128
 43
0.0
 10
135.8872585933
 20
165.8733280514
 10
136.6691345588
 20
164.8224954113
 10
137.5898474649
 20
163.829490818
 10
138.6409197527
 20
162.9034574639
 10
139.8126735654
 20
162.0529218966
 10
141.0943198588
 20
161.2857155102
 10
142.4740577424
 20
160.6089024367
 10
143.9391831371
 20
160.0287145025
 10
145.4762057495
 20
159.5504938478
 10
147.0709732852
 20
159.1786437388
 10
148.7088017574
 20
158.9165880235
 10
150.3746106913
 20
158.7667396073
 10
152.0530619792
 20
158.7304782347
 10
153.7287011075
 20
158.8081377861
 10
155.3860994559
 20
158.9990032033
 10
157.0099963579
 20
159.3013170731
 10
158.5854396152
 20
159.7122958094
 10
160.0979231711
 20
160.228155283
 10
161.5335206773
 20
160.8441456645
 10
162.8790137215
 20
161.554595159
 10
164.1220135374
 20
162.3529622291
  0
LINE
  5
22B
330
1F
100
AcDbEntity
  8
0
  6
Continuous
 62
     7
370
    25
100
AcDbLine
 10
135.8872585939
 20
163.2343696172
 30
0.0
 11
135.8872585933
 21
165.8733280514
 31
0.0
  0
LWPOLYLINE
  5
22C
330
1F
100
AcDbEntity
  8
0
  6
Continuous
 62
     7
370
    25
100
AcDbPolyline
 90
       21
 70
   128
 43
0.0
 10
164.1220135371
 20
159.7140037953
 10
162.8790137213
 20
158.9156367251
 10
161.5335206771
 20
158.2051872306
 10
160.097923171
 20
157.5891968491
 10
158.585439615
 20
157.0733373755
 10
157.0099963578
 20
156.6623586393
 10
155.3860994558
 20
156.3600447695
 10
153.7287011075
 20
156.1691793524
 10
152.0530619792
 20
156.091519801
 10
150.3746106913
 20
156.1277811736
 10
148.7088017574
 20
156.2776295899
 10
147.0709732853
 20
156.5396853051
 10
145.4762057496
 20
156.9115354143
 10
143.9391831372
 20
157.389756069
 10
142.4740577426
 20
157.9699440032
 10
141.0943198591
 20
158.6467570767
 10
139.8126735656
 20
159.4139634631
 10
138.6409197529
 20
160.2644990304
 10
137.5898474652
 20
161.1905323845
 10
136.6691345591
 20
162.1835369778
 10
135.8872585939
 20
163.2343696172
  0
LINE
  5
22D
330
1F
100
AcDbEntity
  8
0
  6
Continuous
 62
     7
370
    25
100
AcDbLine
 10
164.1220135374
 20
166.2420495256
 30
0.0
 11
164.1220135371
 21
163.6030910918
 31
0.0
  0
LWPOLYLINE
  5
22E
330
1F
100
AcDbEntity
  8
0
  6
Continuous
 62
     7
370
    25
100
AcDbPolyline
 90
       21
 70
   128
 43
0.0
 10
135.8872585933
 20
169.7624153479
 10
136.6691345588
 20
168.7115827078
 10
137.5898474649
 20
167.7185781145
 10
138.6409197527
 20
166.7925447604
 10
139.8126735654
 20
165.9420091931
 10
141.0943198588
 20
165.1748028067
 10
142.4740577424
 20
164.4979897333
 10
143.9391831371
 20
163.917801799
 10
145.4762057495
 20
163.4395811444
 10
147.0709732852
 20
163.0677310353
 10
148.7088017574
 20
162.8056753201
 10
150.3746106913
 20
162.6558269038
 10
152.0530619792
 20
162.6195655312
 10
153.7287011075
 20
162.6972250827
 10
155.3860994559
 20
162.8880904998
 10
157.0099963579
 20
163.1904043696
 10
158.5854396152
 20
163.6013831059
 10
160.0979231711
 20
164.1172425795
 10
161.5335206773
 20
164.733232961
 10
162.8790137215
 20
165.4436824555
 10
164.1220135374
 20
166.2420495256
  0
LINE
  5
22F
330
1F
100
AcDbEntity
  8
0
  6
Continuous
 62
     7
370
    25
100
AcDbLine
 10
135.8872585939
 20
167.1234569138
 30
0.0
 11
135.8872585933
 21
169.7624153479
 31
0.0
  0
LWPOLYLINE
  5
230
330
1F
100
AcDbEntity
  8
0
  6
Continuous
 62
     7
370
    25
100
AcDbPolyline
 90
       21
 70
   128
 43
0.0
 10
164.1220135371
 20
163.6030910918
 10
162.8790137213
 20
162.8047240216
 10
161.5335206771
 20
162.0942745271
 10
160.097923171
 20
161.4782841456
 10
158.585439615
 20
160.962424672
 10
157.0099963578
 20
160.5514459358
 10
155.3860994558
 20
160.249132066
 10
153.7287011075
 20
160.0582666489
 10
152.0530619792
 20
159.9806070975
 10
150.3746106913
 20
160.0168684701
 10
148.7088017574
 20
160.1667168864
 10
147.0709732853
 20
160.4287726017
 10
145.4762057496
 20
160.8006227108
 10
143.9391831372
 20
161.2788433655
 10
142.4740577426
 20
161.8590312997
 10
141.0943198591
 20
162.5358443732
 10
139.8126735656
 20
163.3030507596
 10
138.6409197529
 20
164.1535863269
 10
137.5898474652
 20
165.0796196811
 10
136.6691345591
 20
166.0726242744
 10
135.8872585939
 20
167.1234569138
  0
LINE
  5
231
330
1F
100
AcDbEntity
  8
0
  6
Continuous
 62
     7
370
    25
100
AcDbLine
 10
135.8872585939
 20
174.9016315068
 30
0.0
 11
135.8872585934
 21
177.540589941
 31
0.0
  0
LWPOLYLINE
  5
232
330
1F
100
AcDbEntity
  8
0
  6
Continuous
 62
     7
370
    25
100
AcDbPolyline
 90
       21
 70
   128
 43
0.0
 10
164.122013537
 20
171.3812656847
 10
162.8790137211
 20
170.5828986145
 10
161.533520677
 20
169.87244912
 10
160.0979231708
 20
169.2564587385
 10
158.5854396149
 20
168.740599265
 10
157.0099963577
 20
168.3296205287
 10
155.3860994558
 20
168.027306659
 10
153.7287011074
 20
167.8364412419
 10
152.0530619792
 20
167.7587816905
 10
150.3746106914
 20
167.7950430631
 10
148.7088017575
 20
167.9448914795
 10
147.0709732853
 20
168.2069471947
 10
145.4762057497
 20
168.5787973039
 10
143.9391831374
 20
169.0570179586
 10
142.4740577427
 20
169.6372058929
 10
141.0943198592
 20
170.3140189663
 10
139.8126735658
 20
171.0812253528
 10
138.6409197531
 20
171.9317609201
 10
137.5898474654
 20
172.8577942743
 10
136.6691345593
 20
173.8507988676
 10
135.8872585939
 20
174.9016315068
  0
LINE
  5
233
330
1F
100
AcDbEntity
  8
0
  6
Continuous
 62
     7
370
    25
100
AcDbLine
 10
164.1220135374
 20
174.0202241187
 30
0.0
 11
164.122013537
 21
171.3812656847
 31
0.0
  0
LWPOLYLINE
  5
234
330
1F
100
AcDbEntity
  8
0
  6
Continuous
 62
     7
370
    25
100
AcDbPolyline
 90
       21
 70
   128
 43
0.0
 10
135.8872585934
 20
177.540589941
 10
136.6691345588
 20
176.4897573009
 10
137.589847465
 20
175.4967527077
 10
138.6409197527
 20
174.5707193535
 10
139.8126735654
 20
173.7201837862
 10
141.0943198589
 20
172.9529773998
 10
142.4740577424
 20
172.2761643264
 10
143.9391831371
 20
171.6959763922
 10
145.4762057495
 20
171.2177557375
 10
147.0709732852
 20
170.8459056284
 10
148.7088017574
 20
170.5838499132
 10
150.3746106913
 20
170.4340014969
 10
152.0530619792
 20
170.3977401243
 10
153.7287011075
 20
170.4753996758
 10
155.3860994559
 20
170.6662650929
 10
157.0099963579
 20
170.9685789627
 10
158.5854396151
 20
171.379557699
 10
160.0979231711
 20
171.8954171726
 10
161.5335206773
 20
172.5114075541
 10
162.8790137214
 20
173.2218570486
 10
164.1220135374
 20
174.0202241187
  0
LINE
  5
235
330
1F
100
AcDbEntity
  8
0
  6
Continuous
 62
     7
370
    25
100
AcDbLine
 10
135.8872585939
 20
178.7907188033
 30
0.0
 11
135.8872585934
 21
178.9047454986
 31
0.0
  0
LWPOLYLINE
  5
236
330
1F
100
AcDbEntity
  8
0
  6
Continuous
 62
     7
370
    25
100
AcDbPolyline
 90
       21
 70
   128
 43
0.0
 10
164.122013537
 20
175.2703529812
 10
162.8790137211
 20
174.471985911
 10
161.533520677
 20
173.7615364166
 10
160.0979231708
 20
173.1455460351
 10
158.5854396149
 20
172.6296865615
 10
157.0099963577
 20
172.2187078253
 10
155.3860994558
 20
171.9163939555
 10
153.7287011074
 20
171.7255285384
 10
152.0530619792
 20
171.647868987
 10
150.3746106914
 20
171.6841303597
 10
148.7088017575
 20
171.833978776
 10
147.0709732853
 20
172.0960344913
 10
145.4762057497
 20
172.4678846004
 10
143.9391831374
 20
172.9461052551
 10
142.4740577427
 20
173.5262931894
 10
141.0943198592
 20
174.2031062629
 10
139.8126735658
 20
174.9703126493
 10
138.6409197531
 20
175.8208482166
 10
137.5898474654
 20
176.7468815708
 10
136.6691345593
 20
177.7398861641
 10
135.8872585939
 20
178.7907188033
  0
LINE
  5
237
330
1F
100
AcDbEntity
  8
0
  6
Continuous
 62
     7
370
    25
100
AcDbLine
 10
164.1220135373
 20
177.200906116
 30
0.0
 11
164.122013537
 21
175.2703529812
 31
0.0
  0
ARC
  5
238
330
1F
100
AcDbEntity
  8
0
  6
Continuous
 62
     7
370
    25
100
AcDbCircle
 10
151.7476448666
 20
198.0923621889
 30
0.0
 40
23.8184714413114
100
AcDbArc
 50
249.2014752158
 51
290.7985247842
  0
LINE
  5
239
330
1F
100
AcDbEntity
  8
0
  6
Continuous
 62
     7
370
    25
100
AcDbLine
 10
135.8872585939
 20
171.0125442103
 30
0.0
 11
135.8872585934
 21
173.6515026445
 31
0.0
  0
LWPOLYLINE
  5
23A
330
1F
100
AcDbEntity
  8
0
  6
Continuous
 62
     7
370
    25
100
AcDbPolyline
 90
       21
 70
   128
 43
0.0
 10
164.122013537
 20
167.4921783882
 10
162.8790137211
 20
166.6938113179
 10
161.533520677
 20
165.9833618235
 10
160.0979231708
 20
165.367371442
 10
158.5854396149
 20
164.8515119684
 10
157.0099963577
 20
164.4405332322
 10
155.3860994558
 20
164.1382193625
 10
153.7287011074
 20
163.9473539454
 10
152.0530619792
 20
163.869694394
 10
150.3746106914
 20
163.9059557666
 10
148.7088017575
 20
164.0558041829
 10
147.0709732853
 20
164.3178598982
 10
145.4762057497
 20
164.6897100073
 10
143.9391831374
 20
165.1679306621
 10
142.4740577427
 20
165.7481185963
 10
141.0943198592
 20
166.4249316698
 10
139.8126735658
 20
167.1921380562
 10
138.6409197531
 20
168.0426736236
 10
137.5898474654
 20
168.9687069778
 10
136.6691345593
 20
169.9617115711
 10
135.8872585939
 20
171.0125442103
  0
LINE
  5
23B
330
1F
100
AcDbEntity
  8
0
  6
Continuous
 62
     7
370
    25
100
AcDbLine
 10
164.1220135374
 20
170.1311368222
 30
0.0
 11
164.122013537
 21
167.4921783882
 31
0.0
  0
LWPOLYLINE
  5
23C
330
1F
100
AcDbEntity
  8
0
  6
Continuous
 62
     7
370
    25
100
AcDbPolyline
 90
       21
 70
   128
 43
0.0
 10
135.8872585934
 20
173.6515026445
 10
136.6691345588
 20
172.6006700044
 10
137.589847465
 20
171.6076654111
 10
138.6409197527
 20
170.681632057
 10
139.8126735654
 20
169.8310964897
 10
141.0943198589
 20
169.0638901033
 10
142.4740577425
 20
168.3870770299
 10
143.9391831371
 20
167.8068890956
 10
145.4762057495
 20
167.328668441
 10
147.0709732852
 20
166.9568183319
 10
148.7088017574
 20
166.6947626167
 10
150.3746106913
 20
166.5449142004
 10
152.0530619792
 20
166.5086528278
 10
153.7287011075
 20
166.5863123792
 10
155.3860994559
 20
166.7771777964
 10
157.0099963579
 20
167.0794916662
 10
158.5854396151
 20
167.4904704024
 10
160.0979231711
 20
168.006329876
 10
161.5335206773
 20
168.6223202576
 10
162.8790137214
 20
169.332769752
 10
164.1220135374
 20
170.1311368222
  0
ARC
  5
23D
330
1F
100
AcDbEntity
  8
0
  6
Continuous
 62
     7
370
    25
100
AcDbCircle
 10
143.2701181593
 20
180.1562305442
 30
0.0
 40
9.023214154266586
100
AcDbArc
 50
182.1785540143
 51
200.9595795341
  0
LINE
  5
23E
330
1F
100
AcDbEntity
  8
0
  6
Continuous
 62
     7
370
    25
100
AcDbLine
 10
134.8439429065
 20
179.4681191837
 30
0.0
 11
134.843942907
 21
176.9285434014
 31
0.0
  0
ARC
  5
23F
330
1F
100
AcDbEntity
  8
0
  6
Continuous
 62
     7
370
    25
100
AcDbCircle
 10
143.158255017
 20
176.240706306
 30
0.0
 40
8.909309104073788
100
AcDbArc
 50
171.4735240249
 51
201.0581462011
  0
LINE
  5
240
330
1F
100
AcDbEntity
  8
0
  6
Continuous
 62
     7
370
    25
100
AcDbLine
 10
134.8439429064
 20
175.6784145391
 30
0.0
 11
134.843942907
 21
173.0394561049
 31
0.0
  0
ARC
  5
241
330
1F
100
AcDbEntity
  8
0
  6
Continuous
 62
     7
370
    25
100
AcDbCircle
 10
143.2479154837
 20
178.8999779936
 30
0.0
 40
9.000290338152634
100
AcDbArc
 50
180.1199428403
 51
200.9737349545
  0
ARC
  5
242
330
1F
100
AcDbEntity
  8
0
  6
Continuous
 62
     7
370
    25
100
AcDbCircle
 10
143.158255017
 20
172.3516190095
 30
0.0
 40
8.909309104072948
100
AcDbArc
 50
171.4735240249
 51
201.0581462011
  0
LINE
  5
243
330
1F
100
AcDbEntity
  8
0
  6
Continuous
 62
     7
370
    25
100
AcDbLine
 10
134.8439429064
 20
171.7893272425
 30
0.0
 11
134.843942907
 21
169.1503688084
 31
0.0
  0
ARC
  5
244
330
1F
100
AcDbEntity
  8
0
  6
Continuous
 62
     7
370
    25
100
AcDbCircle
 10
143.2479154837
 20
175.0108906971
 30
0.0
 40
9.000290338153809
100
AcDbArc
 50
180.1199428403
 51
200.9737349545
  0
ARC
  5
245
330
1F
100
AcDbEntity
  8
0
  6
Continuous
 62
     7
370
    25
100
AcDbCircle
 10
143.158255017
 20
168.462531713
 30
0.0
 40
8.909309104073232
100
AcDbArc
 50
171.4735240249
 51
201.0581462011
  0
LINE
  5
246
330
1F
100
AcDbEntity
  8
0
  6
Continuous
 62
     7
370
    25
100
AcDbLine
 10
134.8439429064
 20
167.900239946
 30
0.0
 11
134.843942907
 21
165.2612815118
 31
0.0
  0
ARC
  5
247
330
1F
100
AcDbEntity
  8
0
  6
Continuous
 62
     7
370
    25
100
AcDbCircle
 10
143.2479154837
 20
171.1218034006
 30
0.0
 40
9.000290338153487
100
AcDbArc
 50
180.1199428403
 51
200.9737349545
  0
ARC
  5
248
330
1F
100
AcDbEntity
  8
0
  6
Continuous
 62
     7
370
    25
100
AcDbCircle
 10
143.1582550169
 20
164.5734444164
 30
0.0
 40
8.909309104072692
100
AcDbArc
 50
171.4735240249
 51
201.0581462011
  0
LINE
  5
249
330
1F
100
AcDbEntity
  8
0
  6
Continuous
 62
     7
370
    25
100
AcDbLine
 10
134.8439429064
 20
164.0111526495
 30
0.0
 11
134.843942907
 21
161.3721942153
 31
0.0
  0
ARC
  5
24A
330
1F
100
AcDbEntity
  8
0
  6
Continuous
 62
     7
370
    25
100
AcDbCircle
 10
143.2479154837
 20
167.2327161041
 30
0.0
 40
9.000290338153603
100
AcDbArc
 50
180.1199428403
 51
200.9737349545
  0
LWPOLYLINE
  5
24B
330
1F
100
AcDbEntity
  8
0
  6
Continuous
 62
     7
370
    25
100
AcDbPolyline
 90
       17
 70
   128
 43
0.0
 10
163.0613533655
 20
176.6327254173
 10
161.8623914893
 20
175.8665432164
 10
160.560244187
 20
175.1897890833
 10
159.1681952935
 20
174.6093669142
 10
157.7004457733
 20
174.1311978769
 10
156.1719688498
 20
173.760160005
 10
154.5983572559
 20
173.5000384354
 10
152.9956641651
 20
173.3534867943
 10
151.3802394253
 20
173.3220001257
 10
149.7685627662
 20
173.4058996406
 10
148.1770756816
 20
173.6043294393
 10
146.6220137015
 20
173.9152652433
 10
145.1192407659
 20
174.3355350462
 10
143.6840873888
 20
174.8608514721
 10
142.3311942645
 20
175.4858555139
 10
141.0743629105
 20
176.204171203
 10
140.0437671059
 20
176.9184773864
  0
LINE
  5
24C
330
1F
100
AcDbEntity
  8
0
  6
Continuous
 62
     7
370
    25
100
AcDbLine
 10
164.122013537
 20
175.2703529812
 30
0.0
 11
163.0613533655
 21
176.6327254173
 31
0.0
  0
LINE
  5
24D
330
1F
100
AcDbEntity
  8
0
  6
Continuous
 62
     7
370
    25
100
AcDbLine
 10
135.8872585939
 20
178.7907188033
 30
0.0
 11
135.9755648473
 21
178.8596137056
 31
0.0
  0
LINE
  5
24E
330
1F
100
AcDbEntity
  8
0
  6
Continuous
 62
     7
370
    25
100
AcDbLine
 10
163.0613533655
 20
176.6327254173
 30
0.0
 11
163.0613533655
 21
176.7637342669
 31
0.0
  0
LWPOLYLINE
  5
24F
330
1F
100
AcDbEntity
  8
0
  6
Continuous
 62
     7
370
    25
100
AcDbPolyline
 90
       20
 70
   128
 43
0.0
 10
163.0613533655
 20
172.7436381208
 10
161.8623914893
 20
171.9774559199
 10
160.560244187
 20
171.3007017867
 10
159.1681952935
 20
170.7202796177
 10
157.7004457733
 20
170.2421105804
 10
156.1719688498
 20
169.8710727084
 10
154.5983572559
 20
169.6109511389
 10
152.9956641651
 20
169.4643994977
 10
151.3802394253
 20
169.4329128292
 10
149.7685627662
 20
169.5168123441
 10
148.1770756816
 20
169.7152421428
 10
146.6220137015
 20
170.0261779468
 10
145.1192407659
 20
170.4464477496
 10
143.6840873888
 20
170.9717641756
 10
142.3311942645
 20
171.5967682174
 10
141.0743629105
 20
172.3150839065
 10
139.926414872
 20
173.1193833567
 10
138.8990609224
 20
174.0014615201
 10
138.0027815966
 20
174.9523198904
 10
137.5272361546
 20
175.5580824097
  0
LINE
  5
250
330
1F
100
AcDbEntity
  8
0
  6
Continuous
 62
     7
370
    25
100
AcDbLine
 10
164.122013537
 20
171.3812656847
 30
0.0
 11
163.0613533655
 21
172.7436381208
 31
0.0
  0
LINE
  5
251
330
1F
100
AcDbEntity
  8
0
  6
Continuous
 62
     7
370
    25
100
AcDbLine
 10
135.8872585939
 20
174.9016315068
 30
0.0
 11
137.1817019982
 21
175.911532248
 31
0.0
  0
LINE
  5
252
330
1F
100
AcDbEntity
  8
0
  6
Continuous
 62
     7
370
    25
100
AcDbLine
 10
163.0613533655
 20
172.7436381208
 30
0.0
 11
163.0613533655
 21
173.3296203246
 31
0.0
  0
LWPOLYLINE
  5
253
330
1F
100
AcDbEntity
  8
0
  6
Continuous
 62
     7
370
    25
100
AcDbPolyline
 90
       20
 70
   128
 43
0.0
 10
163.0613533655
 20
168.8545508242
 10
161.8623914893
 20
168.0883686234
 10
160.560244187
 20
167.4116144902
 10
159.1681952935
 20
166.8311923212
 10
157.7004457733
 20
166.3530232838
 10
156.1719688498
 20
165.9819854119
 10
154.5983572559
 20
165.7218638424
 10
152.9956641651
 20
165.5753122012
 10
151.3802394253
 20
165.5438255327
 10
149.7685627662
 20
165.6277250476
 10
148.1770756816
 20
165.8261548462
 10
146.6220137015
 20
166.1370906503
 10
145.1192407659
 20
166.5573604531
 10
143.6840873888
 20
167.082676879
 10
142.3311942645
 20
167.7076809209
 10
141.0743629105
 20
168.4259966099
 10
139.926414872
 20
169.2302960602
 10
138.8990609224
 20
170.1123742236
 10
138.0027815966
 20
171.0632325939
 10
137.5272361546
 20
171.6689951132
  0
LINE
  5
254
330
1F
100
AcDbEntity
  8
0
  6
Continuous
 62
     7
370
    25
100
AcDbLine
 10
164.122013537
 20
167.4921783882
 30
0.0
 11
163.0613533655
 21
168.8545508242
 31
0.0
  0
LINE
  5
255
330
1F
100
AcDbEntity
  8
0
  6
Continuous
 62
     7
370
    25
100
AcDbLine
 10
135.8872585939
 20
171.0125442103
 30
0.0
 11
137.1817019982
 21
172.0224449515
 31
0.0
  0
LINE
  5
256
330
1F
100
AcDbEntity
  8
0
  6
Continuous
 62
     7
370
    25
100
AcDbLine
 10
163.0613533655
 20
168.8545508242
 30
0.0
 11
163.0613533655
 21
169.4405330281
 31
0.0
  0
LWPOLYLINE
  5
257
330
1F
100
AcDbEntity
  8
0
  6
Continuous
 62
     7
370
    25
100
AcDbPolyline
 90
       20
 70
   128
 43
0.0
 10
163.0613533655
 20
164.9654635277
 10
161.8623914893
 20
164.1992813269
 10
160.560244187
 20
163.5225271937
 10
159.1681952935
 20
162.9421050247
 10
157.7004457733
 20
162.4639359873
 10
156.1719688498
 20
162.0928981154
 10
154.5983572559
 20
161.8327765458
 10
152.9956641651
 20
161.6862249047
 10
151.3802394253
 20
161.6547382362
 10
149.7685627662
 20
161.738637751
 10
148.1770756816
 20
161.9370675497
 10
146.6220137015
 20
162.2480033538
 10
145.1192407659
 20
162.6682731566
 10
143.6840873888
 20
163.1935895825
 10
142.3311942645
 20
163.8185936244
 10
141.0743629105
 20
164.5369093134
 10
139.926414872
 20
165.3412087636
 10
138.8990609224
 20
166.223286927
 10
138.0027815966
 20
167.1741452973
 10
137.5272361546
 20
167.7799078167
  0
LINE
  5
258
330
1F
100
AcDbEntity
  8
0
  6
Continuous
 62
     7
370
    25
100
AcDbLine
 10
164.1220135371
 20
163.6030910918
 30
0.0
 11
163.0613533655
 21
164.9654635277
 31
0.0
  0
LINE
  5
259
330
1F
100
AcDbEntity
  8
0
  6
Continuous
 62
     7
370
    25
100
AcDbLine
 10
135.8872585939
 20
167.1234569138
 30
0.0
 11
137.1817019982
 21
168.133357655
 31
0.0
  0
LINE
  5
25A
330
1F
100
AcDbEntity
  8
0
  6
Continuous
 62
     7
370
    25
100
AcDbLine
 10
163.0613533655
 20
164.9654635277
 30
0.0
 11
163.0613533655
 21
165.5514457315
 31
0.0
  0
LWPOLYLINE
  5
25B
330
1F
100
AcDbEntity
  8
0
  6
Continuous
 62
     7
370
    25
100
AcDbPolyline
 90
       20
 70
   128
 43
0.0
 10
163.0613533655
 20
161.0763762312
 10
161.8623914893
 20
160.3101940303
 10
160.560244187
 20
159.6334398972
 10
159.1681952935
 20
159.0530177281
 10
157.7004457733
 20
158.5748486908
 10
156.1719688498
 20
158.2038108189
 10
154.5983572559
 20
157.9436892493
 10
152.9956641651
 20
157.7971376082
 10
151.3802394253
 20
157.7656509396
 10
149.7685627662
 20
157.8495504545
 10
148.1770756816
 20
158.0479802532
 10
146.6220137015
 20
158.3589160572
 10
145.1192407659
 20
158.7791858601
 10
143.6840873888
 20
159.304502286
 10
142.3311942645
 20
159.9295063278
 10
141.0743629105
 20
160.6478220169
 10
139.926414872
 20
161.4521214671
 10
138.8990609224
 20
162.3341996305
 10
138.0027815966
 20
163.2850580008
 10
137.5272361546
 20
163.8908205201
  0
LINE
  5
25C
330
1F
100
AcDbEntity
  8
0
  6
Continuous
 62
     7
370
    25
100
AcDbLine
 10
164.1220135371
 20
159.7140037953
 30
0.0
 11
163.0613533655
 21
161.0763762312
 31
0.0
  0
LINE
  5
25D
330
1F
100
AcDbEntity
  8
0
  6
Continuous
 62
     7
370
    25
100
AcDbLine
 10
135.8872585939
 20
163.2343696172
 30
0.0
 11
137.1817019982
 21
164.2442703585
 31
0.0
  0
LINE
  5
25E
330
1F
100
AcDbEntity
  8
0
  6
Continuous
 62
     7
370
    25
100
AcDbLine
 10
163.0613533655
 20
161.0763762312
 30
0.0
 11
163.0613533655
 21
161.662358435
 31
0.0
  0
LWPOLYLINE
  5
25F
330
1F
100
AcDbEntity
  8
0
  6
Continuous
 62
     7
370
    25
100
AcDbPolyline
 90
       20
 70
   128
 43
0.0
 10
163.0613533655
 20
157.1872889347
 10
161.8623914893
 20
156.4211067338
 10
160.560244187
 20
155.7443526006
 10
159.1681952935
 20
155.1639304316
 10
157.7004457733
 20
154.6857613943
 10
156.1719688498
 20
154.3147235223
 10
154.5983572559
 20
154.0546019528
 10
152.9956641651
 20
153.9080503116
 10
151.3802394253
 20
153.8765636431
 10
149.7685627662
 20
153.960463158
 10
148.1770756816
 20
154.1588929567
 10
146.6220137015
 20
154.4698287607
 10
145.1192407659
 20
154.8900985635
 10
143.6840873888
 20
155.4154149894
 10
142.3311942645
 20
156.0404190313
 10
141.0743629105
 20
156.7587347204
 10
139.926414872
 20
157.5630341706
 10
138.8990609224
 20
158.445112334
 10
138.0027815966
 20
159.3959707043
 10
137.5272361546
 20
160.0017332236
  0
LINE
  5
260
330
1F
100
AcDbEntity
  8
0
  6
Continuous
 62
     7
370
    25
100
AcDbLine
 10
164.1220135371
 20
155.8249164988
 30
0.0
 11
163.0613533655
 21
157.1872889347
 31
0.0
  0
LINE
  5
261
330
1F
100
AcDbEntity
  8
0
  6
Continuous
 62
     7
370
    25
100
AcDbLine
 10
135.8872585939
 20
159.3452823207
 30
0.0
 11
137.1817019982
 21
160.3551830619
 31
0.0
  0
LINE
  5
262
330
1F
100
AcDbEntity
  8
0
  6
Continuous
 62
     7
370
    25
100
AcDbLine
 10
163.0613533655
 20
157.1872889347
 30
0.0
 11
163.0613533655
 21
157.7732711385
 31
0.0
  0
LWPOLYLINE
  5
263
330
1F
100
AcDbEntity
  8
0
  6
Continuous
 62
     7
370
    25
100
AcDbPolyline
 90
       35
 70
   128
 43
0.0
 10
134.2476448666
 20
158.823327904
 10
134.2526009594
 20
158.528846421
 10
134.3714068848
 20
157.3542544544
 10
134.6475747121
 20
156.1929666444
 10
135.0786034227
 20
155.0554997934
 10
135.6605895539
 20
153.9521549771
 10
136.3882625491
 20
152.8929242572
 10
137.2550324891
 20
151.8874001911
 10
138.253049771
 20
150.9446889604
 10
139.3732761958
 20
150.073327904
 10
140.6055668195
 20
149.2812082026
 10
141.9387618273
 20
148.5755034148
 10
143.360787599
 20
147.9626045125
 10
144.8587660487
 20
147.4480620031
 10
146.4191312518
 20
147.0365356631
 10
148.0277522994
 20
146.731752339
 10
149.6700612701
 20
146.5364721956
 10
151.3311851595
 20
146.4524637201
 10
152.9960805725
 20
146.4804877064
 10
154.6496699585
 20
146.6202903648
 10
156.2769781558
 20
146.8706056209
 10
157.8632680095
 20
147.2291665809
 10
159.394173833
 20
147.6927260612
 10
160.8558315061
 20
148.2570859954
 10
162.2350040305
 20
148.9171354526
 10
163.5192014063
 20
149.6668969227
 10
164.6967937433
 20
150.4995804496
 10
165.7571165827
 20
151.4076451224
 10
166.6905674769
 20
152.3828673669
 10
167.48869295
 20
153.4164154193
 10
168.1442650541
 20
154.4989293084
 10
168.6513468266
 20
155.6206056209
 10
169.0053460566
 20
156.7712862823
 10
169.2030568722
 20
157.9405505504
 10
169.2476448666
 20
158.823327904
  0
LWPOLYLINE
  5
264
330
1F
100
AcDbEntity
  8
0
  6
Continuous
 62
     7
370
    25
100
AcDbPolyline
 90
       26
 70
   128
 43
0.0
 10
139.2944256709
 20
145.5002286104
 10
140.5345685547
 20
144.7030614552
 10
141.8762587941
 20
143.9928598567
 10
143.3073458343
 20
143.3760555108
 10
144.8148695296
 20
142.8582342929
 10
146.3851775119
 20
142.4440856723
 10
148.004048829
 20
142.137360243
 10
149.6568227315
 20
141.9408357579
 10
151.328531443
 20
141.8562919734
 10
153.0040357106
 20
141.8844945308
 10
154.6681619081
 20
142.0251880236
 10
156.3058394511
 20
142.2770983097
 10
157.902237278
 20
142.6379440505
 10
159.442898163
 20
143.1044573711
 10
160.9138696426
 20
143.6724134546
 10
162.3018303711
 20
144.3366688029
 10
163.5942107613
 20
145.0912078165
 10
164.7793068163
 20
145.9291972733
 10
165.8463861227
 20
146.8430482111
 10
166.785785045
 20
147.8244846543
 10
167.5889962412
 20
148.8646185624
 10
168.2487457062
 20
149.9540303217
 10
168.7590586468
 20
151.0828540506
 10
169.1153135898
 20
152.2408669466
 10
169.3142842355
 20
153.4175818657
 10
169.3564732125
 20
154.5233561007
  0
LWPOLYLINE
  5
265
330
1F
100
AcDbEntity
  8
0
  6
Continuous
 62
     7
370
    25
100
AcDbPolyline
 90
       10
 70
   128
 43
0.0
 10
134.1388165206
 20
154.5233561007
 10
134.1411210583
 20
154.0096264074
 10
134.2606840251
 20
152.8275498413
 10
134.5386116171
 20
151.6588622071
 10
134.9723868792
 20
150.5141473209
 10
135.5580814753
 20
149.4037718981
 10
136.2903912645
 20
148.3377916703
 10
137.1626843359
 20
147.3258603197
 10
138.1670610685
 20
146.3771420532
 10
139.2944256709
 20
145.5002286104
  0
LINE
  5
266
330
1F
100
AcDbEntity
  8
0
  6
Continuous
 62
     8
370
    25
100
AcDbLine
 10
166.1442257343
 20
205.0411569326
 30
0.0
 11
166.1442257343
 21
205.3805675867
 31
0.0
  0
LINE
  5
267
330
1F
100
AcDbEntity
  8
0
  6
Continuous
 62
     8
370
    25
100
AcDbLine
 10
167.3126750552
 20
205.8147037443
 30
0.0
 11
167.3126750552
 21
205.419753165
 31
0.0
  0
LINE
  5
268
330
1F
100
AcDbEntity
  8
0
  6
Continuous
 62
     8
370
    25
100
AcDbLine
 10
137.568717841
 20
184.9566616589
 30
0.0
 11
137.568717841
 21
184.5795014734
 31
0.0
  0
LINE
  5
269
330
1F
100
AcDbEntity
  8
0
  6
Continuous
 62
     8
370
    25
100
AcDbLine
 10
136.2355137857
 20
184.5925813719
 30
0.0
 11
136.2355137857
 21
184.9697903398
 31
0.0
  0
LWPOLYLINE
  5
26A
330
1F
100
AcDbEntity
  8
0
  6
Continuous
 62
     8
370
    25
100
AcDbPolyline
 90
       29
 70
   128
 43
0.0
 10
162.1989929507
 20
187.807906829
 10
162.236441102
 20
188.1789180276
 10
162.2165331384
 20
189.0929424502
 10
162.0379275
 20
189.9983091282
 10
161.7033316663
 20
190.8812936256
 10
161.2178177689
 20
191.7285107975
 10
160.5887457037
 20
192.5271176952
 10
159.8256515619
 20
193.2650082522
 10
158.9401030729
 20
193.9309967997
 10
157.945524249
 20
194.5149876304
 10
156.8569918915
 20
195.0081280384
 10
155.6910070413
 20
195.4029425178
 10
154.4652448401
 20
195.6934460837
 10
153.1982865935
 20
195.875234998
 10
151.9093380971
 20
195.9455535262
 10
150.6179384961
 20
195.903335711
 10
149.3436640921
 20
195.7492215315
 10
148.1058315861
 20
195.4855472015
 10
146.9232052573
 20
195.1163097552
 10
145.8137125151
 20
194.6471064557
 10
144.7941721387
 20
194.0850499469
 10
143.8800393208
 20
193.4386604325
 10
143.0851713833
 20
192.7177365186
 10
142.4216177137
 20
191.933206677
 10
141.8994371093
 20
191.0969635802
 10
141.5265452958
 20
190.2216838213
 10
141.3085949329
 20
189.3206357491
 10
141.2488899261
 20
188.407478334
 10
141.2962967824
 20
187.807906829
  0
ENDSEC
  0
SECTION
  2
OBJECTS
  0
DICTIONARY
  5
C
330
0
100
AcDbDictionary
281
     1
  3
ACAD_GROUP
350
D
  3
ACAD_LAYOUT
350
1A
  3
ACAD_MLINESTYLE
350
17
  3
ACAD_PLOTSETTINGS
350
19
  3
ACAD_PLOTSTYLENAME
350
E
  3
ACAD_SCALELIST
350
47
  3
DWGPROPS
350
26B
  0
DICTIONARY
  5
D
102
{ACAD_REACTORS
330
C
102
}
330
C
100
AcDbDictionary
281
     1
  0
DICTIONARY
  5
1A
102
{ACAD_REACTORS
330
C
102
}
330
C
100
AcDbDictionary
281
     1
  3
Layout1
350
1E
  3
Layout2
350
26
  3
Model
350
22
  0
DICTIONARY
  5
17
102
{ACAD_REACTORS
330
C
102
}
330
C
100
AcDbDictionary
281
     1
  3
Standard
350
18
  0
DICTIONARY
  5
19
102
{ACAD_REACTORS
330
C
102
}
330
C
100
AcDbDictionary
281
     1
  0
ACDBDICTIONARYWDFLT
  5
E
102
{ACAD_REACTORS
330
C
102
}
330
C
100
AcDbDictionary
281
     1
  3
Normal
350
F
100
AcDbDictionaryWithDefault
340
F
  0
DICTIONARY
  5
47
102
{ACAD_REACTORS
330
C
102
}
330
C
100
AcDbDictionary
281
     1
  3
A0
350
48
  3
A1
350
49
  3
A2
350
4A
  3
A3
350
4B
  3
A4
350
4C
  3
A5
350
4D
  3
A6
350
4E
  3
A7
350
4F
  3
A8
350
50
  3
A9
350
51
  3
B0
350
52
  3
B1
350
53
  3
B2
350
54
  3
B3
350
55
  3
B4
350
56
  3
B5
350
57
  3
B6
350
58
  3
B7
350
59
  3
B8
350
5A
  3
B9
350
5B
  3
C0
350
5C
  3
C1
350
5D
  3
C2
350
5E
  3
C3
350
5F
  3
C4
350
60
  3
C5
350
61
  3
C6
350
62
  3
C7
350
63
  3
C8
350
64
  3
C9
350
65
  3
D0
350
66
  3
D1
350
67
  3
D2
350
68
  0
XRECORD
  5
26B
102
{ACAD_REACTORS
330
C
102
}
330
C
100
AcDbXrecord
280
     1
  1
DWGPROPS COOKIE
  2

  3

  4

  6

  7

  8
9128
  9

300
=
301
=
302
=
303
=
304
=
305
=
306
=
307
=
308
=
309
=
 40
0.0
 41
2460018.217651829
 42
2460018.21765206
  1

 90
        0
  0
LAYOUT
  5
1E
102
{ACAD_REACTORS
330
1A
102
}
330
1A
100
AcDbPlotSettings
  1

  2
none_device
  4

  6

 40
0.0
 41
0.0
 42
0.0
 43
0.0
 44
0.0
 45
0.0
 46
0.0
 47
0.0
 48
0.0
 49
0.0
140
0.0
141
0.0
142
1.0
143
1.0
 70
   688
 72
     1
 73
     0
 74
     5
  7

 75
    16
147
1.0
148
0.0
149
0.0
100
AcDbLayout
  1
Layout1
 70
     1
 71
     1
 10
0.0
 20
0.0
 11
420.0
 21
297.0
 12
0.0
 22
0.0
 32
0.0
 14
1.0000000000E+20
 24
1.0000000000E+20
 34
1.0000000000E+20
 15
-1.0000000000E+20
 25
-1.0000000000E+20
 35
-1.0000000000E+20
146
0.0
 13
0.0
 23
0.0
 33
0.0
 16
1.0
 26
0.0
 36
0.0
 17
0.0
 27
1.0
 37
0.0
 76
     0
330
1B
  0
LAYOUT
  5
26
102
{ACAD_REACTORS
330
1A
102
}
330
1A
100
AcDbPlotSettings
  1

  2
none_device
  4

  6

 40
0.0
 41
0.0
 42
0.0
 43
0.0
 44
0.0
 45
0.0
 46
0.0
 47
0.0
 48
0.0
 49
0.0
140
0.0
141
0.0
142
1.0
143
1.0
 70
   688
 72
     1
 73
     0
 74
     5
  7

 75
    16
147
1.0
148
0.0
149
0.0
100
AcDbLayout
  1
Layout2
 70
     1
 71
     2
 10
0.0
 20
0.0
 11
0.0
 21
0.0
 12
0.0
 22
0.0
 32
0.0
 14
0.0
 24
0.0
 34
0.0
 15
0.0
 25
0.0
 35
0.0
146
0.0
 13
0.0
 23
0.0
 33
0.0
 16
1.0
 26
0.0
 36
0.0
 17
0.0
 27
1.0
 37
0.0
 76
     0
330
23
  0
LAYOUT
  5
22
102
{ACAD_REACTORS
330
1A
102
}
330
1A
100
AcDbPlotSettings
  1

  2
none_device
  4
Letter_(8.50_x_11.00_Inches)
  6

 40
6.35
 41
6.35
 42
6.35000508
 43
6.35000508
 44
215.9
 45
279.4
 46
0.0
 47
0.0
 48
0.0
 49
0.0
140
0.0
141
0.0
142
1.0
143
1.0
 70
  1712
 72
     1
 73
     0
 74
     0
  7

 75
     0
147
1.0
148
0.0
149
0.0
100
AcDbLayout
  1
Model
 70
     1
 71
     0
 10
0.0
 20
0.0
 11
210.0
 21
297.0
 12
0.0
 22
0.0
 32
0.0
 14
0.0
 24
0.0
 34
0.0
 15
210.0
 25
297.0
 35
0.0
146
0.0
 13
0.0
 23
0.0
 33
0.0
 16
1.0
 26
0.0
 36
0.0
 17
0.0
 27
1.0
 37
0.0
 76
     0
330
1F
331
29
  0
MLINESTYLE
  5
18
102
{ACAD_REACTORS
330
17
102
}
330
17
100
AcDbMlineStyle
  2
Standard
 70
     0
  3

 62
   256
 51
90.0
 52
90.0
 71
     2
 49
0.5
 62
   256
  6
BYLAYER
 49
-0.5
 62
   256
  6
BYLAYER
  0
ACDBPLACEHOLDER
  5
F
102
{ACAD_REACTORS
330
E
102
}
330
E
  0
SCALE
  5
48
102
{ACAD_REACTORS
330
47
102
}
330
47
100
AcDbScale
 70
     0
300
1:1
140
1.0
141
1.0
290
     1
  0
SCALE
  5
49
102
{ACAD_REACTORS
330
47
102
}
330
47
100
AcDbScale
 70
     0
300
1:2
140
1.0
141
2.0
290
     0
  0
SCALE
  5
4A
102
{ACAD_REACTORS
330
47
102
}
330
47
100
AcDbScale
 70
     0
300
1:4
140
1.0
141
4.0
290
     0
  0
SCALE
  5
4B
102
{ACAD_REACTORS
330
47
102
}
330
47
100
AcDbScale
 70
     0
300
1:5
140
1.0
141
5.0
290
     0
  0
SCALE
  5
4C
102
{ACAD_REACTORS
330
47
102
}
330
47
100
AcDbScale
 70
     0
300
1:8
140
1.0
141
8.0
290
     0
  0
SCALE
  5
4D
102
{ACAD_REACTORS
330
47
102
}
330
47
100
AcDbScale
 70
     0
300
1:10
140
1.0
141
10.0
290
     0
  0
SCALE
  5
4E
102
{ACAD_REACTORS
330
47
102
}
330
47
100
AcDbScale
 70
     0
300
1:16
140
1.0
141
16.0
290
     0
  0
SCALE
  5
4F
102
{ACAD_REACTORS
330
47
102
}
330
47
100
AcDbScale
 70
     0
300
1:20
140
1.0
141
20.0
290
     0
  0
SCALE
  5
50
102
{ACAD_REACTORS
330
47
102
}
330
47
100
AcDbScale
 70
     0
300
1:30
140
1.0
141
30.0
290
     0
  0
SCALE
  5
51
102
{ACAD_REACTORS
330
47
102
}
330
47
100
AcDbScale
 70
     0
300
1:40
140
1.0
141
40.0
290
     0
  0
SCALE
  5
52
102
{ACAD_REACTORS
330
47
102
}
330
47
100
AcDbScale
 70
     0
300
1:50
140
1.0
141
50.0
290
     0
  0
SCALE
  5
53
102
{ACAD_REACTORS
330
47
102
}
330
47
100
AcDbScale
 70
     0
300
1:100
140
1.0
141
100.0
290
     0
  0
SCALE
  5
54
102
{ACAD_REACTORS
330
47
102
}
330
47
100
AcDbScale
 70
     0
300
2:1
140
2.0
141
1.0
290
     0
  0
SCALE
  5
55
102
{ACAD_REACTORS
330
47
102
}
330
47
100
AcDbScale
 70
     0
300
4:1
140
4.0
141
1.0
290
     0
  0
SCALE
  5
56
102
{ACAD_REACTORS
330
47
102
}
330
47
100
AcDbScale
 70
     0
300
8:1
140
8.0
141
1.0
290
     0
  0
SCALE
  5
57
102
{ACAD_REACTORS
330
47
102
}
330
47
100
AcDbScale
 70
     0
300
10:1
140
10.0
141
1.0
290
     0
  0
SCALE
  5
58
102
{ACAD_REACTORS
330
47
102
}
330
47
100
AcDbScale
 70
     0
300
100:1
140
100.0
141
1.0
290
     0
  0
SCALE
  5
59
102
{ACAD_REACTORS
330
47
102
}
330
47
100
AcDbScale
 70
     0
300
1/128" = 1'-0"
140
0.0078125
141
12.0
290
     0
  0
SCALE
  5
5A
102
{ACAD_REACTORS
330
47
102
}
330
47
100
AcDbScale
 70
     0
300
1/64" = 1'-0"
140
0.015625
141
12.0
290
     0
  0
SCALE
  5
5B
102
{ACAD_REACTORS
330
47
102
}
330
47
100
AcDbScale
 70
     0
300
1/32" = 1'-0"
140
0.03125
141
12.0
290
     0
  0
SCALE
  5
5C
102
{ACAD_REACTORS
330
47
102
}
330
47
100
AcDbScale
 70
     0
300
1/16" = 1'-0"
140
0.0625
141
12.0
290
     0
  0
SCALE
  5
5D
102
{ACAD_REACTORS
330
47
102
}
330
47
100
AcDbScale
 70
     0
300
3/32" = 1'-0"
140
0.09375
141
12.0
290
     0
  0
SCALE
  5
5E
102
{ACAD_REACTORS
330
47
102
}
330
47
100
AcDbScale
 70
     0
300
1/8" = 1'-0"
140
0.125
141
12.0
290
     0
  0
SCALE
  5
5F
102
{ACAD_REACTORS
330
47
102
}
330
47
100
AcDbScale
 70
     0
300
3/16" = 1'-0"
140
0.1875
141
12.0
290
     0
  0
SCALE
  5
60
102
{ACAD_REACTORS
330
47
102
}
330
47
100
AcDbScale
 70
     0
300
1/4" = 1'-0"
140
0.25
141
12.0
290
     0
  0
SCALE
  5
61
102
{ACAD_REACTORS
330
47
102
}
330
47
100
AcDbScale
 70
     0
300
3/8" = 1'-0"
140
0.375
141
12.0
290
     0
  0
SCALE
  5
62
102
{ACAD_REACTORS
330
47
102
}
330
47
100
AcDbScale
 70
     0
300
1/2" = 1'-0"
140
0.5
141
12.0
290
     0
  0
SCALE
  5
63
102
{ACAD_REACTORS
330
47
102
}
330
47
100
AcDbScale
 70
     0
300
3/4" = 1'-0"
140
0.75
141
12.0
290
     0
  0
SCALE
  5
64
102
{ACAD_REACTORS
330
47
102
}
330
47
100
AcDbScale
 70
     0
300
1" = 1'-0"
140
1.0
141
12.0
290
     0
  0
SCALE
  5
65
102
{ACAD_REACTORS
330
47
102
}
330
47
100
AcDbScale
 70
     0
300
1-1/2" = 1'-0"
140
1.5
141
12.0
290
     0
  0
SCALE
  5
66
102
{ACAD_REACTORS
330
47
102
}
330
47
100
AcDbScale
 70
     0
300
3" = 1'-0"
140
3.0
141
12.0
290
     0
  0
SCALE
  5
67
102
{ACAD_REACTORS
330
47
102
}
330
47
100
AcDbScale
 70
     0
300
6" = 1'-0"
140
6.0
141
12.0
290
     0
  0
SCALE
  5
68
102
{ACAD_REACTORS
330
47
102
}
330
47
100
AcDbScale
 70
     0
300
1'-0" = 1'-0"
140
12.0
141
12.0
290
     0
  0
ENDSEC
  0
EOF
