  0
SECTION
  2
HEADER
  9
$ACADVER
  1
AC1015
  9
$ACADMAINTVER
 70
     6
  9
$DWGCODEPAGE
  3
DOS932
  9
$INSBASE
 10
0.0
 20
0.0
 30
0.0
  9
$EXTMIN
 10
0.0
 20
0.0
 30
0.0
  9
$EXTMAX
 10
210.0
 20
297.0
 30
0.0
  9
$LIMMIN
 10
0.0
 20
0.0
  9
$LIMMAX
 10
210.0
 20
297.0
  9
$ORTHOMODE
 70
     0
  9
$REGENMODE
 70
     1
  9
$FILLMODE
 70
     1
  9
$QTEXTMODE
 70
     0
  9
$MIRRTEXT
 70
     1
  9
$LTSCALE
 40
1.0
  9
$ATTMODE
 70
     1
  9
$TEXTSIZE
 40
3.5
  9
$TRACEWID
 40
1.0
  9
$TEXTSTYLE
  7
STANDARD
  9
$CLAYER
  8
0
  9
$CELTYPE
  6
ByLayer
  9
$CECOLOR
 62
   256
  9
$CELTSCALE
 40
1.0
  9
$DISPSILH
 70
     0
  9
$DIMSCALE
 40
1.0
  9
$DIMASZ
 40
1.5
  9
$DIMEXO
 40
1.0
  9
$DIMDLI
 40
3.75
  9
$DIMRND
 40
0.0
  9
$DIMDLE
 40
0.0
  9
$DIMEXE
 40
1.0
  9
$DIMTP
 40
0.0
  9
$DIMTM
 40
0.0
  9
$DIMTXT
 40
3.5
  9
$DIMCEN
 40
2.5
  9
$DIMTSZ
 40
0.0
  9
$DIMTOL
 70
     0
  9
$DIMLIM
 70
     0
  9
$DIMTIH
 70
     1
  9
$DIMTOH
 70
     1
  9
$DIMSE1
 70
     0
  9
$DIMSE2
 70
     0
  9
$DIMTAD
 70
     1
  9
$DIMZIN
 70
     0
  9
$DIMBLK
  1

  9
$DIMASO
 70
     1
  9
$DIMSHO
 70
     1
  9
$DIMPOST
  1

  9
$DIMAPOST
  1

  9
$DIMALT
 70
     0
  9
$DIMALTD
 70
     3
  9
$DIMALTF
 40
0.0393700787
  9
$DIMLFAC
 40
5.0
  9
$DIMTOFL
 70
     1
  9
$DIMTVP
 40
0.0
  9
$DIMTIX
 70
     0
  9
$DIMSOXD
 70
     0
  9
$DIMSAH
 70
     0
  9
$DIMBLK1
  1

  9
$DIMBLK2
  1

  9
$DIMSTYLE
  2
ISO-25
  9
$DIMCLRD
 70
     0
  9
$DIMCLRE
 70
     0
  9
$DIMCLRT
 70
     0
  9
$DIMTFAC
 40
1.0
  9
$DIMGAP
 40
1.5
  9
$DIMJUST
 70
     0
  9
$DIMSD1
 70
     0
  9
$DIMSD2
 70
     0
  9
$DIMTOLJ
 70
     0
  9
$DIMTZIN
 70
     0
  9
$DIMALTZ
 70
     0
  9
$DIMALTTZ
 70
     0
  9
$DIMUPT
 70
     0
  9
$DIMDEC
 70
     1
  9
$DIMTDEC
 70
     1
  9
$DIMALTU
 70
     2
  9
$DIMALTTD
 70
     3
  9
$DIMTXSTY
  7
STANDARD
  9
$DIMAUNIT
 70
     0
  9
$DIMADEC
 70
     2
  9
$DIMALTRND
 40
0.0
  9
$DIMAZIN
 70
     0
  9
$DIMDSEP
 70
    44
  9
$DIMATFIT
 70
     3
  9
$DIMFRAC
 70
     0
  9
$DIMLDRBLK
  1

  9
$DIMLUNIT
 70
     2
  9
$DIMLWD
 70
    -2
  9
$DIMLWE
 70
    -2
  9
$DIMTMOVE
 70
     0
  9
$LUNITS
 70
     2
  9
$LUPREC
 70
     2
  9
$SKETCHINC
 40
1.0
  9
$FILLETRAD
 40
10.0
  9
$AUNITS
 70
     0
  9
$AUPREC
 70
     2
  9
$MENU
  1
.
  9
$ELEVATION
 40
0.0
  9
$PELEVATION
 40
0.0
  9
$THICKNESS
 40
0.0
  9
$LIMCHECK
 70
     0
  9
$CHAMFERA
 40
0.0
  9
$CHAMFERB
 40
0.0
  9
$CHAMFERC
 40
0.0
  9
$CHAMFERD
 40
0.0
  9
$SKPOLY
 70
     0
  9
$TDCREATE
 40
2459667.573243021
  9
$TDUCREATE
 40
2459667.198243021
  9
$TDUPDATE
 40
2459667.573243484
  9
$TDUUPDATE
 40
2459667.198243484
  9
$TDINDWG
 40
0.0000000116
  9
$TDUSRTIMER
 40
0.0000000116
  9
$USRTIMER
 70
     1
  9
$ANGBASE
 50
0.0
  9
$ANGDIR
 70
     0
  9
$PDMODE
 70
     0
  9
$PDSIZE
 40
-1.0
  9
$PLINEWID
 40
0.0
  9
$SPLFRAME
 70
     0
  9
$SPLINETYPE
 70
     6
  9
$SPLINESEGS
 70
     8
  9
$HANDSEED
  5
2E8
  9
$SURFTAB1
 70
     6
  9
$SURFTAB2
 70
     6
  9
$SURFTYPE
 70
     6
  9
$SURFU
 70
     6
  9
$SURFV
 70
     6
  9
$UCSBASE
  2

  9
$UCSNAME
  2

  9
$UCSORG
 10
0.0
 20
0.0
 30
0.0
  9
$UCSXDIR
 10
1.0
 20
0.0
 30
0.0
  9
$UCSYDIR
 10
0.0
 20
1.0
 30
0.0
  9
$UCSORTHOREF
  2

  9
$UCSORTHOVIEW
 70
     0
  9
$UCSORGTOP
 10
0.0
 20
0.0
 30
0.0
  9
$UCSORGBOTTOM
 10
0.0
 20
0.0
 30
0.0
  9
$UCSORGLEFT
 10
0.0
 20
0.0
 30
0.0
  9
$UCSORGRIGHT
 10
0.0
 20
0.0
 30
0.0
  9
$UCSORGFRONT
 10
0.0
 20
0.0
 30
0.0
  9
$UCSORGBACK
 10
0.0
 20
0.0
 30
0.0
  9
$PUCSBASE
  2

  9
$PUCSNAME
  2

  9
$PUCSORG
 10
0.0
 20
0.0
 30
0.0
  9
$PUCSXDIR
 10
1.0
 20
0.0
 30
0.0
  9
$PUCSYDIR
 10
0.0
 20
1.0
 30
0.0
  9
$PUCSORTHOREF
  2

  9
$PUCSORTHOVIEW
 70
     0
  9
$PUCSORGTOP
 10
0.0
 20
0.0
 30
0.0
  9
$PUCSORGBOTTOM
 10
0.0
 20
0.0
 30
0.0
  9
$PUCSORGLEFT
 10
0.0
 20
0.0
 30
0.0
  9
$PUCSORGRIGHT
 10
0.0
 20
0.0
 30
0.0
  9
$PUCSORGFRONT
 10
0.0
 20
0.0
 30
0.0
  9
$PUCSORGBACK
 10
0.0
 20
0.0
 30
0.0
  9
$USERI1
 70
     0
  9
$USERI2
 70
     0
  9
$USERI3
 70
     0
  9
$USERI4
 70
     0
  9
$USERI5
 70
     0
  9
$USERR1
 40
0.0
  9
$USERR2
 40
0.0
  9
$USERR3
 40
0.0
  9
$USERR4
 40
0.0
  9
$USERR5
 40
0.0
  9
$WORLDVIEW
 70
     1
  9
$SHADEDGE
 70
     3
  9
$SHADEDIF
 70
    70
  9
$TILEMODE
 70
     1
  9
$MAXACTVP
 70
    64
  9
$PINSBASE
 10
0.0
 20
0.0
 30
0.0
  9
$PLIMCHECK
 70
     0
  9
$PEXTMIN
 10
1.0000000000E+20
 20
1.0000000000E+20
 30
1.0000000000E+20
  9
$PEXTMAX
 10
-1.0000000000E+20
 20
-1.0000000000E+20
 30
-1.0000000000E+20
  9
$PLIMMIN
 10
0.0
 20
0.0
  9
$PLIMMAX
 10
420.0
 20
297.0
  9
$UNITMODE
 70
     0
  9
$VISRETAIN
 70
     1
  9
$PLINEGEN
 70
     0
  9
$PSLTSCALE
 70
     1
  9
$TREEDEPTH
 70
  3020
  9
$CMLSTYLE
  2
Standard
  9
$CMLJUST
 70
     0
  9
$CMLSCALE
 40
20.0
  9
$PROXYGRAPHICS
 70
     1
  9
$MEASUREMENT
 70
     1
  9
$CELWEIGHT
370
    -1
  9
$ENDCAPS
280
     0
  9
$JOINSTYLE
280
     0
  9
$LWDISPLAY
290
     1
  9
$INSUNITS
 70
     4
  9
$HYPERLINKBASE
  1

  9
$STYLESHEET
  1

  9
$XEDIT
290
     1
  9
$CEPSNTYPE
380
     0
  9
$PSTYLEMODE
290
     1
  9
$FINGERPRINTGUID
  2
{92c79c01-32ff-4c32-9bff-ae1b6c6c9009}
  9
$VERSIONGUID
  2
{FAEB1C32-E019-11D5-929B-00C0DF256EC4}
  9
$EXTNAMES
290
     1
  9
$PSVPSCALE
 40
0.0
  9
$OLESTARTUP
290
     0
  0
ENDSEC
  0
SECTION
  2
CLASSES
  0
CLASS
  1
ACDBDICTIONARYWDFLT
  2
AcDbDictionaryWithDefault
  3
ObjectDBX Classes
 90
        0
280
     0
281
     0
  0
CLASS
  1
VISUALSTYLE
  2
AcDbVisualStyle
  3
ObjectDBX Classes
 90
     4095
280
     0
281
     0
  0
CLASS
  1
MATERIAL
  2
AcDbMaterial
  3
ObjectDBX Classes
 90
     1153
280
     0
281
     0
  0
CLASS
  1
SCALE
  2
AcDbScale
  3
ObjectDBX Classes
 90
     1153
280
     0
281
     0
  0
CLASS
  1
TABLESTYLE
  2
AcDbTableStyle
  3
ObjectDBX Classes
 90
     4095
280
     0
281
     0
  0
CLASS
  1
MLEADERSTYLE
  2
AcDbMLeaderStyle
  3
ACDB_MLEADERSTYLE_CLASS
 90
     4095
280
     0
281
     0
  0
CLASS
  1
SUN
  2
AcDbSun
  3
SCENEOE
 90
     1153
280
     0
281
     0
  0
CLASS
  1
ACDBPLACEHOLDER
  2
AcDbPlaceHolder
  3
ObjectDBX Classes
 90
        0
280
     0
281
     0
  0
CLASS
  1
LAYOUT
  2
AcDbLayout
  3
ObjectDBX Classes
 90
        0
280
     0
281
     0
  0
ENDSEC
  0
SECTION
  2
TABLES
  0
TABLE
  2
VPORT
  5
8
330
0
100
AcDbSymbolTable
 70
     1
  0
VPORT
  5
29
330
8
100
AcDbSymbolTableRecord
100
AcDbViewportTableRecord
  2
*Active
 70
     0
 10
0.0
 20
0.0
 11
1.0
 21
1.0
 12
105.0
 22
148.5
 13
0.0
 23
0.0
 14
10.0
 24
10.0
 15
10.0
 25
10.0
 16
0.0
 26
0.0
 36
1.0
 17
0.0
 27
0.0
 37
0.0
 40
297.0
 41
0.7070707071
 42
50.0
 43
0.0
 44
0.0
 50
0.0
 51
0.0
 71
     0
 72
  2000
 73
     1
 74
     3
 75
     0
 76
     0
 77
     0
 78
     0
281
     0
 65
     1
110
0.0
120
0.0
130
0.0
111
1.0
121
0.0
131
0.0
112
0.0
122
1.0
132
0.0
 79
     0
146
0.0
  0
ENDTAB
  0
TABLE
  2
LTYPE
  5
5
330
0
100
AcDbSymbolTable
 70
     8
  0
LTYPE
  5
14
330
5
100
AcDbSymbolTableRecord
100
AcDbLinetypeTableRecord
  2
ByBlock
 70
     0
  3

 72
    65
 73
     0
 40
0.0
  0
LTYPE
  5
15
330
5
100
AcDbSymbolTableRecord
100
AcDbLinetypeTableRecord
  2
ByLayer
 70
     0
  3

 72
    65
 73
     0
 40
0.0
  0
LTYPE
  5
16
330
5
100
AcDbSymbolTableRecord
100
AcDbLinetypeTableRecord
  2
Continuous
 70
     0
  3
Solid line
 72
    65
 73
     0
 40
0.0
  0
LTYPE
  5
6E
330
5
100
AcDbSymbolTableRecord
100
AcDbLinetypeTableRecord
  2
SLD-実線
 70
     0
  3
SolidWorks Line Style
 72
    65
 73
     0
 40
0.0
  0
LTYPE
  5
6F
330
5
100
AcDbSymbolTableRecord
100
AcDbLinetypeTableRecord
  2
SLD-破線
 70
     0
  3
SolidWorks Line Style
 72
    65
 73
     2
 40
1.905
 49
1.27
 74
     0
 49
-0.635
 74
     0
  0
LTYPE
  5
70
330
5
100
AcDbSymbolTableRecord
100
AcDbLinetypeTableRecord
  2
SLD-2点鎖線
 70
     0
  3
SolidWorks Line Style
 72
    65
 73
     6
 40
12.7
 49
6.35
 74
     0
 49
-1.27
 74
     0
 49
1.27
 74
     0
 49
-1.27
 74
     0
 49
1.27
 74
     0
 49
-1.27
 74
     0
  0
LTYPE
  5
71
330
5
100
AcDbSymbolTableRecord
100
AcDbLinetypeTableRecord
  2
SLD-鎖線
 70
     0
  3
SolidWorks Line Style
 72
    65
 73
     4
 40
10.16
 49
6.35
 74
     0
 49
-1.27
 74
     0
 49
1.27
 74
     0
 49
-1.27
 74
     0
  0
LTYPE
  5
72
330
5
100
AcDbSymbolTableRecord
100
AcDbLinetypeTableRecord
  2
SLD-1点鎖線(中心線)
 70
     0
  3
SolidWorks Line Style
 72
    65
 73
     4
 40
34.29
 49
30.48
 74
     0
 49
-1.27
 74
     0
 49
1.27
 74
     0
 49
-1.27
 74
     0
  0
LTYPE
  5
73
330
5
100
AcDbSymbolTableRecord
100
AcDbLinetypeTableRecord
  2
SLD-点線
 70
     0
  3
SolidWorks Line Style
 72
    65
 73
     2
 40
0.635
 49
0.0
 74
     0
 49
-0.635
 74
     0
  0
LTYPE
  5
74
330
5
100
AcDbSymbolTableRecord
100
AcDbLinetypeTableRecord
  2
SLD-細-太鎖線(切断面)
 70
     0
  3
SolidWorks Line Style
 72
    65
 73
     4
 40
10.16
 49
6.35
 74
     0
 49
-1.27
 74
     0
 49
1.27
 74
     0
 49
-1.27
 74
     0
  0
ENDTAB
  0
TABLE
  2
LAYER
  5
2
330
0
100
AcDbSymbolTable
 70
     1
  0
LAYER
  5
10
330
2
100
AcDbSymbolTableRecord
100
AcDbLayerTableRecord
  2
0
 70
     0
 62
     7
  6
Continuous
370
    -3
390
F
  0
ENDTAB
  0
TABLE
  2
STYLE
  5
3
330
0
100
AcDbSymbolTable
 70
     2
  0
STYLE
  5
11
330
3
100
AcDbSymbolTableRecord
100
AcDbTextStyleTableRecord
  2
STANDARD
 70
     0
 40
0.0
 41
1.0
 50
0.0
 71
     0
 42
3.5
  3
MSGOTHIC.TTC
  4

1001
ACAD
1000
ＭＳ Ｐゴシック
1071
    32818
  0
STYLE
  5
78
330
3
100
AcDbSymbolTableRecord
100
AcDbTextStyleTableRecord
  2
SLDTEXTSTYLE0
 70
     0
 40
0.0
 41
1.0
 50
0.0
 71
     0
 42
3.5
  3
MSGOTHIC.TTC
  4

1001
ACAD
1000
ＭＳ Ｐゴシック
1071
      306
  0
ENDTAB
  0
TABLE
  2
VIEW
  5
6
330
0
100
AcDbSymbolTable
 70
     0
  0
ENDTAB
  0
TABLE
  2
UCS
  5
7
330
0
100
AcDbSymbolTable
 70
     0
  0
ENDTAB
  0
TABLE
  2
APPID
  5
9
330
0
100
AcDbSymbolTable
 70
     1
  0
APPID
  5
12
330
9
100
AcDbSymbolTableRecord
100
AcDbRegAppTableRecord
  2
ACAD
 70
     0
  0
ENDTAB
  0
TABLE
  2
DIMSTYLE
  5
A
330
0
100
AcDbSymbolTable
 70
     1
100
AcDbDimStyleTable
  0
DIMSTYLE
105
27
330
A
100
AcDbSymbolTableRecord
100
AcDbDimStyleTableRecord
  2
ISO-25
 70
     0
 41
2.5
 42
0.625
 43
3.75
 44
1.25
 73
     0
 74
     0
 77
     1
 78
     8
140
2.5
141
2.5
143
0.0393700787
147
0.625
171
     3
172
     1
178
     0
271
     2
272
     2
274
     3
278
    44
283
     0
284
     8
340
11
  0
ENDTAB
  0
TABLE
  2
BLOCK_RECORD
  5
1
330
0
100
AcDbSymbolTable
 70
     2
  0
BLOCK_RECORD
  5
1F
330
1
100
AcDbSymbolTableRecord
100
AcDbBlockTableRecord
  2
*Model_Space
340
22
  0
BLOCK_RECORD
  5
1B
330
1
100
AcDbSymbolTableRecord
100
AcDbBlockTableRecord
  2
*Paper_Space
340
1E
  0
BLOCK_RECORD
  5
23
330
1
100
AcDbSymbolTableRecord
100
AcDbBlockTableRecord
  2
*Paper_Space0
340
26
  0
BLOCK_RECORD
  5
75
330
1
100
AcDbSymbolTableRecord
100
AcDbBlockTableRecord
  2
SW_NOTE_0
340
0
102
{BLKREFS
331
7D
102
}
  0
ENDTAB
  0
ENDSEC
  0
SECTION
  2
BLOCKS
  0
BLOCK
  5
20
330
1F
100
AcDbEntity
  8
0
100
AcDbBlockBegin
  2
*Model_Space
 70
     0
 10
0.0
 20
0.0
 30
0.0
  3
*Model_Space
  1

  0
ENDBLK
  5
21
330
1F
100
AcDbEntity
  8
0
100
AcDbBlockEnd
  0
BLOCK
  5
1C
330
1B
100
AcDbEntity
 67
     1
  8
0
100
AcDbBlockBegin
  2
*Paper_Space
 70
     0
 10
0.0
 20
0.0
 30
0.0
  3
*Paper_Space
  1

  0
ENDBLK
  5
1D
330
1B
100
AcDbEntity
 67
     1
  8
0
100
AcDbBlockEnd
  0
BLOCK
  5
24
330
23
100
AcDbEntity
  8
0
100
AcDbBlockBegin
  2
*Paper_Space0
 70
     0
 10
0.0
 20
0.0
 30
0.0
  3
*Paper_Space0
  1

  0
ENDBLK
  5
25
330
23
100
AcDbEntity
  8
0
100
AcDbBlockEnd
  0
BLOCK
  5
76
330
75
100
AcDbEntity
  8
0
100
AcDbBlockBegin
  2
SW_NOTE_0
 70
     0
 10
0.0
 20
0.0
 30
0.0
  3
SW_NOTE_0
  1

  0
MTEXT
  5
79
330
75
100
AcDbEntity
  8
0
  6
Continuous
 62
     0
370
     0
100
AcDbMText
 10
0.0
 20
4.0727272727
 30
0.0
 40
3.5
 41
0.0
 71
     1
 72
     1
  1
HBD-D33S
  7
SLDTEXTSTYLE0
 73
     1
 44
1.0
  0
MTEXT
  5
7A
330
75
100
AcDbEntity
  8
0
  6
Continuous
 62
     0
370
     0
100
AcDbMText
 10
0.0
 20
-0.4272725336
 30
0.0
 40
3.5
 41
0.0
 71
     1
 72
     1
  1
HBD-D34S
  7
SLDTEXTSTYLE0
 73
     1
 44
1.0
  0
MTEXT
  5
7B
330
75
100
AcDbEntity
  8
0
  6
Continuous
 62
     0
370
     0
100
AcDbMText
 10
0.0
 20
-9.4272721461
 30
0.0
 40
3.5
 41
0.0
 71
     1
 72
     1
  1
HFF-D34S
  7
SLDTEXTSTYLE0
 73
     1
 44
1.0
  0
MTEXT
  5
7C
330
75
100
AcDbEntity
  8
0
  6
Continuous
 62
     0
370
     0
100
AcDbMText
 10
0.0
 20
-13.9272719524
 30
0.0
 40
3.5
 41
0.0
 71
     1
 72
     1
  1
HFF-D35S
  7
SLDTEXTSTYLE0
 73
     1
 44
1.0
  0
ENDBLK
  5
77
330
75
100
AcDbEntity
  8
0
100
AcDbBlockEnd
  0
ENDSEC
  0
SECTION
  2
ENTITIES
  0
INSERT
  5
7D
330
1F
100
AcDbEntity
  8
0
  6
Continuous
 62
     7
370
     0
100
AcDbBlockReference
  2
SW_NOTE_0
 10
155.1426800356
 20
114.3013034294
 30
0.0
  0
LINE
  5
7E
330
1F
100
AcDbEntity
  8
0
  6
SLD-実線
 62
     7
370
    25
100
AcDbLine
 10
64.6852232354
 20
199.1592206364
 30
0.0
 11
64.6852232354
 21
199.6895507223
 31
0.0
  0
LINE
  5
7F
330
1F
100
AcDbEntity
  8
0
  6
SLD-実線
 62
     7
370
    25
100
AcDbLine
 10
47.1852232354
 20
199.6895507223
 30
0.0
 11
47.1852232354
 21
199.1592206364
 31
0.0
  0
LINE
  5
80
330
1F
100
AcDbEntity
  8
0
  6
SLD-実線
 62
     7
370
    25
100
AcDbLine
 10
55.9358373627
 20
207.0081058945
 30
0.0
 11
55.935822384
 21
207.0081058952
 31
0.0
  0
LINE
  5
81
330
1F
100
AcDbEntity
  8
0
  6
SLD-実線
 62
     7
370
    25
100
AcDbLine
 10
55.9346240868
 20
207.0081058952
 30
0.0
 11
55.934609108
 21
207.0081058945
 31
0.0
  0
LINE
  5
82
330
1F
100
AcDbEntity
  8
0
  6
SLD-実線
 62
     7
370
    25
100
AcDbLine
 10
66.1852232354
 20
198.7172788981
 30
0.0
 11
66.1852232354
 21
199.7602614004
 31
0.0
  0
LINE
  5
83
330
1F
100
AcDbEntity
  8
0
  6
SLD-実線
 62
     7
370
    25
100
AcDbLine
 10
45.6852232354
 20
199.7602614004
 30
0.0
 11
45.6852232354
 21
198.7172788981
 31
0.0
  0
LINE
  5
84
330
1F
100
AcDbEntity
  8
0
  6
SLD-実線
 62
     7
370
    25
100
AcDbLine
 10
66.1852232354
 20
197.4621643615
 30
0.0
 11
66.1852232354
 21
198.3283701685
 31
0.0
  0
LINE
  5
85
330
1F
100
AcDbEntity
  8
0
  6
SLD-実線
 62
     7
370
    25
100
AcDbLine
 10
45.6852232354
 20
198.3283701685
 30
0.0
 11
45.6852232354
 21
197.4605011521
 31
0.0
  0
LINE
  5
86
330
1F
100
AcDbEntity
  8
0
  6
SLD-実線
 62
     7
370
    25
100
AcDbLine
 10
78.0447891032
 20
222.1873952294
 30
0.0
 11
78.0447891032
 21
221.7808088302
 31
0.0
  0
LINE
  5
87
330
1F
100
AcDbEntity
  8
0
  6
SLD-実線
 62
     7
370
    25
100
AcDbLine
 10
76.95917102
 20
221.7808088302
 30
0.0
 11
76.95917102
 21
222.1873952294
 31
0.0
  0
LINE
  5
88
330
1F
100
AcDbEntity
  8
0
  6
SLD-実線
 62
     7
370
    25
100
AcDbLine
 10
34.9112754508
 20
191.6873952294
 30
0.0
 11
34.9112754508
 21
191.2808088303
 31
0.0
  0
LINE
  5
89
330
1F
100
AcDbEntity
  8
0
  6
SLD-実線
 62
     7
370
    25
100
AcDbLine
 10
33.8256573676
 20
191.2808088303
 30
0.0
 11
33.8256573676
 21
191.6873952294
 31
0.0
  0
LINE
  5
8A
330
1F
100
AcDbEntity
  8
0
  6
SLD-実線
 62
     7
370
    25
100
AcDbLine
 10
19.9930436893
 20
198.3840559706
 30
0.0
 11
18.4454292299
 21
135.6995594597
 31
0.0
  0
LINE
  5
8B
330
1F
100
AcDbEntity
  8
0
  6
SLD-実線
 62
     7
370
    25
100
AcDbLine
 10
93.4250172409
 20
135.6995594597
 30
0.0
 11
91.8774027814
 21
198.3840559706
 31
0.0
  0
LINE
  5
8C
330
1F
100
AcDbEntity
  8
0
  6
SLD-実線
 62
     7
370
    25
100
AcDbLine
 10
27.360017644
 20
134.330980124
 30
0.0
 11
26.2993574722
 21
133.580980124
 31
0.0
  0
LINE
  5
8D
330
1F
100
AcDbEntity
  8
0
  6
SLD-実線
 62
     7
370
    25
100
AcDbLine
 10
85.5710889986
 20
133.580980124
 30
0.0
 11
84.5104288268
 21
134.330980124
 31
0.0
  0
LINE
  5
8E
330
1F
100
AcDbEntity
  8
0
  6
SLD-実線
 62
     7
370
    25
100
AcDbLine
 10
26.6383298075
 20
128.9876398195
 30
0.0
 11
25.5776696357
 21
128.2376398195
 31
0.0
  0
LINE
  5
8F
330
1F
100
AcDbEntity
  8
0
  6
SLD-実線
 62
     7
370
    25
100
AcDbLine
 10
86.292776835
 20
128.2376398195
 30
0.0
 11
85.2321166633
 21
128.9876398195
 31
0.0
  0
LINE
  5
90
330
1F
100
AcDbEntity
  8
0
  6
SLD-実線
 62
     7
370
    25
100
AcDbLine
 10
32.2171977314
 20
118.8479291389
 30
0.0
 11
33.2778579032
 21
119.5979291389
 31
0.0
  0
LINE
  5
91
330
1F
100
AcDbEntity
  8
0
  6
SLD-実線
 62
     7
370
    25
100
AcDbLine
 10
78.5925885676
 20
119.5979291389
 30
0.0
 11
79.6532487394
 21
118.8479291389
 31
0.0
  0
LINE
  5
92
330
1F
100
AcDbEntity
  8
0
  6
SLD-実線
 62
     7
370
    25
100
AcDbLine
 10
55.9374685702
 20
232.8175033733
 30
0.0
 11
55.9374103073
 21
232.8175033758
 31
0.0
  0
LINE
  5
93
330
1F
100
AcDbEntity
  8
0
  6
SLD-実線
 62
     7
370
    25
100
AcDbLine
 10
55.9330361634
 20
232.8175033758
 30
0.0
 11
55.9329779006
 21
232.8175033733
 31
0.0
  0
LINE
  5
94
330
1F
100
AcDbEntity
  8
0
  6
SLD-実線
 62
     7
370
    25
100
AcDbLine
 10
93.3836895385
 20
207.3371168386
 30
0.0
 11
93.3560744116
 21
207.7091991773
 31
0.0
  0
LINE
  5
95
330
1F
100
AcDbEntity
  8
0
  6
SLD-実線
 62
     7
370
    25
100
AcDbLine
 10
18.5143720592
 20
207.7091991773
 30
0.0
 11
18.4867569323
 21
207.3371168386
 31
0.0
  0
LWPOLYLINE
  5
96
330
1F
100
AcDbEntity
  8
0
  6
SLD-実線
 62
     7
370
    25
100
AcDbPolyline
 90
       12
 70
   128
 43
0.0
 10
70.0738717215
 20
213.6468829183
 10
71.3357103501
 20
212.666769577
 10
72.4622089442
 20
211.6074108168
 10
73.4434677937
 20
210.4781163206
 10
74.2708635604
 20
209.2888103689
 10
74.9371250607
 20
208.0499446253
 10
75.4363971645
 20
206.7724062865
 10
75.7642922506
 20
205.4674224052
 10
75.9179287653
 20
204.1464612269
 10
75.8959565452
 20
202.8211314057
 10
75.6985686831
 20
201.5030799879
 10
75.4845519782
 20
200.6806362037
  0
LWPOLYLINE
  5
97
330
1F
100
AcDbEntity
  8
0
  6
SLD-実線
 62
     7
370
    25
100
AcDbPolyline
 90
       29
 70
   128
 43
0.0
 10
36.3858944926
 20
200.6806362037
 10
36.2484638784
 20
201.1760646404
 10
36.0074331591
 20
202.4904818574
 10
35.9415285755
 20
203.8150832378
 10
36.0513292995
 20
205.1382281371
 10
36.3358703983
 20
206.4482887103
 10
36.7926513146
 20
207.7337520981
 10
37.4176578412
 20
208.9833216019
 10
38.2053973984
 20
210.1860159601
 10
39.1489473025
 20
211.3312658513
 10
40.240015603
 20
212.4090067783
 10
41.4690139526
 20
213.4097675152
 10
42.8251418695
 20
214.3247533405
 10
44.2964816528
 20
215.145923326
 10
45.8701031157
 20
215.8660610003
 10
47.532177216
 20
216.4788377675
 10
49.2680975869
 20
216.9788685236
 10
51.0626088978
 20
217.3617589801
 10
52.8999409186
 20
217.624144282
 10
54.7639471096
 20
217.7637185778
 10
56.6382465173
 20
217.7792552836
 10
58.5063677311
 20
217.6706178622
 10
60.3518936346
 20
217.4387610233
 10
62.1586056799
 20
217.085722333
 10
63.9106264164
 20
216.6146043082
 10
65.5925590231
 20
216.0295471508
 10
67.1896226156
 20
215.3356923642
 10
68.6877821416
 20
214.5391375693
 10
70.0738717215
 20
213.6468829183
  0
LWPOLYLINE
  5
98
330
1F
100
AcDbEntity
  8
0
  6
SLD-実線
 62
     7
370
    25
100
AcDbPolyline
 90
        3
 70
   128
 43
0.0
 10
47.3090840274
 20
198.1218628476
 10
47.2030749789
 20
198.7641973288
 10
47.1852232354
 20
199.1592206364
  0
LWPOLYLINE
  5
99
330
1F
100
AcDbEntity
  8
0
  6
SLD-実線
 62
     7
370
    25
100
AcDbPolyline
 90
        3
 70
   128
 43
0.0
 10
64.6852232354
 20
199.1592206364
 10
64.6579946162
 20
198.671491491
 10
64.5613624434
 20
198.1218628475
  0
LWPOLYLINE
  5
9A
330
1F
100
AcDbEntity
  8
0
  6
SLD-実線
 62
     7
370
    25
100
AcDbPolyline
 90
       30
 70
   128
 43
0.0
 10
47.3714594603
 20
198.4198164972
 10
47.2030749789
 20
199.2945274147
 10
47.2124518546
 20
200.1772798676
 10
47.3993992012
 20
201.0501035616
 10
47.7601113098
 20
201.8952303233
 10
48.2872451222
 20
202.695455809
 10
48.970069714
 20
203.4344897354
 10
49.7946847457
 20
204.097287503
 10
50.7443034332
 20
204.6703564606
 10
51.7995942784
 20
205.1420305769
 10
52.9390746031
 20
205.502707927
 10
54.1395478737
 20
205.7450461601
 10
55.3765759164
 20
205.8641119687
 10
56.6249764075
 20
205.8574815164
 10
57.8593355131
 20
205.7252897799
 10
59.0545252414
 20
205.4702278018
 10
60.1862149762
 20
205.0974879085
 10
61.231366778
 20
204.6146580092
 10
62.1687043701
 20
204.0315671285
 10
62.9791462621
 20
203.360085315
 10
63.6461941944
 20
202.6138820022
 10
64.1562689945
 20
201.8081477376
 10
64.4989870105
 20
200.9592849473
 10
64.6673714919
 20
200.0845740298
 10
64.6579946162
 20
199.2018215769
 10
64.4710472696
 20
198.3289978829
 10
64.1103351609
 20
197.4838711212
 10
63.5832013486
 20
196.6836456356
 10
62.9003767567
 20
195.9446117092
 10
62.1452217604
 20
195.3307424953
  0
ARC
  5
9B
330
1F
100
AcDbEntity
  8
0
  6
SLD-実線
 62
     7
370
    25
100
AcDbCircle
 10
53.1187957201
 20
200.3578036882
 30
0.0
 40
6.065283870929612
100
AcDbArc
 50
198.633975658
 51
235.9782642647
  0
LWPOLYLINE
  5
9C
330
1F
100
AcDbEntity
  8
0
  6
SLD-実線
 62
     7
370
    25
100
AcDbPolyline
 90
       43
 70
   128
 43
0.0
 10
48.1054963553
 20
198.5286508594
 10
47.9482562552
 20
199.3667826492
 10
47.9694317994
 20
200.2121245443
 10
48.1685499612
 20
201.0457930039
 10
48.54116277
 20
201.8491652519
 10
49.0789466711
 20
202.6042952801
 10
49.7698884611
 20
203.2943147313
 10
50.598553642
 20
203.9038097112
 10
51.5464312031
 20
204.4191651092
 10
52.5923471259
 20
204.8288687372
 10
53.7129373771
 20
205.1237684932
 10
54.8831698221
 20
205.297276804
 10
56.0769034019
 20
205.3455177806
 10
57.2674720809
 20
205.2674137994
 10
58.4282805221
 20
205.0647095741
 10
59.5333981833
 20
204.7419331823
 10
60.5581385619
 20
204.3062949151
 10
61.4796106512
 20
203.7675262116
 10
62.2772302875
 20
203.1376622743
 10
62.9331799661
 20
202.4307732228
 10
63.4328068551
 20
201.6626497904
 10
63.7649501155
 20
200.8504505852
 10
63.9221902155
 20
200.0123187954
 10
63.9010146713
 20
199.1669769002
 10
63.7018965095
 20
198.3333084407
 10
63.3292837008
 20
197.5299361926
 10
62.7914997996
 20
196.7748061645
 10
62.1005580096
 20
196.0847867133
 10
61.2718928287
 20
195.4752917333
 10
60.3240152677
 20
194.9599363354
 10
59.2780993449
 20
194.5502327074
 10
58.1575090937
 20
194.2553329513
 10
56.9872766487
 20
194.0818246405
 10
55.7935430689
 20
194.0335836639
 10
54.6029743899
 20
194.1116876452
 10
53.4421659486
 20
194.3143918704
 10
52.3370482875
 20
194.6371682623
 10
51.3123079089
 20
195.0728065294
 10
50.3908358196
 20
195.6115752329
 10
49.5932161833
 20
196.2414391702
 10
48.9372665047
 20
196.9483282217
 10
48.4376396156
 20
197.7164516542
 10
48.1054963553
 20
198.5286508594
  0
LWPOLYLINE
  5
9D
330
1F
100
AcDbEntity
  8
0
  6
SLD-実線
 62
     7
370
    25
100
AcDbPolyline
 90
       23
 70
   128
 43
0.0
 10
47.9391304395
 20
199.5127740255
 10
47.9694317994
 20
199.8585711537
 10
48.1685499612
 20
200.6922396133
 10
48.54116277
 20
201.4956118614
 10
49.0789466711
 20
202.2507418895
 10
49.7698884611
 20
202.9407613407
 10
50.598553642
 20
203.5502563206
 10
51.5464312031
 20
204.0656117186
 10
52.5923471259
 20
204.4753153466
 10
53.7129373771
 20
204.7702151026
 10
54.8831698221
 20
204.9437234134
 10
56.0769034019
 20
204.99196439
 10
57.2674720809
 20
204.9138604088
 10
58.4282805221
 20
204.7111561835
 10
59.5333981833
 20
204.3883797917
 10
60.5581385619
 20
203.9527415245
 10
61.4796106512
 20
203.413972821
 10
62.2772302875
 20
202.7841088837
 10
62.9331799661
 20
202.0772198322
 10
63.4328068551
 20
201.3090963998
 10
63.7649501155
 20
200.4968971946
 10
63.9221902155
 20
199.6587654048
 10
63.9313160313
 20
199.5127740266
  0
ARC
  5
9E
330
1F
100
AcDbEntity
  8
0
  6
SLD-実線
 62
     7
370
    25
100
AcDbCircle
 10
55.9352232354
 20
193.9189132012
 30
0.0
 40
10.93042411966625
100
AcDbArc
 50
55.8062014426
 51
124.1937985598
  0
LWPOLYLINE
  5
9F
330
1F
100
AcDbEntity
  8
0
  6
SLD-実線
 62
     7
370
    25
100
AcDbPolyline
 90
       22
 70
   128
 43
0.0
 10
63.9107718059
 20
199.247608984
 10
63.8959517497
 20
199.3654893254
 10
63.6890390384
 20
200.1982081774
 10
63.3089188949
 20
200.9998199661
 10
62.7640825751
 20
201.7524180088
 10
62.0667008219
 20
202.4391905088
 10
61.2323519914
 20
203.0447961034
 10
60.2796740577
 20
203.5557065642
 10
59.2299482717
 20
203.9605089958
 10
58.1066237727
 20
204.2501607808
 10
56.9347937739
 20
204.4181915771
 10
55.7406350209
 20
204.4608478542
 10
54.5508230471
 20
204.3771767414
 10
53.3919362859
 20
204.1690473131
 10
52.2898623525
 20
203.8411088368
 10
51.2692197574
 20
203.4006869162
 10
50.3528079697
 20
202.8576198492
 10
49.5610981143
 20
202.2240388567
 10
48.9117756812
 20
201.5140970911
 10
48.4193454606
 20
200.7436534783
 10
48.0948075299
 20
199.9299184555
 10
47.9596746649
 20
199.247608984
  0
LWPOLYLINE
  5
A0
330
1F
100
AcDbEntity
  8
0
  6
SLD-実線
 62
     7
370
    25
100
AcDbPolyline
 90
       48
 70
   128
 43
0.0
 10
48.8641554234
 20
204.937038096
 10
49.8697282096
 20
205.5588603136
 10
50.9835398982
 20
206.0803609806
 10
52.1857144933
 20
206.4922339052
 10
53.4547991608
 20
206.7871292053
 10
54.7681470546
 20
206.9597844672
 10
56.1023214505
 20
207.0071186538
 10
57.4335139748
 20
206.9282870853
 10
58.7379694653
 20
206.724696513
 10
59.992409883
 20
206.3999800154
 10
61.1744497089
 20
205.9599321661
 10
62.2629954142
 20
205.4124056295
 10
63.238621875
 20
204.7671710296
 10
64.0839190142
 20
204.035742593
 10
64.7838024841
 20
203.2311726775
 10
65.3257828476
 20
202.3678188524
 10
65.7001884525
 20
201.4610876871
 10
65.9003380217
 20
200.5271598208
 10
65.9226598814
 20
199.5827012183
 10
65.7667556976
 20
198.6445657658
 10
65.4354075841
 20
197.7294945126
 10
64.9345284559
 20
196.8538169269
 10
64.2730565128
 20
196.0331594961
 10
63.4627957373
 20
195.2821668714
 10
62.5182052522
 20
194.6142405339
 10
61.456141297
 20
194.041299645
 10
60.2955564283
 20
193.5735683485
 10
59.0571613104
 20
193.2193933203
 10
57.7630551336
 20
192.9850948223
 10
56.4363312533
 20
192.8748539168
 10
55.1006650885
 20
192.8906378552
 10
53.7798916336
 20
193.0321649728
 10
52.4975801223
 20
193.2969097149
 10
51.2766134337
 20
193.6801477052
 10
50.1387797474
 20
194.1750400529
 10
49.1043837325
 20
194.772755392
 10
48.1918842103
 20
195.4626274784
 10
47.4175647564
 20
196.2323455283
 10
46.7952431199
 20
197.0681739048
 10
46.3360246451
 20
197.9551972307
 10
46.0481040966
 20
198.8775865538
 10
45.9366194233
 20
199.8188818148
 10
46.0035600719
 20
200.7622855775
 10
46.247731485
 20
201.6909627792
 10
46.6647764178
 20
202.5883411535
 10
47.2472526937
 20
203.4384069618
 10
47.9847660098
 20
204.2259907598
 10
48.8641554234
 20
204.937038096
  0
LWPOLYLINE
  5
A1
330
1F
100
AcDbEntity
  8
0
  6
SLD-実線
 62
     7
370
    25
100
AcDbPolyline
 90
       49
 70
   128
 43
0.0
 10
63.1830677425
 20
204.8852614004
 10
64.0670949734
 20
204.1724695798
 10
64.8119836242
 20
203.384183654
 10
65.4049884436
 20
202.5338914136
 10
65.8359629548
 20
201.6361415948
 10
66.0975330645
 20
200.7062949457
 10
66.1852232354
 20
199.7602614004
 10
66.0975330645
 20
198.8142278551
 10
65.8359629548
 20
197.884381206
 10
65.4049884436
 20
196.9866313871
 10
64.8119836242
 20
196.1363391468
 10
64.0670949734
 20
195.348053221
 10
63.1830677425
 20
194.6352614004
 10
62.1750278827
 20
194.0101597507
 10
61.0602232354
 20
193.4834439345
 10
59.8577284171
 20
193.0641262054
 10
58.5881184477
 20
192.759381206
 10
57.2731167056
 20
192.5744232077
 10
55.9352232354
 20
192.5124168932
 10
54.5973297651
 20
192.5744232077
 10
53.2823280231
 20
192.759381206
 10
52.0127180536
 20
193.0641262054
 10
50.8102232354
 20
193.4834439345
 10
49.695418588
 20
194.0101597507
 10
48.6873787282
 20
194.6352614004
 10
47.8033514974
 20
195.348053221
 10
47.0584628466
 20
196.1363391468
 10
46.4654580271
 20
196.9866313871
 10
46.0344835159
 20
197.884381206
 10
45.7729134063
 20
198.8142278551
 10
45.6852232354
 20
199.7602614004
 10
45.7729134063
 20
200.7062949457
 10
46.0344835159
 20
201.6361415948
 10
46.4654580271
 20
202.5338914136
 10
47.0584628466
 20
203.384183654
 10
47.8033514974
 20
204.1724695798
 10
48.6873787282
 20
204.8852614004
 10
49.695418588
 20
205.5103630501
 10
50.8102232354
 20
206.0370788663
 10
52.0127180536
 20
206.4563965954
 10
53.2823280231
 20
206.7611415948
 10
54.5973297651
 20
206.9460995931
 10
55.9352232354
 20
207.0081059076
 10
57.2731167056
 20
206.9460995931
 10
58.5881184477
 20
206.7611415948
 10
59.8577284171
 20
206.4563965954
 10
61.0602232354
 20
206.0370788663
 10
62.1750278827
 20
205.5103630501
 10
63.1830677425
 20
204.8852614004
  0
ARC
  5
A2
330
1F
100
AcDbEntity
  8
0
  6
SLD-実線
 62
     7
370
    25
100
AcDbCircle
 10
55.0467237606
 20
202.7614875179
 30
0.0
 40
11.15865834025399
100
AcDbArc
 50
235.256587012
 51
252.9698213539
  0
LWPOLYLINE
  5
A3
330
1F
100
AcDbEntity
  8
0
  6
SLD-実線
 62
     7
370
    25
100
AcDbPolyline
 90
       10
 70
   128
 43
0.0
 10
60.0918188541
 20
192.0921293579
 10
61.0602232354
 20
192.4404614323
 10
62.1750278827
 20
192.9671772485
 10
63.1830677425
 20
193.5922788981
 10
64.0670949734
 20
194.3050707187
 10
64.8119836242
 20
195.0933566446
 10
65.4049884436
 20
195.9436488849
 10
65.8359629548
 20
196.8413987037
 10
66.0975330645
 20
197.7712453528
 10
66.1852232354
 20
198.7172788981
  0
ARC
  5
A4
330
1F
100
AcDbEntity
  8
0
  6
SLD-実線
 62
     7
370
    25
100
AcDbCircle
 10
52.1119864189
 20
199.0401786232
 30
0.0
 40
6.434869792712441
100
AcDbArc
 50
182.8762919882
 51
237.8460948215
  0
LWPOLYLINE
  5
A5
330
1F
100
AcDbEntity
  8
0
  6
SLD-実線
 62
     7
370
    25
100
AcDbPolyline
 90
       46
 70
   128
 43
0.0
 10
62.2991842661
 20
204.4370380958
 10
61.3515584438
 20
205.0195233595
 10
60.2985098176
 20
205.5030838287
 10
59.1605347813
 20
205.8783075491
 10
57.9597827245
 20
206.1378912176
 10
56.7196249201
 20
206.2767823335
 10
55.4641996292
 20
206.2922775391
 10
54.217942277
 20
206.184075238
 10
53.0051098453
 20
205.9542814647
 10
51.8493087377
 20
205.6073688939
 10
50.7730353082
 20
205.1500897839
 10
49.7972379948
 20
204.5913445526
 10
48.9409095823
 20
203.9420085403
 10
48.2207175291
 20
203.2147203339
 10
47.6506795543
 20
202.423635771
 10
47.2418907988
 20
201.5841524129
 10
47.0023078706
 20
200.7126098481
 10
46.936593979
 20
199.8259716614
 10
47.04602817
 20
198.9414952565
 10
47.3284804317
 20
198.0763959605
 10
47.7784531521
 20
197.2475119473
 10
48.3871881239
 20
196.4709765012
 10
49.1428370134
 20
195.7619040015
 10
50.0306919745
 20
195.1340957378
 10
51.0334719202
 20
194.5997712839
 10
52.1316588797
 20
194.1693306573
 10
53.3038778929
 20
193.8511518954
 10
54.52731305
 20
193.6514279858
 10
55.7781515774
 20
193.5740463273
 10
57.032047326
 20
193.6205130657
 10
58.2645946413
 20
193.7899237788
 10
59.4518033918
 20
194.0789810799
 10
60.5705659096
 20
194.4820587974
 10
61.5991067548
 20
194.991311482
 10
62.51740655
 20
195.5968271094
 10
63.307591634
 20
196.2868200068
 10
63.9542819531
 20
197.0478602472
 10
64.4448904158
 20
197.8651350481
 10
64.7698678864
 20
198.722737085
 10
64.9228890482
 20
199.6039741098
 10
64.9009755182
 20
200.4916938463
 10
64.7045538185
 20
201.3686178395
 10
64.3374470739
 20
202.2176777614
 10
63.8068005996
 20
203.0223476264
 10
63.1229428258
 20
203.7669654509
 10
62.2991842661
 20
204.4370380958
  0
ARC
  5
A6
330
1F
100
AcDbEntity
  8
0
  6
SLD-実線
 62
     7
370
    25
100
AcDbCircle
 10
52.1119864189
 20
198.6512698935
 30
0.0
 40
6.434869792712333
100
AcDbArc
 50
182.8762919882
 51
237.8460948215
  0
LWPOLYLINE
  5
A7
330
1F
100
AcDbEntity
  8
0
  6
SLD-実線
 62
     7
370
    25
100
AcDbPolyline
 90
        9
 70
   128
 43
0.0
 10
66.1852232354
 20
198.3283701685
 10
66.0975330645
 20
197.3823366232
 10
65.8359629548
 20
196.4524899741
 10
65.4049884436
 20
195.5547401552
 10
64.8119836242
 20
194.7044479149
 10
64.0670949734
 20
193.9161619891
 10
63.1830677425
 20
193.2033701685
 10
62.1750278827
 20
192.5782685188
 10
61.7920673871
 20
192.3802664126
  0
LWPOLYLINE
  5
A8
330
1F
100
AcDbEntity
  8
0
  6
SLD-実線
 62
     7
370
    25
100
AcDbPolyline
 90
        3
 70
   128
 43
0.0
 10
50.0783790837
 20
192.3802664126
 10
49.695418588
 20
192.5782685188
 10
48.6873787282
 20
193.2033701685
  0
ARC
  5
A9
330
1F
100
AcDbEntity
  8
0
  6
SLD-実線
 62
     7
370
    25
100
AcDbCircle
 10
51.8266662166
 20
199.0872671196
 30
0.0
 40
4.89635893154664
100
AcDbArc
 50
150.2591376194
 51
174.5991282602
  0
ARC
  5
AA
330
1F
100
AcDbEntity
  8
0
  6
SLD-実線
 62
     7
370
    25
100
AcDbCircle
 10
60.0780371711
 20
199.0981148856
 30
0.0
 40
4.861238970005273
100
AcDbArc
 50
5.3115881684
 51
29.8301459524
  0
SPLINE
  5
AB
330
1F
100
AcDbEntity
  8
0
  6
SLD-実線
 62
     7
370
    25
100
AcDbSpline
210
0.0
220
0.0
230
1.0
 70
     8
 71
     3
 72
    12
 73
     8
 74
     0
 42
0.00000001
 43
0.00000001
 40
0.0
 40
0.0
 40
0.0
 40
0.0
 40
0.1423816645559005
 40
0.2840529570645837
 40
0.486208462195472
 40
0.7625088919629911
 40
1.0
 40
1.0
 40
1.0
 40
1.0
 10
66.16848894953823
 20
196.7653332292221
 30
0.0
 10
66.16872498186957
 20
196.793476107121
 30
0.0
 10
66.16919586891734
 20
196.8496214521865
 30
0.0
 10
66.17277158015463
 20
196.9710419715572
 30
0.0
 10
66.17818929389958
 20
197.1270483426815
 30
0.0
 10
66.18362203278646
 20
197.2971087000199
 30
0.0
 10
66.18468249851878
 20
197.3944200975104
 30
0.0
 10
66.18517268016498
 20
197.4394005806717
 30
0.0
  0
LINE
  5
AC
330
1F
100
AcDbEntity
  8
0
  6
SLD-実線
 62
     7
370
    25
100
AcDbLine
 10
66.1684889495
 20
196.7653332292
 30
0.0
 11
66.1684889495
 21
193.6377978927
 31
0.0
  0
LINE
  5
AD
330
1F
100
AcDbEntity
  8
0
  6
SLD-実線
 62
     7
370
    25
100
AcDbLine
 10
45.7078964051
 20
196.6975094939
 30
0.0
 11
45.7078964051
 21
193.6355260161
 31
0.0
  0
SPLINE
  5
AE
330
1F
100
AcDbEntity
  8
0
  6
SLD-実線
 62
     7
370
    25
100
AcDbSpline
210
0.0
220
0.0
230
1.0
 70
     8
 71
     3
 72
    12
 73
     8
 74
     0
 42
0.00000001
 43
0.00000001
 40
0.0
 40
0.0
 40
0.0
 40
0.0
 40
0.3567829292189841
 40
0.5848440446669617
 40
0.759519737498149
 40
0.8995430745106262
 40
1.0
 40
1.0
 40
1.0
 40
1.0
 10
45.68579372591023
 20
197.3856962952455
 30
0.0
 10
45.68748718273773
 20
197.3149609070683
 30
0.0
 10
45.69026312311873
 20
197.1990103748689
 30
0.0
 10
45.69855696120943
 20
197.0087099750594
 30
0.0
 10
45.70425130263634
 20
196.8681072582977
 30
0.0
 10
45.70742302912504
 20
196.764461476609
 30
0.0
 10
45.70775692513999
 20
196.7172368530183
 30
0.0
 10
45.70789640505716
 20
196.6975094939247
 30
0.0
  0
ARC
  5
AF
330
1F
100
AcDbEntity
  8
0
  6
SLD-実線
 62
     7
370
    25
100
AcDbCircle
 10
50.8103988082
 20
197.462164468
 30
0.0
 40
5.125175570707563
100
AcDbArc
 50
179.7455176429
 51
180.8548909345
  0
LINE
  5
B0
330
1F
100
AcDbEntity
  8
0
  6
SLD-実線
 62
     7
370
    25
100
AcDbLine
 10
45.7019575212
 20
196.9208547471
 30
0.0
 11
45.7019575212
 21
193.6377978927
 31
0.0
  0
LINE
  5
B1
330
1F
100
AcDbEntity
  8
0
  6
SLD-実線
 62
     7
370
    25
100
AcDbLine
 10
65.4570834999
 20
194.4963496865
 30
0.0
 11
65.4570834999
 21
193.3775487454
 31
0.0
  0
SPLINE
  5
B2
330
1F
100
AcDbEntity
  8
0
  6
SLD-実線
 62
     7
370
    25
100
AcDbSpline
210
0.0
220
0.0
230
1.0
 70
     8
 71
     3
 72
    12
 73
     8
 74
     0
 42
0.00000001
 43
0.00000001
 40
0.0
 40
0.0
 40
0.0
 40
0.0
 40
0.2297988976963229
 40
0.4597222960226526
 40
0.6850780047116486
 40
0.898212028234173
 40
1.0
 40
1.0
 40
1.0
 40
1.0
 10
65.29231065838133
 20
194.5034978579904
 30
0.0
 10
65.31232085232092
 20
194.5320944185919
 30
0.0
 10
65.35235208133896
 20
194.5893030328624
 30
0.0
 10
65.40322006476077
 20
194.6216927313732
 30
0.0
 10
65.43939456495781
 20
194.6069167965116
 30
0.0
 10
65.45533343610641
 20
194.5564694534567
 30
0.0
 10
65.45665601924088
 20
194.5110348863602
 30
0.0
 10
65.45708349987662
 20
194.4963496865266
 30
0.0
  0
ARC
  5
B3
330
1F
100
AcDbEntity
  8
0
  6
SLD-実線
 62
     7
370
    25
100
AcDbCircle
 10
59.8067990852
 20
197.9725638435
 30
0.0
 40
6.490397216786046
100
AcDbArc
 50
326.9701576815
 51
327.6905271093
  0
SPLINE
  5
B4
330
1F
100
AcDbEntity
  8
0
  6
SLD-実線
 62
     7
370
    25
100
AcDbSpline
210
0.0
220
0.0
230
1.0
 70
     8
 71
     3
 72
    12
 73
     8
 74
     0
 42
0.00000001
 43
0.00000001
 40
0.0
 40
0.0
 40
0.0
 40
0.0
 40
0.1959265552735271
 40
0.3916722097862091
 40
0.5924597188931545
 40
0.8058774705562939
 40
1.0
 40
1.0
 40
1.0
 40
1.0
 10
65.05971043632991
 20
193.8773348744213
 30
0.0
 10
65.06166902313036
 20
193.9102434744291
 30
0.0
 10
65.06558438835036
 20
193.9760302896366
 30
0.0
 10
65.09565358793843
 20
194.0988257939518
 30
0.0
 10
65.1396663071031
 20
194.2250978468631
 30
0.0
 10
65.19312952417535
 20
194.3436119482775
 30
0.0
 10
65.23047408340487
 20
194.4053825157507
 30
0.0
 10
65.24826231351285
 20
194.4348055184794
 30
0.0
  0
LINE
  5
B5
330
1F
100
AcDbEntity
  8
0
  6
SLD-実線
 62
     7
370
    25
100
AcDbLine
 10
65.0597104363
 20
193.8773348744
 30
0.0
 11
65.0597104363
 21
193.2423198181
 31
0.0
  0
LINE
  5
B6
330
1F
100
AcDbEntity
  8
0
  6
SLD-実線
 62
     7
370
    25
100
AcDbLine
 10
66.0232683119
 20
195.8959965666
 30
0.0
 11
66.0232683119
 21
193.5827316756
 31
0.0
  0
SPLINE
  5
B7
330
1F
100
AcDbEntity
  8
0
  6
SLD-実線
 62
     7
370
    25
100
AcDbSpline
210
0.0
220
0.0
230
1.0
 70
     8
 71
     3
 72
    12
 73
     8
 74
     0
 42
0.00000001
 43
0.00000001
 40
0.0
 40
0.0
 40
0.0
 40
0.0
 40
0.3019397474217328
 40
0.5612757905923264
 40
0.7575805661551429
 40
0.9547297634109988
 40
1.0
 40
1.0
 40
1.0
 40
1.0
 10
65.93073955615594
 20
195.8571482430508
 30
0.0
 10
65.94548823309415
 20
195.8990028483377
 30
0.0
 10
65.9729045483669
 20
195.9768063732891
 30
0.0
 10
66.00123676189777
 20
196.0100804146588
 30
0.0
 10
66.01771875738538
 20
195.9888466020259
 30
0.0
 10
66.02294617696825
 20
195.9405151977716
 30
0.0
 10
66.0232176214066
 20
195.9030019239803
 30
0.0
 10
66.02326831187209
 20
195.8959965665598
 30
0.0
  0
ARC
  5
B8
330
1F
100
AcDbEntity
  8
0
  6
SLD-実線
 62
     7
370
    25
100
AcDbCircle
 10
60.6690924893
 20
197.5469652156
 30
0.0
 40
5.52633796078711
100
AcDbArc
 50
341.3123428156
 51
342.1951934704
  0
SPLINE
  5
B9
330
1F
100
AcDbEntity
  8
0
  6
SLD-実線
 62
     7
370
    25
100
AcDbSpline
210
0.0
220
0.0
230
1.0
 70
     8
 71
     3
 72
    12
 73
     8
 74
     0
 42
0.00000001
 43
0.00000001
 40
0.0
 40
0.0
 40
0.0
 40
0.0
 40
0.1730904143687083
 40
0.3458081215615494
 40
0.5279475015004885
 40
0.7361318369634855
 40
1.0
 40
1.0
 40
1.0
 40
1.0
 10
65.78205446330657
 20
195.1665605145965
 30
0.0
 10
65.78321059656109
 20
195.1976167145758
 30
0.0
 10
65.78552037362459
 20
195.2596622427283
 30
0.0
 10
65.80293638867587
 20
195.3786555578362
 30
0.0
 10
65.8284287909361
 20
195.5064205575725
 30
0.0
 10
65.86371180935254
 20
195.6490988107285
 30
0.0
 10
65.88960460373008
 20
195.7306767102634
 30
0.0
 10
65.90407817205141
 20
195.7762771690324
 30
0.0
  0
LINE
  5
BA
330
1F
100
AcDbEntity
  8
0
  6
SLD-実線
 62
     7
370
    25
100
AcDbLine
 10
65.7820544633
 20
195.1665605146
 30
0.0
 11
65.7820544633
 21
193.4934857729
 31
0.0
  0
LINE
  5
BB
330
1F
100
AcDbEntity
  8
0
  6
SLD-実線
 62
     7
370
    25
100
AcDbLine
 10
64.5972813049
 20
193.3043216491
 30
0.0
 11
64.5972813049
 21
193.0937473165
 31
0.0
  0
SPLINE
  5
BC
330
1F
100
AcDbEntity
  8
0
  6
SLD-実線
 62
     7
370
    25
100
AcDbSpline
210
0.0
220
0.0
230
1.0
 70
     8
 71
     3
 72
    12
 73
     8
 74
     0
 42
0.00000001
 43
0.00000001
 40
0.0
 40
0.0
 40
0.0
 40
0.0
 40
0.2173189420344176
 40
0.434641506808194
 40
0.6516246854811808
 40
0.8664899618749761
 40
1.0
 40
1.0
 40
1.0
 40
1.0
 10
64.3743186266633
 20
193.3485182308561
 30
0.0
 10
64.40014102374316
 20
193.3720518674258
 30
0.0
 10
64.45178624836613
 20
193.4191195328744
 30
0.0
 10
64.51888914158695
 20
193.4415922626623
 30
0.0
 10
64.56856491115383
 20
193.423241011161
 30
0.0
 10
64.59384101850809
 20
193.3719932979562
 30
0.0
 10
64.59632814714561
 20
193.3230705991464
 30
0.0
 10
64.59728130491938
 20
193.3043216490599
 30
0.0
  0
ARC
  5
BD
330
1F
100
AcDbEntity
  8
0
  6
SLD-実線
 62
     7
370
    25
100
AcDbCircle
 10
58.7661960695
 20
198.8159901017
 30
0.0
 40
7.832259397808758
100
AcDbArc
 50
315.1228740635
 51
315.727568854
  0
SPLINE
  5
BE
330
1F
100
AcDbEntity
  8
0
  6
SLD-実線
 62
     7
370
    25
100
AcDbSpline
210
0.0
220
0.0
230
1.0
 70
     8
 71
     3
 72
    11
 73
     7
 74
     0
 42
0.00000001
 43
0.00000001
 40
0.0
 40
0.0
 40
0.0
 40
0.0
 40
0.0571195566864252
 40
0.3992293738290273
 40
0.74696431007096
 40
1.0
 40
1.0
 40
1.0
 40
1.0
 10
64.12030940857206
 20
192.9771600898917
 30
0.0
 10
64.12240334085966
 20
192.9837684611667
 30
0.0
 10
64.13703859583224
 20
193.0299567735279
 30
0.0
 10
64.18555257118163
 20
193.1189951756588
 30
0.0
 10
64.2518281662659
 20
193.2200048448627
 30
0.0
 10
64.29719591322741
 20
193.2690000995513
 30
0.0
 10
64.31630413632098
 20
193.2896361751737
 30
0.0
  0
LINE
  5
BF
330
1F
100
AcDbEntity
  8
0
  6
SLD-実線
 62
     7
370
    25
100
AcDbLine
 10
46.0883920075
 20
195.1665605146
 30
0.0
 11
46.0883920075
 21
193.4934857729
 31
0.0
  0
SPLINE
  5
C0
330
1F
100
AcDbEntity
  8
0
  6
SLD-実線
 62
     7
370
    25
100
AcDbSpline
210
0.0
220
0.0
230
1.0
 70
     8
 71
     3
 72
    12
 73
     8
 74
     0
 42
0.00000001
 43
0.00000001
 40
0.0
 40
0.0
 40
0.0
 40
0.0
 40
0.2951824210325377
 40
0.526340076493157
 40
0.7226841561274693
 40
0.9199216976764262
 40
1.0
 40
1.0
 40
1.0
 40
1.0
 10
45.96636829871699
 20
195.7762771690325
 30
0.0
 10
45.98261875888261
 20
195.7247354092208
 30
0.0
 10
46.01159497100493
 20
195.6328312446468
 30
0.0
 10
46.04992912020271
 20
195.4715057893832
 30
0.0
 10
46.07588632159518
 20
195.3291619100124
 30
0.0
 10
46.08726627534561
 20
195.2273332852159
 30
0.0
 10
46.08813977412869
 20
195.1801773584943
 30
0.0
 10
46.08839200746183
 20
195.1665605145967
 30
0.0
  0
ARC
  5
C1
330
1F
100
AcDbEntity
  8
0
  6
SLD-実線
 62
     7
370
    25
100
AcDbCircle
 10
51.2013539813
 20
197.5469652155
 30
0.0
 40
5.52633796058389
100
AcDbArc
 50
197.8048065296
 51
198.6876571844
  0
SPLINE
  5
C2
330
1F
100
AcDbEntity
  8
0
  6
SLD-実線
 62
     7
370
    25
100
AcDbSpline
210
0.0
220
0.0
230
1.0
 70
     8
 71
     3
 72
    12
 73
     8
 74
     0
 42
0.00000001
 43
0.00000001
 40
0.0
 40
0.0
 40
0.0
 40
0.0
 40
0.1773824612620931
 40
0.3543377710495951
 40
0.5421135323896951
 40
0.7568424908768473
 40
1.0
 40
1.0
 40
1.0
 40
1.0
 10
45.8471781588963
 20
195.8959965665599
 30
0.0
 10
45.84791841736503
 20
195.9214753673787
 30
0.0
 10
45.84939715169956
 20
195.9723716139801
 30
0.0
 10
45.86090279433556
 20
196.0043895287075
 30
0.0
 10
45.87903890837081
 20
196.0008722509587
 30
0.0
 10
45.90530763590908
 20
195.9565733264608
 30
0.0
 10
45.92777550488248
 20
195.8916338907829
 30
0.0
 10
45.93970691461246
 20
195.8571482430509
 30
0.0
  0
LINE
  5
C3
330
1F
100
AcDbEntity
  8
0
  6
SLD-実線
 62
     7
370
    25
100
AcDbLine
 10
45.8471781589
 20
195.8959965666
 30
0.0
 11
45.8471781589
 21
193.5827316756
 31
0.0
  0
LINE
  5
C4
330
1F
100
AcDbEntity
  8
0
  6
SLD-実線
 62
     7
370
    25
100
AcDbLine
 10
46.8107360344
 20
193.8773348744
 30
0.0
 11
46.8107360344
 21
193.2423198181
 31
0.0
  0
SPLINE
  5
C5
330
1F
100
AcDbEntity
  8
0
  6
SLD-実線
 62
     7
370
    25
100
AcDbSpline
210
0.0
220
0.0
230
1.0
 70
     8
 71
     3
 72
    12
 73
     8
 74
     0
 42
0.00000001
 43
0.00000001
 40
0.0
 40
0.0
 40
0.0
 40
0.0
 40
0.2376909510958919
 40
0.4758085991224467
 40
0.7014876268956863
 40
0.9102462114154002
 40
1.0
 40
1.0
 40
1.0
 40
1.0
 10
46.6221841572555
 20
194.4348055184796
 30
0.0
 10
46.64403180662408
 20
194.3981223413704
 30
0.0
 10
46.68776632572233
 20
194.3246901344176
 30
0.0
 10
46.74758253354727
 20
194.1829554400549
 30
0.0
 10
46.7906818222414
 20
194.0423879147823
 30
0.0
 10
46.80891105156223
 20
193.9394284630037
 30
0.0
 10
46.81031416113759
 20
193.8916887774188
 30
0.0
 10
46.81073603443843
 20
193.8773348744214
 30
0.0
  0
ARC
  5
C6
330
1F
100
AcDbEntity
  8
0
  6
SLD-実線
 62
     7
370
    25
100
AcDbCircle
 10
52.0636473855
 20
197.9725638434
 30
0.0
 40
6.490397216625552
100
AcDbArc
 50
212.3094728907
 51
213.0298423185
  0
SPLINE
  5
C7
330
1F
100
AcDbEntity
  8
0
  6
SLD-実線
 62
     7
370
    25
100
AcDbSpline
210
0.0
220
0.0
230
1.0
 70
     8
 71
     3
 72
    12
 73
     8
 74
     0
 42
0.00000001
 43
0.00000001
 40
0.0
 40
0.0
 40
0.0
 40
0.0
 40
0.1994126455979731
 40
0.3986211414536444
 40
0.6034571291359196
 40
0.8201734240752169
 40
1.0
 40
1.0
 40
1.0
 40
1.0
 10
46.41336297089177
 20
194.4963496865267
 30
0.0
 10
46.41496121236148
 20
194.5238969174701
 30
0.0
 10
46.41815605909279
 20
194.5789631777347
 30
0.0
 10
46.44309731142364
 20
194.6165745890657
 30
0.0
 10
46.48099589502561
 20
194.6156490280569
 30
0.0
 10
46.5279196632243
 20
194.5768793784155
 30
0.0
 10
46.56246843409285
 20
194.5263928043269
 30
0.0
 10
46.57813581238706
 20
194.5034978579905
 30
0.0
  0
LINE
  5
C8
330
1F
100
AcDbEntity
  8
0
  6
SLD-実線
 62
     7
370
    25
100
AcDbLine
 10
46.4133629709
 20
194.4963496865
 30
0.0
 11
46.4133629709
 21
193.3775487454
 31
0.0
  0
SPLINE
  5
C9
330
1F
100
AcDbEntity
  8
0
  6
SLD-実線
 62
     7
370
    25
100
AcDbSpline
210
0.0
220
0.0
230
1.0
 70
     8
 71
     3
 72
    10
 73
     6
 74
     0
 42
0.00000001
 43
0.00000001
 40
0.0
 40
0.0
 40
0.0
 40
0.0
 40
0.3838657769358976
 40
0.7679449542004912
 40
1.0
 40
1.0
 40
1.0
 40
1.0
 10
47.5541423344474
 20
193.2896361751737
 30
0.0
 10
47.58103018801117
 20
193.259482254144
 30
0.0
 10
47.63482084275097
 20
193.1991576487859
 30
0.0
 10
47.70132231089944
 20
193.0936538853384
 30
0.0
 10
47.72924868522357
 20
193.0257315283093
 30
0.0
 10
47.73976661432119
 20
193.0001498854121
 30
0.0
  0
ARC
  5
CA
330
1F
100
AcDbEntity
  8
0
  6
SLD-実線
 62
     7
370
    25
100
AcDbCircle
 10
53.1042504012
 20
198.8159901017
 30
0.0
 40
7.832259397726681
100
AcDbArc
 50
224.272431146
 51
224.8771259365
  0
SPLINE
  5
CB
330
1F
100
AcDbEntity
  8
0
  6
SLD-実線
 62
     7
370
    25
100
AcDbSpline
210
0.0
220
0.0
230
1.0
 70
     8
 71
     3
 72
    12
 73
     8
 74
     0
 42
0.00000001
 43
0.00000001
 40
0.0
 40
0.0
 40
0.0
 40
0.0
 40
0.2114082813528606
 40
0.4227625700792098
 40
0.6356332409997629
 40
0.8512069245490524
 40
1.0
 40
1.0
 40
1.0
 40
1.0
 10
47.27316516584893
 20
193.3043216490601
 30
0.0
 10
47.27551534786158
 20
193.3331721611818
 30
0.0
 10
47.28021511166204
 20
193.3908658171475
 30
0.0
 10
47.31702388051917
 20
193.4340622961976
 30
0.0
 10
47.37208321308425
 20
193.4382093917443
 30
0.0
 10
47.43521278326292
 20
193.4061602605152
 30
0.0
 10
47.47846523952163
 20
193.3652318048587
 30
0.0
 10
47.496127844105
 20
193.3485182308563
 30
0.0
  0
LINE
  5
CC
330
1F
100
AcDbEntity
  8
0
  6
SLD-実線
 62
     7
370
    25
100
AcDbLine
 10
47.2731651658
 20
193.3043216491
 30
0.0
 11
47.2731651658
 21
193.0937473165
 31
0.0
  0
LINE
  5
CD
330
1F
100
AcDbEntity
  8
0
  6
SLD-実線
 62
     7
370
    25
100
AcDbLine
 10
64.2200600261
 20
193.166560973
 30
0.0
 11
64.2200600261
 21
192.9793590043
 31
0.0
  0
LINE
  5
CE
330
1F
100
AcDbEntity
  8
0
  6
SLD-実線
 62
     7
370
    25
100
AcDbLine
 10
47.6503864446
 20
193.1675486945
 30
0.0
 11
47.6503864446
 21
192.9793590043
 31
0.0
  0
LWPOLYLINE
  5
CF
330
1F
100
AcDbEntity
  8
0
  6
SLD-実線
 62
     7
370
    25
100
AcDbPolyline
 90
       36
 70
   128
 43
0.0
 10
34.4483086128
 20
206.4777758216
 10
34.5023127706
 20
207.1475184439
 10
34.7454436227
 20
208.5206965948
 10
35.1641596621
 20
209.8725519787
 10
35.7549912759
 20
211.1918826961
 10
36.5130426472
 20
212.4677563572
 10
37.4320323236
 20
213.689600671
 10
38.5043452672
 20
214.8472910507
 10
39.7210959553
 20
215.9312345092
 10
41.0722020085
 20
216.9324491497
 10
42.5464677364
 20
217.8426385923
 10
44.1316769091
 20
218.6542607207
 10
45.814693984
 20
219.3605901783
 10
47.5815729516
 20
219.9557740967
 10
49.4176728963
 20
220.4348805946
 10
51.3077793157
 20
220.7939396446
 10
53.2362301928
 20
221.0299759704
 10
55.1870457763
 20
221.1410337006
 10
57.1440609938
 20
221.1261925759
 10
59.091059401
 20
220.9855755746
 10
61.0119075558
 20
220.7203478933
 10
62.8906887055
 20
220.3327072922
 10
64.7118346777
 20
219.8258658834
 10
66.4602548835
 20
219.2040235145
 10
68.1214613623
 20
218.4723329671
 10
69.6816888341
 20
217.6368572595
 10
71.1280087627
 20
216.7045194067
 10
72.4484364856
 20
215.6830450535
 10
73.6320305229
 20
214.5808984584
 10
74.6689832417
 20
213.407212355
 10
75.5507021251
 20
212.171712276
 10
76.2698809728
 20
210.8846359642
 10
76.8205604423
 20
209.5566485393
 10
77.1981774301
 20
208.1987541233
 10
77.3996028831
 20
206.822204657
 10
77.422137858
 20
206.4777758217
  0
LWPOLYLINE
  5
D0
330
1F
100
AcDbEntity
  8
0
  6
SLD-実線
 62
     7
370
    25
100
AcDbPolyline
 90
       34
 70
   128
 43
0.0
 10
34.5284486068
 20
205.5938923452
 10
34.7454436227
 20
206.7529296418
 10
35.1641596621
 20
208.1047850257
 10
35.7549912759
 20
209.4241157431
 10
36.5130426472
 20
210.6999894042
 10
37.4320323236
 20
211.921833718
 10
38.5043452672
 20
213.0795240977
 10
39.7210959553
 20
214.1634675562
 10
41.0722020085
 20
215.1646821967
 10
42.5464677364
 20
216.0748716394
 10
44.1316769091
 20
216.8864937677
 10
45.814693984
 20
217.5928232253
 10
47.5815729516
 20
218.1880071437
 10
49.4176728963
 20
218.6671136416
 10
51.3077793157
 20
219.0261726916
 10
53.2362301928
 20
219.2622090174
 10
55.1870457763
 20
219.3732667476
 10
57.1440609938
 20
219.3584256229
 10
59.091059401
 20
219.2178086216
 10
61.0119075558
 20
218.9525809403
 10
62.8906887055
 20
218.5649403393
 10
64.7118346777
 20
218.0580989305
 10
66.4602548835
 20
217.4362565615
 10
68.1214613623
 20
216.7045660141
 10
69.6816888341
 20
215.8690903066
 10
71.1280087627
 20
214.9367524537
 10
72.4484364856
 20
213.9152781006
 10
73.6320305229
 20
212.8131315054
 10
74.6689832417
 20
211.639445402
 10
75.5507021251
 20
210.403945323
 10
76.2698809728
 20
209.1168690113
 10
76.8205604423
 20
207.7888815864
 10
77.1981774301
 20
206.4309871703
 10
77.341997864
 20
205.5938923452
  0
LWPOLYLINE
  5
D1
330
1F
100
AcDbEntity
  8
0
  6
SLD-実線
 62
     7
370
    25
100
AcDbPolyline
 90
       36
 70
   128
 43
0.0
 10
34.4584916405
 20
206.3009991264
 10
34.5023127706
 20
206.7939650533
 10
34.7454436227
 20
208.1671432042
 10
35.1641596621
 20
209.5189985881
 10
35.7549912759
 20
210.8383293055
 10
36.5130426472
 20
212.1142029666
 10
37.4320323236
 20
213.3360472804
 10
38.5043452672
 20
214.4937376601
 10
39.7210959553
 20
215.5776811186
 10
41.0722020085
 20
216.5788957591
 10
42.5464677364
 20
217.4890852017
 10
44.1316769091
 20
218.3007073301
 10
45.814693984
 20
219.0070367877
 10
47.5815729516
 20
219.6022207061
 10
49.4176728963
 20
220.081327204
 10
51.3077793157
 20
220.440386254
 10
53.2362301928
 20
220.6764225798
 10
55.1870457763
 20
220.78748031
 10
57.1440609938
 20
220.7726391853
 10
59.091059401
 20
220.632022184
 10
61.0119075558
 20
220.3667945027
 10
62.8906887055
 20
219.9791539016
 10
64.7118346777
 20
219.4723124928
 10
66.4602548835
 20
218.8504701239
 10
68.1214613623
 20
218.1187795765
 10
69.6816888341
 20
217.2833038689
 10
71.1280087627
 20
216.3509660161
 10
72.4484364856
 20
215.3294916629
 10
73.6320305229
 20
214.2273450678
 10
74.6689832417
 20
213.0536589644
 10
75.5507021251
 20
211.8181588854
 10
76.2698809728
 20
210.5310825736
 10
76.8205604423
 20
209.2030951487
 10
77.1981774301
 20
207.8452007327
 10
77.3996028831
 20
206.4686512664
 10
77.4119548303
 20
206.3009991264
  0
LWPOLYLINE
  5
D2
330
1F
100
AcDbEntity
  8
0
  6
SLD-実線
 62
     7
370
    25
100
AcDbPolyline
 90
       34
 70
   128
 43
0.0
 10
34.5532799187
 20
205.4171156499
 10
34.7454436227
 20
206.3993762512
 10
35.1641596621
 20
207.7512316351
 10
35.7549912759
 20
209.0705623525
 10
36.5130426472
 20
210.3464360136
 10
37.4320323236
 20
211.5682803274
 10
38.5043452672
 20
212.7259707071
 10
39.7210959553
 20
213.8099141657
 10
41.0722020085
 20
214.8111288062
 10
42.5464677364
 20
215.7213182488
 10
44.1316769091
 20
216.5329403772
 10
45.814693984
 20
217.2392698347
 10
47.5815729516
 20
217.8344537531
 10
49.4176728963
 20
218.313560251
 10
51.3077793157
 20
218.6726193011
 10
53.2362301928
 20
218.9086556268
 10
55.1870457763
 20
219.019713357
 10
57.1440609938
 20
219.0048722323
 10
59.091059401
 20
218.864255231
 10
61.0119075558
 20
218.5990275497
 10
62.8906887055
 20
218.2113869487
 10
64.7118346777
 20
217.7045455399
 10
66.4602548835
 20
217.0827031709
 10
68.1214613623
 20
216.3510126235
 10
69.6816888341
 20
215.515536916
 10
71.1280087627
 20
214.5831990631
 10
72.4484364856
 20
213.56172471
 10
73.6320305229
 20
212.4595781148
 10
74.6689832417
 20
211.2858920114
 10
75.5507021251
 20
210.0503919325
 10
76.2698809728
 20
208.7633156207
 10
76.8205604423
 20
207.4353281958
 10
77.1981774301
 20
206.0774337798
 10
77.3171665521
 20
205.4171156499
  0
ARC
  5
D3
330
1F
100
AcDbEntity
  8
0
  6
SLD-実線
 62
     7
370
    25
100
AcDbCircle
 10
76.7402885273
 20
222.1317658806
 30
0.0
 40
1.24102309378094
100
AcDbArc
 50
121.72168491
 51
175.795636968
  0
LWPOLYLINE
  5
D4
330
1F
100
AcDbEntity
  8
0
  6
SLD-実線
 62
     7
370
    25
100
AcDbPolyline
 90
        9
 70
   128
 43
0.0
 10
79.5013549671
 20
222.2227504756
 10
79.4338317141
 20
222.5534206332
 10
79.19542846
 20
222.9398022076
 10
78.8065548841
 20
223.2593291202
 10
78.3017641102
 20
223.4836100024
 10
77.7259090138
 20
223.5927165137
 10
77.1301568473
 20
223.5769540618
 10
76.567442805
 20
223.4377232096
 10
76.0877664992
 20
223.1873952294
  0
LINE
  5
D5
330
1F
100
AcDbEntity
  8
0
  6
SLD-実線
 62
     7
370
    25
100
AcDbLine
 10
76.5179231244
 20
221.7582285628
 30
0.0
 11
76.8950467411
 21
221.4915618961
 31
0.0
  0
LINE
  5
D6
330
1F
100
AcDbEntity
  8
0
  6
SLD-実線
 62
     7
370
    25
100
AcDbLine
 10
76.8950467411
 20
221.4915618961
 30
0.0
 11
77.2191373491
 21
221.7207285628
 31
0.0
  0
ARC
  5
D7
330
1F
100
AcDbEntity
  8
0
  6
SLD-実線
 62
     7
370
    25
100
AcDbCircle
 10
77.5019800616
 20
221.286483913
 30
0.0
 40
0.5182358689106025
100
AcDbArc
 50
56.9220256938
 51
123.0779743062
  0
LINE
  5
D8
330
1F
100
AcDbEntity
  8
0
  6
SLD-実線
 62
     7
370
    25
100
AcDbLine
 10
77.784822774
 20
221.7207285628
 30
0.0
 11
78.1089133821
 21
221.4915618961
 31
0.0
  0
LINE
  5
D9
330
1F
100
AcDbEntity
  8
0
  6
SLD-実線
 62
     7
370
    25
100
AcDbLine
 10
78.1089133821
 20
221.4915618961
 30
0.0
 11
78.4860369987
 21
221.7582285628
 31
0.0
  0
LINE
  5
DA
330
1F
100
AcDbEntity
  8
0
  6
SLD-実線
 62
     7
370
    25
100
AcDbLine
 10
78.4860369987
 20
221.7582285628
 30
0.0
 11
78.1619463907
 21
221.9873952294
 31
0.0
  0
ARC
  5
DB
330
1F
100
AcDbEntity
  8
0
  6
SLD-実線
 62
     7
370
    25
100
AcDbCircle
 10
78.2791531229
 20
222.1873952294
 30
0.0
 40
0.2318133259118994
100
AcDbArc
 50
120.3717382957
 51
239.6282617043
  0
LINE
  5
DC
330
1F
100
AcDbEntity
  8
0
  6
SLD-実線
 62
     7
370
    25
100
AcDbLine
 10
78.1619463907
 20
222.3873952294
 30
0.0
 11
78.4860369987
 21
222.6165618961
 31
0.0
  0
LINE
  5
DD
330
1F
100
AcDbEntity
  8
0
  6
SLD-実線
 62
     7
370
    25
100
AcDbLine
 10
78.4860369987
 20
222.6165618961
 30
0.0
 11
78.1089133821
 21
222.8832285628
 31
0.0
  0
LINE
  5
DE
330
1F
100
AcDbEntity
  8
0
  6
SLD-実線
 62
     7
370
    25
100
AcDbLine
 10
78.1089133821
 20
222.8832285628
 30
0.0
 11
77.784822774
 21
222.6540618961
 31
0.0
  0
ARC
  5
DF
330
1F
100
AcDbEntity
  8
0
  6
SLD-実線
 62
     7
370
    25
100
AcDbCircle
 10
77.5019800616
 20
223.0883065458
 30
0.0
 40
0.5182358689105548
100
AcDbArc
 50
236.9220256938
 51
303.0779743062
  0
LINE
  5
E0
330
1F
100
AcDbEntity
  8
0
  6
SLD-実線
 62
     7
370
    25
100
AcDbLine
 10
77.2191373491
 20
222.6540618961
 30
0.0
 11
76.8950467411
 21
222.8832285628
 31
0.0
  0
LINE
  5
E1
330
1F
100
AcDbEntity
  8
0
  6
SLD-実線
 62
     7
370
    25
100
AcDbLine
 10
76.8950467411
 20
222.8832285628
 30
0.0
 11
76.5179231244
 21
222.6165618961
 31
0.0
  0
LINE
  5
E2
330
1F
100
AcDbEntity
  8
0
  6
SLD-実線
 62
     7
370
    25
100
AcDbLine
 10
76.5179231244
 20
222.6165618961
 30
0.0
 11
76.8420137325
 21
222.3873952294
 31
0.0
  0
ARC
  5
E3
330
1F
100
AcDbEntity
  8
0
  6
SLD-実線
 62
     7
370
    25
100
AcDbCircle
 10
76.7248070003
 20
222.1873952294
 30
0.0
 40
0.2318133259118851
100
AcDbArc
 50
300.3717382957
 51
59.6282617043
  0
LINE
  5
E4
330
1F
100
AcDbEntity
  8
0
  6
SLD-実線
 62
     7
370
    25
100
AcDbLine
 10
76.8420137325
 20
221.9873952294
 30
0.0
 11
76.5179231244
 21
221.7582285628
 31
0.0
  0
LINE
  5
E5
330
1F
100
AcDbEntity
  8
0
  6
SLD-実線
 62
     7
370
    25
100
AcDbLine
 10
76.8950467411
 20
222.4766421636
 30
0.0
 11
76.8054231244
 21
222.4132686965
 31
0.0
  0
LINE
  5
E6
330
1F
100
AcDbEntity
  8
0
  6
SLD-実線
 62
     7
370
    25
100
AcDbLine
 10
77.2191373491
 20
222.2474754969
 30
0.0
 11
76.8950467411
 21
222.4766421636
 31
0.0
  0
ARC
  5
E7
330
1F
100
AcDbEntity
  8
0
  6
SLD-実線
 62
     7
370
    25
100
AcDbCircle
 10
77.5019800616
 20
222.6817201466
 30
0.0
 40
0.5182358689105787
100
AcDbArc
 50
236.9220256938
 51
303.0779743062
  0
LINE
  5
E8
330
1F
100
AcDbEntity
  8
0
  6
SLD-実線
 62
     7
370
    25
100
AcDbLine
 10
78.1089133821
 20
222.4766421636
 30
0.0
 11
77.784822774
 21
222.2474754969
 31
0.0
  0
LINE
  5
E9
330
1F
100
AcDbEntity
  8
0
  6
SLD-実線
 62
     7
370
    25
100
AcDbLine
 10
78.1985369987
 20
222.4132686965
 30
0.0
 11
78.1089133821
 21
222.4766421636
 31
0.0
  0
ARC
  5
EA
330
1F
100
AcDbEntity
  8
0
  6
SLD-実線
 62
     7
370
    25
100
AcDbCircle
 10
78.2949424572
 20
221.7930306973
 30
0.0
 40
0.2504517410289841
100
AcDbArc
 50
182.7971042547
 51
237.925282555
  0
LINE
  5
EB
330
1F
100
AcDbEntity
  8
0
  6
SLD-実線
 62
     7
370
    25
100
AcDbLine
 10
78.1985369987
 20
221.5549353632
 30
0.0
 11
78.1619463907
 21
221.5808088302
 31
0.0
  0
LINE
  5
EC
330
1F
100
AcDbEntity
  8
0
  6
SLD-実線
 62
     7
370
    25
100
AcDbLine
 10
76.8420137325
 20
221.5808088302
 30
0.0
 11
76.8054231244
 21
221.5549353632
 31
0.0
  0
ARC
  5
ED
330
1F
100
AcDbEntity
  8
0
  6
SLD-実線
 62
     7
370
    25
100
AcDbCircle
 10
76.7090176659
 20
221.7930306973
 30
0.0
 40
0.2504517410289291
100
AcDbArc
 50
302.074717445
 51
357.2028957453
  0
LINE
  5
EE
330
1F
100
AcDbEntity
  8
0
  6
SLD-実線
 62
     7
370
    25
100
AcDbLine
 10
78.1089133821
 20
222.4766421636
 30
0.0
 11
78.1089133821
 21
222.8832285628
 31
0.0
  0
LINE
  5
EF
330
1F
100
AcDbEntity
  8
0
  6
SLD-実線
 62
     7
370
    25
100
AcDbLine
 10
76.8950467411
 20
222.4766421636
 30
0.0
 11
76.8950467411
 21
222.8832285628
 31
0.0
  0
ARC
  5
F0
330
1F
100
AcDbEntity
  8
0
  6
SLD-実線
 62
     7
370
    25
100
AcDbCircle
 10
33.6067749091
 20
191.6317658497
 30
0.0
 40
1.241023137997943
100
AcDbArc
 50
121.7216855
 51
175.7956260457
  0
LWPOLYLINE
  5
F1
330
1F
100
AcDbEntity
  8
0
  6
SLD-実線
 62
     7
370
    25
100
AcDbPolyline
 90
        9
 70
   128
 43
0.0
 10
36.3678413097
 20
191.7227506201
 10
36.3003180617
 20
192.0534206332
 10
36.0619148076
 20
192.4398022077
 10
35.6730412317
 20
192.7593291202
 10
35.1682504578
 20
192.9836100024
 10
34.5923953614
 20
193.0927165137
 10
33.9966431949
 20
193.0769540618
 10
33.4339291527
 20
192.9377232096
 10
32.9542528468
 20
192.6873952294
  0
LINE
  5
F2
330
1F
100
AcDbEntity
  8
0
  6
SLD-実線
 62
     7
370
    25
100
AcDbLine
 10
33.384409472
 20
191.2582285628
 30
0.0
 11
33.7615330887
 21
190.9915618961
 31
0.0
  0
LINE
  5
F3
330
1F
100
AcDbEntity
  8
0
  6
SLD-実線
 62
     7
370
    25
100
AcDbLine
 10
33.7615330887
 20
190.9915618961
 30
0.0
 11
34.0856236967
 21
191.2207285628
 31
0.0
  0
ARC
  5
F4
330
1F
100
AcDbEntity
  8
0
  6
SLD-実線
 62
     7
370
    25
100
AcDbCircle
 10
34.3684664092
 20
190.786483913
 30
0.0
 40
0.5182358689108645
100
AcDbArc
 50
56.9220256938
 51
123.0779743062
  0
LINE
  5
F5
330
1F
100
AcDbEntity
  8
0
  6
SLD-実線
 62
     7
370
    25
100
AcDbLine
 10
34.6513091217
 20
191.2207285628
 30
0.0
 11
34.9753997297
 21
190.9915618961
 31
0.0
  0
LINE
  5
F6
330
1F
100
AcDbEntity
  8
0
  6
SLD-実線
 62
     7
370
    25
100
AcDbLine
 10
34.9753997297
 20
190.9915618961
 30
0.0
 11
35.3525233463
 21
191.2582285628
 31
0.0
  0
LINE
  5
F7
330
1F
100
AcDbEntity
  8
0
  6
SLD-実線
 62
     7
370
    25
100
AcDbLine
 10
35.3525233463
 20
191.2582285628
 30
0.0
 11
35.0284327383
 21
191.4873952294
 31
0.0
  0
ARC
  5
F8
330
1F
100
AcDbEntity
  8
0
  6
SLD-実線
 62
     7
370
    25
100
AcDbCircle
 10
35.1456394705
 20
191.6873952294
 30
0.0
 40
0.2318133259118958
100
AcDbArc
 50
120.3717382957
 51
239.6282617043
  0
LINE
  5
F9
330
1F
100
AcDbEntity
  8
0
  6
SLD-実線
 62
     7
370
    25
100
AcDbLine
 10
35.0284327383
 20
191.8873952294
 30
0.0
 11
35.3525233463
 21
192.1165618961
 31
0.0
  0
LINE
  5
FA
330
1F
100
AcDbEntity
  8
0
  6
SLD-実線
 62
     7
370
    25
100
AcDbLine
 10
35.3525233463
 20
192.1165618961
 30
0.0
 11
34.9753997297
 21
192.3832285628
 31
0.0
  0
LINE
  5
FB
330
1F
100
AcDbEntity
  8
0
  6
SLD-実線
 62
     7
370
    25
100
AcDbLine
 10
34.9753997297
 20
192.3832285628
 30
0.0
 11
34.6513091217
 21
192.1540618961
 31
0.0
  0
ARC
  5
FC
330
1F
100
AcDbEntity
  8
0
  6
SLD-実線
 62
     7
370
    25
100
AcDbCircle
 10
34.3684664092
 20
192.5883065458
 30
0.0
 40
0.5182358689107216
100
AcDbArc
 50
236.9220256938
 51
303.0779743062
  0
LINE
  5
FD
330
1F
100
AcDbEntity
  8
0
  6
SLD-実線
 62
     7
370
    25
100
AcDbLine
 10
34.0856236967
 20
192.1540618961
 30
0.0
 11
33.7615330887
 21
192.3832285628
 31
0.0
  0
LINE
  5
FE
330
1F
100
AcDbEntity
  8
0
  6
SLD-実線
 62
     7
370
    25
100
AcDbLine
 10
33.7615330887
 20
192.3832285628
 30
0.0
 11
33.384409472
 21
192.1165618961
 31
0.0
  0
LINE
  5
FF
330
1F
100
AcDbEntity
  8
0
  6
SLD-実線
 62
     7
370
    25
100
AcDbLine
 10
33.384409472
 20
192.1165618961
 30
0.0
 11
33.7085000801
 21
191.8873952294
 31
0.0
  0
ARC
  5
100
330
1F
100
AcDbEntity
  8
0
  6
SLD-実線
 62
     7
370
    25
100
AcDbCircle
 10
33.5912933479
 20
191.6873952294
 30
0.0
 40
0.2318133259118958
100
AcDbArc
 50
300.3717382957
 51
59.6282617043
  0
LINE
  5
101
330
1F
100
AcDbEntity
  8
0
  6
SLD-実線
 62
     7
370
    25
100
AcDbLine
 10
33.7085000801
 20
191.4873952294
 30
0.0
 11
33.384409472
 21
191.2582285628
 31
0.0
  0
LINE
  5
102
330
1F
100
AcDbEntity
  8
0
  6
SLD-実線
 62
     7
370
    25
100
AcDbLine
 10
33.7615330887
 20
191.9766421636
 30
0.0
 11
33.671909472
 21
191.9132686965
 31
0.0
  0
LINE
  5
103
330
1F
100
AcDbEntity
  8
0
  6
SLD-実線
 62
     7
370
    25
100
AcDbLine
 10
34.0856236967
 20
191.7474754969
 30
0.0
 11
33.7615330887
 21
191.9766421636
 31
0.0
  0
ARC
  5
104
330
1F
100
AcDbEntity
  8
0
  6
SLD-実線
 62
     7
370
    25
100
AcDbCircle
 10
34.3684664092
 20
192.1817201467
 30
0.0
 40
0.5182358689106977
100
AcDbArc
 50
236.9220256938
 51
303.0779743062
  0
LINE
  5
105
330
1F
100
AcDbEntity
  8
0
  6
SLD-実線
 62
     7
370
    25
100
AcDbLine
 10
34.9753997297
 20
191.9766421636
 30
0.0
 11
34.6513091217
 21
191.7474754969
 31
0.0
  0
LINE
  5
106
330
1F
100
AcDbEntity
  8
0
  6
SLD-実線
 62
     7
370
    25
100
AcDbLine
 10
35.0650233463
 20
191.9132686965
 30
0.0
 11
34.9753997297
 21
191.9766421636
 31
0.0
  0
ARC
  5
107
330
1F
100
AcDbEntity
  8
0
  6
SLD-実線
 62
     7
370
    25
100
AcDbCircle
 10
35.1614288048
 20
191.2930306973
 30
0.0
 40
0.2504517410290624
100
AcDbArc
 50
182.7971042547
 51
237.925282555
  0
LINE
  5
108
330
1F
100
AcDbEntity
  8
0
  6
SLD-実線
 62
     7
370
    25
100
AcDbLine
 10
35.0650233463
 20
191.0549353632
 30
0.0
 11
35.0284327383
 21
191.0808088303
 31
0.0
  0
LINE
  5
109
330
1F
100
AcDbEntity
  8
0
  6
SLD-実線
 62
     7
370
    25
100
AcDbLine
 10
33.7085000801
 20
191.0808088303
 30
0.0
 11
33.671909472
 21
191.0549353632
 31
0.0
  0
ARC
  5
10A
330
1F
100
AcDbEntity
  8
0
  6
SLD-実線
 62
     7
370
    25
100
AcDbCircle
 10
33.5755040135
 20
191.2930306973
 30
0.0
 40
0.2504517410288724
100
AcDbArc
 50
302.074717445
 51
357.2028957453
  0
LINE
  5
10B
330
1F
100
AcDbEntity
  8
0
  6
SLD-実線
 62
     7
370
    25
100
AcDbLine
 10
34.9753997297
 20
191.9766421636
 30
0.0
 11
34.9753997297
 21
192.3832285628
 31
0.0
  0
LINE
  5
10C
330
1F
100
AcDbEntity
  8
0
  6
SLD-実線
 62
     7
370
    25
100
AcDbLine
 10
33.7615330887
 20
191.9766421636
 30
0.0
 11
33.7615330887
 21
192.3832285628
 31
0.0
  0
ARC
  5
10D
330
1F
100
AcDbEntity
  8
0
  6
SLD-実線
 62
     7
370
    25
100
AcDbCircle
 10
60.0835304946
 20
167.6272444894
 30
0.0
 40
38.39797856919854
100
AcDbArc
 50
292.0760496833
 51
305.0025913909
  0
LWPOLYLINE
  5
10E
330
1F
100
AcDbEntity
  8
0
  6
SLD-実線
 62
     7
370
    25
100
AcDbPolyline
 90
        3
 70
   128
 43
0.0
 10
74.8659349434
 20
112.3507329957
 10
74.6693991272
 20
123.3791499343
 10
74.5149088899
 20
132.0443823811
  0
ARC
  5
10F
330
1F
100
AcDbEntity
  8
0
  6
SLD-実線
 62
     7
370
    25
100
AcDbCircle
 10
55.9352232354
 20
159.5786843526
 30
0.0
 40
50.88075505669513
100
AcDbArc
 50
248.1572591491
 51
291.8427408509
  0
LWPOLYLINE
  5
110
330
1F
100
AcDbEntity
  8
0
  6
SLD-実線
 62
     7
370
    25
100
AcDbPolyline
 90
        3
 70
   128
 43
0.0
 10
37.3555375809
 20
132.0443823811
 10
37.1589242812
 20
121.0159120522
 10
37.0045115274
 20
112.3507329957
  0
ARC
  5
111
330
1F
100
AcDbEntity
  8
0
  6
SLD-実線
 62
     7
370
    25
100
AcDbCircle
 10
49.6109232164
 20
163.6261149591
 30
0.0
 40
33.87624993561439
100
AcDbArc
 50
220.6801123665
 51
248.791108268
  0
ARC
  5
112
330
1F
100
AcDbEntity
  8
0
  6
SLD-実線
 62
     7
370
    25
100
AcDbCircle
 10
38.8946533476
 20
135.4764963105
 30
0.0
 40
20.45044068438303
100
AcDbArc
 50
179.3750339833
 51
215.1817168324
  0
ARC
  5
113
330
1F
100
AcDbEntity
  8
0
  6
SLD-実線
 62
     7
370
    25
100
AcDbCircle
 10
73.2422119214
 20
135.3936263888
 30
0.0
 40
20.18512386902424
100
AcDbArc
 50
324.5748202829
 51
0.8684289013
  0
ARC
  5
114
330
1F
100
AcDbEntity
  8
0
  6
SLD-実線
 62
     7
370
    25
100
AcDbCircle
 10
65.0887490776
 20
160.5487964867
 30
0.0
 40
29.72880256932878
100
AcDbArc
 50
304.926247958
 51
320.2633890177
  0
LINE
  5
115
330
1F
100
AcDbEntity
  8
0
  6
SLD-実線
 62
     7
370
    25
100
AcDbLine
 10
25.797714795
 20
132.8174260096
 30
0.0
 11
25.0416520863
 21
133.1410809082
 31
0.0
  0
LWPOLYLINE
  5
116
330
1F
100
AcDbEntity
  8
0
  6
SLD-実線
 62
     7
370
    25
100
AcDbPolyline
 90
       14
 70
   128
 43
0.0
 10
31.9971525721
 20
128.4337615179
 10
31.7837707435
 20
129.2052216458
 10
31.4476242736
 20
130.0065197046
 10
31.003010488
 20
130.8035740652
 10
30.4688401552
 20
131.5624835959
 10
29.8678331544
 20
132.2509695802
 10
29.2255521304
 20
132.8397486276
 10
28.5693152368
 20
133.3037781851
 10
27.9270342127
 20
133.6233216728
 10
27.3260272119
 20
133.7847879402
 10
26.7918568791
 20
133.7813093386
 10
26.3472430935
 20
133.6130338236
 10
26.0110966236
 20
133.2871186616
 10
25.797714795
 20
132.8174260096
  0
LINE
  5
117
330
1F
100
AcDbEntity
  8
0
  6
SLD-実線
 62
     7
370
    25
100
AcDbLine
 10
32.7532152808
 20
127.6881822799
 30
0.0
 11
31.9971525721
 21
128.4337615179
 31
0.0
  0
LWPOLYLINE
  5
118
330
1F
100
AcDbEntity
  8
0
  6
SLD-実線
 62
     7
370
    25
100
AcDbPolyline
 90
       17
 70
   128
 43
0.0
 10
32.7532152808
 20
127.6881822799
 10
32.6000188002
 20
128.4785230728
 10
32.3272103452
 20
129.315002577
 10
31.94360299
 20
130.1705983306
 10
31.4615891666
 20
131.0176703215
 10
30.8967403263
 20
131.8288538977
 10
30.2673039054
 20
132.5779437821
 10
29.5936138409
 20
133.2407406335
 10
28.8974336836
 20
133.7958328064
 10
28.2012535262
 20
134.2252880539
 10
27.5275634617
 20
134.5152328285
 10
26.8981270408
 20
134.6563004673
 10
26.3332782006
 20
134.6439337816
 10
25.8512643771
 20
134.4785322771
 10
25.467657022
 20
134.1654392477
 10
25.1948485669
 20
133.7147691606
 10
25.0416520863
 20
133.1410809082
  0
LWPOLYLINE
  5
119
330
1F
100
AcDbEntity
  8
0
  6
SLD-実線
 62
     7
370
    25
100
AcDbPolyline
 90
       17
 70
   128
 43
0.0
 10
24.8559297122
 20
125.9561545177
 10
25.0038879621
 20
125.1248043985
 10
25.281391616
 20
124.2408175764
 10
25.6792076185
 20
123.3336059135
 10
26.184099902
 20
122.433354005
 10
26.7792697746
 20
121.5700148822
 10
27.4449148435
 20
120.7723134204
 10
28.1588878771
 20
120.0667906097
 10
28.8974336836
 20
119.4769204874
 10
29.63597949
 20
119.0223291137
 10
30.3499525236
 20
118.7181415772
 10
31.0155975926
 20
118.5744787547
 10
31.6107674651
 20
118.5961205718
 10
32.1156597486
 20
118.7823469655
 10
32.5134757512
 20
119.1269618423
 10
32.790979405
 20
119.6184992335
 10
32.9389376549
 20
120.2406047889
  0
LINE
  5
11A
330
1F
100
AcDbEntity
  8
0
  6
SLD-実線
 62
     7
370
    25
100
AcDbLine
 10
24.1244629106
 20
126.776363123
 30
0.0
 11
24.8559297122
 21
125.9561545177
 31
0.0
  0
LINE
  5
11B
330
1F
100
AcDbEntity
  8
0
  6
SLD-実線
 62
     7
370
    25
100
AcDbLine
 10
24.1244629106
 20
126.776363123
 30
0.0
 11
24.1244629106
 21
122.1094583671
 31
0.0
  0
LINE
  5
11C
330
1F
100
AcDbEntity
  8
0
  6
SLD-実線
 62
     7
370
    25
100
AcDbLine
 10
24.8315696917
 20
121.9023515859
 30
0.0
 11
24.1244629106
 21
122.1094583671
 31
0.0
  0
LINE
  5
11D
330
1F
100
AcDbEntity
  8
0
  6
SLD-実線
 62
     7
370
    25
100
AcDbLine
 10
24.8315696917
 20
123.9177844792
 30
0.0
 11
24.8315696917
 21
121.9023515859
 31
0.0
  0
LWPOLYLINE
  5
11E
330
1F
100
AcDbEntity
  8
0
  6
SLD-実線
 62
     7
370
    25
100
AcDbPolyline
 90
       13
 70
   128
 43
0.0
 10
32.9632976754
 20
118.1677844792
 10
32.4819884308
 20
117.8565794645
 10
31.8974336836
 20
117.7091535344
 10
31.2264702942
 20
117.7297529804
 10
30.4884239412
 20
117.9177844792
 10
29.7045524857
 20
118.2678321818
 10
28.8974336836
 20
118.7698137062
 10
28.0903148814
 20
119.4092705382
 10
27.3064434259
 20
120.1677844792
 10
26.5683970729
 20
121.0235081425
 10
25.8974336836
 20
121.9517942215
 10
25.3128789363
 20
122.9259054031
 10
24.8315696917
 20
123.9177844792
  0
LINE
  5
11F
330
1F
100
AcDbEntity
  8
0
  6
SLD-実線
 62
     7
370
    25
100
AcDbLine
 10
32.9632976754
 20
116.1523515859
 30
0.0
 11
32.9632976754
 21
118.1677844792
 31
0.0
  0
LINE
  5
120
330
1F
100
AcDbEntity
  8
0
  6
SLD-実線
 62
     7
370
    25
100
AcDbLine
 10
33.6704044566
 20
115.3594583671
 30
0.0
 11
32.9632976754
 21
116.1523515859
 31
0.0
  0
LINE
  5
121
330
1F
100
AcDbEntity
  8
0
  6
SLD-実線
 62
     7
370
    25
100
AcDbLine
 10
33.6704044566
 20
115.3594583671
 30
0.0
 11
33.6704044566
 21
120.026363123
 31
0.0
  0
LINE
  5
122
330
1F
100
AcDbEntity
  8
0
  6
SLD-実線
 62
     7
370
    25
100
AcDbLine
 10
32.9389376549
 20
120.2406047889
 30
0.0
 11
33.6704044566
 21
120.026363123
 31
0.0
  0
LINE
  5
123
330
1F
100
AcDbEntity
  8
0
  6
SLD-実線
 62
     7
370
    25
100
AcDbLine
 10
32.6416116691
 20
123.8553827944
 30
0.0
 11
32.7828194307
 21
126.9897232952
 31
0.0
  0
ARC
  5
124
330
1F
100
AcDbEntity
  8
0
  6
SLD-実線
 62
     7
370
    25
100
AcDbCircle
 10
29.0747590276
 20
127.1554535215
 30
0.0
 40
3.711762177331217
100
AcDbArc
 50
357.4408919526
 51
0.0199434878
  0
ARC
  5
125
330
1F
100
AcDbEntity
  8
0
  6
SLD-実線
 62
     7
370
    25
100
AcDbCircle
 10
28.6797005279
 20
127.1548664882
 30
0.0
 40
4.106820882069809
100
AcDbArc
 50
0.026214928
 51
2.8954946236
  0
LINE
  5
126
330
1F
100
AcDbEntity
  8
0
  6
SLD-実線
 62
     7
370
    25
100
AcDbLine
 10
32.0738486857
 20
127.4637786515
 30
0.0
 11
32.7812783648
 21
127.3623201096
 31
0.0
  0
LINE
  5
127
330
1F
100
AcDbEntity
  8
0
  6
SLD-実線
 62
     7
370
    25
100
AcDbLine
 10
31.9642697921
 20
125.0314933422
 30
0.0
 11
32.0738486857
 21
127.4637786515
 31
0.0
  0
LWPOLYLINE
  5
128
330
1F
100
AcDbEntity
  8
0
  6
SLD-実線
 62
     7
370
    25
100
AcDbPolyline
 90
        9
 70
   128
 43
0.0
 10
25.830597575
 20
129.3686545605
 10
26.5119405703
 20
129.3636695074
 10
27.2656992933
 20
129.1819815236
 10
28.0689921072
 20
128.8291060589
 10
28.8974336836
 20
128.3157552522
 10
29.7258752599
 20
127.657512746
 10
30.5291680739
 20
126.8743606187
 10
31.2829267968
 20
125.9900727938
 10
31.9642697921
 20
125.0314933422
  0
LINE
  5
129
330
1F
100
AcDbEntity
  8
0
  6
SLD-実線
 62
     7
370
    25
100
AcDbLine
 10
25.7210186814
 20
131.9559078273
 30
0.0
 11
25.830597575
 21
129.3686545605
 31
0.0
  0
LINE
  5
12A
330
1F
100
AcDbEntity
  8
0
  6
SLD-実線
 62
     7
370
    25
100
AcDbLine
 10
25.0135890023
 20
132.854905932
 30
0.0
 11
25.7210186814
 21
131.9559078273
 31
0.0
  0
ARC
  5
12B
330
1F
100
AcDbEntity
  8
0
  6
SLD-実線
 62
     7
370
    25
100
AcDbCircle
 10
28.6870153494
 20
132.6585706616
 30
0.0
 40
3.678669415114235
100
AcDbArc
 50
176.9405976766
 51
180.028426989
  0
ARC
  5
12C
330
1F
100
AcDbEntity
  8
0
  6
SLD-実線
 62
     7
370
    25
100
AcDbCircle
 10
29.0799242803
 20
132.6580694588
 30
0.0
 40
4.071578108486244
100
AcDbArc
 50
180.0186307829
 51
182.4433942859
  0
LINE
  5
12D
330
1F
100
AcDbEntity
  8
0
  6
SLD-実線
 62
     7
370
    25
100
AcDbLine
 10
25.0120479364
 20
132.4844885139
 30
0.0
 11
25.1532556981
 21
129.1504500814
 31
0.0
  0
ARC
  5
12E
330
1F
100
AcDbEntity
  8
0
  6
SLD-実線
 62
     7
370
    25
100
AcDbCircle
 10
26.4573773674
 20
127.2125236794
 30
0.0
 40
2.335870730161731
100
AcDbArc
 50
123.9384617893
 51
183.7786629245
  0
LINE
  5
12F
330
1F
100
AcDbEntity
  8
0
  6
SLD-実線
 62
     7
370
    25
100
AcDbLine
 10
24.8559297122
 20
126.8449641694
 30
0.0
 11
24.1265846342
 21
127.058584397
 31
0.0
  0
LWPOLYLINE
  5
130
330
1F
100
AcDbEntity
  8
0
  6
SLD-実線
 62
     7
370
    25
100
AcDbPolyline
 90
       17
 70
   128
 43
0.0
 10
32.9389376549
 20
121.1294144407
 10
32.790979405
 20
121.9607645599
 10
32.5134757512
 20
122.844751382
 10
32.1156597486
 20
123.7519630449
 10
31.6107674651
 20
124.6522149534
 10
31.0155975926
 20
125.5155540762
 10
30.3499525236
 20
126.313255538
 10
29.63597949
 20
127.0187783487
 10
28.8974336836
 20
127.608648471
 10
28.1588878771
 20
128.0632398446
 10
27.4449148435
 20
128.3674273812
 10
26.7792697746
 20
128.5110902036
 10
26.184099902
 20
128.4894483866
 10
25.6792076185
 20
128.3032219929
 10
25.281391616
 20
127.9586071161
 10
25.0038879621
 20
127.4670697249
 10
24.8559297122
 20
126.8449641694
  0
LINE
  5
131
330
1F
100
AcDbEntity
  8
0
  6
SLD-実線
 62
     7
370
    25
100
AcDbLine
 10
33.668282733
 20
120.3115849673
 30
0.0
 11
32.9389376549
 21
121.1294144407
 31
0.0
  0
ARC
  5
132
330
1F
100
AcDbEntity
  8
0
  6
SLD-実線
 62
     7
370
    25
100
AcDbCircle
 10
24.9885843826
 20
119.7176129107
 30
0.0
 40
8.699998060743836
100
AcDbArc
 50
3.9147808439
 51
28.3988035247
  0
LINE
  5
133
330
1F
100
AcDbEntity
  8
0
  6
SLD-実線
 62
     7
370
    25
100
AcDbLine
 10
24.8315696917
 20
118.9931632767
 30
0.0
 11
32.9632976754
 21
113.2431632767
 31
0.0
  0
LINE
  5
134
330
1F
100
AcDbEntity
  8
0
  6
SLD-実線
 62
     7
370
    25
100
AcDbLine
 10
24.8315696917
 20
121.0337224358
 30
0.0
 11
24.8315696917
 21
118.9931632767
 31
0.0
  0
LINE
  5
135
330
1F
100
AcDbEntity
  8
0
  6
SLD-実線
 62
     7
370
    25
100
AcDbLine
 10
24.1244629106
 20
121.8266156546
 30
0.0
 11
24.8315696917
 21
121.0337224358
 31
0.0
  0
LINE
  5
136
330
1F
100
AcDbEntity
  8
0
  6
SLD-実線
 62
     7
370
    25
100
AcDbLine
 10
24.1244629106
 20
121.8266156546
 30
0.0
 11
24.1244629106
 21
119.4931632767
 31
0.0
  0
LINE
  5
137
330
1F
100
AcDbEntity
  8
0
  6
SLD-実線
 62
     7
370
    25
100
AcDbLine
 10
24.1244629106
 20
119.4931632767
 30
0.0
 11
22.1799192623
 21
120.8681632767
 31
0.0
  0
LINE
  5
138
330
1F
100
AcDbEntity
  8
0
  6
SLD-実線
 62
     7
370
    25
100
AcDbLine
 10
22.1799192623
 20
140.3135997594
 30
0.0
 11
22.1799192623
 21
120.8681632767
 31
0.0
  0
LINE
  5
139
330
1F
100
AcDbEntity
  8
0
  6
SLD-実線
 62
     7
370
    25
100
AcDbLine
 10
35.6149481048
 20
130.8135997594
 30
0.0
 11
22.1799192623
 21
140.3135997594
 31
0.0
  0
LINE
  5
13A
330
1F
100
AcDbEntity
  8
0
  6
SLD-実線
 62
     7
370
    25
100
AcDbLine
 10
35.6149481048
 20
130.8135997594
 30
0.0
 11
35.6149481048
 21
111.3681632767
 31
0.0
  0
LINE
  5
13B
330
1F
100
AcDbEntity
  8
0
  6
SLD-実線
 62
     7
370
    25
100
AcDbLine
 10
35.6149481048
 20
111.3681632767
 30
0.0
 11
33.6704044566
 21
112.7431632767
 31
0.0
  0
LINE
  5
13C
330
1F
100
AcDbEntity
  8
0
  6
SLD-実線
 62
     7
370
    25
100
AcDbLine
 10
33.6704044566
 20
112.7431632767
 30
0.0
 11
33.6704044566
 21
115.0766156546
 31
0.0
  0
LINE
  5
13D
330
1F
100
AcDbEntity
  8
0
  6
SLD-実線
 62
     7
370
    25
100
AcDbLine
 10
32.9632976754
 20
115.2837224358
 30
0.0
 11
33.6704044566
 21
115.0766156546
 31
0.0
  0
LINE
  5
13E
330
1F
100
AcDbEntity
  8
0
  6
SLD-実線
 62
     7
370
    25
100
AcDbLine
 10
32.9632976754
 20
113.2431632767
 30
0.0
 11
32.9632976754
 21
115.2837224358
 31
0.0
  0
LINE
  5
13F
330
1F
100
AcDbEntity
  8
0
  6
SLD-実線
 62
     7
370
    25
100
AcDbLine
 10
37.0045115274
 20
112.3507329957
 30
0.0
 11
35.6149481048
 21
111.3681632767
 31
0.0
  0
LINE
  5
140
330
1F
100
AcDbEntity
  8
0
  6
SLD-実線
 62
     7
370
    25
100
AcDbLine
 10
37.3555375809
 20
132.0443823811
 30
0.0
 11
35.6149481048
 21
130.8135997594
 31
0.0
  0
LINE
  5
141
330
1F
100
AcDbEntity
  8
0
  6
SLD-実線
 62
     7
370
    25
100
AcDbLine
 10
22.1799192623
 20
140.3135997594
 30
0.0
 11
23.9205087383
 21
141.5443823811
 31
0.0
  0
LINE
  5
142
330
1F
100
AcDbEntity
  8
0
  6
SLD-実線
 62
     7
370
    25
100
AcDbLine
 10
89.6905272085
 20
140.3135997594
 30
0.0
 11
76.2554983659
 21
130.8135997594
 31
0.0
  0
LINE
  5
143
330
1F
100
AcDbEntity
  8
0
  6
SLD-実線
 62
     7
370
    25
100
AcDbLine
 10
76.2554983659
 20
130.8135997594
 30
0.0
 11
74.5149088899
 21
132.0443823811
 31
0.0
  0
LINE
  5
144
330
1F
100
AcDbEntity
  8
0
  6
SLD-実線
 62
     7
370
    25
100
AcDbLine
 10
87.9499377324
 20
141.5443823811
 30
0.0
 11
89.6905272085
 21
140.3135997594
 31
0.0
  0
LINE
  5
145
330
1F
100
AcDbEntity
  8
0
  6
SLD-実線
 62
     7
370
    25
100
AcDbLine
 10
79.8808774369
 20
128.4710745268
 30
0.0
 11
79.1153274444
 21
127.672167842
 31
0.0
  0
LWPOLYLINE
  5
146
330
1F
100
AcDbEntity
  8
0
  6
SLD-実線
 62
     7
370
    25
100
AcDbPolyline
 90
       14
 70
   128
 43
0.0
 10
86.0651481375
 20
132.8440142759
 10
85.8475435381
 20
133.3039236394
 10
85.509541813
 20
133.6215452634
 10
85.0652998593
 20
133.783575853
 10
84.5334243501
 20
133.7832289032
 10
83.9361924112
 20
133.6205189456
 10
83.2986185632
 20
133.3022609399
 10
82.6474070112
 20
132.8417848355
 10
82.0098331632
 20
132.2583772583
 10
81.4126012243
 20
131.576473708
 10
80.8807257152
 20
130.8246350994
 10
80.4364837614
 20
130.0343515138
 10
80.0984820363
 20
129.238723266
 10
79.8808774369
 20
128.4710745268
  0
LINE
  5
147
330
1F
100
AcDbEntity
  8
0
  6
SLD-実線
 62
     7
370
    25
100
AcDbLine
 10
86.83069813
 20
133.1277587732
 30
0.0
 11
86.0651481375
 21
132.8440142759
 31
0.0
  0
LWPOLYLINE
  5
148
330
1F
100
AcDbEntity
  8
0
  6
SLD-実線
 62
     7
370
    25
100
AcDbPolyline
 90
       17
 70
   128
 43
0.0
 10
86.83069813
 20
133.1277587732
 10
86.6795372369
 20
133.7052263752
 10
86.4080054149
 20
134.1593367252
 10
86.0249207731
 20
134.4753424
 10
85.5427241454
 20
134.6429809834
 10
84.9770750683
 20
134.6568083424
 10
84.3463432321
 20
134.5163754277
 10
83.6710119162
 20
134.2262428569
 10
82.9730127872
 20
133.7958328064
 10
82.2750136582
 20
133.2391230222
 10
81.5996823424
 20
132.574192887
 10
80.9689505061
 20
131.8226362845
 10
80.4033014291
 20
131.0088603293
 10
79.9211048013
 20
130.1592927352
 10
79.5380201595
 20
129.3015235644
 10
79.2664883375
 20
128.4634092291
 10
79.1153274444
 20
127.672167842
  0
LINE
  5
149
330
1F
100
AcDbEntity
  8
0
  6
SLD-実線
 62
     7
370
    25
100
AcDbLine
 10
86.7171907727
 20
129.1504500814
 30
0.0
 11
86.8583985344
 21
132.4844885139
 31
0.0
  0
ARC
  5
14A
330
1F
100
AcDbEntity
  8
0
  6
SLD-実線
 62
     7
370
    25
100
AcDbCircle
 10
82.7905221905
 20
132.6580694588
 30
0.0
 40
4.071578108534963
100
AcDbArc
 50
357.5566057141
 51
359.9813692171
  0
ARC
  5
14B
330
1F
100
AcDbEntity
  8
0
  6
SLD-実線
 62
     7
370
    25
100
AcDbCircle
 10
83.1863668746
 20
132.6586224919
 30
0.0
 40
3.675733688384597
100
AcDbArc
 50
359.9707423976
 51
3.1041529732
  0
LINE
  5
14C
330
1F
100
AcDbEntity
  8
0
  6
SLD-実線
 62
     7
370
    25
100
AcDbLine
 10
86.1516808251
 20
132.0091039651
 30
0.0
 11
86.856707335
 21
132.8576678447
 31
0.0
  0
LINE
  5
14D
330
1F
100
AcDbEntity
  8
0
  6
SLD-実線
 62
     7
370
    25
100
AcDbLine
 10
86.0398488958
 20
129.3686545605
 30
0.0
 11
86.1516808251
 21
132.0091039651
 31
0.0
  0
LWPOLYLINE
  5
14E
330
1F
100
AcDbEntity
  8
0
  6
SLD-実線
 62
     7
370
    25
100
AcDbPolyline
 90
        9
 70
   128
 43
0.0
 10
79.9061766786
 20
125.0314933422
 10
80.587519674
 20
125.9900727938
 10
81.3412783969
 20
126.8743606187
 10
82.1445712109
 20
127.657512746
 10
82.9730127872
 20
128.3157552522
 10
83.8014543636
 20
128.8291060589
 10
84.6047471775
 20
129.1819815236
 10
85.3585059004
 20
129.3636695074
 10
86.0398488958
 20
129.3686545605
  0
LINE
  5
14F
330
1F
100
AcDbEntity
  8
0
  6
SLD-実線
 62
     7
370
    25
100
AcDbLine
 10
79.7943447494
 20
127.5137885157
 30
0.0
 11
79.9061766786
 21
125.0314933422
 31
0.0
  0
LINE
  5
150
330
1F
100
AcDbEntity
  8
0
  6
SLD-実線
 62
     7
370
    25
100
AcDbLine
 10
79.0893182394
 20
127.365294343
 30
0.0
 11
79.7943447494
 21
127.5137885157
 31
0.0
  0
ARC
  5
151
330
1F
100
AcDbEntity
  8
0
  6
SLD-実線
 62
     7
370
    25
100
AcDbCircle
 10
83.1938910833
 20
127.1548123276
 30
0.0
 40
4.109966047296012
100
AcDbArc
 50
177.0644504574
 51
179.9730500958
  0
ARC
  5
152
330
1F
100
AcDbEntity
  8
0
  6
SLD-実線
 62
     7
370
    25
100
AcDbCircle
 10
82.7956874431
 20
127.1554535215
 30
0.0
 40
3.711762177290494
100
AcDbArc
 50
179.9800565122
 51
182.5591080474
  0
LINE
  5
153
330
1F
100
AcDbEntity
  8
0
  6
SLD-実線
 62
     7
370
    25
100
AcDbLine
 10
79.08762704
 20
126.9897232952
 30
0.0
 11
79.2288348017
 21
123.8553827943
 31
0.0
  0
ARC
  5
154
330
1F
100
AcDbEntity
  8
0
  6
SLD-実線
 62
     7
370
    25
100
AcDbCircle
 10
86.8818620881
 20
119.7176129107
 30
0.0
 40
8.69999806074224
100
AcDbArc
 50
151.6011964753
 51
176.0852191561
  0
LINE
  5
155
330
1F
100
AcDbEntity
  8
0
  6
SLD-実線
 62
     7
370
    25
100
AcDbLine
 10
78.9315088158
 20
121.1294144407
 30
0.0
 11
78.2021637378
 21
120.3115849673
 31
0.0
  0
LWPOLYLINE
  5
156
330
1F
100
AcDbEntity
  8
0
  6
SLD-実線
 62
     7
370
    25
100
AcDbPolyline
 90
       17
 70
   128
 43
0.0
 10
87.0145167586
 20
126.8449641694
 10
86.8665585087
 20
127.4670697249
 10
86.5890548548
 20
127.9586071161
 10
86.1912388523
 20
128.3032219929
 10
85.6863465688
 20
128.4894483866
 10
85.0911766962
 20
128.5110902036
 10
84.4255316273
 20
128.3674273812
 10
83.7115585937
 20
128.0632398446
 10
82.9730127872
 20
127.608648471
 10
82.2344669807
 20
127.0187783487
 10
81.5204939472
 20
126.313255538
 10
80.8548488782
 20
125.5155540762
 10
80.2596790056
 20
124.6522149534
 10
79.7547867221
 20
123.7519630449
 10
79.3569707196
 20
122.844751382
 10
79.0794670657
 20
121.9607645599
 10
78.9315088158
 20
121.1294144407
  0
LINE
  5
157
330
1F
100
AcDbEntity
  8
0
  6
SLD-実線
 62
     7
370
    25
100
AcDbLine
 10
87.7438618366
 20
127.058584397
 30
0.0
 11
87.0145167586
 21
126.8449641694
 31
0.0
  0
ARC
  5
158
330
1F
100
AcDbEntity
  8
0
  6
SLD-実線
 62
     7
370
    25
100
AcDbCircle
 10
85.4130691034
 20
127.2125236794
 30
0.0
 40
2.335870730162196
100
AcDbArc
 50
356.2213370755
 51
56.0615382106
  0
LINE
  5
159
330
1F
100
AcDbEntity
  8
0
  6
SLD-実線
 62
     7
370
    25
100
AcDbLine
 10
87.0145167586
 20
125.9561545177
 30
0.0
 11
87.7459835602
 21
126.776363123
 31
0.0
  0
LWPOLYLINE
  5
15A
330
1F
100
AcDbEntity
  8
0
  6
SLD-実線
 62
     7
370
    25
100
AcDbPolyline
 90
       17
 70
   128
 43
0.0
 10
78.9315088158
 20
120.2406047889
 10
79.0794670657
 20
119.6184992335
 10
79.3569707196
 20
119.1269618423
 10
79.7547867221
 20
118.7823469655
 10
80.2596790056
 20
118.5961205718
 10
80.8548488782
 20
118.5744787547
 10
81.5204939472
 20
118.7181415772
 10
82.2344669807
 20
119.0223291137
 10
82.9730127872
 20
119.4769204874
 10
83.7115585937
 20
120.0667906097
 10
84.4255316273
 20
120.7723134204
 10
85.0911766962
 20
121.5700148822
 10
85.6863465688
 20
122.433354005
 10
86.1912388523
 20
123.3336059135
 10
86.5890548548
 20
124.2408175764
 10
86.8665585087
 20
125.1248043985
 10
87.0145167586
 20
125.9561545177
  0
LINE
  5
15B
330
1F
100
AcDbEntity
  8
0
  6
SLD-実線
 62
     7
370
    25
100
AcDbLine
 10
78.2000420142
 20
120.026363123
 30
0.0
 11
78.9315088158
 21
120.2406047889
 31
0.0
  0
LINE
  5
15C
330
1F
100
AcDbEntity
  8
0
  6
SLD-実線
 62
     7
370
    25
100
AcDbLine
 10
78.2000420142
 20
120.026363123
 30
0.0
 11
78.2000420142
 21
115.3594583671
 31
0.0
  0
LINE
  5
15D
330
1F
100
AcDbEntity
  8
0
  6
SLD-実線
 62
     7
370
    25
100
AcDbLine
 10
78.9071487954
 20
116.1523515859
 30
0.0
 11
78.2000420142
 21
115.3594583671
 31
0.0
  0
LINE
  5
15E
330
1F
100
AcDbEntity
  8
0
  6
SLD-実線
 62
     7
370
    25
100
AcDbLine
 10
78.9071487954
 20
118.1677844792
 30
0.0
 11
78.9071487954
 21
116.1523515859
 31
0.0
  0
LWPOLYLINE
  5
15F
330
1F
100
AcDbEntity
  8
0
  6
SLD-実線
 62
     7
370
    25
100
AcDbPolyline
 90
       13
 70
   128
 43
0.0
 10
87.038876779
 20
123.9177844792
 10
86.5575675345
 20
122.9259054031
 10
85.9730127872
 20
121.9517942215
 10
85.3020493979
 20
121.0235081425
 10
84.5640030449
 20
120.1677844792
 10
83.7801315893
 20
119.4092705382
 10
82.9730127872
 20
118.7698137062
 10
82.1658939851
 20
118.2678321818
 10
81.3820225295
 20
117.9177844792
 10
80.6439761766
 20
117.7297529804
 10
79.9730127872
 20
117.7091535344
 10
79.3884580399
 20
117.8565794645
 10
78.9071487954
 20
118.1677844792
  0
LINE
  5
160
330
1F
100
AcDbEntity
  8
0
  6
SLD-実線
 62
     7
370
    25
100
AcDbLine
 10
87.038876779
 20
121.9023515859
 30
0.0
 11
87.038876779
 21
123.9177844792
 31
0.0
  0
LINE
  5
161
330
1F
100
AcDbEntity
  8
0
  6
SLD-実線
 62
     7
370
    25
100
AcDbLine
 10
87.7459835602
 20
122.1094583671
 30
0.0
 11
87.038876779
 21
121.9023515859
 31
0.0
  0
LINE
  5
162
330
1F
100
AcDbEntity
  8
0
  6
SLD-実線
 62
     7
370
    25
100
AcDbLine
 10
87.7459835602
 20
122.1094583671
 30
0.0
 11
87.7459835602
 21
126.776363123
 31
0.0
  0
LINE
  5
163
330
1F
100
AcDbEntity
  8
0
  6
SLD-実線
 62
     7
370
    25
100
AcDbLine
 10
87.038876779
 20
118.9931632767
 30
0.0
 11
87.038876779
 21
121.0337224358
 31
0.0
  0
LINE
  5
164
330
1F
100
AcDbEntity
  8
0
  6
SLD-実線
 62
     7
370
    25
100
AcDbLine
 10
78.9071487954
 20
113.2431632767
 30
0.0
 11
87.038876779
 21
118.9931632767
 31
0.0
  0
LINE
  5
165
330
1F
100
AcDbEntity
  8
0
  6
SLD-実線
 62
     7
370
    25
100
AcDbLine
 10
78.9071487954
 20
115.2837224358
 30
0.0
 11
78.9071487954
 21
113.2431632767
 31
0.0
  0
LINE
  5
166
330
1F
100
AcDbEntity
  8
0
  6
SLD-実線
 62
     7
370
    25
100
AcDbLine
 10
78.2000420142
 20
115.0766156546
 30
0.0
 11
78.9071487954
 21
115.2837224358
 31
0.0
  0
LINE
  5
167
330
1F
100
AcDbEntity
  8
0
  6
SLD-実線
 62
     7
370
    25
100
AcDbLine
 10
78.2000420142
 20
115.0766156546
 30
0.0
 11
78.2000420142
 21
112.7431632767
 31
0.0
  0
LINE
  5
168
330
1F
100
AcDbEntity
  8
0
  6
SLD-実線
 62
     7
370
    25
100
AcDbLine
 10
78.2000420142
 20
112.7431632767
 30
0.0
 11
76.2554983659
 21
111.3681632767
 31
0.0
  0
LINE
  5
169
330
1F
100
AcDbEntity
  8
0
  6
SLD-実線
 62
     7
370
    25
100
AcDbLine
 10
76.2554983659
 20
130.8135997594
 30
0.0
 11
76.2554983659
 21
111.3681632767
 31
0.0
  0
LINE
  5
16A
330
1F
100
AcDbEntity
  8
0
  6
SLD-実線
 62
     7
370
    25
100
AcDbLine
 10
89.6905272085
 20
140.3135997594
 30
0.0
 11
89.6905272085
 21
120.8681632767
 31
0.0
  0
LINE
  5
16B
330
1F
100
AcDbEntity
  8
0
  6
SLD-実線
 62
     7
370
    25
100
AcDbLine
 10
89.6905272085
 20
120.8681632767
 30
0.0
 11
87.7459835602
 21
119.4931632767
 31
0.0
  0
LINE
  5
16C
330
1F
100
AcDbEntity
  8
0
  6
SLD-実線
 62
     7
370
    25
100
AcDbLine
 10
87.7459835602
 20
119.4931632767
 30
0.0
 11
87.7459835602
 21
121.8266156546
 31
0.0
  0
LINE
  5
16D
330
1F
100
AcDbEntity
  8
0
  6
SLD-実線
 62
     7
370
    25
100
AcDbLine
 10
87.038876779
 20
121.0337224358
 30
0.0
 11
87.7459835602
 21
121.8266156546
 31
0.0
  0
LINE
  5
16E
330
1F
100
AcDbEntity
  8
0
  6
SLD-実線
 62
     7
370
    25
100
AcDbLine
 10
76.2554983659
 20
111.3681632767
 30
0.0
 11
74.8659349434
 21
112.3507329957
 31
0.0
  0
LINE
  5
16F
330
1F
100
AcDbEntity
  8
0
  6
SLD-実線
 62
     7
370
    25
100
AcDbLine
 10
25.0416520863
 20
133.1410809082
 30
0.0
 11
25.7487588675
 21
133.6410809082
 31
0.0
  0
ARC
  5
170
330
1F
100
AcDbEntity
  8
0
  6
SLD-実線
 62
     7
370
    25
100
AcDbCircle
 10
28.4424481456
 20
133.5418994299
 30
0.0
 40
2.372528407422882
100
AcDbArc
 50
152.2816980975
 51
180.9282129198
  0
LINE
  5
171
330
1F
100
AcDbEntity
  8
0
  6
SLD-実線
 62
     7
370
    25
100
AcDbLine
 10
86.1235913488
 20
133.6277587732
 30
0.0
 11
86.83069813
 21
133.1277587732
 31
0.0
  0
ARC
  5
172
330
1F
100
AcDbEntity
  8
0
  6
SLD-実線
 62
     7
370
    25
100
AcDbCircle
 10
83.4298588492
 20
133.5427236439
 30
0.0
 40
2.370498029161986
100
AcDbArc
 50
359.1572951373
 51
27.7215828973
  0
LINE
  5
173
330
1F
100
AcDbEntity
  8
0
  6
SLD-実線
 62
     7
370
    25
100
AcDbLine
 10
32.5090156667
 20
128.7957033832
 30
0.0
 11
31.9971525721
 21
128.4337615179
 31
0.0
  0
LWPOLYLINE
  5
174
330
1F
100
AcDbEntity
  8
0
  6
SLD-実線
 62
     7
370
    25
100
AcDbPolyline
 90
        3
 70
   128
 43
0.0
 10
27.640579878
 20
134.4758718743
 10
27.3838175427
 20
134.3473549672
 10
27.360017644
 20
134.330980124
  0
LINE
  5
175
330
1F
100
AcDbEntity
  8
0
  6
SLD-実線
 62
     7
370
    25
100
AcDbLine
 10
79.3724002216
 20
128.8306222139
 30
0.0
 11
79.8808774369
 21
128.4710745268
 31
0.0
  0
LWPOLYLINE
  5
176
330
1F
100
AcDbEntity
  8
0
  6
SLD-実線
 62
     7
370
    25
100
AcDbPolyline
 90
        3
 70
   128
 43
0.0
 10
84.5104288268
 20
134.330980124
 10
84.4866289281
 20
134.3473549672
 10
84.2298665927
 20
134.4758718743
  0
LINE
  5
177
330
1F
100
AcDbEntity
  8
0
  6
SLD-実線
 62
     7
370
    25
100
AcDbLine
 10
32.7186287974
 20
125.5649057102
 30
0.0
 11
31.9642697921
 21
125.0314933422
 31
0.0
  0
LINE
  5
178
330
1F
100
AcDbEntity
  8
0
  6
SLD-実線
 62
     7
370
    25
100
AcDbLine
 10
79.1518176734
 20
125.5649057102
 30
0.0
 11
79.9061766786
 21
125.0314933422
 31
0.0
  0
LINE
  5
179
330
1F
100
AcDbEntity
  8
0
  6
SLD-実線
 62
     7
370
    25
100
AcDbLine
 10
33.5051344405
 20
121.5297760273
 30
0.0
 11
32.9389376549
 21
121.1294144407
 31
0.0
  0
LINE
  5
17A
330
1F
100
AcDbEntity
  8
0
  6
SLD-実線
 62
     7
370
    25
100
AcDbLine
 10
32.7085960248
 20
125.3422116804
 30
0.0
 11
32.6150512383
 21
125.4916653159
 31
0.0
  0
LWPOLYLINE
  5
17B
330
1F
100
AcDbEntity
  8
0
  6
SLD-実線
 62
     7
370
    25
100
AcDbPolyline
 90
        3
 70
   128
 43
0.0
 10
27.1521496096
 20
129.2193222201
 10
26.9533841092
 20
129.1565899751
 10
26.6383298075
 20
128.9876398195
  0
LINE
  5
17C
330
1F
100
AcDbEntity
  8
0
  6
SLD-実線
 62
     7
370
    25
100
AcDbLine
 10
78.3653120302
 20
121.5297760273
 30
0.0
 11
78.9315088158
 21
121.1294144407
 31
0.0
  0
LWPOLYLINE
  5
17D
330
1F
100
AcDbEntity
  8
0
  6
SLD-実線
 62
     7
370
    25
100
AcDbPolyline
 90
        3
 70
   128
 43
0.0
 10
85.2321166633
 20
128.9876398195
 10
84.9170623616
 20
129.1565899751
 10
84.7182968611
 20
129.2193222201
  0
LINE
  5
17E
330
1F
100
AcDbEntity
  8
0
  6
SLD-実線
 62
     7
370
    25
100
AcDbLine
 10
79.2553952324
 20
125.4916653159
 30
0.0
 11
79.161850446
 21
125.3422116804
 31
0.0
  0
LINE
  5
17F
330
1F
100
AcDbEntity
  8
0
  6
SLD-実線
 62
     7
370
    25
100
AcDbLine
 10
86.1235913488
 20
133.6277587732
 30
0.0
 11
85.7029587886
 21
133.4718549452
 31
0.0
  0
LINE
  5
180
330
1F
100
AcDbEntity
  8
0
  6
SLD-実線
 62
     7
370
    25
100
AcDbLine
 10
26.1603245763
 20
133.4648980914
 30
0.0
 11
25.7487588675
 21
133.6410809082
 31
0.0
  0
LINE
  5
181
330
1F
100
AcDbEntity
  8
0
  6
SLD-実線
 62
     7
370
    25
100
AcDbLine
 10
25.8198751151
 20
129.6218211917
 30
0.0
 11
25.1532556981
 21
129.1504500814
 31
0.0
  0
LINE
  5
182
330
1F
100
AcDbEntity
  8
0
  6
SLD-実線
 62
     7
370
    25
100
AcDbLine
 10
86.0505713557
 20
129.6218211917
 30
0.0
 11
86.7171907727
 21
129.1504500814
 31
0.0
  0
LWPOLYLINE
  5
183
330
1F
100
AcDbEntity
  8
0
  6
SLD-実線
 62
     7
370
    25
100
AcDbPolyline
 90
        3
 70
   128
 43
0.0
 10
33.2778579032
 20
119.5979291389
 10
33.4149610927
 20
119.7080086388
 10
33.6704044566
 20
120.009472084
  0
LWPOLYLINE
  5
184
330
1F
100
AcDbEntity
  8
0
  6
SLD-実線
 62
     7
370
    25
100
AcDbPolyline
 90
        3
 70
   128
 43
0.0
 10
78.2000420142
 20
120.009472084
 10
78.455485378
 20
119.7080086388
 10
78.5925885676
 20
119.5979291389
  0
LINE
  5
185
330
1F
100
AcDbEntity
  8
0
  6
SLD-実線
 62
     7
370
    25
100
AcDbLine
 10
33.6704044566
 20
116.6523515859
 30
0.0
 11
32.9632976754
 21
116.1523515859
 31
0.0
  0
LINE
  5
186
330
1F
100
AcDbEntity
  8
0
  6
SLD-実線
 62
     7
370
    25
100
AcDbLine
 10
33.6704044566
 20
118.6677844792
 30
0.0
 11
32.9632976754
 21
118.1677844792
 31
0.0
  0
LINE
  5
187
330
1F
100
AcDbEntity
  8
0
  6
SLD-実線
 62
     7
370
    25
100
AcDbLine
 10
33.6704044566
 20
113.7431632767
 30
0.0
 11
32.9632976754
 21
113.2431632767
 31
0.0
  0
LINE
  5
188
330
1F
100
AcDbEntity
  8
0
  6
SLD-実線
 62
     7
370
    25
100
AcDbLine
 10
25.2828691577
 20
124.2369013919
 30
0.0
 11
24.8315696917
 21
123.9177844792
 31
0.0
  0
ARC
  5
189
330
1F
100
AcDbEntity
  8
0
  6
SLD-実線
 62
     7
370
    25
100
AcDbCircle
 10
32.626917359
 20
120.9310201395
 30
0.0
 40
2.492208052528566
100
AcDbArc
 50
248.2491782287
 51
294.7525297501
  0
LINE
  5
18A
330
1F
100
AcDbEntity
  8
0
  6
SLD-実線
 62
     7
370
    25
100
AcDbLine
 10
78.2000420142
 20
113.7431632767
 30
0.0
 11
78.9071487954
 21
113.2431632767
 31
0.0
  0
LINE
  5
18B
330
1F
100
AcDbEntity
  8
0
  6
SLD-実線
 62
     7
370
    25
100
AcDbLine
 10
78.2000420142
 20
118.6677844792
 30
0.0
 11
78.9071487954
 21
118.1677844792
 31
0.0
  0
LINE
  5
18C
330
1F
100
AcDbEntity
  8
0
  6
SLD-実線
 62
     7
370
    25
100
AcDbLine
 10
78.2000420142
 20
116.6523515859
 30
0.0
 11
78.9071487954
 21
116.1523515859
 31
0.0
  0
ARC
  5
18D
330
1F
100
AcDbEntity
  8
0
  6
SLD-実線
 62
     7
370
    25
100
AcDbCircle
 10
79.2435291118
 20
120.9310201395
 30
0.0
 40
2.49220805252862
100
AcDbArc
 50
245.2474702499
 51
291.7508217713
  0
LINE
  5
18E
330
1F
100
AcDbEntity
  8
0
  6
SLD-実線
 62
     7
370
    25
100
AcDbLine
 10
86.587577313
 20
124.2369013919
 30
0.0
 11
87.038876779
 21
123.9177844792
 31
0.0
  0
LINE
  5
18F
330
1F
100
AcDbEntity
  8
0
  6
SLD-実線
 62
     7
370
    25
100
AcDbLine
 10
24.1265846342
 20
127.058584397
 30
0.0
 11
24.8336914153
 21
127.558584397
 31
0.0
  0
ARC
  5
190
330
1F
100
AcDbEntity
  8
0
  6
SLD-実線
 62
     7
370
    25
100
AcDbCircle
 10
27.8688435951
 20
127.8678806115
 30
0.0
 40
2.68114101311365
100
AcDbArc
 50
139.8042093511
 51
180.8002715516
  0
LINE
  5
191
330
1F
100
AcDbEntity
  8
0
  6
SLD-実線
 62
     7
370
    25
100
AcDbLine
 10
87.0367550554
 20
127.558584397
 30
0.0
 11
87.7438618366
 21
127.058584397
 31
0.0
  0
ARC
  5
192
330
1F
100
AcDbEntity
  8
0
  6
SLD-実線
 62
     7
370
    25
100
AcDbCircle
 10
84.1436564641
 20
127.9195195176
 30
0.0
 40
2.539843727379892
100
AcDbArc
 50
358.1660996321
 51
41.3742896518
  0
LINE
  5
193
330
1F
100
AcDbEntity
  8
0
  6
SLD-実線
 62
     7
370
    25
100
AcDbLine
 10
25.0185700765
 20
127.5044346908
 30
0.0
 11
24.8336914153
 21
127.558584397
 31
0.0
  0
LINE
  5
194
330
1F
100
AcDbEntity
  8
0
  6
SLD-実線
 62
     7
370
    25
100
AcDbLine
 10
87.0367550554
 20
127.558584397
 30
0.0
 11
86.8518763942
 21
127.5044346908
 31
0.0
  0
LINE
  5
195
330
1F
100
AcDbEntity
  8
0
  6
SLD-実線
 62
     7
370
    25
100
AcDbLine
 10
24.8315696917
 20
119.9931632767
 30
0.0
 11
24.1244629106
 21
119.4931632767
 31
0.0
  0
LINE
  5
196
330
1F
100
AcDbEntity
  8
0
  6
SLD-実線
 62
     7
370
    25
100
AcDbLine
 10
24.8315696917
 20
122.6094583671
 30
0.0
 11
24.1244629106
 21
122.1094583671
 31
0.0
  0
LINE
  5
197
330
1F
100
AcDbEntity
  8
0
  6
SLD-実線
 62
     7
370
    25
100
AcDbLine
 10
25.1851230823
 20
124.509472084
 30
0.0
 11
25.1851230823
 21
124.1677844792
 31
0.0
  0
LINE
  5
198
330
1F
100
AcDbEntity
  8
0
  6
SLD-実線
 62
     7
370
    25
100
AcDbLine
 10
87.038876779
 20
119.9931632767
 30
0.0
 11
87.7459835602
 21
119.4931632767
 31
0.0
  0
LINE
  5
199
330
1F
100
AcDbEntity
  8
0
  6
SLD-実線
 62
     7
370
    25
100
AcDbLine
 10
87.038876779
 20
122.6094583671
 30
0.0
 11
87.7459835602
 21
122.1094583671
 31
0.0
  0
LINE
  5
19A
330
1F
100
AcDbEntity
  8
0
  6
SLD-実線
 62
     7
370
    25
100
AcDbLine
 10
86.6853233884
 20
124.1677844792
 30
0.0
 11
86.6853233884
 21
124.509472084
 31
0.0
  0
LWPOLYLINE
  5
19B
330
1F
100
AcDbEntity
  8
0
  6
SLD-実線
 62
     7
370
    25
100
AcDbPolyline
 90
       92
 70
   128
 43
0.0
 10
82.4321738151
 20
225.0567262769
 10
84.1970937407
 20
223.7194530304
 10
85.827332983
 20
222.299266101
 10
87.3151227096
 20
220.8029333264
 10
88.6533729248
 20
219.2375854135
 10
89.835706257
 20
217.610681958
 10
90.8564883494
 20
215.9299758957
 10
91.7108547105
 20
214.2034765565
 10
92.3947338955
 20
212.4394114959
 10
92.9048669086
 20
210.6461872874
 10
93.2388227337
 20
208.8323494608
 10
93.3950099192
 20
207.0065417794
 10
93.3726841621
 20
205.1774650484
 10
93.1719518548
 20
203.3538356512
 10
92.793769578
 20
201.5443440125
 10
92.2399395427
 20
199.7576131839
 10
91.5131010011
 20
198.0021577516
 10
90.6167176698
 20
196.28634326
 10
89.5550612237
 20
194.6183463467
 10
88.3331909392
 20
193.0061157764
 10
86.9569295847
 20
191.4573345621
 10
85.4328356721
 20
189.9793833516
 10
83.7681722032
 20
188.5793052554
 10
81.9708720574
 20
187.2637722833
 10
80.0495001884
 20
186.039053549
 10
78.0132128081
 20
184.9109853949
 10
75.8717137532
 20
183.8849435796
 10
73.635208242
 20
182.9658176596
 10
71.3143542417
 20
182.1579876883
 10
68.9202116786
 20
181.4653033436
 10
66.4641897322
 20
180.8910655818
 10
63.9579924655
 20
180.4380109073
 10
61.41356305
 20
180.1082983319
 10
58.8430268504
 20
179.9034990863
 10
56.2586336423
 20
179.824589132
 10
53.6726992364
 20
179.8719445111
 10
51.0975467877
 20
180.0453395535
 10
48.5454480703
 20
180.3439479528
 10
46.0285649969
 20
180.7663467041
 10
43.5588916615
 20
181.310522885
 10
41.1481971821
 20
181.9738832482
 10
38.8079696159
 20
182.7532665793
 10
36.5493612129
 20
183.644958762
 10
34.3831352707
 20
184.6447104769
 10
32.3196148424
 20
185.7477574517
 10
30.3686335425
 20
186.9488431654
 10
28.5394886856
 20
188.2422438976
 10
26.8408969797
 20
189.6217960046
 10
25.2809529879
 20
191.0809252926
 10
23.8670905537
 20
192.6126783459
 10
22.6060473755
 20
194.2097556638
 10
21.5038328983
 20
195.8645464454
 10
20.565699676
 20
197.5691648591
 10
19.7961183407
 20
199.3154876219
 10
19.1987562978
 20
201.0951927105
 10
18.7764602496
 20
202.8997990199
 10
18.5312426291
 20
204.7207067789
 10
18.4642720098
 20
206.549238533
 10
18.5758675372
 20
208.3766804957
 10
18.865497408
 20
210.1943240737
 10
19.3317814037
 20
211.9935073677
 10
19.9724974689
 20
213.76565645
 10
20.7845922997
 20
215.502326223
 10
21.7641958945
 20
217.1952406646
 10
22.9066399959
 20
218.8363322663
 10
24.2064803376
 20
220.4177804794
 10
25.6575225883
 20
221.932048983
 10
27.2528518711
 20
223.3719215981
 10
28.9848657153
 20
224.7305366758
 10
30.8453102862
 20
226.0014197968
 10
32.8253197182
 20
227.178514624
 10
34.9154583646
 20
228.2562117648
 10
37.105765763
 20
229.2293755013
 10
39.3858041011
 20
230.0933682652
 10
41.744707958
 20
230.8440727375
 10
44.1712360825
 20
231.4779114696
 10
46.6538249631
 20
231.9918639312
 10
49.1806439331
 20
232.3834809048
 10
51.7396515496
 20
232.6508961572
 10
54.3186529758
 20
232.7928353329
 10
56.9053580954
 20
232.8086220271
 10
59.4874400807
 20
232.6981810091
 10
62.052594135
 20
232.4620385805
 10
64.5885961312
 20
232.1013200677
 10
67.0833608647
 20
231.6177444585
 10
69.5249996457
 20
231.0136162109
 10
71.9018769533
 20
230.2918142713
 10
74.2026658847
 20
229.4557783545
 10
76.416402133
 20
228.5094925523
 10
78.5325362367
 20
227.4574663477
 10
80.5409838533
 20
226.3047131245
 10
82.4321738151
 20
225.0567262769
  0
LWPOLYLINE
  5
19C
330
1F
100
AcDbEntity
  8
0
  6
SLD-実線
 62
     7
370
    25
100
AcDbPolyline
 90
       91
 70
   128
 43
0.0
 10
81.7446207493
 20
188.7581059077
 10
79.8813777941
 20
187.5295063446
 10
77.901471581
 20
186.3958045606
 10
75.8145480139
 20
185.3625238368
 10
73.6307743748
 20
184.4346982131
 10
71.3607897893
 20
183.6168479626
 10
69.0156533941
 20
182.9129575695
 10
66.606790458
 20
182.3264563171
 10
64.1459367191
 20
181.8602015805
 10
61.6450812095
 20
181.5164649059
 10
59.1164078458
 20
181.2969209439
 10
56.5722360704
 20
181.2026392905
 10
54.0249608325
 20
181.2340792765
 10
51.486992201
 20
181.3910877295
 10
48.970694904
 20
181.6728997201
 10
46.4883280889
 20
182.0781422885
 10
44.0519855974
 20
182.6048411337
 10
41.6735370452
 20
183.2504302319
 10
39.3645699945
 20
184.0117643379
 10
37.1363335007
 20
184.8851343084
 10
34.9996833081
 20
185.8662851728
 10
32.9650289615
 20
186.9504368626
 10
31.0422830925
 20
188.1323074998
 10
29.2408131256
 20
189.4061391295
 10
27.5693956415
 20
190.765725772
 10
26.0361736181
 20
192.2044436578
 10
24.648616759
 20
193.715283498
 10
23.4134851017
 20
195.2908846329
 10
22.3367960835
 20
196.9235708919
 10
21.4237952252
 20
198.6053879919
 10
20.678930575
 20
200.328142289
 10
20.1058310387
 20
202.0834406973
 10
19.7072886996
 20
203.8627315795
 10
19.4852452159
 20
205.6573464092
 10
19.4407823613
 20
207.4585420035
 10
19.5741167541
 20
209.2575431184
 10
19.8845988028
 20
211.0455852013
 10
20.3707158698
 20
212.8139570909
 10
21.0300996419
 20
214.5540434572
 10
21.8595376674
 20
216.2573667743
 10
22.8549890077
 20
217.9156286221
 10
24.011603924
 20
219.5207501157
 10
25.3237475046
 20
221.0649112645
 10
26.7850271179
 20
222.5405890706
 10
28.3883235566
 20
223.94059418
 10
30.1258257214
 20
225.2581059086
 10
31.9890686766
 20
226.4867054717
 10
33.9689748898
 20
227.6204072557
 10
36.0558984568
 20
228.6536879795
 10
38.239672096
 20
229.5815136033
 10
40.5096566815
 20
230.3993638538
 10
42.8547930767
 20
231.1032542469
 10
45.2636560127
 20
231.6897554993
 10
47.7245097516
 20
232.1560102359
 10
50.2253652613
 20
232.4997469105
 10
52.754038625
 20
232.7192908725
 10
55.2982104004
 20
232.8135725259
 10
57.8454856383
 20
232.7821325398
 10
60.3834542698
 20
232.6251240868
 10
62.8997515668
 20
232.3433120963
 10
65.3821183819
 20
231.9380695279
 10
67.8184608734
 20
231.4113706826
 10
70.1969094256
 20
230.7657815845
 10
72.5058764763
 20
230.0044474785
 10
74.7341129701
 20
229.131077508
 10
76.8707631627
 20
228.1499266436
 10
78.9054175093
 20
227.0657749538
 10
80.8281633783
 20
225.8839043166
 10
82.6296333451
 20
224.6100726869
 10
84.3010508293
 20
223.2504860444
 10
85.8342728527
 20
221.8117681586
 10
87.2218297118
 20
220.3009283184
 10
88.4569613691
 20
218.7253271835
 10
89.5336503872
 20
217.0926409244
 10
90.4466512456
 20
215.4108238245
 10
91.1915158958
 20
213.6880695274
 10
91.7646154321
 20
211.9327711191
 10
92.1631577712
 20
210.1534802369
 10
92.3852012548
 20
208.3588654071
 10
92.4296641095
 20
206.5576698129
 10
92.2963297166
 20
204.758668698
 10
91.985847668
 20
202.9706266151
 10
91.4997306009
 20
201.2022547254
 10
90.8403468289
 20
199.4621683592
 10
90.0109088034
 20
197.7588450421
 10
89.015457463
 20
196.1005831943
 10
87.8588425468
 20
194.4954617007
 10
86.5466989661
 20
192.9513005519
 10
85.0854193528
 20
191.4756227458
 10
83.4821229142
 20
190.0756176364
 10
81.7446207493
 20
188.7581059077
  0
LWPOLYLINE
  5
19D
330
1F
100
AcDbEntity
  8
0
  6
SLD-実線
 62
     7
370
    25
100
AcDbPolyline
 90
       49
 70
   128
 43
0.0
 10
18.4867569323
 20
207.3371168386
 10
18.436619911
 20
206.1763001887
 10
18.503639952
 20
204.3464190496
 10
18.7490385336
 20
202.5241675317
 10
19.1716462198
 20
200.7182294934
 10
19.7694490925
 20
198.9372110519
 10
20.5395983488
 20
197.1895995711
 10
21.4784238768
 20
195.4837232155
 10
22.5814517452
 20
193.8277112629
 10
23.8434255241
 20
192.2294553644
 10
25.2583313335
 20
190.6965719372
 10
26.8194265031
 20
189.2363658688
 10
28.5192717033
 20
187.8557957061
 10
30.3497663977
 20
186.5614404948
 10
32.3021874456
 20
185.3594684267
 10
34.3672306714
 20
184.2556074462
 10
36.5350552037
 20
183.2551179536
 10
38.7953303715
 20
182.362767737
 10
41.1372849343
 20
181.5828092513
 10
43.5497584121
 20
180.9189593541
 10
46.02125427
 20
180.3743815925
 10
48.5399947048
 20
179.9516711274
 10
51.0939767714
 20
179.6528423667
 10
53.671029582
 20
179.4793193655
 10
56.2588723066
 20
179.4319290401
 10
58.8451726959
 20
179.5108972268
 10
61.4176058508
 20
179.7158476062
 10
63.9639129559
 20
180.0458034966
 10
66.4719596983
 20
180.4991925078
 10
68.929794093
 20
181.0738540347
 10
71.3257034399
 20
181.7670495534
 10
73.6482701398
 20
182.5754756716
 10
75.8864261047
 20
183.4952798707
 10
78.0295055022
 20
184.5220788648
 10
80.0672955831
 20
185.6509794891
 10
81.9900853495
 20
186.876602018
 10
83.7887118327
 20
188.1931058021
 10
85.4546037582
 20
189.5942171012
 10
86.9798223925
 20
191.073258982
 10
88.3570993742
 20
192.6231831364
 10
89.5798713513
 20
194.2366034698
 10
90.6423112584
 20
195.9058312998
 10
91.5393560855
 20
197.6229119954
 10
92.2667310056
 20
199.3796628853
 10
92.8209697459
 20
201.1677122515
 10
93.1994311064
 20
202.9785392243
 10
93.4003115463
 20
204.8035143888
 10
93.422653779
 20
206.633940907
 10
93.3836895385
 20
207.3371168386
  0
LWPOLYLINE
  5
19E
330
1F
100
AcDbEntity
  8
0
  6
SLD-実線
 62
     7
370
    25
100
AcDbPolyline
 90
       22
 70
   128
 43
0.0
 10
32.9542528468
 20
190.7581059076
 10
32.6002356222
 20
191.0972882762
 10
32.4033334627
 20
191.4951871913
 10
32.3810419894
 20
191.9164475882
 10
32.5353418975
 20
192.3236386318
 10
32.8525229629
 20
192.6805796111
 10
33.3044022562
 20
192.9555547537
 10
33.850828319
 20
193.1241313113
 10
34.4432487977
 20
193.1713305172
 10
35.0290245331
 20
193.0929585146
 10
35.5561067803
 20
192.895979
 10
35.9776619687
 20
192.5978944676
 10
36.2562330698
 20
192.2251910363
 10
36.3670678188
 20
191.8109850416
 10
36.3003180618
 20
191.3920805038
 10
36.0619148077
 20
191.0056989293
 10
35.6730412318
 20
190.6861720168
 10
35.1682504578
 20
190.4618911345
 10
34.5923953614
 20
190.3527846232
 10
33.9966431949
 20
190.3685470752
 10
33.4339291526
 20
190.5077779274
 10
32.9542528468
 20
190.7581059076
  0
LWPOLYLINE
  5
19F
330
1F
100
AcDbEntity
  8
0
  6
SLD-実線
 62
     7
370
    25
100
AcDbPolyline
 90
       22
 70
   128
 43
0.0
 10
76.0877664992
 20
221.2581059076
 10
75.7337492746
 20
221.5972882762
 10
75.5368471151
 20
221.9951871913
 10
75.5145556418
 20
222.4164475882
 10
75.6688555498
 20
222.8236386318
 10
75.9860366153
 20
223.1805796111
 10
76.4379159085
 20
223.4555547537
 10
76.9843419714
 20
223.6241313113
 10
77.5767624501
 20
223.6713305172
 10
78.1625381855
 20
223.5929585146
 10
78.6896204327
 20
223.395979
 10
79.1111756211
 20
223.0978944676
 10
79.3897467222
 20
222.7251910363
 10
79.5005814712
 20
222.3109850416
 10
79.4338317142
 20
221.8920805038
 10
79.19542846
 20
221.5056989293
 10
78.8065548841
 20
221.1861720168
 10
78.3017641102
 20
220.9618911345
 10
77.7259090138
 20
220.8527846232
 10
77.1301568472
 20
220.8685470752
 10
76.567442805
 20
221.0077779274
 10
76.0877664992
 20
221.2581059076
  0
LWPOLYLINE
  5
1A0
330
1F
100
AcDbEntity
  8
0
  6
SLD-実線
 62
     7
370
    25
100
AcDbPolyline
 90
       70
 70
   128
 43
0.0
 10
71.1380190309
 20
217.7581059076
 10
72.4574955963
 20
216.7360171949
 10
73.6400634095
 20
215.6333199457
 10
74.6759233411
 20
214.4591514566
 10
75.5564919295
 20
213.2232412574
 10
76.274472506
 20
211.9358304894
 10
76.8239156574
 20
210.6075870435
 10
77.2002685249
 20
209.2495171634
 10
77.4004125299
 20
207.8728742437
 10
77.4226892163
 20
206.4890655812
 10
77.2669139923
 20
205.1095578503
 10
76.9343776606
 20
203.7457820865
 10
76.4278357219
 20
202.4090389653
 10
75.7514855423
 20
201.1104051613
 10
74.9109315723
 20
199.860641563
 10
73.9131389069
 20
198.6701041053
 10
72.7663755703
 20
197.5486579564
 10
71.4801440047
 20
196.5055957725
 10
70.06510233
 20
195.5495606951
 10
68.532976027
 20
194.6884747321
 10
66.896460777
 20
193.9294731129
 10
65.1691172605
 20
193.2788451639
 10
63.3652587901
 20
192.7419821934
 10
61.4998327051
 20
192.3233328169
 10
59.5882965135
 20
192.026366095
 10
57.6464898062
 20
191.8535427874
 10
55.6905030052
 20
191.8062949627
 10
53.7365440331
 20
191.885014131
 10
51.8008040093
 20
192.0890480006
 10
49.8993230853
 20
192.4167058826
 10
48.0478575309
 20
192.8652727005
 10
46.2617491727
 20
193.4310314885
 10
44.5557982672
 20
194.1092941911
 10
42.9441408607
 20
194.8944405099
 10
41.4401316541
 20
195.7799644752
 10
40.0562333415
 20
196.7585283565
 10
38.8039133399
 20
197.8220234654
 10
37.6935487675
 20
198.9616373465
 10
36.7343404547
 20
200.1679268002
 10
35.9342367036
 20
201.4308961322
 10
35.299867426
 20
202.7400799809
 10
34.8364892055
 20
204.0846300365
 10
34.5479417399
 20
205.453404934
 10
34.4366160245
 20
206.8350625733
 10
34.5034345391
 20
208.2181541042
 10
34.7478436045
 20
209.5912187947
 10
35.1678179702
 20
210.9428789982
 10
35.7598775963
 20
212.2619344328
 10
36.5191164904
 20
213.5374549895
 10
37.4392433598
 20
214.7588713034
 10
38.5126337436
 20
215.9160623342
 10
39.7303931908
 20
216.9994392327
 10
41.0824309634
 20
218.0000247966
 10
42.5575436504
 20
218.9095278587
 10
44.1435080035
 20
219.7204119905
 10
45.8271822227
 20
220.4259579504
 10
47.5946148532
 20
221.0203193625
 10
49.4311603914
 20
221.498571161
 10
51.3216006428
 20
221.8567504008
 10
53.250270824
 20
222.0918890959
 10
55.2011893664
 20
222.2020388131
 10
57.1581903446
 20
222.1862868172
 10
59.1050574322
 20
222.044763634
 10
61.0256582754
 20
221.7786419693
 10
62.9040781707
 20
221.390126991
 10
64.7247519392
 20
220.8824380566
 10
66.4725929047
 20
220.2597820365
 10
68.1331179066
 20
219.5273184545
 10
69.6925673116
 20
218.6911167346
 10
71.1380190309
 20
217.7581059076
  0
LWPOLYLINE
  5
1A1
330
1F
100
AcDbEntity
  8
0
  6
SLD-実線
 62
     7
370
    25
100
AcDbPolyline
 90
        9
 70
   128
 43
0.0
 10
71.193605875
 20
216.7367515702
 10
72.5179069174
 20
215.7109257367
 10
73.7047986203
 20
214.604196633
 10
74.7444460253
 20
213.4257349651
 10
75.6282342865
 20
212.1853058374
 10
76.3488400561
 20
210.8931878364
 10
76.9002921677
 20
209.5600878587
 10
77.2780211155
 20
208.1970523906
 10
77.4318855336
 20
207.2759771788
  0
LWPOLYLINE
  5
1A2
330
1F
100
AcDbEntity
  8
0
  6
SLD-実線
 62
     7
370
    25
100
AcDbPolyline
 90
       27
 70
   128
 43
0.0
 10
34.3862655835
 20
206.7471036844
 10
34.4250722751
 20
207.1619183003
 10
34.6703749872
 20
208.540003405
 10
35.091884929
 20
209.8966057604
 10
35.6861093363
 20
211.220484132
 10
36.4481242786
 20
212.5006684469
 10
37.3716154601
 20
213.7265506945
 10
38.4489305419
 20
214.8879728285
 10
39.6711425521
 20
215.9753109393
 10
41.028123857
 20
216.9795550009
 10
42.5086300821
 20
217.8923835307
 10
44.1003932866
 20
218.7062325441
 10
45.7902236194
 20
219.4143582317
 10
47.5641186139
 20
220.0108928411
 10
49.4073792177
 20
220.4908932988
 10
51.304731593
 20
220.8503821696
 10
53.2404536802
 20
221.0863806157
 10
55.1985054767
 20
221.1969330796
 10
57.1626619486
 20
221.1811234887
 10
59.1166474767
 20
221.0390828463
 10
61.0442707216
 20
220.7719881459
 10
62.92955879
 20
220.3820526182
 10
64.7568895913
 20
219.872507392
 10
66.5111212868
 20
219.2475747194
 10
68.1777177603
 20
218.5124329893
 10
69.7428690686
 20
217.6731738176
 10
71.193605875
 20
216.7367515702
  0
LINE
  5
1A3
330
1F
100
AcDbEntity
  8
0
  6
SLD-実線
 62
     8
370
    25
100
AcDbLine
 10
47.4284741371
 20
193.4032040453
 30
0.0
 11
47.2731651658
 21
193.3043216491
 31
0.0
  0
LINE
  5
1A4
330
1F
100
AcDbEntity
  8
0
  6
SLD-実線
 62
     8
370
    25
100
AcDbLine
 10
64.5972813049
 20
193.3043216491
 30
0.0
 11
64.4411450746
 21
193.4037307461
 31
0.0
  0
LINE
  5
1A5
330
1F
100
AcDbEntity
  8
0
  6
SLD-実線
 62
     8
370
    25
100
AcDbLine
 10
46.528678786
 20
194.5697691679
 30
0.0
 11
46.4133629709
 21
194.4963496865
 31
0.0
  0
LINE
  5
1A6
330
1F
100
AcDbEntity
  8
0
  6
SLD-実線
 62
     8
370
    25
100
AcDbLine
 10
65.4570834999
 20
194.4963496865
 30
0.0
 11
65.3424343054
 21
194.5693447427
 31
0.0
  0
LINE
  5
1A7
330
1F
100
AcDbEntity
  8
0
  6
SLD-実線
 62
     8
370
    25
100
AcDbLine
 10
66.0232683119
 20
195.8959965666
 30
0.0
 11
65.9609482542
 21
195.9356746134
 31
0.0
  0
LINE
  5
1A8
330
1F
100
AcDbEntity
  8
0
  6
SLD-実線
 62
     8
370
    25
100
AcDbLine
 10
45.9104794726
 20
195.9362993612
 30
0.0
 11
45.8471781589
 21
195.8959965666
 31
0.0
  0
LINE
  5
1A9
330
1F
100
AcDbEntity
  8
0
  6
SLD-実線
 62
     8
370
    25
100
AcDbLine
 10
78.1619463907
 20
221.9873952294
 30
0.0
 11
78.1619463907
 21
221.5808088302
 31
0.0
  0
LINE
  5
1AA
330
1F
100
AcDbEntity
  8
0
  6
SLD-実線
 62
     8
370
    25
100
AcDbLine
 10
76.8420137325
 20
221.5808088302
 30
0.0
 11
76.8420137325
 21
221.9873952294
 31
0.0
  0
LINE
  5
1AB
330
1F
100
AcDbEntity
  8
0
  6
SLD-実線
 62
     8
370
    25
100
AcDbLine
 10
77.2191373491
 20
222.2474754969
 30
0.0
 11
77.2191373491
 21
222.6540618961
 31
0.0
  0
LINE
  5
1AC
330
1F
100
AcDbEntity
  8
0
  6
SLD-実線
 62
     8
370
    25
100
AcDbLine
 10
77.784822774
 20
222.6540618961
 30
0.0
 11
77.784822774
 21
222.2474754969
 31
0.0
  0
LINE
  5
1AD
330
1F
100
AcDbEntity
  8
0
  6
SLD-実線
 62
     8
370
    25
100
AcDbLine
 10
35.0284327383
 20
191.4873952294
 30
0.0
 11
35.0284327383
 21
191.0808088303
 31
0.0
  0
LINE
  5
1AE
330
1F
100
AcDbEntity
  8
0
  6
SLD-実線
 62
     8
370
    25
100
AcDbLine
 10
33.7085000801
 20
191.0808088303
 30
0.0
 11
33.7085000801
 21
191.4873952294
 31
0.0
  0
LINE
  5
1AF
330
1F
100
AcDbEntity
  8
0
  6
SLD-実線
 62
     8
370
    25
100
AcDbLine
 10
34.0856236967
 20
191.7474754969
 30
0.0
 11
34.0856236967
 21
192.1540618961
 31
0.0
  0
LINE
  5
1B0
330
1F
100
AcDbEntity
  8
0
  6
SLD-実線
 62
     8
370
    25
100
AcDbLine
 10
34.6513091217
 20
192.1540618961
 30
0.0
 11
34.6513091217
 21
191.7474754969
 31
0.0
  0
LINE
  5
1B1
330
1F
100
AcDbEntity
  8
0
  6
SLD-実線
 62
     8
370
    25
100
AcDbLine
 10
25.2003160289
 20
132.6176141588
 30
0.0
 11
25.0120479364
 21
132.4844885139
 31
0.0
  0
LINE
  5
1B2
330
1F
100
AcDbEntity
  8
0
  6
SLD-実線
 62
     8
370
    25
100
AcDbLine
 10
86.6620227605
 20
132.6233471553
 30
0.0
 11
86.8583985344
 21
132.4844885139
 31
0.0
  0
LINE
  5
1B3
330
1F
100
AcDbEntity
  8
0
  6
SLD-実線
 62
     8
370
    25
100
AcDbLine
 10
25.0461874014
 20
127.569542117
 30
0.0
 11
24.972991048
 21
127.5177844792
 31
0.0
  0
LINE
  5
1B4
330
1F
100
AcDbEntity
  8
0
  6
SLD-実線
 62
     8
370
    25
100
AcDbLine
 10
86.8242590694
 20
127.569542117
 30
0.0
 11
86.8974554228
 21
127.5177844792
 31
0.0
  0
LINE
  5
1B5
330
1F
100
AcDbEntity
  8
0
  6
SLD-実線
 62
     7
370
    25
100
AcDbLine
 10
155.0143926646
 20
181.0373271345
 30
0.0
 11
155.0143927151
 21
181.0373271345
 31
0.0
  0
LINE
  5
1B6
330
1F
100
AcDbEntity
  8
0
  6
SLD-実線
 62
     7
370
    25
100
AcDbLine
 10
155.0183774955
 20
181.0373271345
 30
0.0
 11
155.0183775461
 21
181.0373271345
 31
0.0
  0
LINE
  5
1B7
330
1F
100
AcDbEntity
  8
0
  6
SLD-実線
 62
     7
370
    25
100
AcDbLine
 10
130.0163851053
 20
175.9991912769
 30
0.0
 11
130.0163851053
 21
172.728822414
 31
0.0
  0
LINE
  5
1B8
330
1F
100
AcDbEntity
  8
0
  6
SLD-実線
 62
     7
370
    25
100
AcDbLine
 10
130.0163851053
 20
179.5347251829
 30
0.0
 11
130.0163851053
 21
177.9437349245
 31
0.0
  0
LINE
  5
1B9
330
1F
100
AcDbEntity
  8
0
  6
SLD-実線
 62
     7
370
    25
100
AcDbLine
 10
130.0163851053
 20
183.0702590888
 30
0.0
 11
130.0163851053
 21
181.4792688304
 31
0.0
  0
LINE
  5
1BA
330
1F
100
AcDbEntity
  8
0
  6
SLD-実線
 62
     7
370
    25
100
AcDbLine
 10
130.0163851053
 20
186.6057929947
 30
0.0
 11
130.0163851053
 21
185.0148027364
 31
0.0
  0
LINE
  5
1BB
330
1F
100
AcDbEntity
  8
0
  6
SLD-実線
 62
     7
370
    25
100
AcDbLine
 10
180.0163851053
 20
185.0148027364
 30
0.0
 11
180.0163851053
 21
186.605792994
 31
0.0
  0
LINE
  5
1BC
330
1F
100
AcDbEntity
  8
0
  6
SLD-実線
 62
     7
370
    25
100
AcDbLine
 10
180.0163851053
 20
181.4792688304
 30
0.0
 11
180.0163851053
 21
183.0702590888
 31
0.0
  0
LINE
  5
1BD
330
1F
100
AcDbEntity
  8
0
  6
SLD-実線
 62
     7
370
    25
100
AcDbLine
 10
180.0163851053
 20
177.9437349245
 30
0.0
 11
180.0163851053
 21
179.5347251829
 31
0.0
  0
LINE
  5
1BE
330
1F
100
AcDbEntity
  8
0
  6
SLD-実線
 62
     7
370
    25
100
AcDbLine
 10
180.0163851053
 20
172.728822414
 30
0.0
 11
180.0163851053
 21
175.9991912769
 31
0.0
  0
LINE
  5
1BF
330
1F
100
AcDbEntity
  8
0
  6
SLD-実線
 62
     7
370
    25
100
AcDbLine
 10
180.1736206355
 20
168.7158899819
 30
0.0
 11
180.0163851053
 21
172.9603151382
 31
0.0
  0
LINE
  5
1C0
330
1F
100
AcDbEntity
  8
0
  6
SLD-実線
 62
     7
370
    25
100
AcDbLine
 10
130.0163851053
 20
172.9603151382
 30
0.0
 11
129.8591495751
 21
168.7158899819
 31
0.0
  0
LINE
  5
1C1
330
1F
100
AcDbEntity
  8
0
  6
SLD-実線
 62
     7
370
    25
100
AcDbLine
 10
155.0148772975
 20
150.45495884
 30
0.0
 11
155.0149471501
 21
150.454958837
 31
0.0
  0
LINE
  5
1C2
330
1F
100
AcDbEntity
  8
0
  6
SLD-実線
 62
     7
370
    25
100
AcDbLine
 10
155.0178230606
 20
150.454958837
 30
0.0
 11
155.0178929131
 21
150.45495884
 31
0.0
  0
LINE
  5
1C3
330
1F
100
AcDbEntity
  8
0
  6
SLD-実線
 62
     7
370
    25
100
AcDbLine
 10
163.7663851053
 20
201.1191596786
 30
0.0
 11
163.7663851053
 21
201.6494897645
 31
0.0
  0
LINE
  5
1C4
330
1F
100
AcDbEntity
  8
0
  6
SLD-実線
 62
     7
370
    25
100
AcDbLine
 10
146.2663851053
 20
201.6494897645
 30
0.0
 11
146.2663851053
 21
201.1191596786
 31
0.0
  0
LINE
  5
1C5
330
1F
100
AcDbEntity
  8
0
  6
SLD-実線
 62
     7
370
    25
100
AcDbLine
 10
155.0169992327
 20
208.9680449368
 30
0.0
 11
155.016984254
 21
208.9680449374
 31
0.0
  0
LINE
  5
1C6
330
1F
100
AcDbEntity
  8
0
  6
SLD-実線
 62
     7
370
    25
100
AcDbLine
 10
155.0157859567
 20
208.9680449374
 30
0.0
 11
155.015770978
 21
208.9680449368
 31
0.0
  0
LINE
  5
1C7
330
1F
100
AcDbEntity
  8
0
  6
SLD-実線
 62
     7
370
    25
100
AcDbLine
 10
165.2663851053
 20
200.6772179404
 30
0.0
 11
165.2663851053
 21
201.7202004426
 31
0.0
  0
LINE
  5
1C8
330
1F
100
AcDbEntity
  8
0
  6
SLD-実線
 62
     7
370
    25
100
AcDbLine
 10
144.7663851053
 20
201.7202004426
 30
0.0
 11
144.7663851053
 21
200.6772179404
 31
0.0
  0
LINE
  5
1C9
330
1F
100
AcDbEntity
  8
0
  6
SLD-実線
 62
     7
370
    25
100
AcDbLine
 10
165.2663851053
 20
199.4221034037
 30
0.0
 11
165.2663851053
 21
200.2883092107
 31
0.0
  0
LINE
  5
1CA
330
1F
100
AcDbEntity
  8
0
  6
SLD-実線
 62
     7
370
    25
100
AcDbLine
 10
144.7663851053
 20
200.2883092107
 30
0.0
 11
144.7663851053
 21
199.4204401943
 31
0.0
  0
LINE
  5
1CB
330
1F
100
AcDbEntity
  8
0
  6
SLD-実線
 62
     7
370
    25
100
AcDbLine
 10
133.9924373207
 20
193.6473342716
 30
0.0
 11
133.9924373207
 21
193.2407478725
 31
0.0
  0
LINE
  5
1CC
330
1F
100
AcDbEntity
  8
0
  6
SLD-実線
 62
     7
370
    25
100
AcDbLine
 10
132.9068192376
 20
193.2407478725
 30
0.0
 11
132.9068192376
 21
193.6473342716
 31
0.0
  0
LINE
  5
1CD
330
1F
100
AcDbEntity
  8
0
  6
SLD-実線
 62
     7
370
    25
100
AcDbLine
 10
177.1259509731
 20
224.1473342716
 30
0.0
 11
177.1259509731
 21
223.7407478725
 31
0.0
  0
LINE
  5
1CE
330
1F
100
AcDbEntity
  8
0
  6
SLD-実線
 62
     7
370
    25
100
AcDbLine
 10
176.0403328899
 20
223.7407478725
 30
0.0
 11
176.0403328899
 21
224.1473342716
 31
0.0
  0
LINE
  5
1CF
330
1F
100
AcDbEntity
  8
0
  6
SLD-実線
 62
     7
370
    25
100
AcDbLine
 10
155.0186304401
 20
234.7774424155
 30
0.0
 11
155.0185721773
 21
234.777442418
 31
0.0
  0
LINE
  5
1D0
330
1F
100
AcDbEntity
  8
0
  6
SLD-実線
 62
     7
370
    25
100
AcDbLine
 10
155.0141980334
 20
234.777442418
 30
0.0
 11
155.0141397706
 21
234.7774424155
 31
0.0
  0
LINE
  5
1D1
330
1F
100
AcDbEntity
  8
0
  6
SLD-実線
 62
     7
370
    25
100
AcDbLine
 10
192.4648514084
 20
209.2970558808
 30
0.0
 11
192.4372362815
 21
209.6691382195
 31
0.0
  0
LINE
  5
1D2
330
1F
100
AcDbEntity
  8
0
  6
SLD-実線
 62
     7
370
    25
100
AcDbLine
 10
117.5955339291
 20
209.6691382195
 30
0.0
 11
117.5679188023
 21
209.2970558808
 31
0.0
  0
LINE
  5
1D3
330
1F
100
AcDbEntity
  8
0
  6
SLD-実線
 62
     7
370
    25
100
AcDbLine
 10
158.1876675834
 20
181.2994447568
 30
0.0
 11
158.2011178316
 21
181.54395737
 31
0.0
  0
ELLIPSE
  5
1D4
330
1F
100
AcDbEntity
  8
0
  6
SLD-実線
 62
     7
370
    25
100
AcDbEllipse
 10
159.8238592001
 20
183.1192568703
 30
0.0
 11
30.23292246857477
 21
32.16404408091756
 31
0.0
210
0.0
220
0.0
230
1.0
 40
0.0012293114
 41
4.652655357970872
 42
4.656935208434404
  0
ELLIPSE
  5
1D5
330
1F
100
AcDbEntity
  8
0
  6
SLD-実線
 62
     7
370
    25
100
AcDbEllipse
 10
158.5167072744
 20
204.9024087659
 30
0.0
 11
30.80340324603966
 21
30.68333028825731
 31
0.0
210
0.0
220
0.0
230
1.0
 40
0.4125854903
 41
4.307457035731439
 42
4.308695821774698
  0
ARC
  5
1D6
330
1F
100
AcDbEntity
  8
0
  6
SLD-実線
 62
     7
370
    25
100
AcDbCircle
 10
155.0163851096
 20
228.0051486727
 30
0.0
 40
46.96783792121514
100
AcDbArc
 50
266.3367940662
 51
273.6632059232
  0
ELLIPSE
  5
1D7
330
1F
100
AcDbEntity
  8
0
  6
SLD-実線
 62
     7
370
    25
100
AcDbEllipse
 10
151.5160629363
 20
204.9024087659
 30
0.0
 11
30.80340324603921
 21
-30.6833302882572
 31
0.0
210
0.0
220
0.0
230
1.0
 40
0.4125854903
 41
5.116082467807811
 42
5.117320925029156
  0
ELLIPSE
  5
1D8
330
1F
100
AcDbEntity
  8
0
  6
SLD-実線
 62
     7
370
    25
100
AcDbEllipse
 10
150.2093143204
 20
183.1184926259
 30
0.0
 11
-30.23280837260934
 21
32.16134540054742
 31
0.0
210
0.0
220
0.0
230
1.0
 40
0.0012264859
 41
1.626233860473602
 42
1.630514059461673
  0
LINE
  5
1D9
330
1F
100
AcDbEntity
  8
0
  6
SLD-実線
 62
     7
370
    25
100
AcDbLine
 10
151.8334214356
 20
181.5117976224
 30
0.0
 11
151.8451030323
 21
181.299437395
 31
0.0
  0
LWPOLYLINE
  5
1DA
330
1F
100
AcDbEntity
  8
0
  6
SLD-実線
 62
     7
370
    25
100
AcDbPolyline
 90
       12
 70
   128
 43
0.0
 10
169.1550335915
 20
215.6068219605
 10
170.4168722201
 20
214.6267086192
 10
171.5433708142
 20
213.567349859
 10
172.5246296636
 20
212.4380553628
 10
173.3520254304
 20
211.2487494111
 10
174.0182869306
 20
210.0098836675
 10
174.5175590345
 20
208.7323453287
 10
174.8454541206
 20
207.4273614475
 10
174.9990906352
 20
206.1064002691
 10
174.9771184152
 20
204.7810704479
 10
174.7797305531
 20
203.4630190301
 10
174.5657138481
 20
202.6405752459
  0
LWPOLYLINE
  5
1DB
330
1F
100
AcDbEntity
  8
0
  6
SLD-実線
 62
     7
370
    25
100
AcDbPolyline
 90
       29
 70
   128
 43
0.0
 10
135.4670563625
 20
202.6405752459
 10
135.3296257483
 20
203.1360036826
 10
135.088595029
 20
204.4504208996
 10
135.0226904454
 20
205.77502228
 10
135.1324911694
 20
207.0981671793
 10
135.4170322683
 20
208.4082277526
 10
135.8738131846
 20
209.6936911403
 10
136.4988197112
 20
210.9432606442
 10
137.2865592683
 20
212.1459550023
 10
138.2301091724
 20
213.2912048935
 10
139.321177473
 20
214.3689458205
 10
140.5501758225
 20
215.3697065574
 10
141.9063037394
 20
216.2846923827
 10
143.3776435228
 20
217.1058623682
 10
144.9512649856
 20
217.8260000425
 10
146.613339086
 20
218.4387768097
 10
148.3492594569
 20
218.9388075658
 10
150.1437707677
 20
219.3216980223
 10
151.9811027886
 20
219.5840833242
 10
153.8451089795
 20
219.72365762
 10
155.7194083872
 20
219.7391943258
 10
157.587529601
 20
219.6305569044
 10
159.4330555046
 20
219.3987000655
 10
161.2397675498
 20
219.0456613753
 10
162.9917882864
 20
218.5745433504
 10
164.673720893
 20
217.989486193
 10
166.2707844855
 20
217.2956314064
 10
167.7689440116
 20
216.4990766116
 10
169.1550335915
 20
215.6068219605
  0
LINE
  5
1DC
330
1F
100
AcDbEntity
  8
0
  6
SLD-実線
 62
     7
370
    25
100
AcDbLine
 10
179.9821234775
 20
187.6251589032
 30
0.0
 11
180.0096118868
 21
188.1388666867
 31
0.0
  0
LINE
  5
1DD
330
1F
100
AcDbEntity
  8
0
  6
SLD-実線
 62
     7
370
    25
100
AcDbLine
 10
179.9821234709
 20
185.6806152552
 30
0.0
 11
179.9821234775
 21
187.6251589032
 31
0.0
  0
LWPOLYLINE
  5
1DE
330
1F
100
AcDbEntity
  8
0
  6
SLD-実線
 62
     7
370
    25
100
AcDbPolyline
 90
        3
 70
   128
 43
0.0
 10
179.9821234742
 20
187.5309707337
 10
180.0011557775
 20
187.2227347637
 10
179.9821234709
 20
185.6806152552
  0
LINE
  5
1DF
330
1F
100
AcDbEntity
  8
0
  6
SLD-実線
 62
     7
370
    25
100
AcDbLine
 10
179.9821234742
 20
182.1450813498
 30
0.0
 11
179.9821234775
 21
184.0896249973
 31
0.0
  0
LWPOLYLINE
  5
1E0
330
1F
100
AcDbEntity
  8
0
  6
SLD-実線
 62
     7
370
    25
100
AcDbPolyline
 90
        3
 70
   128
 43
0.0
 10
179.9821234742
 20
183.9954368278
 10
180.0011557808
 20
183.6872008583
 10
179.9821234742
 20
182.1450813498
  0
LINE
  5
1E1
330
1F
100
AcDbEntity
  8
0
  6
SLD-実線
 62
     7
370
    25
100
AcDbLine
 10
179.9821234775
 20
184.0896249973
 30
0.0
 11
180.0163851053
 21
185.0148027371
 31
0.0
  0
LINE
  5
1E2
330
1F
100
AcDbEntity
  8
0
  6
SLD-実線
 62
     7
370
    25
100
AcDbLine
 10
179.9821234742
 20
178.6095474439
 30
0.0
 11
179.9821234775
 21
180.5540910913
 31
0.0
  0
LWPOLYLINE
  5
1E3
330
1F
100
AcDbEntity
  8
0
  6
SLD-実線
 62
     7
370
    25
100
AcDbPolyline
 90
        3
 70
   128
 43
0.0
 10
179.9821234742
 20
180.4599029219
 10
180.0011557808
 20
180.1516669523
 10
179.9821234742
 20
178.6095474439
  0
LINE
  5
1E4
330
1F
100
AcDbEntity
  8
0
  6
SLD-実線
 62
     7
370
    25
100
AcDbLine
 10
179.9821234775
 20
180.5540910913
 30
0.0
 11
180.0163851053
 21
181.4792688311
 31
0.0
  0
LINE
  5
1E5
330
1F
100
AcDbEntity
  8
0
  6
SLD-実線
 62
     7
370
    25
100
AcDbLine
 10
179.9821234742
 20
175.074013538
 30
0.0
 11
179.9821234775
 21
177.0185571854
 31
0.0
  0
LWPOLYLINE
  5
1E6
330
1F
100
AcDbEntity
  8
0
  6
SLD-実線
 62
     7
370
    25
100
AcDbPolyline
 90
        3
 70
   128
 43
0.0
 10
179.9821234742
 20
176.9243690159
 10
180.0011557808
 20
176.6161330464
 10
179.9821234742
 20
175.074013538
  0
LINE
  5
1E7
330
1F
100
AcDbEntity
  8
0
  6
SLD-実線
 62
     7
370
    25
100
AcDbLine
 10
179.9821234775
 20
177.0185571854
 30
0.0
 11
180.0163851053
 21
177.9437349252
 31
0.0
  0
LWPOLYLINE
  5
1E8
330
1F
100
AcDbEntity
  8
0
  6
SLD-実線
 62
     7
370
    25
100
AcDbPolyline
 90
       30
 70
   128
 43
0.0
 10
137.3387155757
 20
160.228822414
 10
138.8799429122
 20
159.2266886317
 10
140.5343557968
 20
158.3192626166
 10
142.2903497116
 20
157.5129093103
 10
144.135607621
 20
156.8132847018
 10
146.0571863667
 20
156.225296155
 10
148.0416074544
 20
155.7530679871
 10
150.0749515959
 20
155.3999125395
 10
152.142956343
 20
155.1683069439
 10
154.2311161284
 20
155.0598757471
 10
156.3247840114
 20
155.075379516
 10
158.4092744162
 20
155.2147095029
 10
160.4699661402
 20
155.4768884079
 10
162.4924049117
 20
155.8600772346
 10
164.4624047758
 20
156.3615881884
 10
166.3661475988
 20
156.9779035306
 10
168.1902799928
 20
157.7047002517
 10
169.9220069795
 20
158.5368803949
 10
171.5491817384
 20
159.4686068145
 10
173.0603908078
 20
160.4933441191
 10
174.4450341418
 20
161.6039045127
 10
175.6933994622
 20
162.7924982122
 10
176.7967303833
 20
164.0507880867
 10
177.7472878315
 20
165.3699481368
 10
178.5384043292
 20
166.7407254027
 10
179.1645307626
 20
168.1535048666
 10
179.6212753046
 20
169.5983768958
 10
179.9054342204
 20
171.0652067511
 10
180.0150143395
 20
172.543705675
 10
180.0163851053
 20
172.728822414
  0
LWPOLYLINE
  5
1E9
330
1F
100
AcDbEntity
  8
0
  6
SLD-実線
 62
     7
370
    25
100
AcDbPolyline
 90
       11
 70
   128
 43
0.0
 10
130.0163851053
 20
172.728822414
 10
130.0287210962
 20
172.1735533953
 10
130.1820659653
 20
170.6970014509
 10
130.5096057398
 20
169.2347012706
 10
131.0090429634
 20
167.7969098397
 10
131.6768744429
 20
166.3937122319
 10
132.5084158203
 20
165.0349508702
 10
133.4978344302
 20
163.7301564894
 10
134.6381902121
 20
162.4884812845
 10
135.9214843895
 20
161.318634715
 10
137.3387155757
 20
160.228822414
  0
ARC
  5
1EA
330
1F
100
AcDbEntity
  8
0
  6
SLD-実線
 62
     7
370
    25
100
AcDbCircle
 10
154.6001760287
 20
210.8821370589
 30
0.0
 40
31.37062649101557
100
AcDbArc
 50
237.9328631714
 51
273.1514384906
  0
LINE
  5
1EB
330
1F
100
AcDbEntity
  8
0
  6
SLD-実線
 62
     7
370
    25
100
AcDbLine
 10
156.3247840114
 20
181.0555367129
 30
0.0
 11
156.3247840112
 21
179.5589518162
 31
0.0
  0
LWPOLYLINE
  5
1EC
330
1F
100
AcDbEntity
  8
0
  6
SLD-実線
 62
     7
370
    25
100
AcDbPolyline
 90
       13
 70
   128
 43
0.0
 10
156.3247840112
 20
176.0234179103
 10
154.1438976879
 20
176.0099600372
 10
151.9696515206
 20
176.1309579466
 10
149.8185928356
 20
176.3854907712
 10
147.7070924882
 20
176.7716213626
 10
145.6512202712
 20
177.2864110339
 10
143.6666226134
 20
177.9259419247
 10
141.7684035013
 20
178.6853468189
 10
139.9710095285
 20
179.5588461867
 10
138.2881199486
 20
180.5397921704
 10
136.7325425673
 20
181.6207191788
 10
135.3161162678
 20
182.7934007047
 10
134.0496209067
 20
184.0489119327
  0
LINE
  5
1ED
330
1F
100
AcDbEntity
  8
0
  6
SLD-実線
 62
     7
370
    25
100
AcDbLine
 10
156.3247840116
 20
177.9679615539
 30
0.0
 11
156.3247840112
 21
176.0234179103
 31
0.0
  0
LWPOLYLINE
  5
1EE
330
1F
100
AcDbEntity
  8
0
  6
SLD-実線
 62
     7
370
    25
100
AcDbPolyline
 90
       13
 70
   128
 43
0.0
 10
134.1666519467
 20
185.8672097876
 10
135.3161162626
 20
184.7379443498
 10
136.7325425624
 20
183.5652628236
 10
138.2881199441
 20
182.484335815
 10
139.9710095245
 20
181.5033898311
 10
141.7684034977
 20
180.6298904631
 10
143.6666226103
 20
179.8704855688
 10
145.6512202687
 20
179.2309546778
 10
147.7070924863
 20
178.7161650065
 10
149.8185928342
 20
178.3300344151
 10
151.9696515198
 20
178.0755015904
 10
154.1438976877
 20
177.9545036811
 10
156.3247840116
 20
177.9679615539
  0
LINE
  5
1EF
330
1F
100
AcDbEntity
  8
0
  6
SLD-実線
 62
     7
370
    25
100
AcDbLine
 10
134.0496209067
 20
184.0489119327
 30
0.0
 11
134.0496209067
 21
185.9227901827
 31
0.0
  0
LINE
  5
1F0
330
1F
100
AcDbEntity
  8
0
  6
SLD-実線
 62
     7
370
    25
100
AcDbLine
 10
156.3247840114
 20
170.8968937451
 30
0.0
 11
156.3247840112
 21
168.9523500984
 31
0.0
  0
LWPOLYLINE
  5
1F1
330
1F
100
AcDbEntity
  8
0
  6
SLD-実線
 62
     7
370
    25
100
AcDbPolyline
 90
       13
 70
   128
 43
0.0
 10
134.0496209067
 20
178.9223877691
 10
135.3161162652
 20
177.6668765401
 10
136.7325425649
 20
176.494195014
 10
138.2881199464
 20
175.4132680055
 10
139.9710095265
 20
174.4323220217
 10
141.7684034995
 20
173.5588226539
 10
143.6666226118
 20
172.7994177596
 10
145.6512202699
 20
172.1598868687
 10
147.7070924873
 20
171.6450971974
 10
149.8185928349
 20
171.258966606
 10
151.9696515202
 20
171.0044337813
 10
154.1438976878
 20
170.883435872
 10
156.3247840114
 20
170.8968937451
  0
LINE
  5
1F2
330
1F
100
AcDbEntity
  8
0
  6
SLD-実線
 62
     7
370
    25
100
AcDbLine
 10
134.0496209067
 20
176.9778441208
 30
0.0
 11
134.0496209067
 21
178.9223877691
 31
0.0
  0
LWPOLYLINE
  5
1F3
330
1F
100
AcDbEntity
  8
0
  6
SLD-実線
 62
     7
370
    25
100
AcDbPolyline
 90
       13
 70
   128
 43
0.0
 10
156.3247840112
 20
168.9523500984
 10
154.1438976879
 20
168.9388922254
 10
151.9696515206
 20
169.0598901347
 10
149.8185928356
 20
169.3144229594
 10
147.7070924882
 20
169.7005535508
 10
145.6512202712
 20
170.215343222
 10
143.6666226134
 20
170.8548741128
 10
141.7684035013
 20
171.614279007
 10
139.9710095285
 20
172.4877783748
 10
138.2881199486
 20
173.4687243585
 10
136.7325425673
 20
174.5496513669
 10
135.3161162678
 20
175.7223328928
 10
134.0496209067
 20
176.9778441208
  0
LINE
  5
1F4
330
1F
100
AcDbEntity
  8
0
  6
SLD-実線
 62
     7
370
    25
100
AcDbLine
 10
156.3247840114
 20
167.3613598391
 30
0.0
 11
156.3247840112
 21
165.4168161925
 31
0.0
  0
LWPOLYLINE
  5
1F5
330
1F
100
AcDbEntity
  8
0
  6
SLD-実線
 62
     7
370
    25
100
AcDbPolyline
 90
       13
 70
   128
 43
0.0
 10
134.0496209067
 20
175.3868538631
 10
135.3161162652
 20
174.1313426341
 10
136.7325425649
 20
172.9586611081
 10
138.2881199464
 20
171.8777340996
 10
139.9710095265
 20
170.8967881158
 10
141.7684034995
 20
170.023288748
 10
143.6666226118
 20
169.2638838537
 10
145.6512202699
 20
168.6243529628
 10
147.7070924873
 20
168.1095632915
 10
149.8185928349
 20
167.7234327001
 10
151.9696515202
 20
167.4688998754
 10
154.1438976878
 20
167.3479019661
 10
156.3247840114
 20
167.3613598391
  0
LINE
  5
1F6
330
1F
100
AcDbEntity
  8
0
  6
SLD-実線
 62
     7
370
    25
100
AcDbLine
 10
134.0496209067
 20
173.4423102149
 30
0.0
 11
134.0496209067
 21
175.3868538631
 31
0.0
  0
LWPOLYLINE
  5
1F7
330
1F
100
AcDbEntity
  8
0
  6
SLD-実線
 62
     7
370
    25
100
AcDbPolyline
 90
       13
 70
   128
 43
0.0
 10
156.3247840112
 20
165.4168161925
 10
154.1438976879
 20
165.4033583194
 10
151.9696515206
 20
165.5243562288
 10
149.8185928356
 20
165.7788890534
 10
147.7070924882
 20
166.1650196448
 10
145.6512202712
 20
166.6798093161
 10
143.6666226134
 20
167.3193402069
 10
141.7684035013
 20
168.0787451011
 10
139.9710095285
 20
168.9522444689
 10
138.2881199486
 20
169.9331904526
 10
136.7325425673
 20
171.014117461
 10
135.3161162678
 20
172.1867989869
 10
134.0496209067
 20
173.4423102149
  0
LINE
  5
1F8
330
1F
100
AcDbEntity
  8
0
  6
SLD-実線
 62
     7
370
    25
100
AcDbLine
 10
156.3247840114
 20
163.8258259332
 30
0.0
 11
156.3247840112
 21
161.8812822866
 31
0.0
  0
LWPOLYLINE
  5
1F9
330
1F
100
AcDbEntity
  8
0
  6
SLD-実線
 62
     7
370
    25
100
AcDbPolyline
 90
       13
 70
   128
 43
0.0
 10
134.0496209067
 20
171.8513199572
 10
135.3161162652
 20
170.5958087282
 10
136.7325425649
 20
169.4231272022
 10
138.2881199464
 20
168.3422001937
 10
139.9710095265
 20
167.3612542099
 10
141.7684034995
 20
166.487754842
 10
143.6666226118
 20
165.7283499478
 10
145.6512202699
 20
165.0888190569
 10
147.7070924873
 20
164.5740293856
 10
149.8185928349
 20
164.1878987941
 10
151.9696515202
 20
163.9333659695
 10
154.1438976878
 20
163.8123680601
 10
156.3247840114
 20
163.8258259332
  0
LINE
  5
1FA
330
1F
100
AcDbEntity
  8
0
  6
SLD-実線
 62
     7
370
    25
100
AcDbLine
 10
134.0496209067
 20
169.9067763089
 30
0.0
 11
134.0496209067
 21
171.8513199572
 31
0.0
  0
LWPOLYLINE
  5
1FB
330
1F
100
AcDbEntity
  8
0
  6
SLD-実線
 62
     7
370
    25
100
AcDbPolyline
 90
       13
 70
   128
 43
0.0
 10
156.3247840112
 20
161.8812822866
 10
154.1438976879
 20
161.8678244135
 10
151.9696515206
 20
161.9888223229
 10
149.8185928356
 20
162.2433551475
 10
147.7070924882
 20
162.6294857389
 10
145.6512202712
 20
163.1442754101
 10
143.6666226134
 20
163.783806301
 10
141.7684035013
 20
164.5432111952
 10
139.9710095285
 20
165.4167105629
 10
138.2881199486
 20
166.3976565467
 10
136.7325425673
 20
167.4785835551
 10
135.3161162678
 20
168.651265081
 10
134.0496209067
 20
169.9067763089
  0
LINE
  5
1FC
330
1F
100
AcDbEntity
  8
0
  6
SLD-実線
 62
     7
370
    25
100
AcDbLine
 10
156.3247840114
 20
160.2902920273
 30
0.0
 11
156.3247840112
 21
158.3457483806
 31
0.0
  0
LWPOLYLINE
  5
1FD
330
1F
100
AcDbEntity
  8
0
  6
SLD-実線
 62
     7
370
    25
100
AcDbPolyline
 90
       13
 70
   128
 43
0.0
 10
134.0496209067
 20
168.3157860513
 10
135.3161162652
 20
167.0602748223
 10
136.7325425649
 20
165.8875932962
 10
138.2881199464
 20
164.8066662877
 10
139.9710095265
 20
163.8257203039
 10
141.7684034995
 20
162.9522209361
 10
143.6666226118
 20
162.1928160418
 10
145.6512202699
 20
161.5532851509
 10
147.7070924873
 20
161.0384954796
 10
149.8185928349
 20
160.6523648882
 10
151.9696515202
 20
160.3978320636
 10
154.1438976878
 20
160.2768341542
 10
156.3247840114
 20
160.2902920273
  0
LINE
  5
1FE
330
1F
100
AcDbEntity
  8
0
  6
SLD-実線
 62
     7
370
    25
100
AcDbLine
 10
134.0496209067
 20
166.371242403
 30
0.0
 11
134.0496209067
 21
168.3157860513
 31
0.0
  0
LWPOLYLINE
  5
1FF
330
1F
100
AcDbEntity
  8
0
  6
SLD-実線
 62
     7
370
    25
100
AcDbPolyline
 90
       13
 70
   128
 43
0.0
 10
156.3247840112
 20
158.3457483806
 10
154.1438976879
 20
158.3322905076
 10
151.9696515206
 20
158.4532884169
 10
149.8185928356
 20
158.7078212416
 10
147.7070924882
 20
159.093951833
 10
145.6512202712
 20
159.6087415042
 10
143.6666226134
 20
160.248272395
 10
141.7684035013
 20
161.0076772892
 10
139.9710095285
 20
161.881176657
 10
138.2881199486
 20
162.8621226407
 10
136.7325425673
 20
163.9430496491
 10
135.3161162678
 20
165.115731175
 10
134.0496209067
 20
166.371242403
  0
ARC
  5
200
330
1F
100
AcDbEntity
  8
0
  6
SLD-実線
 62
     7
370
    25
100
AcDbCircle
 10
143.0962088162
 20
176.0336634966
 30
0.0
 40
13.0756559109581
100
AcDbArc
 50
175.887156097
 51
209.152310066
  0
LINE
  5
201
330
1F
100
AcDbEntity
  8
0
  6
SLD-実線
 62
     7
370
    25
100
AcDbLine
 10
131.6768744429
 20
171.6086247431
 30
0.0
 11
131.6768744429
 21
169.6640810949
 31
0.0
  0
ARC
  5
202
330
1F
100
AcDbEntity
  8
0
  6
SLD-実線
 62
     7
370
    25
100
AcDbCircle
 10
143.2274834654
 20
178.0213129027
 30
0.0
 40
13.21132613414422
100
AcDbArc
 50
180.336447393
 51
209.0382384566
  0
ARC
  5
203
330
1F
100
AcDbEntity
  8
0
  6
SLD-実線
 62
     7
370
    25
100
AcDbCircle
 10
143.0962088162
 20
179.5691974026
 30
0.0
 40
13.07565591095824
100
AcDbArc
 50
175.887156097
 51
209.152310066
  0
LINE
  5
204
330
1F
100
AcDbEntity
  8
0
  6
SLD-実線
 62
     7
370
    25
100
AcDbLine
 10
131.6768744429
 20
175.1441586491
 30
0.0
 11
131.6768744429
 21
173.1996150008
 31
0.0
  0
ARC
  5
205
330
1F
100
AcDbEntity
  8
0
  6
SLD-実線
 62
     7
370
    25
100
AcDbCircle
 10
143.2274834654
 20
181.5568468086
 30
0.0
 40
13.21132613414587
100
AcDbArc
 50
180.336447393
 51
209.0382384566
  0
ARC
  5
206
330
1F
100
AcDbEntity
  8
0
  6
SLD-実線
 62
     7
370
    25
100
AcDbCircle
 10
143.0962088162
 20
183.1047313085
 30
0.0
 40
13.07565591095791
100
AcDbArc
 50
175.887156097
 51
209.152310066
  0
LINE
  5
207
330
1F
100
AcDbEntity
  8
0
  6
SLD-実線
 62
     7
370
    25
100
AcDbLine
 10
131.6768744429
 20
178.679692555
 30
0.0
 11
131.6768744429
 21
176.7351489067
 31
0.0
  0
ARC
  5
208
330
1F
100
AcDbEntity
  8
0
  6
SLD-実線
 62
     7
370
    25
100
AcDbCircle
 10
143.2274834654
 20
185.0923807145
 30
0.0
 40
13.21132613414598
100
AcDbArc
 50
180.336447393
 51
209.0382384566
  0
ARC
  5
209
330
1F
100
AcDbEntity
  8
0
  6
SLD-実線
 62
     7
370
    25
100
AcDbCircle
 10
143.0962088162
 20
186.6402652144
 30
0.0
 40
13.07565591095882
100
AcDbArc
 50
175.887156097
 51
209.152310066
  0
LINE
  5
20A
330
1F
100
AcDbEntity
  8
0
  6
SLD-実線
 62
     7
370
    25
100
AcDbLine
 10
131.6768744429
 20
182.2152264609
 30
0.0
 11
131.6768744429
 21
180.2706828127
 31
0.0
  0
ARC
  5
20B
330
1F
100
AcDbEntity
  8
0
  6
SLD-実線
 62
     7
370
    25
100
AcDbCircle
 10
143.3107264894
 20
188.6557313642
 30
0.0
 40
13.29761696125363
100
AcDbArc
 50
182.2275890928
 51
208.9689302954
  0
ARC
  5
20C
330
1F
100
AcDbEntity
  8
0
  6
SLD-実線
 62
     7
370
    25
100
AcDbCircle
 10
143.6171170135
 20
190.3661105752
 30
0.0
 40
13.62356781665057
100
AcDbArc
 50
189.8702985679
 51
208.7841156411
  0
LINE
  5
20D
330
1F
100
AcDbEntity
  8
0
  6
SLD-実線
 62
     7
370
    25
100
AcDbLine
 10
131.6768744429
 20
185.7507603669
 30
0.0
 11
131.6768744429
 21
183.8062167186
 31
0.0
  0
LWPOLYLINE
  5
20E
330
1F
100
AcDbEntity
  8
0
  6
SLD-実線
 62
     7
370
    25
100
AcDbPolyline
 90
        3
 70
   128
 43
0.0
 10
130.8155675854
 20
187.6518863718
 10
130.9848427037
 20
187.2132444617
 10
131.6768744429
 20
185.7507603669
  0
LINE
  5
20F
330
1F
100
AcDbEntity
  8
0
  6
SLD-実線
 62
     7
370
    25
100
AcDbLine
 10
156.3247840114
 20
174.432427651
 30
0.0
 11
156.3247840112
 21
172.4878840044
 31
0.0
  0
LWPOLYLINE
  5
210
330
1F
100
AcDbEntity
  8
0
  6
SLD-実線
 62
     7
370
    25
100
AcDbPolyline
 90
       13
 70
   128
 43
0.0
 10
134.0496209067
 20
182.457921675
 10
135.3161162652
 20
181.202410446
 10
136.7325425649
 20
180.02972892
 10
138.2881199464
 20
178.9488019115
 10
139.9710095265
 20
177.9678559277
 10
141.7684034995
 20
177.0943565598
 10
143.6666226118
 20
176.3349516656
 10
145.6512202699
 20
175.6954207747
 10
147.7070924873
 20
175.1806311034
 10
149.8185928349
 20
174.7945005119
 10
151.9696515202
 20
174.5399676873
 10
154.1438976878
 20
174.4189697779
 10
156.3247840114
 20
174.432427651
  0
LINE
  5
211
330
1F
100
AcDbEntity
  8
0
  6
SLD-実線
 62
     7
370
    25
100
AcDbLine
 10
134.0496209067
 20
180.5133780267
 30
0.0
 11
134.0496209067
 21
182.457921675
 31
0.0
  0
LWPOLYLINE
  5
212
330
1F
100
AcDbEntity
  8
0
  6
SLD-実線
 62
     7
370
    25
100
AcDbPolyline
 90
       13
 70
   128
 43
0.0
 10
156.3247840112
 20
172.4878840044
 10
154.1438976879
 20
172.4744261313
 10
151.9696515206
 20
172.5954240407
 10
149.8185928356
 20
172.8499568653
 10
147.7070924882
 20
173.2360874567
 10
145.6512202712
 20
173.7508771279
 10
143.6666226134
 20
174.3904080188
 10
141.7684035013
 20
175.149812913
 10
139.9710095285
 20
176.0233122807
 10
138.2881199486
 20
177.0042582645
 10
136.7325425673
 20
178.0851852729
 10
135.3161162678
 20
179.2578667988
 10
134.0496209067
 20
180.5133780267
  0
LINE
  5
213
330
1F
100
AcDbEntity
  8
0
  6
SLD-実線
 62
     7
370
    25
100
AcDbLine
 10
161.4868612329
 20
180.1370771652
 30
0.0
 11
161.4868612329
 21
181.7885894508
 31
0.0
  0
ARC
  5
214
330
1F
100
AcDbEntity
  8
0
  6
SLD-実線
 62
     7
370
    25
100
AcDbCircle
 10
156.414189241
 20
208.6460026414
 30
0.0
 40
28.95670618250598
100
AcDbArc
 50
280.0892059208
 51
302.7702992012
  0
LINE
  5
215
330
1F
100
AcDbEntity
  8
0
  6
SLD-実線
 62
     7
370
    25
100
AcDbLine
 10
161.4868612329
 20
176.6015432593
 30
0.0
 11
161.4868612338
 21
178.5460869046
 31
0.0
  0
LWPOLYLINE
  5
216
330
1F
100
AcDbEntity
  8
0
  6
SLD-実線
 62
     7
370
    25
100
AcDbPolyline
 90
       12
 70
   128
 43
0.0
 10
178.2031357385
 20
187.0672240891
 10
177.6740797813
 20
186.2059548384
 10
176.6670201999
 20
184.8380260418
 10
175.4951862126
 20
183.5373661148
 10
174.1674961833
 20
182.3138738648
 10
172.694054635
 20
181.1768608066
 10
171.0860753475
 20
180.1349802961
 10
169.3557960141
 20
179.1961616731
 10
167.5163851053
 20
178.3675499142
 10
165.5818416489
 20
177.6554512552
 10
163.5668886885
 20
177.0652851969
 10
161.4868612329
 20
176.6015432593
  0
LWPOLYLINE
  5
217
330
1F
100
AcDbEntity
  8
0
  6
SLD-実線
 62
     7
370
    25
100
AcDbPolyline
 90
       10
 70
   128
 43
0.0
 10
161.4868612338
 20
178.5460869046
 10
163.5668886896
 20
179.0098288422
 10
165.5818416503
 20
179.5999949007
 10
167.516385107
 20
180.3120935598
 10
169.355796016
 20
181.1407053188
 10
171.0860753496
 20
182.0795239419
 10
172.6940546373
 20
183.1214044526
 10
174.1674961859
 20
184.258417511
 10
175.4951862153
 20
185.4819097612
 10
175.866118264
 20
185.8672097876
  0
LINE
  5
218
330
1F
100
AcDbEntity
  8
0
  6
SLD-実線
 62
     7
370
    25
100
AcDbLine
 10
161.4868612329
 20
173.0660093534
 30
0.0
 11
161.4868612338
 21
175.0105529987
 31
0.0
  0
LWPOLYLINE
  5
219
330
1F
100
AcDbEntity
  8
0
  6
SLD-実線
 62
     7
370
    25
100
AcDbPolyline
 90
       13
 70
   128
 43
0.0
 10
179.1645307626
 20
185.5660093534
 10
178.508700625
 20
184.0952078345
 10
177.6740797813
 20
182.6704209324
 10
176.6670201999
 20
181.3024921358
 10
175.4951862126
 20
180.0018322089
 10
174.1674961833
 20
178.7783399589
 10
172.694054635
 20
177.6413269007
 10
171.0860753475
 20
176.5994463902
 10
169.3557960141
 20
175.6606277672
 10
167.5163851053
 20
174.8320160083
 10
165.5818416489
 20
174.1199173493
 10
163.5668886885
 20
173.529751291
 10
161.4868612329
 20
173.0660093534
  0
LINE
  5
21A
330
1F
100
AcDbEntity
  8
0
  6
SLD-実線
 62
     7
370
    25
100
AcDbLine
 10
179.1645307626
 20
187.5105530016
 30
0.0
 11
179.1645307626
 21
185.5660093534
 31
0.0
  0
LWPOLYLINE
  5
21B
330
1F
100
AcDbEntity
  8
0
  6
SLD-実線
 62
     7
370
    25
100
AcDbPolyline
 90
       13
 70
   128
 43
0.0
 10
161.4868612338
 20
175.0105529987
 10
163.5668886896
 20
175.4742949363
 10
165.5818416503
 20
176.0644609947
 10
167.516385107
 20
176.7765596538
 10
169.355796016
 20
177.6051714129
 10
171.0860753496
 20
178.543990036
 10
172.6940546373
 20
179.5858705467
 10
174.1674961859
 20
180.722883605
 10
175.4951862153
 20
181.9463758552
 10
176.6670202028
 20
183.2470357824
 10
177.6740797843
 20
184.6149645792
 10
178.5087006281
 20
186.0397514815
 10
179.1645307626
 20
187.5105530016
  0
LINE
  5
21C
330
1F
100
AcDbEntity
  8
0
  6
SLD-実線
 62
     7
370
    25
100
AcDbLine
 10
161.4868612329
 20
169.5304754474
 30
0.0
 11
161.4868612338
 21
171.4750190927
 31
0.0
  0
LWPOLYLINE
  5
21D
330
1F
100
AcDbEntity
  8
0
  6
SLD-実線
 62
     7
370
    25
100
AcDbPolyline
 90
       13
 70
   128
 43
0.0
 10
179.1645307626
 20
182.0304754474
 10
178.508700625
 20
180.5596739285
 10
177.6740797813
 20
179.1348870265
 10
176.6670201999
 20
177.7669582299
 10
175.4951862126
 20
176.4662983029
 10
174.1674961833
 20
175.2428060529
 10
172.694054635
 20
174.1057929947
 10
171.0860753475
 20
173.0639124842
 10
169.3557960141
 20
172.1250938613
 10
167.5163851053
 20
171.2964821023
 10
165.5818416489
 20
170.5843834433
 10
163.5668886885
 20
169.994217385
 10
161.4868612329
 20
169.5304754474
  0
LINE
  5
21E
330
1F
100
AcDbEntity
  8
0
  6
SLD-実線
 62
     7
370
    25
100
AcDbLine
 10
179.1645307626
 20
183.9750190957
 30
0.0
 11
179.1645307626
 21
182.0304754474
 31
0.0
  0
LWPOLYLINE
  5
21F
330
1F
100
AcDbEntity
  8
0
  6
SLD-実線
 62
     7
370
    25
100
AcDbPolyline
 90
       13
 70
   128
 43
0.0
 10
161.4868612338
 20
171.4750190927
 10
163.5668886896
 20
171.9387610304
 10
165.5818416503
 20
172.5289270888
 10
167.516385107
 20
173.2410257479
 10
169.355796016
 20
174.0696375069
 10
171.0860753496
 20
175.0084561301
 10
172.6940546373
 20
176.0503366407
 10
174.1674961859
 20
177.1873496991
 10
175.4951862153
 20
178.4108419493
 10
176.6670202028
 20
179.7115018765
 10
177.6740797843
 20
181.0794306733
 10
178.5087006281
 20
182.5042175756
 10
179.1645307626
 20
183.9750190957
  0
LINE
  5
220
330
1F
100
AcDbEntity
  8
0
  6
SLD-実線
 62
     7
370
    25
100
AcDbLine
 10
161.4868612329
 20
165.9949415415
 30
0.0
 11
161.4868612338
 21
167.9394851868
 31
0.0
  0
LWPOLYLINE
  5
221
330
1F
100
AcDbEntity
  8
0
  6
SLD-実線
 62
     7
370
    25
100
AcDbPolyline
 90
       13
 70
   128
 43
0.0
 10
179.1645307626
 20
178.4949415415
 10
178.508700625
 20
177.0241400226
 10
177.6740797813
 20
175.5993531206
 10
176.6670201999
 20
174.231424324
 10
175.4951862126
 20
172.930764397
 10
174.1674961833
 20
171.707272147
 10
172.694054635
 20
170.5702590888
 10
171.0860753475
 20
169.5283785783
 10
169.3557960141
 20
168.5895599553
 10
167.5163851053
 20
167.7609481964
 10
165.5818416489
 20
167.0488495374
 10
163.5668886885
 20
166.4586834791
 10
161.4868612329
 20
165.9949415415
  0
LINE
  5
222
330
1F
100
AcDbEntity
  8
0
  6
SLD-実線
 62
     7
370
    25
100
AcDbLine
 10
179.1645307626
 20
180.4394851898
 30
0.0
 11
179.1645307626
 21
178.4949415415
 31
0.0
  0
LWPOLYLINE
  5
223
330
1F
100
AcDbEntity
  8
0
  6
SLD-実線
 62
     7
370
    25
100
AcDbPolyline
 90
       13
 70
   128
 43
0.0
 10
161.4868612338
 20
167.9394851868
 10
163.5668886896
 20
168.4032271244
 10
165.5818416503
 20
168.9933931829
 10
167.516385107
 20
169.705491842
 10
169.355796016
 20
170.534103601
 10
171.0860753496
 20
171.4729222241
 10
172.6940546373
 20
172.5148027348
 10
174.1674961859
 20
173.6518157932
 10
175.4951862153
 20
174.8753080434
 10
176.6670202028
 20
176.1759679706
 10
177.6740797843
 20
177.5438967674
 10
178.5087006281
 20
178.9686836697
 10
179.1645307626
 20
180.4394851898
  0
LINE
  5
224
330
1F
100
AcDbEntity
  8
0
  6
SLD-実線
 62
     7
370
    25
100
AcDbLine
 10
161.4868612329
 20
162.4594076356
 30
0.0
 11
161.4868612338
 21
164.4039512809
 31
0.0
  0
LWPOLYLINE
  5
225
330
1F
100
AcDbEntity
  8
0
  6
SLD-実線
 62
     7
370
    25
100
AcDbPolyline
 90
       13
 70
   128
 43
0.0
 10
179.1645307626
 20
174.9594076356
 10
178.508700625
 20
173.4886061167
 10
177.6740797813
 20
172.0638192146
 10
176.6670201999
 20
170.695890418
 10
175.4951862126
 20
169.3952304911
 10
174.1674961833
 20
168.1717382411
 10
172.694054635
 20
167.0347251829
 10
171.0860753475
 20
165.9928446724
 10
169.3557960141
 20
165.0540260494
 10
167.5163851053
 20
164.2254142905
 10
165.5818416489
 20
163.5133156315
 10
163.5668886885
 20
162.9231495732
 10
161.4868612329
 20
162.4594076356
  0
LINE
  5
226
330
1F
100
AcDbEntity
  8
0
  6
SLD-実線
 62
     7
370
    25
100
AcDbLine
 10
179.1645307626
 20
176.9039512838
 30
0.0
 11
179.1645307626
 21
174.9594076356
 31
0.0
  0
LWPOLYLINE
  5
227
330
1F
100
AcDbEntity
  8
0
  6
SLD-実線
 62
     7
370
    25
100
AcDbPolyline
 90
       13
 70
   128
 43
0.0
 10
161.4868612338
 20
164.4039512809
 10
163.5668886896
 20
164.8676932185
 10
165.5818416503
 20
165.4578592769
 10
167.516385107
 20
166.169957936
 10
169.355796016
 20
166.9985696951
 10
171.0860753496
 20
167.9373883182
 10
172.6940546373
 20
168.9792688289
 10
174.1674961859
 20
170.1162818873
 10
175.4951862153
 20
171.3397741374
 10
176.6670202028
 20
172.6404340646
 10
177.6740797843
 20
174.0083628614
 10
178.5087006281
 20
175.4331497637
 10
179.1645307626
 20
176.9039512838
  0
LINE
  5
228
330
1F
100
AcDbEntity
  8
0
  6
SLD-実線
 62
     7
370
    25
100
AcDbLine
 10
161.4868612329
 20
158.9238737296
 30
0.0
 11
161.4868612338
 21
160.8684173749
 31
0.0
  0
LWPOLYLINE
  5
229
330
1F
100
AcDbEntity
  8
0
  6
SLD-実線
 62
     7
370
    25
100
AcDbPolyline
 90
       13
 70
   128
 43
0.0
 10
179.1645307626
 20
171.4238737296
 10
178.508700625
 20
169.9530722107
 10
177.6740797813
 20
168.5282853087
 10
176.6670201999
 20
167.1603565121
 10
175.4951862126
 20
165.8596965851
 10
174.1674961833
 20
164.6362043351
 10
172.694054635
 20
163.4991912769
 10
171.0860753475
 20
162.4573107665
 10
169.3557960141
 20
161.5184921435
 10
167.5163851053
 20
160.6898803845
 10
165.5818416489
 20
159.9777817255
 10
163.5668886885
 20
159.3876156672
 10
161.4868612329
 20
158.9238737296
  0
LINE
  5
22A
330
1F
100
AcDbEntity
  8
0
  6
SLD-実線
 62
     7
370
    25
100
AcDbLine
 10
179.1645307626
 20
173.3684173779
 30
0.0
 11
179.1645307626
 21
171.4238737296
 31
0.0
  0
LWPOLYLINE
  5
22B
330
1F
100
AcDbEntity
  8
0
  6
SLD-実線
 62
     7
370
    25
100
AcDbPolyline
 90
       13
 70
   128
 43
0.0
 10
161.4868612338
 20
160.8684173749
 10
163.5668886896
 20
161.3321593126
 10
165.5818416503
 20
161.922325371
 10
167.516385107
 20
162.6344240301
 10
169.355796016
 20
163.4630357891
 10
171.0860753496
 20
164.4018544123
 10
172.6940546373
 20
165.4437349229
 10
174.1674961859
 20
166.5807479813
 10
175.4951862153
 20
167.8042402315
 10
176.6670202028
 20
169.1049001587
 10
177.6740797843
 20
170.4728289555
 10
178.5087006281
 20
171.8976158578
 10
179.1645307626
 20
173.3684173779
  0
LINE
  5
22C
330
1F
100
AcDbEntity
  8
0
  6
SLD-実線
 62
     7
370
    25
100
AcDbLine
 10
156.2593640661
 20
180.7067890024
 30
0.0
 11
156.2593640661
 21
181.053760654
 31
0.0
  0
ARC
  5
22D
330
1F
100
AcDbEntity
  8
0
  6
SLD-実線
 62
     7
370
    25
100
AcDbCircle
 10
154.9406068872
 20
212.8433873891
 30
0.0
 40
32.16364525923664
100
AcDbArc
 50
250.6023378174
 51
272.3498706904
  0
LINE
  5
22E
330
1F
100
AcDbEntity
  8
0
  6
SLD-実線
 62
     7
370
    25
100
AcDbLine
 10
156.3247840112
 20
179.5589518162
 30
0.0
 11
156.2593640661
 21
180.7067890024
 31
0.0
  0
ARC
  5
22F
330
1F
100
AcDbEntity
  8
0
  6
SLD-実線
 62
     7
370
    25
100
AcDbCircle
 10
155.6116070725
 20
210.8918234744
 30
0.0
 40
30.15075551626052
100
AcDbArc
 50
281.2366963062
 51
289.6982933827
  0
LINE
  5
230
330
1F
100
AcDbEntity
  8
0
  6
SLD-実線
 62
     7
370
    25
100
AcDbLine
 10
135.0979591166
 20
184.7954744193
 30
0.0
 11
135.0979591166
 21
184.9383265713
 31
0.0
  0
LINE
  5
231
330
1F
100
AcDbEntity
  8
0
  6
SLD-実線
 62
     7
370
    25
100
AcDbLine
 10
156.2593640661
 20
177.1712550965
 30
0.0
 11
156.2593640661
 21
177.9655979977
 31
0.0
  0
LWPOLYLINE
  5
232
330
1F
100
AcDbEntity
  8
0
  6
SLD-実線
 62
     7
370
    25
100
AcDbPolyline
 90
       13
 70
   128
 43
0.0
 10
156.2593640661
 20
177.1712550965
 10
154.1875220587
 20
177.1584701171
 10
152.1219881995
 20
177.273418131
 10
150.0784824484
 20
177.5152243144
 10
148.0725571182
 20
177.8820483763
 10
146.1194785117
 20
178.371098564
 10
144.2341107365
 20
178.9786529103
 10
142.4308025798
 20
179.7000875599
 10
140.7232783055
 20
180.5299119593
 10
139.1245332043
 20
181.461810644
 10
137.6467346919
 20
182.488691302
 10
136.3011297072
 20
183.6027387517
 10
135.0979591166
 20
184.7954744193
  0
LINE
  5
233
330
1F
100
AcDbEntity
  8
0
  6
SLD-実線
 62
     7
370
    25
100
AcDbLine
 10
156.3247840112
 20
176.0234179103
 30
0.0
 11
156.2593640661
 21
177.1712550965
 31
0.0
  0
LINE
  5
234
330
1F
100
AcDbEntity
  8
0
  6
SLD-実線
 62
     7
370
    25
100
AcDbLine
 10
134.0496209067
 20
184.0489119327
 30
0.0
 11
135.0979591166
 21
184.7954744193
 31
0.0
  0
LWPOLYLINE
  5
235
330
1F
100
AcDbEntity
  8
0
  6
SLD-実線
 62
     7
370
    25
100
AcDbPolyline
 90
       11
 70
   128
 43
0.0
 10
175.7175735535
 20
185.7102794725
 10
175.5844884452
 20
185.545132823
 10
174.4712461572
 20
184.3095058923
 10
173.2099406294
 20
183.1471882548
 10
171.8101711585
 20
182.0670258496
 10
170.2825908354
 20
181.0772393646
 10
168.6388254687
 20
180.1853616727
 10
166.8913851053
 20
179.3981805018
 10
165.0535688217
 20
178.7216867757
 10
163.1393635093
 20
178.1610290203
 10
161.4868612329
 20
177.7835073735
  0
LINE
  5
236
330
1F
100
AcDbEntity
  8
0
  6
SLD-実線
 62
     7
370
    25
100
AcDbLine
 10
135.0979591166
 20
181.2599405134
 30
0.0
 11
135.0979591166
 21
181.4027926654
 31
0.0
  0
LINE
  5
237
330
1F
100
AcDbEntity
  8
0
  6
SLD-実線
 62
     7
370
    25
100
AcDbLine
 10
156.2593640661
 20
173.6357211906
 30
0.0
 11
156.2593640661
 21
174.4300640918
 31
0.0
  0
LWPOLYLINE
  5
238
330
1F
100
AcDbEntity
  8
0
  6
SLD-実線
 62
     7
370
    25
100
AcDbPolyline
 90
       13
 70
   128
 43
0.0
 10
156.2593640661
 20
173.6357211906
 10
154.1875220587
 20
173.6229362111
 10
152.1219881995
 20
173.737884225
 10
150.0784824484
 20
173.9796904085
 10
148.0725571182
 20
174.3465144703
 10
146.1194785117
 20
174.8355646581
 10
144.2341107365
 20
175.4431190044
 10
142.4308025798
 20
176.164553654
 10
140.7232783055
 20
176.9943780534
 10
139.1245332043
 20
177.926276738
 10
137.6467346919
 20
178.9531573961
 10
136.3011297072
 20
180.0672048458
 10
135.0979591166
 20
181.2599405134
  0
LINE
  5
239
330
1F
100
AcDbEntity
  8
0
  6
SLD-実線
 62
     7
370
    25
100
AcDbLine
 10
156.3247840112
 20
172.4878840044
 30
0.0
 11
156.2593640661
 21
173.6357211906
 31
0.0
  0
LINE
  5
23A
330
1F
100
AcDbEntity
  8
0
  6
SLD-実線
 62
     7
370
    25
100
AcDbLine
 10
134.0496209067
 20
180.5133780267
 30
0.0
 11
135.0979591166
 21
181.2599405134
 31
0.0
  0
LWPOLYLINE
  5
23B
330
1F
100
AcDbEntity
  8
0
  6
SLD-実線
 62
     7
370
    25
100
AcDbPolyline
 90
       11
 70
   128
 43
0.0
 10
175.7175735535
 20
182.1747455666
 10
175.5844884452
 20
182.009598917
 10
174.4712461572
 20
180.7739719864
 10
173.2099406294
 20
179.6116543489
 10
171.8101711585
 20
178.5314919436
 10
170.2825908354
 20
177.5417054587
 10
168.6388254687
 20
176.6498277668
 10
166.8913851053
 20
175.8626465958
 10
165.0535688217
 20
175.1861528698
 10
163.1393635093
 20
174.6254951144
 10
161.4868612329
 20
174.2479734676
  0
LINE
  5
23C
330
1F
100
AcDbEntity
  8
0
  6
SLD-実線
 62
     7
370
    25
100
AcDbLine
 10
179.1645307626
 20
185.5660093534
 30
0.0
 11
178.4201976054
 21
185.870504089
 31
0.0
  0
LINE
  5
23D
330
1F
100
AcDbEntity
  8
0
  6
SLD-実線
 62
     7
370
    25
100
AcDbLine
 10
135.0979591166
 20
177.7244066074
 30
0.0
 11
135.0979591166
 21
177.8672587594
 31
0.0
  0
LINE
  5
23E
330
1F
100
AcDbEntity
  8
0
  6
SLD-実線
 62
     7
370
    25
100
AcDbLine
 10
156.2593640661
 20
170.1001872846
 30
0.0
 11
156.2593640661
 21
170.8945301859
 31
0.0
  0
LWPOLYLINE
  5
23F
330
1F
100
AcDbEntity
  8
0
  6
SLD-実線
 62
     7
370
    25
100
AcDbPolyline
 90
       13
 70
   128
 43
0.0
 10
156.2593640661
 20
170.1001872846
 10
154.1875220587
 20
170.0874023052
 10
152.1219881995
 20
170.2023503191
 10
150.0784824484
 20
170.4441565025
 10
148.0725571182
 20
170.8109805644
 10
146.1194785117
 20
171.3000307521
 10
144.2341107365
 20
171.9075850985
 10
142.4308025798
 20
172.629019748
 10
140.7232783055
 20
173.4588441475
 10
139.1245332043
 20
174.3907428321
 10
137.6467346919
 20
175.4176234902
 10
136.3011297072
 20
176.5316709399
 10
135.0979591166
 20
177.7244066074
  0
LINE
  5
240
330
1F
100
AcDbEntity
  8
0
  6
SLD-実線
 62
     7
370
    25
100
AcDbLine
 10
156.3247840112
 20
168.9523500984
 30
0.0
 11
156.2593640661
 21
170.1001872846
 31
0.0
  0
LINE
  5
241
330
1F
100
AcDbEntity
  8
0
  6
SLD-実線
 62
     7
370
    25
100
AcDbLine
 10
134.0496209067
 20
176.9778441208
 30
0.0
 11
135.0979591166
 21
177.7244066074
 31
0.0
  0
LWPOLYLINE
  5
242
330
1F
100
AcDbEntity
  8
0
  6
SLD-実線
 62
     7
370
    25
100
AcDbPolyline
 90
       11
 70
   128
 43
0.0
 10
175.7175735535
 20
178.6392116607
 10
175.5844884452
 20
178.4740650111
 10
174.4712461572
 20
177.2384380805
 10
173.2099406294
 20
176.076120443
 10
171.8101711585
 20
174.9959580377
 10
170.2825908354
 20
174.0061715527
 10
168.6388254687
 20
173.1142938609
 10
166.8913851053
 20
172.3271126899
 10
165.0535688217
 20
171.6506189639
 10
163.1393635093
 20
171.0899612085
 10
161.4868612329
 20
170.7124395616
  0
LINE
  5
243
330
1F
100
AcDbEntity
  8
0
  6
SLD-実線
 62
     7
370
    25
100
AcDbLine
 10
179.1645307626
 20
182.0304754474
 30
0.0
 11
178.4201976054
 21
182.334970183
 31
0.0
  0
LINE
  5
244
330
1F
100
AcDbEntity
  8
0
  6
SLD-実線
 62
     7
370
    25
100
AcDbLine
 10
135.0979591166
 20
174.1888727015
 30
0.0
 11
135.0979591166
 21
174.3317248535
 31
0.0
  0
LINE
  5
245
330
1F
100
AcDbEntity
  8
0
  6
SLD-実線
 62
     7
370
    25
100
AcDbLine
 10
156.2593640661
 20
166.5646533787
 30
0.0
 11
156.2593640661
 21
167.3589962799
 31
0.0
  0
LWPOLYLINE
  5
246
330
1F
100
AcDbEntity
  8
0
  6
SLD-実線
 62
     7
370
    25
100
AcDbPolyline
 90
       13
 70
   128
 43
0.0
 10
156.2593640661
 20
166.5646533787
 10
154.1875220587
 20
166.5518683993
 10
152.1219881995
 20
166.6668164132
 10
150.0784824484
 20
166.9086225966
 10
148.0725571182
 20
167.2754466585
 10
146.1194785117
 20
167.7644968462
 10
144.2341107365
 20
168.3720511925
 10
142.4308025798
 20
169.0934858421
 10
140.7232783055
 20
169.9233102415
 10
139.1245332043
 20
170.8552089262
 10
137.6467346919
 20
171.8820895842
 10
136.3011297072
 20
172.9961370339
 10
135.0979591166
 20
174.1888727015
  0
LINE
  5
247
330
1F
100
AcDbEntity
  8
0
  6
SLD-実線
 62
     7
370
    25
100
AcDbLine
 10
156.3247840112
 20
165.4168161925
 30
0.0
 11
156.2593640661
 21
166.5646533787
 31
0.0
  0
LINE
  5
248
330
1F
100
AcDbEntity
  8
0
  6
SLD-実線
 62
     7
370
    25
100
AcDbLine
 10
134.0496209067
 20
173.4423102149
 30
0.0
 11
135.0979591166
 21
174.1888727015
 31
0.0
  0
LWPOLYLINE
  5
249
330
1F
100
AcDbEntity
  8
0
  6
SLD-実線
 62
     7
370
    25
100
AcDbPolyline
 90
       11
 70
   128
 43
0.0
 10
175.7175735535
 20
175.1036777547
 10
175.5844884452
 20
174.9385311052
 10
174.4712461572
 20
173.7029041745
 10
173.2099406294
 20
172.540586537
 10
171.8101711585
 20
171.4604241318
 10
170.2825908354
 20
170.4706376468
 10
168.6388254687
 20
169.5787599549
 10
166.8913851053
 20
168.791578784
 10
165.0535688217
 20
168.1150850579
 10
163.1393635093
 20
167.5544273025
 10
161.4868612329
 20
167.1769056557
  0
LINE
  5
24A
330
1F
100
AcDbEntity
  8
0
  6
SLD-実線
 62
     7
370
    25
100
AcDbLine
 10
179.1645307626
 20
178.4949415415
 30
0.0
 11
178.4201976054
 21
178.7994362771
 31
0.0
  0
LINE
  5
24B
330
1F
100
AcDbEntity
  8
0
  6
SLD-実線
 62
     7
370
    25
100
AcDbLine
 10
135.0979591166
 20
170.6533387956
 30
0.0
 11
135.0979591166
 21
170.7961909476
 31
0.0
  0
LINE
  5
24C
330
1F
100
AcDbEntity
  8
0
  6
SLD-実線
 62
     7
370
    25
100
AcDbLine
 10
156.2593640661
 20
163.0291194728
 30
0.0
 11
156.2593640661
 21
163.823462374
 31
0.0
  0
LWPOLYLINE
  5
24D
330
1F
100
AcDbEntity
  8
0
  6
SLD-実線
 62
     7
370
    25
100
AcDbPolyline
 90
       13
 70
   128
 43
0.0
 10
156.2593640661
 20
163.0291194728
 10
154.1875220587
 20
163.0163344934
 10
152.1219881995
 20
163.1312825072
 10
150.0784824484
 20
163.3730886907
 10
148.0725571182
 20
163.7399127525
 10
146.1194785117
 20
164.2289629403
 10
144.2341107365
 20
164.8365172866
 10
142.4308025798
 20
165.5579519362
 10
140.7232783055
 20
166.3877763356
 10
139.1245332043
 20
167.3196750202
 10
137.6467346919
 20
168.3465556783
 10
136.3011297072
 20
169.460603128
 10
135.0979591166
 20
170.6533387956
  0
LINE
  5
24E
330
1F
100
AcDbEntity
  8
0
  6
SLD-実線
 62
     7
370
    25
100
AcDbLine
 10
156.3247840112
 20
161.8812822866
 30
0.0
 11
156.2593640661
 21
163.0291194728
 31
0.0
  0
LINE
  5
24F
330
1F
100
AcDbEntity
  8
0
  6
SLD-実線
 62
     7
370
    25
100
AcDbLine
 10
134.0496209067
 20
169.9067763089
 30
0.0
 11
135.0979591166
 21
170.6533387956
 31
0.0
  0
LWPOLYLINE
  5
250
330
1F
100
AcDbEntity
  8
0
  6
SLD-実線
 62
     7
370
    25
100
AcDbPolyline
 90
       11
 70
   128
 43
0.0
 10
175.7175735535
 20
171.5681438488
 10
175.5844884452
 20
171.4029971992
 10
174.4712461572
 20
170.1673702686
 10
173.2099406294
 20
169.0050526311
 10
171.8101711585
 20
167.9248902258
 10
170.2825908354
 20
166.9351037409
 10
168.6388254687
 20
166.043226049
 10
166.8913851053
 20
165.256044878
 10
165.0535688217
 20
164.579551152
 10
163.1393635093
 20
164.0188933966
 10
161.4868612329
 20
163.6413717498
  0
LINE
  5
251
330
1F
100
AcDbEntity
  8
0
  6
SLD-実線
 62
     7
370
    25
100
AcDbLine
 10
179.1645307626
 20
174.9594076356
 30
0.0
 11
178.4201976054
 21
175.2639023712
 31
0.0
  0
LINE
  5
252
330
1F
100
AcDbEntity
  8
0
  6
SLD-実線
 62
     7
370
    25
100
AcDbLine
 10
135.0979591166
 20
167.1178048896
 30
0.0
 11
135.0979591166
 21
167.2606570416
 31
0.0
  0
LINE
  5
253
330
1F
100
AcDbEntity
  8
0
  6
SLD-実線
 62
     7
370
    25
100
AcDbLine
 10
156.2593640661
 20
159.4935855668
 30
0.0
 11
156.2593640661
 21
160.2879284681
 31
0.0
  0
LWPOLYLINE
  5
254
330
1F
100
AcDbEntity
  8
0
  6
SLD-実線
 62
     7
370
    25
100
AcDbPolyline
 90
       13
 70
   128
 43
0.0
 10
156.2593640661
 20
159.4935855668
 10
154.1875220587
 20
159.4808005874
 10
152.1219881995
 20
159.5957486013
 10
150.0784824484
 20
159.8375547847
 10
148.0725571182
 20
160.2043788466
 10
146.1194785117
 20
160.6934290343
 10
144.2341107365
 20
161.3009833807
 10
142.4308025798
 20
162.0224180302
 10
140.7232783055
 20
162.8522424297
 10
139.1245332043
 20
163.7841411143
 10
137.6467346919
 20
164.8110217724
 10
136.3011297072
 20
165.9250692221
 10
135.0979591166
 20
167.1178048896
  0
LINE
  5
255
330
1F
100
AcDbEntity
  8
0
  6
SLD-実線
 62
     7
370
    25
100
AcDbLine
 10
156.3247840112
 20
158.3457483806
 30
0.0
 11
156.2593640661
 21
159.4935855668
 31
0.0
  0
LINE
  5
256
330
1F
100
AcDbEntity
  8
0
  6
SLD-実線
 62
     7
370
    25
100
AcDbLine
 10
134.0496209067
 20
166.371242403
 30
0.0
 11
135.0979591166
 21
167.1178048896
 31
0.0
  0
LWPOLYLINE
  5
257
330
1F
100
AcDbEntity
  8
0
  6
SLD-実線
 62
     7
370
    25
100
AcDbPolyline
 90
       11
 70
   128
 43
0.0
 10
175.7175735535
 20
168.0326099429
 10
175.5844884452
 20
167.8674632933
 10
174.4712461572
 20
166.6318363627
 10
173.2099406294
 20
165.4695187252
 10
171.8101711585
 20
164.3893563199
 10
170.2825908354
 20
163.3995698349
 10
168.6388254687
 20
162.5076921431
 10
166.8913851053
 20
161.7205109721
 10
165.0535688217
 20
161.0440172461
 10
163.1393635093
 20
160.4833594907
 10
161.4868612329
 20
160.1058378438
  0
LINE
  5
258
330
1F
100
AcDbEntity
  8
0
  6
SLD-実線
 62
     7
370
    25
100
AcDbLine
 10
179.1645307626
 20
171.4238737296
 30
0.0
 11
178.4201976054
 21
171.7283684652
 31
0.0
  0
LWPOLYLINE
  5
259
330
1F
100
AcDbEntity
  8
0
  6
SLD-実線
 62
     7
370
    25
100
AcDbPolyline
 90
       39
 70
   128
 43
0.0
 10
180.0163851053
 20
172.728822414
 10
179.9821234742
 20
171.803644675
 10
179.7850811171
 20
170.3296873744
 10
179.4143041538
 20
168.8725582824
 10
178.8723933182
 20
167.4424781126
 10
178.1631497256
 20
166.0494778498
 10
177.29154821
 20
164.70332839
 10
176.26370243
 20
163.4134720044
 10
175.0868219851
 20
162.1889561089
 10
173.7691618461
 20
161.0383698027
 10
172.3199644521
 20
159.969783622
 10
170.7493948816
 20
158.990692931
 10
169.0684695516
 20
158.1079653475
 10
167.2889789457
 20
157.3277925713
 10
165.4234049118
 20
156.6556469538
 10
163.4848331115
 20
156.0962431136
 10
161.4868612329
 20
155.6535048666
 10
159.4435036133
 20
155.3305377037
 10
157.3690929383
 20
155.1296070074
 10
155.2781797082
 20
155.0521221621
 10
153.1854301771
 20
155.0986266684
 10
151.1055234793
 20
155.2687943306
 10
149.0530486659
 20
155.5614315448
 10
147.0424023729
 20
155.9744856712
 10
145.0876878395
 20
156.5050594318
 10
143.2026159836
 20
157.149431233
 10
141.40040923
 20
157.9030812696
 10
139.693708764
 20
158.760723228
 10
138.0944858633
 20
159.7163413661
 10
136.6139579273
 20
160.7632327093
 10
135.2625097959
 20
161.8940540671
 10
134.0496209067
 20
163.10087354
 10
132.9837988037
 20
164.3752261566
 10
132.0725194632
 20
165.7081732489
 10
131.3221748551
 20
167.0903651508
 10
130.7380281076
 20
168.5121067791
 10
130.3241765905
 20
169.9634256379
 10
130.0835231747
 20
171.4341417682
 10
130.0163851053
 20
172.728822414
  0
LWPOLYLINE
  5
25A
330
1F
100
AcDbEntity
  8
0
  6
SLD-実線
 62
     7
370
    25
100
AcDbPolyline
 90
       11
 70
   128
 43
0.0
 10
137.2214311983
 20
155.6669801365
 10
135.7947972412
 20
156.7640229131
 10
134.5029889122
 20
157.941630954
 10
133.3550673187
 20
159.191544185
 10
132.3590843058
 20
160.5049953629
 10
131.5220259788
 20
161.8727715712
 10
130.8497637003
 20
163.2852788427
 10
130.3470129074
 20
164.7326094537
 10
130.0173000355
 20
166.2046114199
 10
129.8629377835
 20
167.6909597051
 10
129.8591495751
 20
168.7158899819
  0
LWPOLYLINE
  5
25B
330
1F
100
AcDbEntity
  8
0
  6
SLD-実線
 62
     7
370
    25
100
AcDbPolyline
 90
       30
 70
   128
 43
0.0
 10
180.1736206355
 20
168.7158899819
 10
180.1808704021
 20
168.0635677994
 10
180.0705632621
 20
166.5752596173
 10
179.7845190637
 20
165.0986979235
 10
179.3247442015
 20
163.6442397372
 10
178.6944636658
 20
162.2220870378
 10
177.8980984216
 20
160.8422152044
 10
176.941234399
 20
159.5143030467
 10
175.8305833116
 20
158.2476649143
 10
174.5739355788
 20
157.0511853636
 10
173.1801056814
 20
155.933256839
 10
171.6588703349
 20
154.9017208059
 10
170.020899912
 20
153.9638127483
 10
168.2776835986
 20
153.1261114175
 10
166.4414488044
 20
152.3944926863
 10
164.5250753973
 20
151.7740883345
 10
162.5420053597
 20
151.2692500529
 10
160.5061485033
 20
150.8835189193
 10
158.4317849009
 20
150.6196005604
 10
156.333464723
 20
150.4793461739
 10
154.2259061779
 20
150.4637395436
 10
152.1238922745
 20
150.5728901387
 10
150.04216713
 20
150.8060323463
 10
147.9953325507
 20
151.1615308413
 10
145.9977456104
 20
151.6368920571
 10
144.0634179463
 20
152.2287816764
 10
142.2059174772
 20
152.9330480187
 10
140.4382732341
 20
153.7447511618
 10
138.7728839714
 20
154.6581975912
 10
137.2214311983
 20
155.6669801365
  0
ARC
  5
25C
330
1F
100
AcDbEntity
  8
0
  6
SLD-実線
 62
     7
370
    25
100
AcDbCircle
 10
155.0163851054
 20
195.8788522434
 30
0.0
 40
10.93042411966642
100
AcDbArc
 50
55.8062014426
 51
124.1937985598
  0
LWPOLYLINE
  5
25D
330
1F
100
AcDbEntity
  8
0
  6
SLD-実線
 62
     7
370
    25
100
AcDbPolyline
 90
       22
 70
   128
 43
0.0
 10
162.9919336758
 20
201.2075480262
 10
162.9771136196
 20
201.3254283676
 10
162.7702009084
 20
202.1581472196
 10
162.3900807649
 20
202.9597590084
 10
161.845244445
 20
203.712357051
 10
161.1478626918
 20
204.3991295511
 10
160.3135138613
 20
205.0047351456
 10
159.3608359277
 20
205.5156456064
 10
158.3111101416
 20
205.920448038
 10
157.1877856427
 20
206.2100998231
 10
156.0159556438
 20
206.3781306193
 10
154.8217968909
 20
206.4207868964
 10
153.6319849171
 20
206.3371157836
 10
152.4730981559
 20
206.1289863553
 10
151.3710242224
 20
205.801047879
 10
150.3503816273
 20
205.3606259584
 10
149.4339698396
 20
204.8175588914
 10
148.6422599843
 20
204.1839778989
 10
147.9929375512
 20
203.4740361333
 10
147.5005073306
 20
202.7035925205
 10
147.1759693998
 20
201.8898574977
 10
147.0408365349
 20
201.2075480262
  0
LWPOLYLINE
  5
25E
330
1F
100
AcDbEntity
  8
0
  6
SLD-実線
 62
     7
370
    25
100
AcDbPolyline
 90
        3
 70
   128
 43
0.0
 10
146.3902458973
 20
200.0818018898
 10
146.2842368489
 20
200.724136371
 10
146.2663851053
 20
201.1191596786
  0
LWPOLYLINE
  5
25F
330
1F
100
AcDbEntity
  8
0
  6
SLD-実線
 62
     7
370
    25
100
AcDbPolyline
 90
        3
 70
   128
 43
0.0
 10
163.7663851053
 20
201.1191596786
 10
163.7391564861
 20
200.6314305332
 10
163.6425243133
 20
200.0818018898
  0
LWPOLYLINE
  5
260
330
1F
100
AcDbEntity
  8
0
  6
SLD-実線
 62
     7
370
    25
100
AcDbPolyline
 90
       30
 70
   128
 43
0.0
 10
146.4526213303
 20
200.3797555394
 10
146.2842368489
 20
201.2544664569
 10
146.2936137245
 20
202.1372189098
 10
146.4805610711
 20
203.0100426038
 10
146.8412731798
 20
203.8551693655
 10
147.3684069922
 20
204.6553948512
 10
148.051231584
 20
205.3944287776
 10
148.8758466156
 20
206.0572265452
 10
149.8254653031
 20
206.6302955029
 10
150.8807561484
 20
207.1019696191
 10
152.020236473
 20
207.4626469692
 10
153.2207097437
 20
207.7049852023
 10
154.4577377863
 20
207.824051011
 10
155.7061382774
 20
207.8174205586
 10
156.940497383
 20
207.6852288221
 10
158.1356871114
 20
207.430166844
 10
159.2673768461
 20
207.0574269507
 10
160.3125286479
 20
206.5745970514
 10
161.24986624
 20
205.9915061707
 10
162.0603081321
 20
205.3200243572
 10
162.7273560643
 20
204.5738210444
 10
163.2374308644
 20
203.7680867798
 10
163.5801488804
 20
202.9192239895
 10
163.7485333618
 20
202.044513072
 10
163.7391564861
 20
201.1617606191
 10
163.5522091395
 20
200.2889369251
 10
163.1914970309
 20
199.4438101635
 10
162.6643632185
 20
198.6435846778
 10
161.9815386267
 20
197.9045507514
 10
161.2263836303
 20
197.2906815375
  0
ARC
  5
261
330
1F
100
AcDbEntity
  8
0
  6
SLD-実線
 62
     7
370
    25
100
AcDbCircle
 10
152.19995759
 20
202.3177427304
 30
0.0
 40
6.065283870931402
100
AcDbArc
 50
198.633975658
 51
235.9782642647
  0
LWPOLYLINE
  5
262
330
1F
100
AcDbEntity
  8
0
  6
SLD-実線
 62
     7
370
    25
100
AcDbPolyline
 90
       43
 70
   128
 43
0.0
 10
147.1866582253
 20
200.4885899016
 10
147.0294181252
 20
201.3267216914
 10
147.0505936694
 20
202.1720635866
 10
147.2497118312
 20
203.0057320461
 10
147.6223246399
 20
203.8091042942
 10
148.1601085411
 20
204.5642343223
 10
148.8510503311
 20
205.2542537735
 10
149.679715512
 20
205.8637487534
 10
150.6275930731
 20
206.3791041514
 10
151.6735089959
 20
206.7888077794
 10
152.794099247
 20
207.0837075354
 10
153.964331692
 20
207.2572158462
 10
155.1580652718
 20
207.3054568228
 10
156.3486339508
 20
207.2273528416
 10
157.5094423921
 20
207.0246486163
 10
158.6145600532
 20
206.7018722245
 10
159.6393004318
 20
206.2662339573
 10
160.5607725212
 20
205.7274652538
 10
161.3583921575
 20
205.0976013165
 10
162.0143418361
 20
204.390712265
 10
162.5139687251
 20
203.6225888326
 10
162.8461119854
 20
202.8103896274
 10
163.0033520855
 20
201.9722578376
 10
162.9821765413
 20
201.1269159424
 10
162.7830583795
 20
200.2932474829
 10
162.4104455708
 20
199.4898752348
 10
161.8726616696
 20
198.7347452067
 10
161.1817198796
 20
198.0447257555
 10
160.3530546987
 20
197.4352307756
 10
159.4051771376
 20
196.9198753776
 10
158.3592612148
 20
196.5101717496
 10
157.2386709637
 20
196.2152719935
 10
156.0684385186
 20
196.0417636828
 10
154.8747049389
 20
195.9935227061
 10
153.6841362599
 20
196.0716266874
 10
152.5233278186
 20
196.2743309126
 10
151.4182101575
 20
196.5971073045
 10
150.3934697789
 20
197.0327455716
 10
149.4719976895
 20
197.5715142751
 10
148.6743780532
 20
198.2013782124
 10
148.0184283746
 20
198.9082672639
 10
147.5188014856
 20
199.6763906964
 10
147.1866582253
 20
200.4885899016
  0
LWPOLYLINE
  5
263
330
1F
100
AcDbEntity
  8
0
  6
SLD-実線
 62
     7
370
    25
100
AcDbPolyline
 90
       23
 70
   128
 43
0.0
 10
147.0202923094
 20
201.4727130677
 10
147.0505936694
 20
201.818510196
 10
147.2497118312
 20
202.6521786555
 10
147.6223246399
 20
203.4555509036
 10
148.1601085411
 20
204.2106809317
 10
148.8510503311
 20
204.9007003829
 10
149.679715512
 20
205.5101953628
 10
150.6275930731
 20
206.0255507608
 10
151.6735089959
 20
206.4352543888
 10
152.794099247
 20
206.7301541448
 10
153.964331692
 20
206.9036624556
 10
155.1580652718
 20
206.9519034322
 10
156.3486339508
 20
206.873799451
 10
157.5094423921
 20
206.6710952257
 10
158.6145600532
 20
206.3483188339
 10
159.6393004318
 20
205.9126805667
 10
160.5607725212
 20
205.3739118632
 10
161.3583921575
 20
204.744047926
 10
162.0143418361
 20
204.0371588744
 10
162.5139687251
 20
203.269035442
 10
162.8461119854
 20
202.4568362368
 10
163.0033520855
 20
201.618704447
 10
163.0124779012
 20
201.4727130688
  0
LWPOLYLINE
  5
264
330
1F
100
AcDbEntity
  8
0
  6
SLD-実線
 62
     7
370
    25
100
AcDbPolyline
 90
       48
 70
   128
 43
0.0
 10
147.9453172933
 20
206.8969771382
 10
148.9508900795
 20
207.5187993558
 10
150.0647017682
 20
208.0403000228
 10
151.2668763633
 20
208.4521729474
 10
152.5359610307
 20
208.7470682475
 10
153.8493089245
 20
208.9197235094
 10
155.1834833204
 20
208.967057696
 10
156.5146758447
 20
208.8882261275
 10
157.8191313353
 20
208.6846355552
 10
159.073571753
 20
208.3599190576
 10
160.2556115788
 20
207.9198712084
 10
161.3441572841
 20
207.3723446717
 10
162.319783745
 20
206.7271100718
 10
163.1650808841
 20
205.9956816352
 10
163.864964354
 20
205.1911117197
 10
164.4069447176
 20
204.3277578946
 10
164.7813503224
 20
203.4210267294
 10
164.9814998916
 20
202.487098863
 10
165.0038217514
 20
201.5426402605
 10
164.8479175676
 20
200.604504808
 10
164.5165694541
 20
199.6894335548
 10
164.0156903258
 20
198.8137559691
 10
163.3542183827
 20
197.9930985383
 10
162.5439576072
 20
197.2421059136
 10
161.5993671221
 20
196.5741795761
 10
160.537303167
 20
196.0012386872
 10
159.3767182982
 20
195.5335073907
 10
158.1383231803
 20
195.1793323625
 10
156.8442170035
 20
194.9450338645
 10
155.5174931232
 20
194.834792959
 10
154.1818269585
 20
194.8505768974
 10
152.8610535036
 20
194.992104015
 10
151.5787419922
 20
195.2568487571
 10
150.3577753036
 20
195.6400867475
 10
149.2199416173
 20
196.1349790951
 10
148.1855456024
 20
196.7326944343
 10
147.2730460802
 20
197.4225665206
 10
146.4987266264
 20
198.1922845705
 10
145.8764049899
 20
199.028112947
 10
145.4171865151
 20
199.9151362729
 10
145.1292659665
 20
200.837525596
 10
145.0177812933
 20
201.778820857
 10
145.0847219419
 20
202.7222246197
 10
145.3288933549
 20
203.6509018214
 10
145.7459382877
 20
204.5482801957
 10
146.3284145637
 20
205.3983460041
 10
147.0659278797
 20
206.1859298021
 10
147.9453172933
 20
206.8969771382
  0
LWPOLYLINE
  5
265
330
1F
100
AcDbEntity
  8
0
  6
SLD-実線
 62
     7
370
    25
100
AcDbPolyline
 90
       49
 70
   128
 43
0.0
 10
162.2642296125
 20
206.8452004426
 10
163.1482568433
 20
206.132408622
 10
163.8931454941
 20
205.3441226962
 10
164.4861503136
 20
204.4938304559
 10
164.9171248248
 20
203.596080637
 10
165.1786949344
 20
202.6662339879
 10
165.2663851053
 20
201.7202004426
 10
165.1786949344
 20
200.7741668973
 10
164.9171248248
 20
199.8443202482
 10
164.4861503136
 20
198.9465704294
 10
163.8931454941
 20
198.096278189
 10
163.1482568433
 20
197.3079922632
 10
162.2642296125
 20
196.5952004426
 10
161.2561897527
 20
195.9700987929
 10
160.1413851053
 20
195.4433829767
 10
158.9388902871
 20
195.0240652476
 10
157.6692803176
 20
194.7193202482
 10
156.3542785756
 20
194.5343622499
 10
155.0163851053
 20
194.4723559354
 10
153.6784916351
 20
194.5343622499
 10
152.363489893
 20
194.7193202482
 10
151.0938799236
 20
195.0240652476
 10
149.8913851053
 20
195.4433829767
 10
148.776580458
 20
195.9700987929
 10
147.7685405982
 20
196.5952004426
 10
146.8845133674
 20
197.3079922632
 10
146.1396247165
 20
198.096278189
 10
145.5466198971
 20
198.9465704294
 10
145.1156453859
 20
199.8443202482
 10
144.8540752763
 20
200.7741668973
 10
144.7663851053
 20
201.7202004426
 10
144.8540752763
 20
202.6662339879
 10
145.1156453859
 20
203.596080637
 10
145.5466198971
 20
204.4938304559
 10
146.1396247165
 20
205.3441226962
 10
146.8845133674
 20
206.132408622
 10
147.7685405982
 20
206.8452004426
 10
148.776580458
 20
207.4703020923
 10
149.8913851053
 20
207.9970179085
 10
151.0938799236
 20
208.4163356376
 10
152.363489893
 20
208.721080637
 10
153.6784916351
 20
208.9060386353
 10
155.0163851053
 20
208.9680449498
 10
156.3542785756
 20
208.9060386353
 10
157.6692803176
 20
208.721080637
 10
158.9388902871
 20
208.4163356376
 10
160.1413851053
 20
207.9970179085
 10
161.2561897527
 20
207.4703020923
 10
162.2642296125
 20
206.8452004426
  0
ARC
  5
266
330
1F
100
AcDbEntity
  8
0
  6
SLD-実線
 62
     7
370
    25
100
AcDbCircle
 10
154.1278856306
 20
204.7214265602
 30
0.0
 40
11.15865834025395
100
AcDbArc
 50
235.256587012
 51
252.9698213539
  0
LWPOLYLINE
  5
267
330
1F
100
AcDbEntity
  8
0
  6
SLD-実線
 62
     7
370
    25
100
AcDbPolyline
 90
       10
 70
   128
 43
0.0
 10
159.1729807241
 20
194.0520684001
 10
160.1413851053
 20
194.4004004745
 10
161.2561897527
 20
194.9271162907
 10
162.2642296125
 20
195.5522179404
 10
163.1482568433
 20
196.2650097609
 10
163.8931454941
 20
197.0532956868
 10
164.4861503136
 20
197.9035879271
 10
164.9171248248
 20
198.801337746
 10
165.1786949344
 20
199.731184395
 10
165.2663851053
 20
200.6772179404
  0
ARC
  5
268
330
1F
100
AcDbEntity
  8
0
  6
SLD-実線
 62
     7
370
    25
100
AcDbCircle
 10
151.1931482888
 20
201.0001176654
 30
0.0
 40
6.434869792712409
100
AcDbArc
 50
182.8762919882
 51
237.8460948215
  0
LWPOLYLINE
  5
269
330
1F
100
AcDbEntity
  8
0
  6
SLD-実線
 62
     7
370
    25
100
AcDbPolyline
 90
       46
 70
   128
 43
0.0
 10
161.380346136
 20
206.3969771381
 10
160.4327203137
 20
206.9794624017
 10
159.3796716876
 20
207.463022871
 10
158.2416966512
 20
207.8382465913
 10
157.0409445944
 20
208.0978302598
 10
155.8007867901
 20
208.2367213757
 10
154.5453614991
 20
208.2522165813
 10
153.2991041469
 20
208.1440142802
 10
152.0862717152
 20
207.914220507
 10
150.9304706077
 20
207.5673079361
 10
149.8541971782
 20
207.1100288261
 10
148.8783998648
 20
206.5512835948
 10
148.0220714522
 20
205.9019475825
 10
147.301879399
 20
205.1746593761
 10
146.7318414243
 20
204.3835748132
 10
146.3230526687
 20
203.5440914551
 10
146.0834697406
 20
202.6725488903
 10
146.0177558489
 20
201.7859107036
 10
146.12719004
 20
200.9014342987
 10
146.4096423017
 20
200.0363350027
 10
146.859615022
 20
199.2074509895
 10
147.4683499938
 20
198.4309155434
 10
148.2239988833
 20
197.7218430437
 10
149.1118538444
 20
197.09403478
 10
150.1146337902
 20
196.5597103261
 10
151.2128207497
 20
196.1292696996
 10
152.3850397628
 20
195.8110909377
 10
153.60847492
 20
195.6113670281
 10
154.8593134474
 20
195.5339853695
 10
156.113209196
 20
195.5804521079
 10
157.3457565113
 20
195.749862821
 10
158.5329652617
 20
196.0389201221
 10
159.6517277795
 20
196.4419978396
 10
160.6802686248
 20
196.9512505242
 10
161.5985684199
 20
197.5567661516
 10
162.3887535039
 20
198.246759049
 10
163.035443823
 20
199.0077992894
 10
163.5260522857
 20
199.8250740903
 10
163.8510297564
 20
200.6826761272
 10
164.0040509181
 20
201.563913152
 10
163.9821373882
 20
202.4516328885
 10
163.7857156884
 20
203.3285568817
 10
163.4186089438
 20
204.1776168036
 10
162.8879624696
 20
204.9822866686
 10
162.2041046958
 20
205.7269044931
 10
161.380346136
 20
206.3969771381
  0
ARC
  5
26A
330
1F
100
AcDbEntity
  8
0
  6
SLD-実線
 62
     7
370
    25
100
AcDbCircle
 10
151.1931482888
 20
200.6112089358
 30
0.0
 40
6.434869792712496
100
AcDbArc
 50
182.8762919882
 51
237.8460948215
  0
LWPOLYLINE
  5
26B
330
1F
100
AcDbEntity
  8
0
  6
SLD-実線
 62
     7
370
    25
100
AcDbPolyline
 90
        9
 70
   128
 43
0.0
 10
165.2663851053
 20
200.2883092107
 10
165.1786949344
 20
199.3422756654
 10
164.9171248248
 20
198.4124290163
 10
164.4861503136
 20
197.5146791975
 10
163.8931454941
 20
196.6643869571
 10
163.1482568433
 20
195.8761010313
 10
162.2642296125
 20
195.1633092107
 10
161.2561897527
 20
194.538207561
 10
160.873229257
 20
194.3402054548
  0
LWPOLYLINE
  5
26C
330
1F
100
AcDbEntity
  8
0
  6
SLD-実線
 62
     7
370
    25
100
AcDbPolyline
 90
        3
 70
   128
 43
0.0
 10
149.1595409536
 20
194.3402054548
 10
148.776580458
 20
194.538207561
 10
147.7685405982
 20
195.1633092107
  0
ARC
  5
26D
330
1F
100
AcDbEntity
  8
0
  6
SLD-実線
 62
     7
370
    25
100
AcDbCircle
 10
150.9078280866
 20
201.0472061618
 30
0.0
 40
4.896358931545566
100
AcDbArc
 50
150.2591376194
 51
174.5991282602
  0
ARC
  5
26E
330
1F
100
AcDbEntity
  8
0
  6
SLD-実線
 62
     7
370
    25
100
AcDbCircle
 10
159.159199041
 20
201.0580539278
 30
0.0
 40
4.861238970004783
100
AcDbArc
 50
5.3115881684
 51
29.8301459524
  0
SPLINE
  5
26F
330
1F
100
AcDbEntity
  8
0
  6
SLD-実線
 62
     7
370
    25
100
AcDbSpline
210
0.0
220
0.0
230
1.0
 70
     8
 71
     3
 72
    12
 73
     8
 74
     0
 42
0.00000001
 43
0.00000001
 40
0.0
 40
0.0
 40
0.0
 40
0.0
 40
0.1423816645559005
 40
0.2840529570645837
 40
0.486208462195472
 40
0.7625088919629911
 40
1.0
 40
1.0
 40
1.0
 40
1.0
 10
165.2496508194894
 20
198.7252722714347
 30
0.0
 10
165.2498868518207
 20
198.7534151493336
 30
0.0
 10
165.2503577388685
 20
198.8095604943991
 30
0.0
 10
165.2539334501058
 20
198.9309810137697
 30
0.0
 10
165.2593511638507
 20
199.0869873848941
 30
0.0
 10
165.2647839027376
 20
199.2570477422325
 30
0.0
 10
165.2658443684699
 20
199.3543591397229
 30
0.0
 10
165.2663345501161
 20
199.3993396228842
 30
0.0
  0
LINE
  5
270
330
1F
100
AcDbEntity
  8
0
  6
SLD-実線
 62
     7
370
    25
100
AcDbLine
 10
165.2496508195
 20
198.7252722714
 30
0.0
 11
165.2496508195
 21
195.5977369349
 31
0.0
  0
LINE
  5
271
330
1F
100
AcDbEntity
  8
0
  6
SLD-実線
 62
     7
370
    25
100
AcDbLine
 10
144.789058275
 20
198.6574485361
 30
0.0
 11
144.789058275
 21
195.5954650583
 31
0.0
  0
SPLINE
  5
272
330
1F
100
AcDbEntity
  8
0
  6
SLD-実線
 62
     7
370
    25
100
AcDbSpline
210
0.0
220
0.0
230
1.0
 70
     8
 71
     3
 72
    12
 73
     8
 74
     0
 42
0.00000001
 43
0.00000001
 40
0.0
 40
0.0
 40
0.0
 40
0.0
 40
0.3567829292189841
 40
0.5848440446669617
 40
0.759519737498149
 40
0.8995430745106262
 40
1.0
 40
1.0
 40
1.0
 40
1.0
 10
144.7669555958614
 20
199.345635337458
 30
0.0
 10
144.7686490526889
 20
199.2748999492809
 30
0.0
 10
144.7714249930699
 20
199.1589494170815
 30
0.0
 10
144.7797188311606
 20
198.968649017272
 30
0.0
 10
144.7854131725875
 20
198.8280463005103
 30
0.0
 10
144.7885848990762
 20
198.7244005188216
 30
0.0
 10
144.7889187950911
 20
198.6771758952309
 30
0.0
 10
144.7890582750083
 20
198.6574485361372
 30
0.0
  0
ARC
  5
273
330
1F
100
AcDbEntity
  8
0
  6
SLD-実線
 62
     7
370
    25
100
AcDbCircle
 10
149.8915606782
 20
199.4221035102
 30
0.0
 40
5.125175570828503
100
AcDbArc
 50
179.7455176429
 51
180.8548909345
  0
LINE
  5
274
330
1F
100
AcDbEntity
  8
0
  6
SLD-実線
 62
     7
370
    25
100
AcDbLine
 10
144.7831193912
 20
198.8807937893
 30
0.0
 11
144.7831193912
 21
195.5977369349
 31
0.0
  0
LINE
  5
275
330
1F
100
AcDbEntity
  8
0
  6
SLD-実線
 62
     7
370
    25
100
AcDbLine
 10
164.5382453698
 20
196.4562887287
 30
0.0
 11
164.5382453698
 21
195.3374877876
 31
0.0
  0
SPLINE
  5
276
330
1F
100
AcDbEntity
  8
0
  6
SLD-実線
 62
     7
370
    25
100
AcDbSpline
210
0.0
220
0.0
230
1.0
 70
     8
 71
     3
 72
    12
 73
     8
 74
     0
 42
0.00000001
 43
0.00000001
 40
0.0
 40
0.0
 40
0.0
 40
0.0
 40
0.2297988976963229
 40
0.4597222960226526
 40
0.6850780047116486
 40
0.898212028234173
 40
1.0
 40
1.0
 40
1.0
 40
1.0
 10
164.3734725283325
 20
196.463436900203
 30
0.0
 10
164.3934827222721
 20
196.4920334608045
 30
0.0
 10
164.4335139512901
 20
196.549242075075
 30
0.0
 10
164.4843819347119
 20
196.5816317735858
 30
0.0
 10
164.5205564349089
 20
196.5668558387241
 30
0.0
 10
164.5364953060575
 20
196.5164084956693
 30
0.0
 10
164.537817889192
 20
196.4709739285728
 30
0.0
 10
164.5382453698278
 20
196.4562887287392
 30
0.0
  0
ARC
  5
277
330
1F
100
AcDbEntity
  8
0
  6
SLD-実線
 62
     7
370
    25
100
AcDbCircle
 10
158.887960955
 20
199.9325028857
 30
0.0
 40
6.490397216886003
100
AcDbArc
 50
326.9701576815
 51
327.6905271093
  0
SPLINE
  5
278
330
1F
100
AcDbEntity
  8
0
  6
SLD-実線
 62
     7
370
    25
100
AcDbSpline
210
0.0
220
0.0
230
1.0
 70
     8
 71
     3
 72
    12
 73
     8
 74
     0
 42
0.00000001
 43
0.00000001
 40
0.0
 40
0.0
 40
0.0
 40
0.0
 40
0.1959265552735271
 40
0.3916722097862091
 40
0.5924597188931545
 40
0.8058774705562939
 40
1.0
 40
1.0
 40
1.0
 40
1.0
 10
164.140872306281
 20
195.8372739166338
 30
0.0
 10
164.1428308930815
 20
195.8701825166416
 30
0.0
 10
164.1467462583015
 20
195.9359693318491
 30
0.0
 10
164.1768154578895
 20
196.0587648361644
 30
0.0
 10
164.2208281770542
 20
196.1850368890757
 30
0.0
 10
164.2742913941265
 20
196.3035509904901
 30
0.0
 10
164.311635953356
 20
196.3653215579633
 30
0.0
 10
164.329424183464
 20
196.394744560692
 30
0.0
  0
LINE
  5
279
330
1F
100
AcDbEntity
  8
0
  6
SLD-実線
 62
     7
370
    25
100
AcDbLine
 10
164.1408723063
 20
195.8372739166
 30
0.0
 11
164.1408723063
 21
195.2022588603
 31
0.0
  0
LINE
  5
27A
330
1F
100
AcDbEntity
  8
0
  6
SLD-実線
 62
     7
370
    25
100
AcDbLine
 10
165.1044301818
 20
197.8559356088
 30
0.0
 11
165.1044301818
 21
195.5426707178
 31
0.0
  0
SPLINE
  5
27B
330
1F
100
AcDbEntity
  8
0
  6
SLD-実線
 62
     7
370
    25
100
AcDbSpline
210
0.0
220
0.0
230
1.0
 70
     8
 71
     3
 72
    12
 73
     8
 74
     0
 42
0.00000001
 43
0.00000001
 40
0.0
 40
0.0
 40
0.0
 40
0.0
 40
0.3019397474217328
 40
0.5612757905923264
 40
0.7575805661551429
 40
0.9547297634109988
 40
1.0
 40
1.0
 40
1.0
 40
1.0
 10
165.0119014261071
 20
197.8170872852633
 30
0.0
 10
165.0266501030453
 20
197.8589418905503
 30
0.0
 10
165.054066418318
 20
197.9367454155016
 30
0.0
 10
165.0823986318489
 20
197.9700194568713
 30
0.0
 10
165.0988806273365
 20
197.9487856442385
 30
0.0
 10
165.1041080469194
 20
197.9004542399842
 30
0.0
 10
165.1043794913577
 20
197.8629409661928
 30
0.0
 10
165.1044301818232
 20
197.8559356087723
 30
0.0
  0
ARC
  5
27C
330
1F
100
AcDbEntity
  8
0
  6
SLD-実線
 62
     7
370
    25
100
AcDbCircle
 10
159.7502543592
 20
199.5069042578
 30
0.0
 40
5.526337960858632
100
AcDbArc
 50
341.3123428156
 51
342.1951934704
  0
SPLINE
  5
27D
330
1F
100
AcDbEntity
  8
0
  6
SLD-実線
 62
     7
370
    25
100
AcDbSpline
210
0.0
220
0.0
230
1.0
 70
     8
 71
     3
 72
    12
 73
     8
 74
     0
 42
0.00000001
 43
0.00000001
 40
0.0
 40
0.0
 40
0.0
 40
0.0
 40
0.1730904143687083
 40
0.3458081215615494
 40
0.5279475015004885
 40
0.7361318369634855
 40
1.0
 40
1.0
 40
1.0
 40
1.0
 10
164.8632163332577
 20
197.1264995568091
 30
0.0
 10
164.8643724665122
 20
197.1575557567883
 30
0.0
 10
164.8666822435757
 20
197.2196012849408
 30
0.0
 10
164.884098258627
 20
197.3385946000487
 30
0.0
 10
164.9095906608872
 20
197.4663595997851
 30
0.0
 10
164.9448736793037
 20
197.609037852941
 30
0.0
 10
164.9707664736812
 20
197.6906157524759
 30
0.0
 10
164.9852400420025
 20
197.736216211245
 30
0.0
  0
LINE
  5
27E
330
1F
100
AcDbEntity
  8
0
  6
SLD-実線
 62
     7
370
    25
100
AcDbLine
 10
164.8632163333
 20
197.1264995568
 30
0.0
 11
164.8632163333
 21
195.4534248151
 31
0.0
  0
LINE
  5
27F
330
1F
100
AcDbEntity
  8
0
  6
SLD-実線
 62
     7
370
    25
100
AcDbLine
 10
163.6784431749
 20
195.2642606913
 30
0.0
 11
163.6784431749
 21
195.0536863587
 31
0.0
  0
SPLINE
  5
280
330
1F
100
AcDbEntity
  8
0
  6
SLD-実線
 62
     7
370
    25
100
AcDbSpline
210
0.0
220
0.0
230
1.0
 70
     8
 71
     3
 72
    12
 73
     8
 74
     0
 42
0.00000001
 43
0.00000001
 40
0.0
 40
0.0
 40
0.0
 40
0.0
 40
0.2173189420344176
 40
0.434641506808194
 40
0.6516246854811808
 40
0.8664899618749761
 40
1.0
 40
1.0
 40
1.0
 40
1.0
 10
163.4554804966144
 20
195.3084572730687
 30
0.0
 10
163.4813028936943
 20
195.3319909096384
 30
0.0
 10
163.5329481183173
 20
195.379058575087
 30
0.0
 10
163.6000510115381
 20
195.4015313048749
 30
0.0
 10
163.649726781105
 20
195.3831800533735
 30
0.0
 10
163.6750028884592
 20
195.3319323401688
 30
0.0
 10
163.6774900170967
 20
195.283009641359
 30
0.0
 10
163.6784431748705
 20
195.2642606912725
 30
0.0
  0
ARC
  5
281
330
1F
100
AcDbEntity
  8
0
  6
SLD-実線
 62
     7
370
    25
100
AcDbCircle
 10
157.8473579401
 20
200.7759291433
 30
0.0
 40
7.832259396933494
100
AcDbArc
 50
315.1228740635
 51
315.727568854
  0
SPLINE
  5
282
330
1F
100
AcDbEntity
  8
0
  6
SLD-実線
 62
     7
370
    25
100
AcDbSpline
210
0.0
220
0.0
230
1.0
 70
     8
 71
     3
 72
    11
 73
     7
 74
     0
 42
0.00000001
 43
0.00000001
 40
0.0
 40
0.0
 40
0.0
 40
0.0
 40
0.0571195566864252
 40
0.3992293738290273
 40
0.74696431007096
 40
1.0
 40
1.0
 40
1.0
 40
1.0
 10
163.2014712785232
 20
194.9370991321043
 30
0.0
 10
163.2035652108108
 20
194.9437075033793
 30
0.0
 10
163.2182004657834
 20
194.9898958157405
 30
0.0
 10
163.2667144411328
 20
195.0789342178713
 30
0.0
 10
163.332990036217
 20
195.1799438870753
 30
0.0
 10
163.3783577831786
 20
195.2289391417639
 30
0.0
 10
163.3974660062721
 20
195.2495752173862
 30
0.0
  0
LINE
  5
283
330
1F
100
AcDbEntity
  8
0
  6
SLD-実線
 62
     7
370
    25
100
AcDbLine
 10
145.1695538774
 20
197.1264995568
 30
0.0
 11
145.1695538774
 21
195.4534248151
 31
0.0
  0
SPLINE
  5
284
330
1F
100
AcDbEntity
  8
0
  6
SLD-実線
 62
     7
370
    25
100
AcDbSpline
210
0.0
220
0.0
230
1.0
 70
     8
 71
     3
 72
    12
 73
     8
 74
     0
 42
0.00000001
 43
0.00000001
 40
0.0
 40
0.0
 40
0.0
 40
0.0
 40
0.2951824210325377
 40
0.526340076493157
 40
0.7226841561274693
 40
0.9199216976764262
 40
1.0
 40
1.0
 40
1.0
 40
1.0
 10
145.0475301686681
 20
197.7362162112451
 30
0.0
 10
145.0637806288337
 20
197.6846744514334
 30
0.0
 10
145.0927568409561
 20
197.5927702868594
 30
0.0
 10
145.1310909901538
 20
197.4314448315957
 30
0.0
 10
145.1570481915463
 20
197.289100952225
 30
0.0
 10
145.1684281452967
 20
197.1872723274284
 30
0.0
 10
145.1693016440798
 20
197.1401164007069
 30
0.0
 10
145.169553877413
 20
197.1264995568092
 30
0.0
  0
ARC
  5
285
330
1F
100
AcDbEntity
  8
0
  6
SLD-実線
 62
     7
370
    25
100
AcDbCircle
 10
150.2825158516
 20
199.5069042579
 30
0.0
 40
5.526337960987944
100
AcDbArc
 50
197.8048065296
 51
198.6876571844
  0
SPLINE
  5
286
330
1F
100
AcDbEntity
  8
0
  6
SLD-実線
 62
     7
370
    25
100
AcDbSpline
210
0.0
220
0.0
230
1.0
 70
     8
 71
     3
 72
    12
 73
     8
 74
     0
 42
0.00000001
 43
0.00000001
 40
0.0
 40
0.0
 40
0.0
 40
0.0
 40
0.1773824612620931
 40
0.3543377710495951
 40
0.5421135323896951
 40
0.7568424908768473
 40
1.0
 40
1.0
 40
1.0
 40
1.0
 10
144.9283400288474
 20
197.8559356087724
 30
0.0
 10
144.9290802873162
 20
197.8814144095913
 30
0.0
 10
144.9305590216507
 20
197.9323106561927
 30
0.0
 10
144.9420646642867
 20
197.9643285709201
 30
0.0
 10
144.9602007783219
 20
197.9608112931712
 30
0.0
 10
144.9864695058602
 20
197.9165123686733
 30
0.0
 10
145.0089373748336
 20
197.8515729329955
 30
0.0
 10
145.0208687845636
 20
197.8170872852634
 30
0.0
  0
LINE
  5
287
330
1F
100
AcDbEntity
  8
0
  6
SLD-実線
 62
     7
370
    25
100
AcDbLine
 10
144.9283400288
 20
197.8559356088
 30
0.0
 11
144.9283400288
 21
195.5426707178
 31
0.0
  0
LINE
  5
288
330
1F
100
AcDbEntity
  8
0
  6
SLD-実線
 62
     7
370
    25
100
AcDbLine
 10
145.8918979044
 20
195.8372739166
 30
0.0
 11
145.8918979044
 21
195.2022588603
 31
0.0
  0
SPLINE
  5
289
330
1F
100
AcDbEntity
  8
0
  6
SLD-実線
 62
     7
370
    25
100
AcDbSpline
210
0.0
220
0.0
230
1.0
 70
     8
 71
     3
 72
    12
 73
     8
 74
     0
 42
0.00000001
 43
0.00000001
 40
0.0
 40
0.0
 40
0.0
 40
0.0
 40
0.2376909510958919
 40
0.4758085991224467
 40
0.7014876268956863
 40
0.9102462114154002
 40
1.0
 40
1.0
 40
1.0
 40
1.0
 10
145.7033460272066
 20
196.3947445606921
 30
0.0
 10
145.7251936765752
 20
196.358061383583
 30
0.0
 10
145.7689281956735
 20
196.2846291766302
 30
0.0
 10
145.8287444034984
 20
196.1428944822674
 30
0.0
 10
145.8718436921925
 20
196.0023269569948
 30
0.0
 10
145.8900729215134
 20
195.8993675052162
 30
0.0
 10
145.8914760310887
 20
195.8516278196314
 30
0.0
 10
145.8918979043896
 20
195.837273916634
 30
0.0
  0
ARC
  5
28A
330
1F
100
AcDbEntity
  8
0
  6
SLD-実線
 62
     7
370
    25
100
AcDbCircle
 10
151.144809255
 20
199.9325028853
 30
0.0
 40
6.49039721606952
100
AcDbArc
 50
212.3094728907
 51
213.0298423186
  0
SPLINE
  5
28B
330
1F
100
AcDbEntity
  8
0
  6
SLD-実線
 62
     7
370
    25
100
AcDbSpline
210
0.0
220
0.0
230
1.0
 70
     8
 71
     3
 72
    12
 73
     8
 74
     0
 42
0.00000001
 43
0.00000001
 40
0.0
 40
0.0
 40
0.0
 40
0.0
 40
0.1994126455979731
 40
0.3986211414536444
 40
0.6034571291359196
 40
0.8201734240752169
 40
1.0
 40
1.0
 40
1.0
 40
1.0
 10
145.4945248408429
 20
196.4562887287393
 30
0.0
 10
145.4961230823126
 20
196.4838359596826
 30
0.0
 10
145.4993179290439
 20
196.5389022199472
 30
0.0
 10
145.5242591813748
 20
196.5765136312783
 30
0.0
 10
145.5621577649767
 20
196.5755880702695
 30
0.0
 10
145.6090815331754
 20
196.5368184206281
 30
0.0
 10
145.643630304044
 20
196.4863318465395
 30
0.0
 10
145.6592976823382
 20
196.463436900203
 30
0.0
  0
LINE
  5
28C
330
1F
100
AcDbEntity
  8
0
  6
SLD-実線
 62
     7
370
    25
100
AcDbLine
 10
145.4945248408
 20
196.4562887287
 30
0.0
 11
145.4945248408
 21
195.3374877876
 31
0.0
  0
SPLINE
  5
28D
330
1F
100
AcDbEntity
  8
0
  6
SLD-実線
 62
     7
370
    25
100
AcDbSpline
210
0.0
220
0.0
230
1.0
 70
     8
 71
     3
 72
    10
 73
     6
 74
     0
 42
0.00000001
 43
0.00000001
 40
0.0
 40
0.0
 40
0.0
 40
0.0
 40
0.3838657769358976
 40
0.7679449542004912
 40
1.0
 40
1.0
 40
1.0
 40
1.0
 10
146.6353042043985
 20
195.2495752173863
 30
0.0
 10
146.6621920579623
 20
195.2194212963566
 30
0.0
 10
146.7159827127021
 20
195.1590966909985
 30
0.0
 10
146.7824841808506
 20
195.0535929275509
 30
0.0
 10
146.8104105551747
 20
194.9856705705218
 30
0.0
 10
146.8209284842723
 20
194.9600889276246
 30
0.0
  0
ARC
  5
28E
330
1F
100
AcDbEntity
  8
0
  6
SLD-実線
 62
     7
370
    25
100
AcDbCircle
 10
152.1854122715
 20
200.7759291443
 30
0.0
 40
7.832259398289846
100
AcDbArc
 50
224.272431146
 51
224.8771259365
  0
SPLINE
  5
28F
330
1F
100
AcDbEntity
  8
0
  6
SLD-実線
 62
     7
370
    25
100
AcDbSpline
210
0.0
220
0.0
230
1.0
 70
     8
 71
     3
 72
    12
 73
     8
 74
     0
 42
0.00000001
 43
0.00000001
 40
0.0
 40
0.0
 40
0.0
 40
0.0
 40
0.2114082813528606
 40
0.4227625700792098
 40
0.6356332409997629
 40
0.8512069245490524
 40
1.0
 40
1.0
 40
1.0
 40
1.0
 10
146.3543270358001
 20
195.2642606912727
 30
0.0
 10
146.3566772178127
 20
195.2931112033943
 30
0.0
 10
146.3613769816132
 20
195.35080485936
 30
0.0
 10
146.3981857504703
 20
195.3940013384101
 30
0.0
 10
146.4532450830354
 20
195.3981484339569
 30
0.0
 10
146.516374653214
 20
195.3660993027278
 30
0.0
 10
146.5596271094728
 20
195.3251708470713
 30
0.0
 10
146.5772897140561
 20
195.3084572730689
 30
0.0
  0
LINE
  5
290
330
1F
100
AcDbEntity
  8
0
  6
SLD-実線
 62
     7
370
    25
100
AcDbLine
 10
146.3543270358
 20
195.2642606913
 30
0.0
 11
146.3543270358
 21
195.0536863587
 31
0.0
  0
LINE
  5
291
330
1F
100
AcDbEntity
  8
0
  6
SLD-実線
 62
     7
370
    25
100
AcDbLine
 10
163.3012218961
 20
195.1265000152
 30
0.0
 11
163.3012218961
 21
194.9392980465
 31
0.0
  0
LINE
  5
292
330
1F
100
AcDbEntity
  8
0
  6
SLD-実線
 62
     7
370
    25
100
AcDbLine
 10
146.7315483146
 20
195.1274877368
 30
0.0
 11
146.7315483146
 21
194.9392980465
 31
0.0
  0
LWPOLYLINE
  5
293
330
1F
100
AcDbEntity
  8
0
  6
SLD-実線
 62
     7
370
    25
100
AcDbPolyline
 90
       36
 70
   128
 43
0.0
 10
133.5294704827
 20
208.4377148638
 10
133.5834746406
 20
209.1074574861
 10
133.8266054927
 20
210.480635637
 10
134.2453215321
 20
211.8324910209
 10
134.8361531459
 20
213.1518217383
 10
135.5942045171
 20
214.4276953994
 10
136.5131941935
 20
215.6495397132
 10
137.5855071372
 20
216.8072300929
 10
138.8022578253
 20
217.8911735514
 10
140.1533638784
 20
218.8923881919
 10
141.6276296064
 20
219.8025776345
 10
143.212838779
 20
220.6141997629
 10
144.8958558539
 20
221.3205292205
 10
146.6627348215
 20
221.9157131389
 10
148.4988347662
 20
222.3948196368
 10
150.3889411857
 20
222.7538786868
 10
152.3173920628
 20
222.9899150126
 10
154.2682076462
 20
223.1009727428
 10
156.2252228638
 20
223.0861316181
 10
158.1722212709
 20
222.9455146168
 10
160.0930694257
 20
222.6802869355
 10
161.9718505754
 20
222.2926463344
 10
163.7929965477
 20
221.7858049257
 10
165.5414167534
 20
221.1639625567
 10
167.2026232323
 20
220.4322720093
 10
168.7628507041
 20
219.5967963017
 10
170.2091706326
 20
218.6644584489
 10
171.5295983556
 20
217.6429840958
 10
172.7131923929
 20
216.5408375006
 10
173.7501451116
 20
215.3671513972
 10
174.631863995
 20
214.1316513182
 10
175.3510428427
 20
212.8445750064
 10
175.9017223122
 20
211.5165875815
 10
176.2793393001
 20
210.1586931655
 10
176.480764753
 20
208.7821436992
 10
176.503299728
 20
208.4377148639
  0
LWPOLYLINE
  5
294
330
1F
100
AcDbEntity
  8
0
  6
SLD-実線
 62
     7
370
    25
100
AcDbPolyline
 90
       34
 70
   128
 43
0.0
 10
133.6096104767
 20
207.5538313874
 10
133.8266054927
 20
208.712868684
 10
134.2453215321
 20
210.0647240679
 10
134.8361531459
 20
211.3840547853
 10
135.5942045171
 20
212.6599284464
 10
136.5131941935
 20
213.8817727602
 10
137.5855071372
 20
215.0394631399
 10
138.8022578253
 20
216.1234065985
 10
140.1533638784
 20
217.124621239
 10
141.6276296064
 20
218.0348106816
 10
143.212838779
 20
218.84643281
 10
144.8958558539
 20
219.5527622675
 10
146.6627348215
 20
220.147946186
 10
148.4988347662
 20
220.6270526838
 10
150.3889411857
 20
220.9861117339
 10
152.3173920628
 20
221.2221480596
 10
154.2682076462
 20
221.3332057898
 10
156.2252228638
 20
221.3183646652
 10
158.1722212709
 20
221.1777476638
 10
160.0930694257
 20
220.9125199825
 10
161.9718505754
 20
220.5248793815
 10
163.7929965477
 20
220.0180379727
 10
165.5414167534
 20
219.3961956037
 10
167.2026232323
 20
218.6645050563
 10
168.7628507041
 20
217.8290293488
 10
170.2091706326
 20
216.8966914959
 10
171.5295983556
 20
215.8752171428
 10
172.7131923929
 20
214.7730705476
 10
173.7501451116
 20
213.5993844442
 10
174.631863995
 20
212.3638843653
 10
175.3510428427
 20
211.0768080535
 10
175.9017223122
 20
209.7488206286
 10
176.2793393001
 20
208.3909262126
 10
176.4231597339
 20
207.5538313874
  0
LWPOLYLINE
  5
295
330
1F
100
AcDbEntity
  8
0
  6
SLD-実線
 62
     7
370
    25
100
AcDbPolyline
 90
       36
 70
   128
 43
0.0
 10
133.5396535104
 20
208.2609381686
 10
133.5834746406
 20
208.7539040955
 10
133.8266054927
 20
210.1270822464
 10
134.2453215321
 20
211.4789376303
 10
134.8361531459
 20
212.7982683477
 10
135.5942045171
 20
214.0741420088
 10
136.5131941935
 20
215.2959863226
 10
137.5855071372
 20
216.4536767023
 10
138.8022578253
 20
217.5376201608
 10
140.1533638784
 20
218.5388348013
 10
141.6276296064
 20
219.449024244
 10
143.212838779
 20
220.2606463723
 10
144.8958558539
 20
220.9669758299
 10
146.6627348215
 20
221.5621597483
 10
148.4988347662
 20
222.0412662462
 10
150.3889411857
 20
222.4003252962
 10
152.3173920628
 20
222.636361622
 10
154.2682076462
 20
222.7474193522
 10
156.2252228638
 20
222.7325782275
 10
158.1722212709
 20
222.5919612262
 10
160.0930694257
 20
222.3267335449
 10
161.9718505754
 20
221.9390929438
 10
163.7929965477
 20
221.4322515351
 10
165.5414167534
 20
220.8104091661
 10
167.2026232323
 20
220.0787186187
 10
168.7628507041
 20
219.2432429111
 10
170.2091706326
 20
218.3109050583
 10
171.5295983556
 20
217.2894307052
 10
172.7131923929
 20
216.18728411
 10
173.7501451116
 20
215.0135980066
 10
174.631863995
 20
213.7780979276
 10
175.3510428427
 20
212.4910216159
 10
175.9017223122
 20
211.1630341909
 10
176.2793393001
 20
209.8051397749
 10
176.480764753
 20
208.4285903086
 10
176.4931167002
 20
208.2609381686
  0
LWPOLYLINE
  5
296
330
1F
100
AcDbEntity
  8
0
  6
SLD-実線
 62
     7
370
    25
100
AcDbPolyline
 90
       34
 70
   128
 43
0.0
 10
133.6344417886
 20
207.3770546921
 10
133.8266054927
 20
208.3593152934
 10
134.2453215321
 20
209.7111706773
 10
134.8361531459
 20
211.0305013948
 10
135.5942045171
 20
212.3063750558
 10
136.5131941935
 20
213.5282193696
 10
137.5855071372
 20
214.6859097493
 10
138.8022578253
 20
215.7698532079
 10
140.1533638784
 20
216.7710678484
 10
141.6276296064
 20
217.681257291
 10
143.212838779
 20
218.4928794194
 10
144.8958558539
 20
219.1992088769
 10
146.6627348215
 20
219.7943927954
 10
148.4988347662
 20
220.2734992932
 10
150.3889411857
 20
220.6325583433
 10
152.3173920628
 20
220.868594669
 10
154.2682076462
 20
220.9796523993
 10
156.2252228638
 20
220.9648112746
 10
158.1722212709
 20
220.8241942732
 10
160.0930694257
 20
220.5589665919
 10
161.9718505754
 20
220.1713259909
 10
163.7929965477
 20
219.6644845821
 10
165.5414167534
 20
219.0426422131
 10
167.2026232323
 20
218.3109516657
 10
168.7628507041
 20
217.4754759582
 10
170.2091706326
 20
216.5431381053
 10
171.5295983556
 20
215.5216637522
 10
172.7131923929
 20
214.419517157
 10
173.7501451116
 20
213.2458310536
 10
174.631863995
 20
212.0103309747
 10
175.3510428427
 20
210.7232546629
 10
175.9017223122
 20
209.395267238
 10
176.2793393001
 20
208.037372822
 10
176.3983284221
 20
207.3770546921
  0
ARC
  5
297
330
1F
100
AcDbEntity
  8
0
  6
SLD-実線
 62
     7
370
    25
100
AcDbCircle
 10
132.687936779
 20
193.5917048919
 30
0.0
 40
1.24102313799811
100
AcDbArc
 50
121.7216855
 51
175.7956260457
  0
LWPOLYLINE
  5
298
330
1F
100
AcDbEntity
  8
0
  6
SLD-実線
 62
     7
370
    25
100
AcDbPolyline
 90
        9
 70
   128
 43
0.0
 10
135.4490031796
 20
193.6826896623
 10
135.3814799317
 20
194.0133596754
 10
135.1430766776
 20
194.3997412499
 10
134.7542031017
 20
194.7192681624
 10
134.2494123278
 20
194.9435490446
 10
133.6735572313
 20
195.052655556
 10
133.0778050648
 20
195.036893104
 10
132.5150910226
 20
194.8976622518
 10
132.0354147168
 20
194.6473342716
  0
LINE
  5
299
330
1F
100
AcDbEntity
  8
0
  6
SLD-実線
 62
     7
370
    25
100
AcDbLine
 10
132.465571342
 20
193.218167605
 30
0.0
 11
132.8426949586
 21
192.9515009383
 31
0.0
  0
LINE
  5
29A
330
1F
100
AcDbEntity
  8
0
  6
SLD-実線
 62
     7
370
    25
100
AcDbLine
 10
132.8426949586
 20
192.9515009383
 30
0.0
 11
133.1667855667
 21
193.180667605
 31
0.0
  0
ARC
  5
29B
330
1F
100
AcDbEntity
  8
0
  6
SLD-実線
 62
     7
370
    25
100
AcDbCircle
 10
133.4496282791
 20
192.7464229552
 30
0.0
 40
0.5182358689106257
100
AcDbArc
 50
56.9220256938
 51
123.0779743062
  0
LINE
  5
29C
330
1F
100
AcDbEntity
  8
0
  6
SLD-実線
 62
     7
370
    25
100
AcDbLine
 10
133.7324709916
 20
193.180667605
 30
0.0
 11
134.0565615997
 21
192.9515009383
 31
0.0
  0
LINE
  5
29D
330
1F
100
AcDbEntity
  8
0
  6
SLD-実線
 62
     7
370
    25
100
AcDbLine
 10
134.0565615997
 20
192.9515009383
 30
0.0
 11
134.4336852163
 21
193.218167605
 31
0.0
  0
LINE
  5
29E
330
1F
100
AcDbEntity
  8
0
  6
SLD-実線
 62
     7
370
    25
100
AcDbLine
 10
134.4336852163
 20
193.218167605
 30
0.0
 11
134.1095946083
 21
193.4473342716
 31
0.0
  0
ARC
  5
29F
330
1F
100
AcDbEntity
  8
0
  6
SLD-実線
 62
     7
370
    25
100
AcDbCircle
 10
134.2268013404
 20
193.6473342716
 30
0.0
 40
0.2318133259118031
100
AcDbArc
 50
120.3717382956
 51
239.6282617044
  0
LINE
  5
2A0
330
1F
100
AcDbEntity
  8
0
  6
SLD-実線
 62
     7
370
    25
100
AcDbLine
 10
134.1095946083
 20
193.8473342716
 30
0.0
 11
134.4336852163
 21
194.0765009383
 31
0.0
  0
LINE
  5
2A1
330
1F
100
AcDbEntity
  8
0
  6
SLD-実線
 62
     7
370
    25
100
AcDbLine
 10
134.4336852163
 20
194.0765009383
 30
0.0
 11
134.0565615997
 21
194.343167605
 31
0.0
  0
LINE
  5
2A2
330
1F
100
AcDbEntity
  8
0
  6
SLD-実線
 62
     7
370
    25
100
AcDbLine
 10
134.0565615997
 20
194.343167605
 30
0.0
 11
133.7324709916
 21
194.1140009383
 31
0.0
  0
ARC
  5
2A3
330
1F
100
AcDbEntity
  8
0
  6
SLD-実線
 62
     7
370
    25
100
AcDbCircle
 10
133.4496282791
 20
194.5482455881
 30
0.0
 40
0.5182358689109354
100
AcDbArc
 50
236.9220256938
 51
303.0779743062
  0
LINE
  5
2A4
330
1F
100
AcDbEntity
  8
0
  6
SLD-実線
 62
     7
370
    25
100
AcDbLine
 10
133.1667855667
 20
194.1140009383
 30
0.0
 11
132.8426949586
 21
194.343167605
 31
0.0
  0
LINE
  5
2A5
330
1F
100
AcDbEntity
  8
0
  6
SLD-実線
 62
     7
370
    25
100
AcDbLine
 10
132.8426949586
 20
194.343167605
 30
0.0
 11
132.465571342
 21
194.0765009383
 31
0.0
  0
LINE
  5
2A6
330
1F
100
AcDbEntity
  8
0
  6
SLD-実線
 62
     7
370
    25
100
AcDbLine
 10
132.465571342
 20
194.0765009383
 30
0.0
 11
132.78966195
 21
193.8473342716
 31
0.0
  0
ARC
  5
2A7
330
1F
100
AcDbEntity
  8
0
  6
SLD-実線
 62
     7
370
    25
100
AcDbCircle
 10
132.6724552178
 20
193.6473342716
 30
0.0
 40
0.2318133259118893
100
AcDbArc
 50
300.3717382957
 51
59.6282617043
  0
LINE
  5
2A8
330
1F
100
AcDbEntity
  8
0
  6
SLD-実線
 62
     7
370
    25
100
AcDbLine
 10
132.78966195
 20
193.4473342716
 30
0.0
 11
132.465571342
 21
193.218167605
 31
0.0
  0
LINE
  5
2A9
330
1F
100
AcDbEntity
  8
0
  6
SLD-実線
 62
     7
370
    25
100
AcDbLine
 10
132.8426949586
 20
193.9365812058
 30
0.0
 11
132.753071342
 21
193.8732077387
 31
0.0
  0
LINE
  5
2AA
330
1F
100
AcDbEntity
  8
0
  6
SLD-実線
 62
     7
370
    25
100
AcDbLine
 10
133.1667855667
 20
193.7074145391
 30
0.0
 11
132.8426949586
 21
193.9365812058
 31
0.0
  0
ARC
  5
2AB
330
1F
100
AcDbEntity
  8
0
  6
SLD-実線
 62
     7
370
    25
100
AcDbCircle
 10
133.4496282791
 20
194.1416591889
 30
0.0
 40
0.518235868910721
100
AcDbArc
 50
236.9220256938
 51
303.0779743062
  0
LINE
  5
2AC
330
1F
100
AcDbEntity
  8
0
  6
SLD-実線
 62
     7
370
    25
100
AcDbLine
 10
134.0565615997
 20
193.9365812058
 30
0.0
 11
133.7324709916
 21
193.7074145391
 31
0.0
  0
LINE
  5
2AD
330
1F
100
AcDbEntity
  8
0
  6
SLD-実線
 62
     7
370
    25
100
AcDbLine
 10
134.1461852163
 20
193.8732077387
 30
0.0
 11
134.0565615997
 21
193.9365812058
 31
0.0
  0
ARC
  5
2AE
330
1F
100
AcDbEntity
  8
0
  6
SLD-実線
 62
     7
370
    25
100
AcDbCircle
 10
134.2425906748
 20
193.2529697396
 30
0.0
 40
0.2504517410289319
100
AcDbArc
 50
182.7971042547
 51
237.925282555
  0
LINE
  5
2AF
330
1F
100
AcDbEntity
  8
0
  6
SLD-実線
 62
     7
370
    25
100
AcDbLine
 10
134.1461852163
 20
193.0148744054
 30
0.0
 11
134.1095946083
 21
193.0407478725
 31
0.0
  0
LINE
  5
2B0
330
1F
100
AcDbEntity
  8
0
  6
SLD-実線
 62
     7
370
    25
100
AcDbLine
 10
132.78966195
 20
193.0407478725
 30
0.0
 11
132.753071342
 21
193.0148744054
 31
0.0
  0
ARC
  5
2B1
330
1F
100
AcDbEntity
  8
0
  6
SLD-実線
 62
     7
370
    25
100
AcDbCircle
 10
132.6566658835
 20
193.2529697396
 30
0.0
 40
0.2504517410288666
100
AcDbArc
 50
302.074717445
 51
357.2028957453
  0
LINE
  5
2B2
330
1F
100
AcDbEntity
  8
0
  6
SLD-実線
 62
     7
370
    25
100
AcDbLine
 10
134.0565615997
 20
193.9365812058
 30
0.0
 11
134.0565615997
 21
194.343167605
 31
0.0
  0
LINE
  5
2B3
330
1F
100
AcDbEntity
  8
0
  6
SLD-実線
 62
     7
370
    25
100
AcDbLine
 10
132.8426949586
 20
193.9365812058
 30
0.0
 11
132.8426949586
 21
194.343167605
 31
0.0
  0
ARC
  5
2B4
330
1F
100
AcDbEntity
  8
0
  6
SLD-実線
 62
     7
370
    25
100
AcDbCircle
 10
175.8214503973
 20
224.0917049228
 30
0.0
 40
1.241023093781088
100
AcDbArc
 50
121.72168491
 51
175.795636968
  0
LWPOLYLINE
  5
2B5
330
1F
100
AcDbEntity
  8
0
  6
SLD-実線
 62
     7
370
    25
100
AcDbPolyline
 90
        9
 70
   128
 43
0.0
 10
178.5825168371
 20
224.1826895178
 10
178.5149935841
 20
224.5133596754
 10
178.27659033
 20
224.8997412498
 10
177.8877167541
 20
225.2192681624
 10
177.3829259802
 20
225.4435490446
 10
176.8070708837
 20
225.5526555559
 10
176.2113187172
 20
225.536893104
 10
175.648604675
 20
225.3976622518
 10
175.1689283692
 20
225.1473342716
  0
LINE
  5
2B6
330
1F
100
AcDbEntity
  8
0
  6
SLD-実線
 62
     7
370
    25
100
AcDbLine
 10
175.5990849944
 20
223.718167605
 30
0.0
 11
175.976208611
 21
223.4515009383
 31
0.0
  0
LINE
  5
2B7
330
1F
100
AcDbEntity
  8
0
  6
SLD-実線
 62
     7
370
    25
100
AcDbLine
 10
175.976208611
 20
223.4515009383
 30
0.0
 11
176.3002992191
 21
223.680667605
 31
0.0
  0
ARC
  5
2B8
330
1F
100
AcDbEntity
  8
0
  6
SLD-実線
 62
     7
370
    25
100
AcDbCircle
 10
176.5831419315
 20
223.2464229552
 30
0.0
 40
0.5182358689107138
100
AcDbArc
 50
56.9220256938
 51
123.0779743062
  0
LINE
  5
2B9
330
1F
100
AcDbEntity
  8
0
  6
SLD-実線
 62
     7
370
    25
100
AcDbLine
 10
176.865984644
 20
223.680667605
 30
0.0
 11
177.190075252
 21
223.4515009383
 31
0.0
  0
LINE
  5
2BA
330
1F
100
AcDbEntity
  8
0
  6
SLD-実線
 62
     7
370
    25
100
AcDbLine
 10
177.190075252
 20
223.4515009383
 30
0.0
 11
177.5671988687
 21
223.718167605
 31
0.0
  0
LINE
  5
2BB
330
1F
100
AcDbEntity
  8
0
  6
SLD-実線
 62
     7
370
    25
100
AcDbLine
 10
177.5671988687
 20
223.718167605
 30
0.0
 11
177.2431082606
 21
223.9473342716
 31
0.0
  0
ARC
  5
2BC
330
1F
100
AcDbEntity
  8
0
  6
SLD-実線
 62
     7
370
    25
100
AcDbCircle
 10
177.3603149928
 20
224.1473342716
 30
0.0
 40
0.2318133259118893
100
AcDbArc
 50
120.3717382957
 51
239.6282617043
  0
LINE
  5
2BD
330
1F
100
AcDbEntity
  8
0
  6
SLD-実線
 62
     7
370
    25
100
AcDbLine
 10
177.2431082606
 20
224.3473342716
 30
0.0
 11
177.5671988687
 21
224.5765009383
 31
0.0
  0
LINE
  5
2BE
330
1F
100
AcDbEntity
  8
0
  6
SLD-実線
 62
     7
370
    25
100
AcDbLine
 10
177.5671988687
 20
224.5765009383
 30
0.0
 11
177.190075252
 21
224.843167605
 31
0.0
  0
LINE
  5
2BF
330
1F
100
AcDbEntity
  8
0
  6
SLD-実線
 62
     7
370
    25
100
AcDbLine
 10
177.190075252
 20
224.843167605
 30
0.0
 11
176.865984644
 21
224.6140009383
 31
0.0
  0
ARC
  5
2C0
330
1F
100
AcDbEntity
  8
0
  6
SLD-実線
 62
     7
370
    25
100
AcDbCircle
 10
176.5831419315
 20
225.048245588
 30
0.0
 40
0.5182358689109043
100
AcDbArc
 50
236.9220256938
 51
303.0779743062
  0
LINE
  5
2C1
330
1F
100
AcDbEntity
  8
0
  6
SLD-実線
 62
     7
370
    25
100
AcDbLine
 10
176.3002992191
 20
224.6140009383
 30
0.0
 11
175.976208611
 21
224.843167605
 31
0.0
  0
LINE
  5
2C2
330
1F
100
AcDbEntity
  8
0
  6
SLD-実線
 62
     7
370
    25
100
AcDbLine
 10
175.976208611
 20
224.843167605
 30
0.0
 11
175.5990849944
 21
224.5765009383
 31
0.0
  0
LINE
  5
2C3
330
1F
100
AcDbEntity
  8
0
  6
SLD-実線
 62
     7
370
    25
100
AcDbLine
 10
175.5990849944
 20
224.5765009383
 30
0.0
 11
175.9231756024
 21
224.3473342716
 31
0.0
  0
ARC
  5
2C4
330
1F
100
AcDbEntity
  8
0
  6
SLD-実線
 62
     7
370
    25
100
AcDbCircle
 10
175.8059688702
 20
224.1473342716
 30
0.0
 40
0.2318133259118504
100
AcDbArc
 50
300.3717382957
 51
59.6282617043
  0
LINE
  5
2C5
330
1F
100
AcDbEntity
  8
0
  6
SLD-実線
 62
     7
370
    25
100
AcDbLine
 10
175.9231756024
 20
223.9473342716
 30
0.0
 11
175.5990849944
 21
223.718167605
 31
0.0
  0
LINE
  5
2C6
330
1F
100
AcDbEntity
  8
0
  6
SLD-実線
 62
     7
370
    25
100
AcDbLine
 10
175.976208611
 20
224.4365812058
 30
0.0
 11
175.8865849944
 21
224.3732077387
 31
0.0
  0
LINE
  5
2C7
330
1F
100
AcDbEntity
  8
0
  6
SLD-実線
 62
     7
370
    25
100
AcDbLine
 10
176.3002992191
 20
224.2074145391
 30
0.0
 11
175.976208611
 21
224.4365812058
 31
0.0
  0
ARC
  5
2C8
330
1F
100
AcDbEntity
  8
0
  6
SLD-実線
 62
     7
370
    25
100
AcDbCircle
 10
176.5831419315
 20
224.6416591889
 30
0.0
 40
0.5182358689107138
100
AcDbArc
 50
236.9220256938
 51
303.0779743062
  0
LINE
  5
2C9
330
1F
100
AcDbEntity
  8
0
  6
SLD-実線
 62
     7
370
    25
100
AcDbLine
 10
177.190075252
 20
224.4365812058
 30
0.0
 11
176.865984644
 21
224.2074145391
 31
0.0
  0
LINE
  5
2CA
330
1F
100
AcDbEntity
  8
0
  6
SLD-実線
 62
     7
370
    25
100
AcDbLine
 10
177.2796988687
 20
224.3732077387
 30
0.0
 11
177.190075252
 21
224.4365812058
 31
0.0
  0
ARC
  5
2CB
330
1F
100
AcDbEntity
  8
0
  6
SLD-実線
 62
     7
370
    25
100
AcDbCircle
 10
177.3761043272
 20
223.7529697395
 30
0.0
 40
0.2504517410289049
100
AcDbArc
 50
182.7971042547
 51
237.925282555
  0
LINE
  5
2CC
330
1F
100
AcDbEntity
  8
0
  6
SLD-実線
 62
     7
370
    25
100
AcDbLine
 10
177.2796988687
 20
223.5148744054
 30
0.0
 11
177.2431082606
 21
223.5407478725
 31
0.0
  0
LINE
  5
2CD
330
1F
100
AcDbEntity
  8
0
  6
SLD-実線
 62
     7
370
    25
100
AcDbLine
 10
175.9231756024
 20
223.5407478725
 30
0.0
 11
175.8865849944
 21
223.5148744054
 31
0.0
  0
ARC
  5
2CE
330
1F
100
AcDbEntity
  8
0
  6
SLD-実線
 62
     7
370
    25
100
AcDbCircle
 10
175.7901795359
 20
223.7529697395
 30
0.0
 40
0.2504517410288751
100
AcDbArc
 50
302.074717445
 51
357.2028957453
  0
LINE
  5
2CF
330
1F
100
AcDbEntity
  8
0
  6
SLD-実線
 62
     7
370
    25
100
AcDbLine
 10
177.190075252
 20
224.4365812058
 30
0.0
 11
177.190075252
 21
224.843167605
 31
0.0
  0
LINE
  5
2D0
330
1F
100
AcDbEntity
  8
0
  6
SLD-実線
 62
     7
370
    25
100
AcDbLine
 10
175.976208611
 20
224.4365812058
 30
0.0
 11
175.976208611
 21
224.843167605
 31
0.0
  0
LWPOLYLINE
  5
2D1
330
1F
100
AcDbEntity
  8
0
  6
SLD-実線
 62
     7
370
    25
100
AcDbPolyline
 90
       92
 70
   128
 43
0.0
 10
181.513335685
 20
227.0166653191
 10
183.2782556107
 20
225.6793920726
 10
184.908494853
 20
224.2592051433
 10
186.3962845795
 20
222.7628723686
 10
187.7345347947
 20
221.1975244557
 10
188.9168681269
 20
219.5706210002
 10
189.9376502194
 20
217.8899149379
 10
190.7920165804
 20
216.1634155987
 10
191.4758957654
 20
214.3993505381
 10
191.9860287785
 20
212.6061263296
 10
192.3199846036
 20
210.792288503
 10
192.4761717892
 20
208.9664808216
 10
192.4538460321
 20
207.1374040906
 10
192.2531137247
 20
205.3137746934
 10
191.874931448
 20
203.5042830547
 10
191.3211014127
 20
201.7175522262
 10
190.594262871
 20
199.9620967938
 10
189.6978795398
 20
198.2462823022
 10
188.6362230937
 20
196.5782853889
 10
187.4143528092
 20
194.9660548186
 10
186.0380914546
 20
193.4172736043
 10
184.5139975421
 20
191.9393223938
 10
182.8493340732
 20
190.5392442976
 10
181.0520339274
 20
189.2237113255
 10
179.1306620583
 20
187.9989925912
 10
177.094374678
 20
186.8709244371
 10
174.9528756232
 20
185.8448826218
 10
172.716370112
 20
184.9257567018
 10
170.3955161117
 20
184.1179267305
 10
168.0013735485
 20
183.4252423858
 10
165.5453516021
 20
182.851004624
 10
163.0391543355
 20
182.3979499495
 10
160.4947249199
 20
182.0682373741
 10
157.9241887203
 20
181.8634381285
 10
155.3397955123
 20
181.7845281743
 10
152.7538611064
 20
181.8318835533
 10
150.1787086577
 20
182.0052785957
 10
147.6266099403
 20
182.303886995
 10
145.1097268669
 20
182.7262857463
 10
142.6400535314
 20
183.2704619272
 10
140.2293590521
 20
183.9338222904
 10
137.8891314858
 20
184.7132056215
 10
135.6305230828
 20
185.6048978042
 10
133.4642971406
 20
186.6046495191
 10
131.4007767123
 20
187.707696494
 10
129.4497954125
 20
188.9087822077
 10
127.6206505555
 20
190.2021829398
 10
125.9220588497
 20
191.5817350469
 10
124.3621148579
 20
193.0408643348
 10
122.9482524237
 20
194.5726173881
 10
121.6872092455
 20
196.169694706
 10
120.5849947682
 20
197.8244854876
 10
119.646861546
 20
199.5291039013
 10
118.8772802106
 20
201.2754266641
 10
118.2799181678
 20
203.0551317528
 10
117.8576221196
 20
204.8597380621
 10
117.612404499
 20
206.6806458211
 10
117.5454338797
 20
208.5091775753
 10
117.6570294072
 20
210.3366195379
 10
117.9466592779
 20
212.1542631159
 10
118.4129432737
 20
213.9534464099
 10
119.0536593389
 20
215.7255954922
 10
119.8657541697
 20
217.4622652652
 10
120.8453577644
 20
219.1551797068
 10
121.9878018658
 20
220.7962713085
 10
123.2876422075
 20
222.3777195216
 10
124.7386844583
 20
223.8919880252
 10
126.334013741
 20
225.3318606403
 10
128.0660275852
 20
226.6904757181
 10
129.9264721561
 20
227.961358839
 10
131.9064815881
 20
229.1384536663
 10
133.9966202345
 20
230.216150807
 10
136.1869276329
 20
231.1893145435
 10
138.4669659711
 20
232.0533073074
 10
140.8258698279
 20
232.8040117797
 10
143.2523979524
 20
233.4378505118
 10
145.734986833
 20
233.9518029734
 10
148.2618058031
 20
234.343419947
 10
150.8208134195
 20
234.6108351994
 10
153.3998148457
 20
234.7527743751
 10
155.9865199654
 20
234.7685610693
 10
158.5686019506
 20
234.6581200513
 10
161.133756005
 20
234.4219776228
 10
163.6697580011
 20
234.0612591099
 10
166.1645227347
 20
233.5776835007
 10
168.6061615156
 20
232.9735552531
 10
170.9830388232
 20
232.2517533135
 10
173.2838277547
 20
231.4157173967
 10
175.4975640029
 20
230.4694315946
 10
177.6136981067
 20
229.4174053899
 10
179.6221457232
 20
228.2646521667
 10
181.513335685
 20
227.0166653191
  0
LWPOLYLINE
  5
2D2
330
1F
100
AcDbEntity
  8
0
  6
SLD-実線
 62
     7
370
    25
100
AcDbPolyline
 90
       91
 70
   128
 43
0.0
 10
180.8257826193
 20
190.71804495
 10
178.9625396641
 20
189.4894453868
 10
176.9826334509
 20
188.3557436028
 10
174.8957098839
 20
187.3224628791
 10
172.7119362448
 20
186.3946372553
 10
170.4419516593
 20
185.5767870048
 10
168.0968152641
 20
184.8728966117
 10
165.687952328
 20
184.2863953593
 10
163.2270985891
 20
183.8201406227
 10
160.7262430794
 20
183.4764039481
 10
158.1975697157
 20
183.2568599861
 10
155.6533979403
 20
183.1625783327
 10
153.1061227024
 20
183.1940183188
 10
150.5681540709
 20
183.3510267718
 10
148.0518567739
 20
183.6328387623
 10
145.5694899589
 20
184.0380813307
 10
143.1331474674
 20
184.5647801759
 10
140.7546989151
 20
185.2103692741
 10
138.4457318644
 20
185.9717033801
 10
136.2174953707
 20
186.8450733506
 10
134.080845178
 20
187.826224215
 10
132.0461908315
 20
188.9103759048
 10
130.1234449624
 20
190.092246542
 10
128.3219749956
 20
191.3660781717
 10
126.6505575115
 20
192.7256648142
 10
125.1173354881
 20
194.1643827
 10
123.7297786289
 20
195.6752225402
 10
122.4946469717
 20
197.2508236751
 10
121.4179579535
 20
198.8835099341
 10
120.5049570951
 20
200.5653270341
 10
119.7600924449
 20
202.2880813312
 10
119.1869929086
 20
204.0433797395
 10
118.7884505695
 20
205.8226706217
 10
118.5664070859
 20
207.6172854515
 10
118.5219442312
 20
209.4184810457
 10
118.6552786241
 20
211.2174821606
 10
118.9657606727
 20
213.0055242435
 10
119.4518777398
 20
214.7738961331
 10
120.1112615118
 20
216.5139824994
 10
120.9406995373
 20
218.2173058165
 10
121.9361508777
 20
219.8755676643
 10
123.092765794
 20
221.4806891579
 10
124.4049093746
 20
223.0248503067
 10
125.8661889879
 20
224.5005281128
 10
127.4694854265
 20
225.9005332222
 10
129.2069875914
 20
227.2180449508
 10
131.0702305466
 20
228.446644514
 10
133.0501367597
 20
229.580346298
 10
135.1370603268
 20
230.6136270217
 10
137.3208339659
 20
231.5414526455
 10
139.5908185514
 20
232.359302896
 10
141.9359549466
 20
233.0631932891
 10
144.3448178827
 20
233.6496945415
 10
146.8056716216
 20
234.1159492781
 10
149.3065271312
 20
234.4596859527
 10
151.835200495
 20
234.6792299147
 10
154.3793722704
 20
234.7735115681
 10
156.9266475083
 20
234.742071582
 10
159.4646161397
 20
234.585063129
 10
161.9809134368
 20
234.3032511385
 10
164.4632802518
 20
233.8980085701
 10
166.8996227433
 20
233.3713097249
 10
169.2780712955
 20
232.7257206267
 10
171.5870383462
 20
231.9643865207
 10
173.81527484
 20
231.0910165502
 10
175.9519250327
 20
230.1098656858
 10
177.9865793792
 20
229.025713996
 10
179.9093252482
 20
227.8438433588
 10
181.7107952151
 20
226.5700117291
 10
183.3822126992
 20
225.2104250866
 10
184.9154347226
 20
223.7717072008
 10
186.3029915817
 20
222.2608673606
 10
187.538123239
 20
220.6852662257
 10
188.6148122572
 20
219.0525799667
 10
189.5278131156
 20
217.3707628667
 10
190.2726777658
 20
215.6480085696
 10
190.8457773021
 20
213.8927101613
 10
191.2443196411
 20
212.1134192791
 10
191.4663631248
 20
210.3188044493
 10
191.5108259794
 20
208.5176088551
 10
191.3774915866
 20
206.7186077402
 10
191.0670095379
 20
204.9305656573
 10
190.5808924709
 20
203.1621937677
 10
189.9215086988
 20
201.4221074014
 10
189.0920706733
 20
199.7187840843
 10
188.096619333
 20
198.0605222365
 10
186.9400044167
 20
196.4554007429
 10
185.6278608361
 20
194.9112395941
 10
184.1665812228
 20
193.435561788
 10
182.5632847841
 20
192.0355566786
 10
180.8257826193
 20
190.71804495
  0
LWPOLYLINE
  5
2D3
330
1F
100
AcDbEntity
  8
0
  6
SLD-実線
 62
     7
370
    25
100
AcDbPolyline
 90
       49
 70
   128
 43
0.0
 10
117.5679188023
 20
209.2970558808
 10
117.517781781
 20
208.1362392309
 10
117.584801822
 20
206.3063580918
 10
117.8302004036
 20
204.4841065739
 10
118.2528080897
 20
202.6781685356
 10
118.8506109625
 20
200.8971500941
 10
119.6207602188
 20
199.1495386133
 10
120.5595857467
 20
197.4436622577
 10
121.6626136152
 20
195.7876503052
 10
122.924587394
 20
194.1893944066
 10
124.3394932035
 20
192.6565109794
 10
125.900588373
 20
191.196304911
 10
127.6004335733
 20
189.8157347483
 10
129.4309282677
 20
188.521379537
 10
131.3833493155
 20
187.3194074689
 10
133.4483925413
 20
186.2155464885
 10
135.6162170737
 20
185.2150569959
 10
137.8764922415
 20
184.3227067792
 10
140.2184468043
 20
183.5427482935
 10
142.630920282
 20
182.8788983964
 10
145.1024161399
 20
182.3343206347
 10
147.6211565748
 20
181.9116101696
 10
150.1751386413
 20
181.6127814089
 10
152.752191452
 20
181.4392584078
 10
155.3400341765
 20
181.3918680823
 10
157.9263345658
 20
181.470836269
 10
160.4987677208
 20
181.6757866485
 10
163.0450748259
 20
182.0057425388
 10
165.5531215682
 20
182.45913155
 10
168.0109559629
 20
183.0337930769
 10
170.4068653098
 20
183.7269885956
 10
172.7294320097
 20
184.5354147138
 10
174.9675879747
 20
185.4552189129
 10
177.1106673722
 20
186.482017907
 10
179.148457453
 20
187.6109185313
 10
181.0712472195
 20
188.8365410602
 10
182.8698737026
 20
190.1530448443
 10
184.5357656282
 20
191.5541561434
 10
186.0609842625
 20
193.0331980242
 10
187.4382612442
 20
194.5831221786
 10
188.6610332213
 20
196.196542512
 10
189.7234731283
 20
197.865770342
 10
190.6205179555
 20
199.5828510376
 10
191.3478928756
 20
201.3396019275
 10
191.9021316159
 20
203.1276512937
 10
192.2805929763
 20
204.9384782666
 10
192.4814734163
 20
206.763453431
 10
192.5038156489
 20
208.5938799492
 10
192.4648514084
 20
209.2970558808
  0
LWPOLYLINE
  5
2D4
330
1F
100
AcDbEntity
  8
0
  6
SLD-実線
 62
     7
370
    25
100
AcDbPolyline
 90
       22
 70
   128
 43
0.0
 10
132.0354147168
 20
192.7180449498
 10
131.6813974921
 20
193.0572273184
 10
131.4844953327
 20
193.4551262335
 10
131.4622038594
 20
193.8763866304
 10
131.6165037674
 20
194.283577674
 10
131.9336848329
 20
194.6405186534
 10
132.3855641261
 20
194.9154937959
 10
132.9319901889
 20
195.0840703535
 10
133.5244106677
 20
195.1312695594
 10
134.1101864031
 20
195.0528975568
 10
134.6372686503
 20
194.8559180422
 10
135.0588238387
 20
194.5578335098
 10
135.3373949398
 20
194.1851300786
 10
135.4482296887
 20
193.7709240838
 10
135.3814799317
 20
193.352019546
 10
135.1430766776
 20
192.9656379715
 10
134.7542031017
 20
192.646111059
 10
134.2494123278
 20
192.4218301768
 10
133.6735572314
 20
192.3127236654
 10
133.0778050648
 20
192.3284861174
 10
132.5150910226
 20
192.4677169696
 10
132.0354147168
 20
192.7180449498
  0
LWPOLYLINE
  5
2D5
330
1F
100
AcDbEntity
  8
0
  6
SLD-実線
 62
     7
370
    25
100
AcDbPolyline
 90
       22
 70
   128
 43
0.0
 10
175.1689283692
 20
223.2180449498
 10
174.8149111445
 20
223.5572273184
 10
174.6180089851
 20
223.9551262335
 10
174.5957175117
 20
224.3763866304
 10
174.7500174198
 20
224.783577674
 10
175.0671984852
 20
225.1405186534
 10
175.5190777785
 20
225.4154937959
 10
176.0655038413
 20
225.5840703536
 10
176.6579243201
 20
225.6312695594
 10
177.2437000554
 20
225.5528975568
 10
177.7707823027
 20
225.3559180422
 10
178.1923374911
 20
225.0578335098
 10
178.4709085921
 20
224.6851300786
 10
178.5817433411
 20
224.2709240838
 10
178.5149935841
 20
223.852019546
 10
178.27659033
 20
223.4656379715
 10
177.8877167541
 20
223.146111059
 10
177.3829259802
 20
222.9218301768
 10
176.8070708837
 20
222.8127236654
 10
176.2113187172
 20
222.8284861174
 10
175.648604675
 20
222.9677169696
 10
175.1689283692
 20
223.2180449498
  0
LWPOLYLINE
  5
2D6
330
1F
100
AcDbEntity
  8
0
  6
SLD-実線
 62
     7
370
    25
100
AcDbPolyline
 90
       70
 70
   128
 43
0.0
 10
170.2191809008
 20
219.7180449498
 10
171.5386574663
 20
218.6959562372
 10
172.7212252795
 20
217.5932589879
 10
173.757085211
 20
216.4190904988
 10
174.6376537994
 20
215.1831802997
 10
175.3556343759
 20
213.8957695316
 10
175.9050775274
 20
212.5675260858
 10
176.2814303948
 20
211.2094562056
 10
176.4815743999
 20
209.8328132859
 10
176.5038510862
 20
208.4490046234
 10
176.3480758622
 20
207.0694968925
 10
176.0155395305
 20
205.7057211287
 10
175.5089975918
 20
204.3689780075
 10
174.8326474122
 20
203.0703442035
 10
173.9920934422
 20
201.8205806052
 10
172.9943007768
 20
200.6300431475
 10
171.8475374402
 20
199.5085969987
 10
170.5613058747
 20
198.4655348147
 10
169.1462641999
 20
197.5094997373
 10
167.614137897
 20
196.6484137743
 10
165.9776226469
 20
195.8894121551
 10
164.2502791305
 20
195.2387842061
 10
162.4464206601
 20
194.7019212356
 10
160.580994575
 20
194.2832718591
 10
158.6694583835
 20
193.9863051372
 10
156.7276516762
 20
193.8134818296
 10
154.7716648752
 20
193.7662340049
 10
152.8177059031
 20
193.8449531732
 10
150.8819658793
 20
194.0489870428
 10
148.9804849553
 20
194.3766449248
 10
147.1290194009
 20
194.8252117427
 10
145.3429110427
 20
195.3909705307
 10
143.6369601371
 20
196.0692332333
 10
142.0253027306
 20
196.8543795521
 10
140.5212935241
 20
197.7399035174
 10
139.1373952114
 20
198.7184673987
 10
137.8850752099
 20
199.7819625077
 10
136.7747106374
 20
200.9215763887
 10
135.8155023246
 20
202.1278658424
 10
135.0153985736
 20
203.3908351744
 10
134.381029296
 20
204.7000190231
 10
133.9176510755
 20
206.0445690788
 10
133.6291036099
 20
207.4133439762
 10
133.5177778944
 20
208.7950016155
 10
133.584596409
 20
210.1780931464
 10
133.8290054744
 20
211.5511578369
 10
134.2489798401
 20
212.9028180404
 10
134.8410394663
 20
214.221873475
 10
135.6002783604
 20
215.4973940317
 10
136.5204052298
 20
216.7188103456
 10
137.5937956135
 20
217.8760013765
 10
138.8115550608
 20
218.9593782749
 10
140.1635928333
 20
219.9599638388
 10
141.6387055203
 20
220.869466901
 10
143.2246698735
 20
221.6803510327
 10
144.9083440927
 20
222.3858969926
 10
146.6757767231
 20
222.9802584047
 10
148.5123222614
 20
223.4585102032
 10
150.4027625127
 20
223.816689443
 10
152.3314326939
 20
224.0518281381
 10
154.2823512363
 20
224.1619778554
 10
156.2393522146
 20
224.1462258594
 10
158.1862193022
 20
224.0047026762
 10
160.1068201454
 20
223.7385810115
 10
161.9852400406
 20
223.3500660332
 10
163.8059138091
 20
222.8423770988
 10
165.5537547747
 20
222.2197210787
 10
167.2142797765
 20
221.4872574967
 10
168.7737291815
 20
220.6510557768
 10
170.2191809008
 20
219.7180449498
  0
LWPOLYLINE
  5
2D7
330
1F
100
AcDbEntity
  8
0
  6
SLD-実線
 62
     7
370
    25
100
AcDbPolyline
 90
        9
 70
   128
 43
0.0
 10
170.274767745
 20
218.6966906124
 10
171.5990687874
 20
217.6708647789
 10
172.7859604903
 20
216.5641356752
 10
173.8256078952
 20
215.3856740073
 10
174.7093961565
 20
214.1452448796
 10
175.4300019261
 20
212.8531268786
 10
175.9814540377
 20
211.5200269009
 10
176.3591829854
 20
210.1569914329
 10
176.5130474036
 20
209.235916221
  0
LWPOLYLINE
  5
2D8
330
1F
100
AcDbEntity
  8
0
  6
SLD-実線
 62
     7
370
    25
100
AcDbPolyline
 90
       27
 70
   128
 43
0.0
 10
133.4674274534
 20
208.7070427267
 10
133.506234145
 20
209.1218573425
 10
133.7515368572
 20
210.4999424472
 10
134.1730467989
 20
211.8565448026
 10
134.7672712063
 20
213.1804231743
 10
135.5292861486
 20
214.4606074891
 10
136.45277733
 20
215.6864897367
 10
137.5300924119
 20
216.8479118707
 10
138.7523044221
 20
217.9352499816
 10
140.1092857269
 20
218.9394940431
 10
141.5897919521
 20
219.8523225729
 10
143.1815551566
 20
220.6661715863
 10
144.8713854893
 20
221.3742972739
 10
146.6452804839
 20
221.9708318833
 10
148.4885410877
 20
222.450832341
 10
150.3858934629
 20
222.8103212119
 10
152.3216155502
 20
223.0463196579
 10
154.2796673467
 20
223.1568721218
 10
156.2438238186
 20
223.1410625309
 10
158.1978093467
 20
222.9990218885
 10
160.1254325916
 20
222.7319271881
 10
162.01072066
 20
222.3419916605
 10
163.8380514612
 20
221.8324464342
 10
165.5922831567
 20
221.2075137616
 10
167.2588796303
 20
220.4723720315
 10
168.8240309386
 20
219.6331128598
 10
170.274767745
 20
218.6966906124
  0
LINE
  5
2D9
330
1F
100
AcDbEntity
  8
0
  6
SLD-実線
 62
     8
370
    25
100
AcDbLine
 10
146.5096360071
 20
195.3631430875
 30
0.0
 11
146.3543270358
 21
195.2642606913
 31
0.0
  0
LINE
  5
2DA
330
1F
100
AcDbEntity
  8
0
  6
SLD-実線
 62
     8
370
    25
100
AcDbLine
 10
163.6784431749
 20
195.2642606913
 30
0.0
 11
163.5223069446
 21
195.3636697883
 31
0.0
  0
LINE
  5
2DB
330
1F
100
AcDbEntity
  8
0
  6
SLD-実線
 62
     8
370
    25
100
AcDbLine
 10
145.609840656
 20
196.5297082101
 30
0.0
 11
145.4945248408
 21
196.4562887287
 31
0.0
  0
LINE
  5
2DC
330
1F
100
AcDbEntity
  8
0
  6
SLD-実線
 62
     8
370
    25
100
AcDbLine
 10
164.5382453698
 20
196.4562887287
 30
0.0
 11
164.4235961753
 21
196.5292837849
 31
0.0
  0
LINE
  5
2DD
330
1F
100
AcDbEntity
  8
0
  6
SLD-実線
 62
     8
370
    25
100
AcDbLine
 10
165.1044301818
 20
197.8559356088
 30
0.0
 11
165.0421101242
 21
197.8956136556
 31
0.0
  0
LINE
  5
2DE
330
1F
100
AcDbEntity
  8
0
  6
SLD-実線
 62
     8
370
    25
100
AcDbLine
 10
144.9916413425
 20
197.8962384035
 30
0.0
 11
144.9283400288
 21
197.8559356088
 31
0.0
  0
LINE
  5
2DF
330
1F
100
AcDbEntity
  8
0
  6
SLD-実線
 62
     8
370
    25
100
AcDbLine
 10
134.1095946083
 20
193.4473342716
 30
0.0
 11
134.1095946083
 21
193.0407478725
 31
0.0
  0
LINE
  5
2E0
330
1F
100
AcDbEntity
  8
0
  6
SLD-実線
 62
     8
370
    25
100
AcDbLine
 10
132.78966195
 20
193.0407478725
 30
0.0
 11
132.78966195
 21
193.4473342716
 31
0.0
  0
LINE
  5
2E1
330
1F
100
AcDbEntity
  8
0
  6
SLD-実線
 62
     8
370
    25
100
AcDbLine
 10
133.1667855667
 20
193.7074145391
 30
0.0
 11
133.1667855667
 21
194.1140009383
 31
0.0
  0
LINE
  5
2E2
330
1F
100
AcDbEntity
  8
0
  6
SLD-実線
 62
     8
370
    25
100
AcDbLine
 10
133.7324709916
 20
194.1140009383
 30
0.0
 11
133.7324709916
 21
193.7074145391
 31
0.0
  0
LINE
  5
2E3
330
1F
100
AcDbEntity
  8
0
  6
SLD-実線
 62
     8
370
    25
100
AcDbLine
 10
177.2431082606
 20
223.9473342716
 30
0.0
 11
177.2431082606
 21
223.5407478725
 31
0.0
  0
LINE
  5
2E4
330
1F
100
AcDbEntity
  8
0
  6
SLD-実線
 62
     8
370
    25
100
AcDbLine
 10
175.9231756024
 20
223.5407478725
 30
0.0
 11
175.9231756024
 21
223.9473342716
 31
0.0
  0
LINE
  5
2E5
330
1F
100
AcDbEntity
  8
0
  6
SLD-実線
 62
     8
370
    25
100
AcDbLine
 10
176.3002992191
 20
224.2074145391
 30
0.0
 11
176.3002992191
 21
224.6140009383
 31
0.0
  0
LINE
  5
2E6
330
1F
100
AcDbEntity
  8
0
  6
SLD-実線
 62
     8
370
    25
100
AcDbLine
 10
176.865984644
 20
224.6140009383
 30
0.0
 11
176.865984644
 21
224.2074145391
 31
0.0
  0
ENDSEC
  0
SECTION
  2
OBJECTS
  0
DICTIONARY
  5
C
330
0
100
AcDbDictionary
281
     1
  3
ACAD_GROUP
350
D
  3
ACAD_LAYOUT
350
1A
  3
ACAD_MLINESTYLE
350
17
  3
ACAD_PLOTSETTINGS
350
19
  3
ACAD_PLOTSTYLENAME
350
E
  3
ACAD_SCALELIST
350
47
  3
DWGPROPS
350
2E7
  0
DICTIONARY
  5
D
102
{ACAD_REACTORS
330
C
102
}
330
C
100
AcDbDictionary
281
     1
  0
DICTIONARY
  5
1A
102
{ACAD_REACTORS
330
C
102
}
330
C
100
AcDbDictionary
281
     1
  3
Layout1
350
1E
  3
Layout2
350
26
  3
Model
350
22
  0
DICTIONARY
  5
17
102
{ACAD_REACTORS
330
C
102
}
330
C
100
AcDbDictionary
281
     1
  3
Standard
350
18
  0
DICTIONARY
  5
19
102
{ACAD_REACTORS
330
C
102
}
330
C
100
AcDbDictionary
281
     1
  0
ACDBDICTIONARYWDFLT
  5
E
102
{ACAD_REACTORS
330
C
102
}
330
C
100
AcDbDictionary
281
     1
  3
Normal
350
F
100
AcDbDictionaryWithDefault
340
F
  0
DICTIONARY
  5
47
102
{ACAD_REACTORS
330
C
102
}
330
C
100
AcDbDictionary
281
     1
  3
A0
350
48
  3
A1
350
49
  3
A2
350
4A
  3
A3
350
4B
  3
A4
350
4C
  3
A5
350
4D
  3
A6
350
4E
  3
A7
350
4F
  3
A8
350
50
  3
A9
350
51
  3
B0
350
52
  3
B1
350
53
  3
B2
350
54
  3
B3
350
55
  3
B4
350
56
  3
B5
350
57
  3
B6
350
58
  3
B7
350
59
  3
B8
350
5A
  3
B9
350
5B
  3
C0
350
5C
  3
C1
350
5D
  3
C2
350
5E
  3
C3
350
5F
  3
C4
350
60
  3
C5
350
61
  3
C6
350
62
  3
C7
350
63
  3
C8
350
64
  3
C9
350
65
  3
D0
350
66
  3
D1
350
67
  3
D2
350
68
  0
XRECORD
  5
2E7
102
{ACAD_REACTORS
330
C
102
}
330
C
100
AcDbXrecord
280
     1
  1
DWGPROPS COOKIE
  2

  3

  4

  6

  7

  8
9176
  9

300
=
301
=
302
=
303
=
304
=
305
=
306
=
307
=
308
=
309
=
 40
0.0
 41
2459667.198243021
 42
2459667.198243484
  1

 90
        0
  0
LAYOUT
  5
1E
102
{ACAD_REACTORS
330
1A
102
}
330
1A
100
AcDbPlotSettings
  1

  2
none_device
  4

  6

 40
0.0
 41
0.0
 42
0.0
 43
0.0
 44
0.0
 45
0.0
 46
0.0
 47
0.0
 48
0.0
 49
0.0
140
0.0
141
0.0
142
1.0
143
1.0
 70
   688
 72
     1
 73
     0
 74
     5
  7

 75
    16
147
1.0
148
0.0
149
0.0
100
AcDbLayout
  1
Layout1
 70
     1
 71
     1
 10
0.0
 20
0.0
 11
420.0
 21
297.0
 12
0.0
 22
0.0
 32
0.0
 14
1.0000000000E+20
 24
1.0000000000E+20
 34
1.0000000000E+20
 15
-1.0000000000E+20
 25
-1.0000000000E+20
 35
-1.0000000000E+20
146
0.0
 13
0.0
 23
0.0
 33
0.0
 16
1.0
 26
0.0
 36
0.0
 17
0.0
 27
1.0
 37
0.0
 76
     0
330
1B
  0
LAYOUT
  5
26
102
{ACAD_REACTORS
330
1A
102
}
330
1A
100
AcDbPlotSettings
  1

  2
none_device
  4

  6

 40
0.0
 41
0.0
 42
0.0
 43
0.0
 44
0.0
 45
0.0
 46
0.0
 47
0.0
 48
0.0
 49
0.0
140
0.0
141
0.0
142
1.0
143
1.0
 70
   688
 72
     1
 73
     0
 74
     5
  7

 75
    16
147
1.0
148
0.0
149
0.0
100
AcDbLayout
  1
Layout2
 70
     1
 71
     2
 10
0.0
 20
0.0
 11
0.0
 21
0.0
 12
0.0
 22
0.0
 32
0.0
 14
0.0
 24
0.0
 34
0.0
 15
0.0
 25
0.0
 35
0.0
146
0.0
 13
0.0
 23
0.0
 33
0.0
 16
1.0
 26
0.0
 36
0.0
 17
0.0
 27
1.0
 37
0.0
 76
     0
330
23
  0
LAYOUT
  5
22
102
{ACAD_REACTORS
330
1A
102
}
330
1A
100
AcDbPlotSettings
  1

  2
none_device
  4
Letter_(8.50_x_11.00_Inches)
  6

 40
6.35
 41
6.35
 42
6.35000508
 43
6.35000508
 44
215.9
 45
279.4
 46
0.0
 47
0.0
 48
0.0
 49
0.0
140
0.0
141
0.0
142
1.0
143
1.0
 70
  1712
 72
     1
 73
     0
 74
     0
  7

 75
     0
147
1.0
148
0.0
149
0.0
100
AcDbLayout
  1
Model
 70
     1
 71
     0
 10
0.0
 20
0.0
 11
210.0
 21
297.0
 12
0.0
 22
0.0
 32
0.0
 14
0.0
 24
0.0
 34
0.0
 15
210.0
 25
297.0
 35
0.0
146
0.0
 13
0.0
 23
0.0
 33
0.0
 16
1.0
 26
0.0
 36
0.0
 17
0.0
 27
1.0
 37
0.0
 76
     0
330
1F
331
29
  0
MLINESTYLE
  5
18
102
{ACAD_REACTORS
330
17
102
}
330
17
100
AcDbMlineStyle
  2
Standard
 70
     0
  3

 62
   256
 51
90.0
 52
90.0
 71
     2
 49
0.5
 62
   256
  6
BYLAYER
 49
-0.5
 62
   256
  6
BYLAYER
  0
ACDBPLACEHOLDER
  5
F
102
{ACAD_REACTORS
330
E
102
}
330
E
  0
SCALE
  5
48
102
{ACAD_REACTORS
330
47
102
}
330
47
100
AcDbScale
 70
     0
300
1:1
140
1.0
141
1.0
290
     1
  0
SCALE
  5
49
102
{ACAD_REACTORS
330
47
102
}
330
47
100
AcDbScale
 70
     0
300
1:2
140
1.0
141
2.0
290
     0
  0
SCALE
  5
4A
102
{ACAD_REACTORS
330
47
102
}
330
47
100
AcDbScale
 70
     0
300
1:4
140
1.0
141
4.0
290
     0
  0
SCALE
  5
4B
102
{ACAD_REACTORS
330
47
102
}
330
47
100
AcDbScale
 70
     0
300
1:5
140
1.0
141
5.0
290
     0
  0
SCALE
  5
4C
102
{ACAD_REACTORS
330
47
102
}
330
47
100
AcDbScale
 70
     0
300
1:8
140
1.0
141
8.0
290
     0
  0
SCALE
  5
4D
102
{ACAD_REACTORS
330
47
102
}
330
47
100
AcDbScale
 70
     0
300
1:10
140
1.0
141
10.0
290
     0
  0
SCALE
  5
4E
102
{ACAD_REACTORS
330
47
102
}
330
47
100
AcDbScale
 70
     0
300
1:16
140
1.0
141
16.0
290
     0
  0
SCALE
  5
4F
102
{ACAD_REACTORS
330
47
102
}
330
47
100
AcDbScale
 70
     0
300
1:20
140
1.0
141
20.0
290
     0
  0
SCALE
  5
50
102
{ACAD_REACTORS
330
47
102
}
330
47
100
AcDbScale
 70
     0
300
1:30
140
1.0
141
30.0
290
     0
  0
SCALE
  5
51
102
{ACAD_REACTORS
330
47
102
}
330
47
100
AcDbScale
 70
     0
300
1:40
140
1.0
141
40.0
290
     0
  0
SCALE
  5
52
102
{ACAD_REACTORS
330
47
102
}
330
47
100
AcDbScale
 70
     0
300
1:50
140
1.0
141
50.0
290
     0
  0
SCALE
  5
53
102
{ACAD_REACTORS
330
47
102
}
330
47
100
AcDbScale
 70
     0
300
1:100
140
1.0
141
100.0
290
     0
  0
SCALE
  5
54
102
{ACAD_REACTORS
330
47
102
}
330
47
100
AcDbScale
 70
     0
300
2:1
140
2.0
141
1.0
290
     0
  0
SCALE
  5
55
102
{ACAD_REACTORS
330
47
102
}
330
47
100
AcDbScale
 70
     0
300
4:1
140
4.0
141
1.0
290
     0
  0
SCALE
  5
56
102
{ACAD_REACTORS
330
47
102
}
330
47
100
AcDbScale
 70
     0
300
8:1
140
8.0
141
1.0
290
     0
  0
SCALE
  5
57
102
{ACAD_REACTORS
330
47
102
}
330
47
100
AcDbScale
 70
     0
300
10:1
140
10.0
141
1.0
290
     0
  0
SCALE
  5
58
102
{ACAD_REACTORS
330
47
102
}
330
47
100
AcDbScale
 70
     0
300
100:1
140
100.0
141
1.0
290
     0
  0
SCALE
  5
59
102
{ACAD_REACTORS
330
47
102
}
330
47
100
AcDbScale
 70
     0
300
1/128" = 1'-0"
140
0.0078125
141
12.0
290
     0
  0
SCALE
  5
5A
102
{ACAD_REACTORS
330
47
102
}
330
47
100
AcDbScale
 70
     0
300
1/64" = 1'-0"
140
0.015625
141
12.0
290
     0
  0
SCALE
  5
5B
102
{ACAD_REACTORS
330
47
102
}
330
47
100
AcDbScale
 70
     0
300
1/32" = 1'-0"
140
0.03125
141
12.0
290
     0
  0
SCALE
  5
5C
102
{ACAD_REACTORS
330
47
102
}
330
47
100
AcDbScale
 70
     0
300
1/16" = 1'-0"
140
0.0625
141
12.0
290
     0
  0
SCALE
  5
5D
102
{ACAD_REACTORS
330
47
102
}
330
47
100
AcDbScale
 70
     0
300
3/32" = 1'-0"
140
0.09375
141
12.0
290
     0
  0
SCALE
  5
5E
102
{ACAD_REACTORS
330
47
102
}
330
47
100
AcDbScale
 70
     0
300
1/8" = 1'-0"
140
0.125
141
12.0
290
     0
  0
SCALE
  5
5F
102
{ACAD_REACTORS
330
47
102
}
330
47
100
AcDbScale
 70
     0
300
3/16" = 1'-0"
140
0.1875
141
12.0
290
     0
  0
SCALE
  5
60
102
{ACAD_REACTORS
330
47
102
}
330
47
100
AcDbScale
 70
     0
300
1/4" = 1'-0"
140
0.25
141
12.0
290
     0
  0
SCALE
  5
61
102
{ACAD_REACTORS
330
47
102
}
330
47
100
AcDbScale
 70
     0
300
3/8" = 1'-0"
140
0.375
141
12.0
290
     0
  0
SCALE
  5
62
102
{ACAD_REACTORS
330
47
102
}
330
47
100
AcDbScale
 70
     0
300
1/2" = 1'-0"
140
0.5
141
12.0
290
     0
  0
SCALE
  5
63
102
{ACAD_REACTORS
330
47
102
}
330
47
100
AcDbScale
 70
     0
300
3/4" = 1'-0"
140
0.75
141
12.0
290
     0
  0
SCALE
  5
64
102
{ACAD_REACTORS
330
47
102
}
330
47
100
AcDbScale
 70
     0
300
1" = 1'-0"
140
1.0
141
12.0
290
     0
  0
SCALE
  5
65
102
{ACAD_REACTORS
330
47
102
}
330
47
100
AcDbScale
 70
     0
300
1-1/2" = 1'-0"
140
1.5
141
12.0
290
     0
  0
SCALE
  5
66
102
{ACAD_REACTORS
330
47
102
}
330
47
100
AcDbScale
 70
     0
300
3" = 1'-0"
140
3.0
141
12.0
290
     0
  0
SCALE
  5
67
102
{ACAD_REACTORS
330
47
102
}
330
47
100
AcDbScale
 70
     0
300
6" = 1'-0"
140
6.0
141
12.0
290
     0
  0
SCALE
  5
68
102
{ACAD_REACTORS
330
47
102
}
330
47
100
AcDbScale
 70
     0
300
1'-0" = 1'-0"
140
12.0
141
12.0
290
     0
  0
ENDSEC
  0
EOF
