  0
SECTION
  2
HEADER
  9
$ACADVER
  1
AC1032
  9
$ACADMAINTVER
 90
       55
  9
$DWGCODEPAGE
  3
ANSI_932
  9
$LASTSAVEDBY
  1
9257
  9
$REQUIREDVERSIONS
160
                 0
  9
$INSBASE
 10
0.0
 20
0.0
 30
0.0
  9
$EXTMIN
 10
47.52654071545311
 20
83.01491355167636
 30
0.0
  9
$EXTMAX
 10
157.9933303123574
 20
194.0901426972885
 30
0.0
  9
$LIMMIN
 10
0.0
 20
0.0
  9
$LIMMAX
 10
210.0
 20
297.0
  9
$ORTHOMODE
 70
     0
  9
$REGENMODE
 70
     1
  9
$FILLMODE
 70
     1
  9
$QTEXTMODE
 70
     0
  9
$MIRRTEXT
 70
     1
  9
$LTSCALE
 40
1.0
  9
$ATTMODE
 70
     1
  9
$TEXTSIZE
 40
3.5
  9
$TRACEWID
 40
1.0
  9
$TEXTSTYLE
  7
Standard
  9
$CLAYER
  8
0
  9
$CELTYPE
  6
ByLayer
  9
$CECOLOR
 62
   256
  9
$CELTSCALE
 40
1.0
  9
$DISPSILH
 70
     0
  9
$DIMSCALE
 40
1.0
  9
$DIMASZ
 40
1.5
  9
$DIMEXO
 40
1.0
  9
$DIMDLI
 40
3.75
  9
$DIMRND
 40
0.0
  9
$DIMDLE
 40
0.0
  9
$DIMEXE
 40
1.0
  9
$DIMTP
 40
0.0
  9
$DIMTM
 40
0.0
  9
$DIMTXT
 40
3.5
  9
$DIMCEN
 40
2.5
  9
$DIMTSZ
 40
0.0
  9
$DIMTOL
 70
     0
  9
$DIMLIM
 70
     0
  9
$DIMTIH
 70
     1
  9
$DIMTOH
 70
     1
  9
$DIMSE1
 70
     0
  9
$DIMSE2
 70
     0
  9
$DIMTAD
 70
     1
  9
$DIMZIN
 70
     0
  9
$DIMBLK
  1

  9
$DIMASO
 70
     1
  9
$DIMSHO
 70
     1
  9
$DIMPOST
  1

  9
$DIMAPOST
  1

  9
$DIMALT
 70
     0
  9
$DIMALTD
 70
     3
  9
$DIMALTF
 40
0.0393700787
  9
$DIMLFAC
 40
5.0
  9
$DIMTOFL
 70
     1
  9
$DIMTVP
 40
0.0
  9
$DIMTIX
 70
     0
  9
$DIMSOXD
 70
     0
  9
$DIMSAH
 70
     0
  9
$DIMBLK1
  1

  9
$DIMBLK2
  1

  9
$DIMSTYLE
  2
ISO-25
  9
$DIMCLRD
 70
     0
  9
$DIMCLRE
 70
     0
  9
$DIMCLRT
 70
     0
  9
$DIMTFAC
 40
1.0
  9
$DIMGAP
 40
1.5
  9
$DIMJUST
 70
     0
  9
$DIMSD1
 70
     0
  9
$DIMSD2
 70
     0
  9
$DIMTOLJ
 70
     0
  9
$DIMTZIN
 70
     0
  9
$DIMALTZ
 70
     0
  9
$DIMALTTZ
 70
     0
  9
$DIMUPT
 70
     0
  9
$DIMDEC
 70
     1
  9
$DIMTDEC
 70
     1
  9
$DIMALTU
 70
     2
  9
$DIMALTTD
 70
     3
  9
$DIMTXSTY
  7
Standard
  9
$DIMAUNIT
 70
     0
  9
$DIMADEC
 70
     2
  9
$DIMALTRND
 40
0.0
  9
$DIMAZIN
 70
     0
  9
$DIMDSEP
 70
    44
  9
$DIMATFIT
 70
     3
  9
$DIMFRAC
 70
     0
  9
$DIMLDRBLK
  1

  9
$DIMLUNIT
 70
     2
  9
$DIMLWD
 70
    -2
  9
$DIMLWE
 70
    -2
  9
$DIMTMOVE
 70
     0
  9
$DIMFXL
 40
1.0
  9
$DIMFXLON
 70
     0
  9
$DIMJOGANG
 40
0.7853981634
  9
$DIMTFILL
 70
     0
  9
$DIMTFILLCLR
 70
     0
  9
$DIMARCSYM
 70
     0
  9
$DIMLTYPE
  6

  9
$DIMLTEX1
  6

  9
$DIMLTEX2
  6

  9
$DIMTXTDIRECTION
 70
     0
  9
$LUNITS
 70
     2
  9
$LUPREC
 70
     2
  9
$SKETCHINC
 40
1.0
  9
$FILLETRAD
 40
10.0
  9
$AUNITS
 70
     0
  9
$AUPREC
 70
     2
  9
$MENU
  1
.
  9
$ELEVATION
 40
0.0
  9
$PELEVATION
 40
0.0
  9
$THICKNESS
 40
0.0
  9
$LIMCHECK
 70
     0
  9
$CHAMFERA
 40
0.0
  9
$CHAMFERB
 40
0.0
  9
$CHAMFERC
 40
0.0
  9
$CHAMFERD
 40
0.0
  9
$SKPOLY
 70
     0
  9
$TDCREATE
 40
2460018.759921343
  9
$TDUCREATE
 40
2460018.384921343
  9
$TDUPDATE
 40
2460018.769245544
  9
$TDUUPDATE
 40
2460018.394245544
  9
$TDINDWG
 40
0.000867419
  9
$TDUSRTIMER
 40
0.0008674074
  9
$USRTIMER
 70
     1
  9
$ANGBASE
 50
0.0
  9
$ANGDIR
 70
     0
  9
$PDMODE
 70
     0
  9
$PDSIZE
 40
-1.0
  9
$PLINEWID
 40
0.0
  9
$SPLFRAME
 70
     0
  9
$SPLINETYPE
 70
     6
  9
$SPLINESEGS
 70
     8
  9
$HANDSEED
  5
352
  9
$SURFTAB1
 70
     6
  9
$SURFTAB2
 70
     6
  9
$SURFTYPE
 70
     6
  9
$SURFU
 70
     6
  9
$SURFV
 70
     6
  9
$UCSBASE
  2

  9
$UCSNAME
  2

  9
$UCSORG
 10
0.0
 20
0.0
 30
0.0
  9
$UCSXDIR
 10
1.0
 20
0.0
 30
0.0
  9
$UCSYDIR
 10
0.0
 20
1.0
 30
0.0
  9
$UCSORTHOREF
  2

  9
$UCSORTHOVIEW
 70
     0
  9
$UCSORGTOP
 10
0.0
 20
0.0
 30
0.0
  9
$UCSORGBOTTOM
 10
0.0
 20
0.0
 30
0.0
  9
$UCSORGLEFT
 10
0.0
 20
0.0
 30
0.0
  9
$UCSORGRIGHT
 10
0.0
 20
0.0
 30
0.0
  9
$UCSORGFRONT
 10
0.0
 20
0.0
 30
0.0
  9
$UCSORGBACK
 10
0.0
 20
0.0
 30
0.0
  9
$PUCSBASE
  2

  9
$PUCSNAME
  2

  9
$PUCSORG
 10
0.0
 20
0.0
 30
0.0
  9
$PUCSXDIR
 10
1.0
 20
0.0
 30
0.0
  9
$PUCSYDIR
 10
0.0
 20
1.0
 30
0.0
  9
$PUCSORTHOREF
  2

  9
$PUCSORTHOVIEW
 70
     0
  9
$PUCSORGTOP
 10
0.0
 20
0.0
 30
0.0
  9
$PUCSORGBOTTOM
 10
0.0
 20
0.0
 30
0.0
  9
$PUCSORGLEFT
 10
0.0
 20
0.0
 30
0.0
  9
$PUCSORGRIGHT
 10
0.0
 20
0.0
 30
0.0
  9
$PUCSORGFRONT
 10
0.0
 20
0.0
 30
0.0
  9
$PUCSORGBACK
 10
0.0
 20
0.0
 30
0.0
  9
$USERI1
 70
     0
  9
$USERI2
 70
     0
  9
$USERI3
 70
     0
  9
$USERI4
 70
     0
  9
$USERI5
 70
     0
  9
$USERR1
 40
0.0
  9
$USERR2
 40
0.0
  9
$USERR3
 40
0.0
  9
$USERR4
 40
0.0
  9
$USERR5
 40
0.0
  9
$WORLDVIEW
 70
     1
  9
$SHADEDGE
 70
     3
  9
$SHADEDIF
 70
    70
  9
$TILEMODE
 70
     1
  9
$MAXACTVP
 70
    64
  9
$PINSBASE
 10
0.0
 20
0.0
 30
0.0
  9
$PLIMCHECK
 70
     0
  9
$PEXTMIN
 10
1.000000000000000E+20
 20
1.000000000000000E+20
 30
1.000000000000000E+20
  9
$PEXTMAX
 10
-1.000000000000000E+20
 20
-1.000000000000000E+20
 30
-1.000000000000000E+20
  9
$PLIMMIN
 10
0.0
 20
0.0
  9
$PLIMMAX
 10
0.0
 20
0.0
  9
$UNITMODE
 70
     0
  9
$VISRETAIN
 70
     1
  9
$PLINEGEN
 70
     0
  9
$PSLTSCALE
 70
     1
  9
$TREEDEPTH
 70
  3020
  9
$CMLSTYLE
  2
Standard
  9
$CMLJUST
 70
     0
  9
$CMLSCALE
 40
20.0
  9
$PROXYGRAPHICS
 70
     1
  9
$MEASUREMENT
 70
     1
  9
$CELWEIGHT
370
    -1
  9
$ENDCAPS
280
     0
  9
$JOINSTYLE
280
     0
  9
$LWDISPLAY
290
     1
  9
$INSUNITS
 70
     4
  9
$HYPERLINKBASE
  1

  9
$STYLESHEET
  1

  9
$XEDIT
290
     1
  9
$CEPSNTYPE
380
     0
  9
$PSTYLEMODE
290
     1
  9
$FINGERPRINTGUID
  2
{1d51674f-2901-4a0a-9945-e51b6c848fae}
  9
$VERSIONGUID
  2
{FAEB1C32-E019-11D5-929B-00C0DF256EC4}
  9
$EXTNAMES
290
     1
  9
$PSVPSCALE
 40
0.0
  9
$OLESTARTUP
290
     0
  9
$SORTENTS
280
   127
  9
$INDEXCTL
280
     0
  9
$HIDETEXT
280
     1
  9
$XCLIPFRAME
280
     2
  9
$HALOGAP
280
     0
  9
$OBSCOLOR
 70
   257
  9
$OBSLTYPE
280
     0
  9
$INTERSECTIONDISPLAY
280
     0
  9
$INTERSECTIONCOLOR
 70
   257
  9
$DIMASSOC
280
     2
  9
$PROJECTNAME
  1

  9
$CAMERADISPLAY
290
     0
  9
$LENSLENGTH
 40
50.0
  9
$CAMERAHEIGHT
 40
0.0
  9
$STEPSPERSEC
 40
2.0
  9
$STEPSIZE
 40
6.0
  9
$3DDWFPREC
 40
2.0
  9
$PSOLWIDTH
 40
5.0
  9
$PSOLHEIGHT
 40
80.0
  9
$LOFTANG1
 40
1.5707963268
  9
$LOFTANG2
 40
1.5707963268
  9
$LOFTMAG1
 40
0.0
  9
$LOFTMAG2
 40
0.0
  9
$LOFTPARAM
 70
     7
  9
$LOFTNORMALS
280
     1
  9
$LATITUDE
 40
37.795
  9
$LONGITUDE
 40
-122.394
  9
$NORTHDIRECTION
 40
0.0
  9
$TIMEZONE
 70
 -8000
  9
$LIGHTGLYPHDISPLAY
280
     1
  9
$TILEMODELIGHTSYNCH
280
     1
  9
$CMATERIAL
347
44
  9
$SOLIDHIST
280
     0
  9
$SHOWHIST
280
     1
  9
$DWFFRAME
280
     2
  9
$DGNFRAME
280
     2
  9
$REALWORLDSCALE
290
     1
  9
$INTERFERECOLOR
 62
   256
  9
$CSHADOW
280
     0
  9
$SHADOWPLANELOCATION
 40
0.0
  0
ENDSEC
  0
SECTION
  2
CLASSES
  0
CLASS
  1
ACDBDICTIONARYWDFLT
  2
AcDbDictionaryWithDefault
  3
ObjectDBX Classes
 90
        0
 91
        3
280
     0
281
     0
  0
CLASS
  1
VISUALSTYLE
  2
AcDbVisualStyle
  3
ObjectDBX Classes
 90
     4095
 91
        3
280
     0
281
     0
  0
CLASS
  1
MATERIAL
  2
AcDbMaterial
  3
ObjectDBX Classes
 90
     1153
 91
        3
280
     0
281
     0
  0
CLASS
  1
SCALE
  2
AcDbScale
  3
ObjectDBX Classes
 90
     1153
 91
        3
280
     0
281
     0
  0
CLASS
  1
TABLESTYLE
  2
AcDbTableStyle
  3
ObjectDBX Classes
 90
     4095
 91
        3
280
     0
281
     0
  0
CLASS
  1
MLEADERSTYLE
  2
AcDbMLeaderStyle
  3
ACDB_MLEADERSTYLE_CLASS
 90
     4095
 91
        3
280
     0
281
     0
  0
CLASS
  1
SUN
  2
AcDbSun
  3
SCENEOE
 90
     1153
 91
        3
280
     0
281
     0
  0
CLASS
  1
DICTIONARYVAR
  2
AcDbDictionaryVar
  3
ObjectDBX Classes
 90
        0
 91
        3
280
     0
281
     0
  0
CLASS
  1
CELLSTYLEMAP
  2
AcDbCellStyleMap
  3
ObjectDBX Classes
 90
     1152
 91
        3
280
     0
281
     0
  0
ENDSEC
  0
SECTION
  2
TABLES
  0
TABLE
  2
VPORT
  5
8
330
0
100
AcDbSymbolTable
 70
     1
  0
VPORT
  5
29
330
8
100
AcDbSymbolTableRecord
100
AcDbViewportTableRecord
  2
*Active
 70
     0
 10
0.0
 20
0.0
 11
1.0
 21
1.0
 12
102.7599355139053
 22
138.5525281244824
 13
0.0
 23
0.0
 14
10.0
 24
10.0
 15
10.0
 25
10.0
 16
0.0
 26
0.0
 36
1.0
 17
0.0
 27
0.0
 37
0.0
 40
113.2967337285244
 41
2.082738944365193
 42
50.0
 43
0.0
 44
0.0
 50
0.0
 51
0.0
 71
    16
 72
  2000
 73
     1
 74
     3
 75
     0
 76
     0
 77
     0
 78
     0
281
     0
 65
     1
110
0.0
120
0.0
130
0.0
111
1.0
121
0.0
131
0.0
112
0.0
122
1.0
132
0.0
 79
     0
146
0.0
348
2F
 60
     3
 61
     5
292
     1
282
     1
141
0.0
142
0.0
 63
   250
361
6D
  0
ENDTAB
  0
TABLE
  2
LTYPE
  5
5
330
0
100
AcDbSymbolTable
 70
     6
  0
LTYPE
  5
14
330
5
100
AcDbSymbolTableRecord
100
AcDbLinetypeTableRecord
  2
ByBlock
 70
     0
  3

 72
    65
 73
     0
 40
0.0
  0
LTYPE
  5
15
330
5
100
AcDbSymbolTableRecord
100
AcDbLinetypeTableRecord
  2
ByLayer
 70
     0
  3

 72
    65
 73
     0
 40
0.0
  0
LTYPE
  5
16
330
5
100
AcDbSymbolTableRecord
100
AcDbLinetypeTableRecord
  2
Continuous
 70
     0
  3
Solid line
 72
    65
 73
     0
 40
0.0
  0
LTYPE
  5
6E
330
5
100
AcDbSymbolTableRecord
100
AcDbLinetypeTableRecord
  2
HIDDEN
 70
     0
  3
Hidden __ __ __ __ __ __ __ __ __ __ __ __ __ __
 72
    65
 73
     2
 40
1.905
 49
1.27
 74
     0
 49
-0.635
 74
     0
  0
LTYPE
  5
6F
330
5
100
AcDbSymbolTableRecord
100
AcDbLinetypeTableRecord
  2
PHANTOM
 70
     0
  3
Phantom ______  __  __  ______  __  __  ______
 72
    65
 73
     6
 40
12.7
 49
6.35
 74
     0
 49
-1.27
 74
     0
 49
1.27
 74
     0
 49
-1.27
 74
     0
 49
1.27
 74
     0
 49
-1.27
 74
     0
  0
LTYPE
  5
70
330
5
100
AcDbSymbolTableRecord
100
AcDbLinetypeTableRecord
  2
CENTER
 70
     0
  3
Center ____ _ ____ _ ____ _ ____ _ ____ _ ____
 72
    65
 73
     4
 40
10.16
 49
6.35
 74
     0
 49
-1.27
 74
     0
 49
1.27
 74
     0
 49
-1.27
 74
     0
  0
LTYPE
  5
71
330
5
100
AcDbSymbolTableRecord
100
AcDbLinetypeTableRecord
  2
CENTERX2
 70
     0
  3
Center (2x) ________  __  ________  __  _____
 72
    65
 73
     4
 40
20.32
 49
12.7
 74
     0
 49
-2.54
 74
     0
 49
2.54
 74
     0
 49
-2.54
 74
     0
  0
LTYPE
  5
72
330
5
100
AcDbSymbolTableRecord
100
AcDbLinetypeTableRecord
  2
DOT2
 70
     0
  3
Dot (.5x) ........................................
 72
    65
 73
     2
 40
0.635
 49
0.0
 74
     0
 49
-0.635
 74
     0
  0
ENDTAB
  0
TABLE
  2
LAYER
  5
2
330
0
100
AcDbSymbolTable
 70
     1
  0
LAYER
  5
10
330
2
100
AcDbSymbolTableRecord
100
AcDbLayerTableRecord
  2
0
 70
     0
 62
     7
  6
Continuous
370
    -3
390
F
347
46
348
0
  0
ENDTAB
  0
TABLE
  2
STYLE
  5
3
330
0
100
AcDbSymbolTable
 70
     2
  0
STYLE
  5
11
330
3
100
AcDbSymbolTableRecord
100
AcDbTextStyleTableRecord
  2
Standard
 70
     0
 40
0.0
 41
1.0
 50
0.0
 71
     0
 42
3.5
  3
txt
  4
bigfont
  0
STYLE
  5
76
330
3
100
AcDbSymbolTableRecord
100
AcDbTextStyleTableRecord
  2
SLDTEXTSTYLE0
 70
     0
 40
0.0
 41
0.7
 50
0.0
 71
     0
 42
3.5
  3
TXT
  4
bigfont
  0
ENDTAB
  0
TABLE
  2
VIEW
  5
6
330
0
100
AcDbSymbolTable
 70
     0
  0
ENDTAB
  0
TABLE
  2
UCS
  5
7
330
0
100
AcDbSymbolTable
 70
     0
  0
ENDTAB
  0
TABLE
  2
APPID
  5
9
330
0
100
AcDbSymbolTable
 70
     1
  0
APPID
  5
12
330
9
100
AcDbSymbolTableRecord
100
AcDbRegAppTableRecord
  2
ACAD
 70
     0
  0
ENDTAB
  0
TABLE
  2
DIMSTYLE
  5
A
330
0
100
AcDbSymbolTable
 70
     1
100
AcDbDimStyleTable
  0
DIMSTYLE
105
27
330
A
100
AcDbSymbolTableRecord
100
AcDbDimStyleTableRecord
  2
ISO-25
 70
     0
 41
2.5
 42
0.625
 43
3.75
 44
1.25
 73
     0
 74
     0
 77
     1
 78
     8
140
2.5
141
2.5
143
0.0393700787
147
0.625
171
     3
172
     1
178
     0
271
     2
272
     2
274
     3
278
    44
283
     0
284
     8
340
11
  0
ENDTAB
  0
TABLE
  2
BLOCK_RECORD
  5
1
330
0
100
AcDbSymbolTable
 70
     6
  0
BLOCK_RECORD
  5
1F
102
{ACAD_XDICTIONARY
360
34D
102
}
330
1
100
AcDbSymbolTableRecord
100
AcDbBlockTableRecord
  2
*Model_Space
340
22
 70
     0
280
     1
281
     0
  0
BLOCK_RECORD
  5
1B
330
1
100
AcDbSymbolTableRecord
100
AcDbBlockTableRecord
  2
*Paper_Space
340
1E
 70
     0
280
     1
281
     0
  0
BLOCK_RECORD
  5
23
330
1
100
AcDbSymbolTableRecord
100
AcDbBlockTableRecord
  2
*Paper_Space0
340
26
 70
     0
280
     1
281
     0
  0
BLOCK_RECORD
  5
73
330
1
100
AcDbSymbolTableRecord
100
AcDbBlockTableRecord
  2
SW_NOTE_0
340
0
102
{BLKREFS
331
0
102
}
 70
     0
280
     1
281
     0
  0
BLOCK_RECORD
  5
7A
330
1
100
AcDbSymbolTableRecord
100
AcDbBlockTableRecord
  2
SW_NOTE_0_1
340
0
102
{BLKREFS
331
0
102
}
 70
     0
280
     1
281
     0
  0
BLOCK_RECORD
  5
80
330
1
100
AcDbSymbolTableRecord
100
AcDbBlockTableRecord
  2
SW_NOTE_0_2
340
0
102
{BLKREFS
331
85
102
}
 70
     0
280
     1
281
     0
  0
BLOCK_RECORD
  5
1DF
330
1
100
AcDbSymbolTableRecord
100
AcDbBlockTableRecord
  2
SW_NOTE_0_3
340
0
102
{BLKREFS
331
0
102
}
 70
     0
280
     1
281
     0
  0
BLOCK_RECORD
  5
33B
330
1
100
AcDbSymbolTableRecord
100
AcDbBlockTableRecord
  2
SW_NOTE_0_4
340
0
102
{BLKREFS
331
0
102
}
 70
     0
280
     1
281
     0
  0
ENDTAB
  0
ENDSEC
  0
SECTION
  2
BLOCKS
  0
BLOCK
  5
20
330
1F
100
AcDbEntity
  8
0
100
AcDbBlockBegin
  2
*Model_Space
 70
     0
 10
0.0
 20
0.0
 30
0.0
  3
*Model_Space
  1

  0
ENDBLK
  5
21
330
1F
100
AcDbEntity
  8
0
100
AcDbBlockEnd
  0
BLOCK
  5
1C
330
1B
100
AcDbEntity
 67
     1
  8
0
100
AcDbBlockBegin
  2
*Paper_Space
 70
     0
 10
0.0
 20
0.0
 30
0.0
  3
*Paper_Space
  1

  0
ENDBLK
  5
1D
330
1B
100
AcDbEntity
 67
     1
  8
0
100
AcDbBlockEnd
  0
BLOCK
  5
24
330
23
100
AcDbEntity
  8
0
100
AcDbBlockBegin
  2
*Paper_Space0
 70
     0
 10
0.0
 20
0.0
 30
0.0
  3
*Paper_Space0
  1

  0
ENDBLK
  5
25
330
23
100
AcDbEntity
  8
0
100
AcDbBlockEnd
  0
BLOCK
  5
74
330
73
100
AcDbEntity
  8
0
100
AcDbBlockBegin
  2
SW_NOTE_0
 70
     0
 10
0.0
 20
0.0
 30
0.0
  3
SW_NOTE_0
  1

  0
MTEXT
  5
77
330
73
100
AcDbEntity
  8
0
  6
Continuous
 62
     0
370
     0
100
AcDbMText
 10
0.0
 20
4.5117370892
 30
0.0
 40
3.5
 41
0.0
 46
0.0
 71
     1
 72
     1
  1
HBD-D51S
  7
SLDTEXTSTYLE0
 73
     1
 44
1.0
  0
MTEXT
  5
78
330
73
100
AcDbEntity
  8
0
  6
Continuous
 62
     0
370
     0
100
AcDbMText
 10
0.0
 20
0.0117372829
 30
0.0
 40
3.5
 41
0.0
 46
0.0
 71
     1
 72
     1
  1
HBD-D53S
  7
SLDTEXTSTYLE0
 73
     1
 44
1.0
  0
ENDBLK
  5
75
330
73
100
AcDbEntity
  8
0
100
AcDbBlockEnd
  0
BLOCK
  5
7B
330
7A
100
AcDbEntity
  8
0
100
AcDbBlockBegin
  2
SW_NOTE_0_1
 70
     0
 10
0.0
 20
0.0
 30
0.0
  3
SW_NOTE_0_1
  1

  0
MTEXT
  5
7D
330
7A
100
AcDbEntity
  8
0
  6
Continuous
 62
     0
370
     0
100
AcDbMText
 10
0.0
 20
4.5117370892
 30
0.0
 40
3.5
 41
0.0
 46
0.0
 71
     1
 72
     1
  1
HFF-D49S
  7
SLDTEXTSTYLE0
 73
     1
 44
1.0
  0
MTEXT
  5
7E
330
7A
100
AcDbEntity
  8
0
  6
Continuous
 62
     0
370
     0
100
AcDbMText
 10
0.0
 20
0.0117372829
 30
0.0
 40
3.5
 41
0.0
 46
0.0
 71
     1
 72
     1
  1
HFF-D51S
  7
SLDTEXTSTYLE0
 73
     1
 44
1.0
  0
ENDBLK
  5
7C
330
7A
100
AcDbEntity
  8
0
100
AcDbBlockEnd
  0
BLOCK
  5
81
330
80
100
AcDbEntity
  8
0
100
AcDbBlockBegin
  2
SW_NOTE_0_2
 70
     0
 10
0.0
 20
0.0
 30
0.0
  3
SW_NOTE_0_2
  1

  0
MTEXT
  5
83
330
80
100
AcDbEntity
  8
0
  6
Continuous
 62
     0
370
     0
100
AcDbMText
 10
0.0
 20
4.5117370892
 30
0.0
 40
3.5
 41
0.0
 46
0.0
 71
     1
 72
     1
  1
HFF-D48S
  7
SLDTEXTSTYLE0
 73
     1
 44
1.0
  0
MTEXT
  5
84
330
80
100
AcDbEntity
  8
0
  6
Continuous
 62
     0
370
     0
100
AcDbMText
 10
0.0
 20
0.0117372829
 30
0.0
 40
3.5
 41
0.0
 46
0.0
 71
     1
 72
     1
  1
HFF-D50S
  7
SLDTEXTSTYLE0
 73
     1
 44
1.0
  0
ENDBLK
  5
82
330
80
100
AcDbEntity
  8
0
100
AcDbBlockEnd
  0
BLOCK
  5
1E0
330
1DF
100
AcDbEntity
  8
0
100
AcDbBlockBegin
  2
SW_NOTE_0_3
 70
     0
 10
0.0
 20
0.0
 30
0.0
  3
SW_NOTE_0_3
  1

  0
MTEXT
  5
1E2
330
1DF
100
AcDbEntity
  8
0
  6
Continuous
 62
     0
370
     0
100
AcDbMText
 10
0.0
 20
4.5117370892
 30
0.0
 40
3.5
 41
0.0
 46
0.0
 71
     1
 72
     1
  1
HBD-D52S
  7
SLDTEXTSTYLE0
 73
     1
 44
1.0
  0
MTEXT
  5
1E3
330
1DF
100
AcDbEntity
  8
0
  6
Continuous
 62
     0
370
     0
100
AcDbMText
 10
0.0
 20
0.0117372829
 30
0.0
 40
3.5
 41
0.0
 46
0.0
 71
     1
 72
     1
  1
HBD-D54S
  7
SLDTEXTSTYLE0
 73
     1
 44
1.0
  0
ENDBLK
  5
1E1
330
1DF
100
AcDbEntity
  8
0
100
AcDbBlockEnd
  0
BLOCK
  5
33C
330
33B
100
AcDbEntity
  8
0
100
AcDbBlockBegin
  2
SW_NOTE_0_4
 70
     0
 10
0.0
 20
0.0
 30
0.0
  3
SW_NOTE_0_4
  1

  0
MTEXT
  5
33E
330
33B
100
AcDbEntity
  8
0
  6
Continuous
 62
     0
370
     0
100
AcDbMText
 10
0.0
 20
4.5117370892
 30
0.0
 40
3.5
 41
0.0
 46
0.0
 71
     1
 72
     1
  1
HBD-D52S
  7
SLDTEXTSTYLE0
 73
     1
 44
1.0
  0
MTEXT
  5
33F
330
33B
100
AcDbEntity
  8
0
  6
Continuous
 62
     0
370
     0
100
AcDbMText
 10
0.0
 20
0.0117372829
 30
0.0
 40
3.5
 41
0.0
 46
0.0
 71
     1
 72
     1
  1
HBD-D54S
  7
SLDTEXTSTYLE0
 73
     1
 44
1.0
  0
ENDBLK
  5
33D
330
33B
100
AcDbEntity
  8
0
100
AcDbBlockEnd
  0
ENDSEC
  0
SECTION
  2
ENTITIES
  0
INSERT
  5
85
330
1F
100
AcDbEntity
  8
0
  6
Continuous
 62
     7
370
     0
100
AcDbBlockReference
  2
SW_NOTE_0_2
 10
139.2099969790241
 20
95.61659686110654
 30
0.0
  0
LINE
  5
1E5
330
1F
100
AcDbEntity
  8
0
  6
Continuous
 62
     7
370
    25
100
AcDbLine
 10
100.4001947892531
 20
180.9508906670764
 30
0.0
 11
100.4001947892531
 21
180.8896501061764
 31
0.0
  0
LINE
  5
1E6
330
1F
100
AcDbEntity
  8
0
  6
Continuous
 62
     7
370
    25
100
AcDbLine
 10
103.4001947890531
 20
180.8896501061764
 30
0.0
 11
103.4001947890531
 21
180.9508906670764
 31
0.0
  0
LINE
  5
1E7
330
1F
100
AcDbEntity
  8
0
  6
Continuous
 62
     7
370
    25
100
AcDbLine
 10
101.6429824458531
 20
180.4456625718764
 30
0.0
 11
101.6429824458531
 21
180.6995785516764
 31
0.0
  0
LINE
  5
1E8
330
1F
100
AcDbEntity
  8
0
  6
Continuous
 62
     7
370
    25
100
AcDbLine
 10
102.1574071324531
 20
181.2022027825764
 30
0.0
 11
102.1574071324531
 21
180.8449661773764
 31
0.0
  0
LINE
  5
1E9
330
1F
100
AcDbEntity
  8
0
  6
Continuous
 62
     7
370
    25
100
AcDbLine
 10
118.7849711000531
 20
170.3375852133763
 30
0.0
 11
118.7849711000531
 21
170.2763446524764
 31
0.0
  0
LINE
  5
1EA
330
1F
100
AcDbEntity
  8
0
  6
Continuous
 62
     7
370
    25
100
AcDbLine
 10
121.7849710999531
 20
170.2763446524764
 30
0.0
 11
121.7849710999531
 21
170.3375852133763
 31
0.0
  0
LINE
  5
1EB
330
1F
100
AcDbEntity
  8
0
  6
Continuous
 62
     7
370
    25
100
AcDbLine
 10
120.0277587566531
 20
169.8323571181764
 30
0.0
 11
120.0277587566531
 21
170.0862730979763
 31
0.0
  0
LINE
  5
1EC
330
1F
100
AcDbEntity
  8
0
  6
Continuous
 62
     7
370
    25
100
AcDbLine
 10
120.5421834433531
 20
170.5888973288764
 30
0.0
 11
120.5421834433531
 21
170.2316607236764
 31
0.0
  0
LINE
  5
1ED
330
1F
100
AcDbEntity
  8
0
  6
Continuous
 62
     7
370
    25
100
AcDbLine
 10
117.1039672068531
 20
178.9909274100764
 30
0.0
 11
116.9978839551531
 21
179.0521878743764
 31
0.0
  0
LINE
  5
1EE
330
1F
100
AcDbEntity
  8
0
  6
Continuous
 62
     7
370
    25
100
AcDbLine
 10
105.1872819339531
 20
179.0521878743764
 30
0.0
 11
105.0811986822531
 21
178.9909274100764
 31
0.0
  0
LINE
  5
1EF
330
1F
100
AcDbEntity
  8
0
  6
Continuous
 62
     7
370
    25
100
AcDbLine
 10
119.5925829445531
 20
174.5958441949764
 30
0.0
 11
119.5925829445531
 21
175.5217568184763
 31
0.0
  0
LINE
  5
1F0
330
1F
100
AcDbEntity
  8
0
  6
Continuous
 62
     7
370
    25
100
AcDbLine
 10
102.5925829445531
 20
175.5217568184763
 30
0.0
 11
102.5925829445531
 21
174.5958441949764
 31
0.0
  0
LINE
  5
1F1
330
1F
100
AcDbEntity
  8
0
  6
Continuous
 62
     7
370
    25
100
AcDbLine
 10
122.5849352106531
 20
181.6640702270764
 30
0.0
 11
122.0545189522531
 21
181.9703725484763
 31
0.0
  0
LINE
  5
1F2
330
1F
100
AcDbEntity
  8
0
  6
Continuous
 62
     7
370
    25
100
AcDbLine
 10
100.1306469368531
 20
181.9703725484763
 30
0.0
 11
99.6002306784531
 21
181.6640702270764
 31
0.0
  0
LINE
  5
1F3
330
1F
100
AcDbEntity
  8
0
  6
Continuous
 62
     7
370
    25
100
AcDbLine
 10
127.3425829445531
 20
174.6235619253764
 30
0.0
 11
127.3425829445531
 21
175.0318323313764
 31
0.0
  0
LINE
  5
1F4
330
1F
100
AcDbEntity
  8
0
  6
Continuous
 62
     7
370
    25
100
AcDbLine
 10
94.8425829445531
 20
175.0318323313764
 30
0.0
 11
94.8425829445531
 21
174.6235619253764
 31
0.0
  0
LINE
  5
1F5
330
1F
100
AcDbEntity
  8
0
  6
Continuous
 62
     7
370
    25
100
AcDbLine
 10
128.3367762271531
 20
93.09233893817637
 30
0.0
 11
126.6516223226531
 21
171.9171478775764
 31
0.0
  0
LINE
  5
1F6
330
1F
100
AcDbEntity
  8
0
  6
Continuous
 62
     7
370
    25
100
AcDbLine
 10
95.53354356655313
 20
171.9171478775764
 30
0.0
 11
95.24897580435311
 21
158.6061978074763
 31
0.0
  0
LINE
  5
1F7
330
1F
100
AcDbEntity
  8
0
  6
Continuous
 62
     7
370
    25
100
AcDbLine
 10
96.72248542075312
 20
179.4117228829764
 30
0.0
 11
96.4382869107531
 21
179.5757871905764
 31
0.0
  0
LINE
  5
1F8
330
1F
100
AcDbEntity
  8
0
  6
Continuous
 62
     7
370
    25
100
AcDbLine
 10
124.9137753367531
 20
97.34049450927637
 30
0.0
 11
124.3758689703531
 21
97.64017895417635
 31
0.0
  0
LINE
  5
1F9
330
1F
100
AcDbEntity
  8
0
  6
Continuous
 62
     7
370
    25
100
AcDbLine
 10
48.91855229485313
 20
184.9461479908764
 30
0.0
 11
47.52654071545311
 21
119.8333731360763
 31
0.0
  0
LINE
  5
1FA
330
1F
100
AcDbEntity
  8
0
  6
Continuous
 62
     7
370
    25
100
AcDbLine
 10
95.50262848235315
 20
180.1159313039764
 30
0.0
 11
75.92901286895312
 21
191.4155390786763
 31
0.0
  0
SPLINE
  5
1FB
330
1F
100
AcDbEntity
  8
0
  6
Continuous
 62
     7
370
    25
100
AcDbSpline
210
0.0
220
0.0
230
1.0
 70
     8
 71
     3
 72
    14
 73
    10
 74
     0
 42
0.000000001
 43
0.00000001
 40
0.0
 40
0.0
 40
0.0
 40
0.0
 40
0.0170461716344673
 40
0.1999005445382367
 40
0.3827645998553897
 40
0.5656503468854647
 40
0.7485721913078426
 40
0.9315443414537957
 40
1.0
 40
1.0
 40
1.0
 40
1.0
 10
64.89808207958262
 20
194.0837518348153
 30
0.0
 10
64.85304712249953
 20
194.0850298893772
 30
0.0
 10
64.32492194359011
 20
194.100017641956
 30
0.0
 10
63.31130587799382
 20
194.0561019314888
 30
0.0
 10
61.8725300084626
 20
193.9464225151974
 30
0.0
 10
60.45708145818571
 20
193.7529401834758
 30
0.0
 10
59.07892642755343
 20
193.4857937305955
 30
0.0
 10
58.02204913150973
 20
193.2205860901138
 30
0.0
 10
57.43444906395763
 20
193.0393819430223
 30
0.0
 10
57.27446457459141
 20
192.9900459157746
 30
0.0
  0
SPLINE
  5
1FC
330
1F
100
AcDbEntity
  8
0
  6
Continuous
 62
     7
370
    25
100
AcDbSpline
210
0.0
220
0.0
230
1.0
 70
     8
 71
     3
 72
    10
 73
     6
 74
     0
 42
0.000000001
 43
0.00000001
 40
0.0
 40
0.0
 40
0.0
 40
0.0
 40
0.0956682876494607
 40
0.5699600885654021
 40
1.0
 40
1.0
 40
1.0
 40
1.0
 10
67.93484576943612
 20
193.8955800157471
 30
0.0
 10
67.83995503114761
 20
193.9087731509757
 30
0.0
 10
67.27462732509392
 20
193.9873734971112
 30
0.0
 10
66.25794455184362
 20
194.05928253247
 30
0.0
 10
65.33633715538792
 20
194.0758658932786
 30
0.0
 10
64.89808207958262
 20
194.0837518348153
 30
0.0
  0
SPLINE
  5
1FD
330
1F
100
AcDbEntity
  8
0
  6
Continuous
 62
     7
370
    25
100
AcDbSpline
210
0.0
220
0.0
230
1.0
 70
     8
 71
     3
 72
    14
 73
    10
 74
     0
 42
0.000000001
 43
0.00000001
 40
0.0
 40
0.0
 40
0.0
 40
0.0
 40
0.0833147151806602
 40
0.2414916204755643
 40
0.3996592231096461
 40
0.5577787782966328
 40
0.7158485196316461
 40
0.8738735007683898
 40
1.0
 40
1.0
 40
1.0
 40
1.0
 10
75.92901286892044
 20
191.4155390786889
 30
0.0
 10
75.74501242200523
 20
191.5186942709385
 30
0.0
 10
75.21167847256464
 20
191.8176944473518
 30
0.0
 10
74.26026493157559
 20
192.2684006091855
 30
0.0
 10
73.0561554288143
 20
192.7434013568868
 30
0.0
 10
71.7818455726819
 20
193.1517683945554
 30
0.0
 10
70.44869096096772
 20
193.4882692667187
 30
0.0
 10
69.1639053703231
 20
193.742494064757
 30
0.0
 10
68.31267980517461
 20
193.848518764498
 30
0.0
 10
67.93484576943612
 20
193.8955800157471
 30
0.0
  0
SPLINE
  5
1FE
330
1F
100
AcDbEntity
  8
0
  6
Continuous
 62
     7
370
    25
100
AcDbSpline
210
0.0
220
0.0
230
1.0
 70
     8
 71
     3
 72
    13
 73
     9
 74
     0
 42
0.000000001
 43
0.00000001
 40
0.0
 40
0.0
 40
0.0
 40
0.0
 40
0.0633717630289402
 40
0.2741285766516944
 40
0.4964162057066981
 40
0.7189231789687126
 40
0.933367585488196
 40
1.0
 40
1.0
 40
1.0
 40
1.0
 10
56.11239611684073
 20
192.6365931010327
 30
0.0
 10
55.99648991837662
 20
192.592987884457
 30
0.0
 10
55.49511202242721
 20
192.4043638761737
 30
0.0
 10
54.63077148458592
 20
192.0211351568189
 30
0.0
 10
53.56429839796243
 20
191.464061799587
 30
0.0
 10
52.58854452175962
 20
190.8449769296804
 30
0.0
 10
51.91336677911471
 20
190.3348444075334
 30
0.0
 10
51.57559409672291
 20
190.0381028454098
 30
0.0
 10
51.49552129206651
 20
189.9677569282412
 30
0.0
  0
LINE
  5
1FF
330
1F
100
AcDbEntity
  8
0
  6
Continuous
 62
     7
370
    25
100
AcDbLine
 10
74.41981721255314
 20
110.9159868406764
 30
0.0
 11
73.88940634255312
 21
110.6097871630764
 31
0.0
  0
LWPOLYLINE
  5
200
330
1F
100
AcDbEntity
  8
0
  6
Continuous
 62
     7
370
    25
100
AcDbPolyline
 90
       20
 70
   128
 43
0.0
 10
101.7173750567531
 20
180.0914147356764
 10
102.2106989203531
 20
180.1037148651764
 10
102.6703748433531
 20
180.2078196379763
 10
103.0465898069531
 20
180.3924476867764
 10
103.2985750821531
 20
180.6375916975764
 10
103.3990241545531
 20
180.9166865130763
 10
103.3370518084531
 20
181.1994878794764
 10
103.1193737091531
 20
181.4553498804763
 10
102.7695786564531
 20
181.6565458981763
 10
102.3255723717531
 20
181.7812732222764
 10
101.8354698255531
 20
181.8160157117763
 10
101.3523812335531
 20
181.7570084788763
 10
100.9286567404531
 20
181.6106458728763
 10
100.6102134698531
 20
181.3927885531764
 10
100.4315596914531
 20
181.1270447407763
 10
100.4120553139531
 20
180.8422119011763
 10
100.5538139395531
 20
180.5691560921763
 10
100.8414738214531
 20
180.3374671475763
 10
101.2438625479531
 20
180.1722521595763
 10
101.7173750567531
 20
180.0914147356764
  0
LINE
  5
201
330
1F
100
AcDbEntity
  8
0
  6
Continuous
 62
     7
370
    25
100
AcDbLine
 10
101.5919939767531
 20
180.4492770528764
 30
0.0
 11
101.9890119227531
 21
180.4211331635763
 31
0.0
  0
LINE
  5
202
330
1F
100
AcDbEntity
  8
0
  6
Continuous
 62
     7
370
    25
100
AcDbLine
 10
101.9890119227531
 20
180.4211331635763
 30
0.0
 11
102.0377638513531
 21
180.6503267452763
 31
0.0
  0
ARC
  5
203
330
1F
100
AcDbEntity
  8
0
  6
Continuous
 62
     7
370
    25
100
AcDbCircle
 10
102.3061302437531
 20
180.5013325202763
 30
0.0
 40
0.3069524386980229
100
AcDbArc
 50
77.59092529090297
 51
150.9614217061986
  0
LINE
  5
204
330
1F
100
AcDbEntity
  8
0
  6
Continuous
 62
     7
370
    25
100
AcDbLine
 10
102.3720912573531
 20
180.8011140145763
 30
0.0
 11
102.7691092033531
 21
180.7729701251764
 31
0.0
  0
LINE
  5
205
330
1F
100
AcDbEntity
  8
0
  6
Continuous
 62
     7
370
    25
100
AcDbLine
 10
102.7691092033531
 20
180.7729701251764
 30
0.0
 11
102.8178611319531
 21
181.0021637069763
 31
0.0
  0
LINE
  5
206
330
1F
100
AcDbEntity
  8
0
  6
Continuous
 62
     7
370
    25
100
AcDbLine
 10
102.8178611319531
 20
181.0021637069763
 30
0.0
 11
102.4208431859531
 21
181.0303075962763
 31
0.0
  0
LWPOLYLINE
  5
207
330
1F
100
AcDbEntity
  8
0
  6
Continuous
 62
     7
370
    25
100
AcDbPolyline
 90
        9
 70
   128
 43
0.0
 10
102.1596436729531
 20
181.2233106995764
 10
102.1582318422531
 20
181.1893700295764
 10
102.1683171501531
 20
181.1559225151763
 10
102.1895120239531
 20
181.1242535253764
 10
102.2210019565531
 20
181.0955800819764
 10
102.2615768074531
 20
181.0710040889764
 10
102.3096773079531
 20
181.0514699883764
 10
102.3634549827531
 20
181.0377284643764
 10
102.4208431859531
 20
181.0303075962763
  0
LINE
  5
208
330
1F
100
AcDbEntity
  8
0
  6
Continuous
 62
     7
370
    25
100
AcDbLine
 10
102.1596436729531
 20
181.2233106995764
 30
0.0
 11
102.2083956015531
 21
181.4525042812764
 31
0.0
  0
LINE
  5
209
330
1F
100
AcDbEntity
  8
0
  6
Continuous
 62
     7
370
    25
100
AcDbLine
 10
102.2083956015531
 20
181.4525042812764
 30
0.0
 11
101.8113776555531
 21
181.4806481705764
 31
0.0
  0
LINE
  5
20A
330
1F
100
AcDbEntity
  8
0
  6
Continuous
 62
     7
370
    25
100
AcDbLine
 10
101.8113776555531
 20
181.4806481705764
 30
0.0
 11
101.7626257269531
 21
181.2514545888764
 31
0.0
  0
ARC
  5
20B
330
1F
100
AcDbEntity
  8
0
  6
Continuous
 62
     7
370
    25
100
AcDbCircle
 10
101.4942593345531
 20
181.4004488138764
 30
0.0
 40
0.3069524386979648
100
AcDbArc
 50
257.5909252908029
 51
330.9614217061981
  0
LINE
  5
20C
330
1F
100
AcDbEntity
  8
0
  6
Continuous
 62
     7
370
    25
100
AcDbLine
 10
101.4282983209531
 20
181.1006673195764
 30
0.0
 11
101.0312803749531
 21
181.1288112089763
 31
0.0
  0
LINE
  5
20D
330
1F
100
AcDbEntity
  8
0
  6
Continuous
 62
     7
370
    25
100
AcDbLine
 10
101.0312803749531
 20
181.1288112089763
 30
0.0
 11
100.9825284463531
 21
180.8996176272763
 31
0.0
  0
LINE
  5
20E
330
1F
100
AcDbEntity
  8
0
  6
Continuous
 62
     7
370
    25
100
AcDbLine
 10
100.9825284463531
 20
180.8996176272763
 30
0.0
 11
101.3795463923531
 21
180.8714737378764
 31
0.0
  0
LWPOLYLINE
  5
20F
330
1F
100
AcDbEntity
  8
0
  6
Continuous
 62
     7
370
    25
100
AcDbPolyline
 90
        9
 70
   128
 43
0.0
 10
101.6407459053531
 20
180.6784706345763
 10
101.6421577360531
 20
180.7124113045764
 10
101.6320724281531
 20
180.7458588190763
 10
101.6108775543531
 20
180.7775278087763
 10
101.5793876217531
 20
180.8062012522764
 10
101.5388127708531
 20
180.8307772451764
 10
101.4907122703531
 20
180.8503113458763
 10
101.4369345955531
 20
180.8640528697763
 10
101.3795463923531
 20
180.8714737378764
  0
LINE
  5
210
330
1F
100
AcDbEntity
  8
0
  6
Continuous
 62
     7
370
    25
100
AcDbLine
 10
101.6407459053531
 20
180.6784706345763
 30
0.0
 11
101.5919939767531
 21
180.4492770528764
 31
0.0
  0
ARC
  5
211
330
1F
100
AcDbEntity
  8
0
  6
Continuous
 62
     7
370
    25
100
AcDbCircle
 10
101.5680178133531
 20
180.9688984140764
 30
0.0
 40
0.2084452127057363
100
AcDbArc
 50
284.2705240678955
 51
339.0057863210977
  0
LINE
  5
212
330
1F
100
AcDbEntity
  8
0
  6
Continuous
 62
     7
370
    25
100
AcDbLine
 10
101.8113776555531
 20
181.1234115653764
 30
0.0
 11
101.7626257269531
 21
180.8942179836764
 31
0.0
  0
LINE
  5
213
330
1F
100
AcDbEntity
  8
0
  6
Continuous
 62
     7
370
    25
100
AcDbLine
 10
102.1574071324531
 20
181.0988821570764
 30
0.0
 11
101.8113776555531
 21
181.1234115653764
 31
0.0
  0
ARC
  5
214
330
1F
100
AcDbEntity
  8
0
  6
Continuous
 62
     7
370
    25
100
AcDbCircle
 10
102.2704430286531
 20
180.8467866655764
 30
0.0
 40
0.1130505550698137
100
AcDbArc
 50
180.9226916243017
 51
217.6959831184914
  0
LINE
  5
215
330
1F
100
AcDbEntity
  8
0
  6
Continuous
 62
     7
370
    25
100
AcDbLine
 10
101.0312803749531
 20
180.8961616905763
 30
0.0
 11
101.0312803749531
 21
181.1288112089763
 31
0.0
  0
LINE
  5
216
330
1F
100
AcDbEntity
  8
0
  6
Continuous
 62
     7
370
    25
100
AcDbLine
 10
101.7626257269531
 20
181.2514545888764
 30
0.0
 11
101.7626257269531
 21
180.8942179836764
 31
0.0
  0
LINE
  5
217
330
1F
100
AcDbEntity
  8
0
  6
Continuous
 62
     7
370
    25
100
AcDbLine
 10
101.8113776555531
 20
181.1234115653764
 30
0.0
 11
101.8113776555531
 21
181.4806481705764
 31
0.0
  0
LWPOLYLINE
  5
218
330
1F
100
AcDbEntity
  8
0
  6
Continuous
 62
     7
370
    25
100
AcDbPolyline
 90
       20
 70
   128
 43
0.0
 10
120.1021513676531
 20
169.4781092819763
 10
120.5954752312531
 20
169.4904094114763
 10
121.0551511542531
 20
169.5945141842764
 10
121.4313661178531
 20
169.7791422330764
 10
121.6833513930531
 20
170.0242862438764
 10
121.7838004654531
 20
170.3033810593764
 10
121.7218281193531
 20
170.5861824257763
 10
121.5041500200531
 20
170.8420444267764
 10
121.1543549672531
 20
171.0432404444764
 10
120.7103486825531
 20
171.1679677685763
 10
120.2202461364531
 20
171.2027102580764
 10
119.7371575443531
 20
171.1437030251764
 10
119.3134330512531
 20
170.9973404191764
 10
118.9949897807531
 20
170.7794830994764
 10
118.8163360022531
 20
170.5137392870764
 10
118.7968316248531
 20
170.2289064474764
 10
118.9385902504531
 20
169.9558506384764
 10
119.2262501322531
 20
169.7241616938764
 10
119.6286388587531
 20
169.5589467058764
 10
120.1021513676531
 20
169.4781092819763
  0
LINE
  5
219
330
1F
100
AcDbEntity
  8
0
  6
Continuous
 62
     7
370
    25
100
AcDbLine
 10
119.9767702875531
 20
169.8359715991764
 30
0.0
 11
120.3737882335531
 21
169.8078277098764
 31
0.0
  0
LINE
  5
21A
330
1F
100
AcDbEntity
  8
0
  6
Continuous
 62
     7
370
    25
100
AcDbLine
 10
120.3737882335531
 20
169.8078277098764
 30
0.0
 11
120.4225401622531
 21
170.0370212915764
 31
0.0
  0
ARC
  5
21B
330
1F
100
AcDbEntity
  8
0
  6
Continuous
 62
     7
370
    25
100
AcDbCircle
 10
120.6909065545531
 20
169.8880270665763
 30
0.0
 40
0.3069524386979677
100
AcDbArc
 50
77.59092529090069
 51
150.9614217061981
  0
LINE
  5
21C
330
1F
100
AcDbEntity
  8
0
  6
Continuous
 62
     7
370
    25
100
AcDbLine
 10
120.7568675681531
 20
170.1878085608764
 30
0.0
 11
121.1538855142531
 21
170.1596646714763
 31
0.0
  0
LINE
  5
21D
330
1F
100
AcDbEntity
  8
0
  6
Continuous
 62
     7
370
    25
100
AcDbLine
 10
121.1538855142531
 20
170.1596646714763
 30
0.0
 11
121.2026374428531
 21
170.3888582532764
 31
0.0
  0
LINE
  5
21E
330
1F
100
AcDbEntity
  8
0
  6
Continuous
 62
     7
370
    25
100
AcDbLine
 10
121.2026374428531
 20
170.3888582532764
 30
0.0
 11
120.8056194968531
 21
170.4170021425764
 31
0.0
  0
LWPOLYLINE
  5
21F
330
1F
100
AcDbEntity
  8
0
  6
Continuous
 62
     7
370
    25
100
AcDbPolyline
 90
        9
 70
   128
 43
0.0
 10
120.5444199837531
 20
170.6100052458764
 10
120.5430081530531
 20
170.5760645758764
 10
120.5530934609531
 20
170.5426170614764
 10
120.5742883348531
 20
170.5109480717764
 10
120.6057782673531
 20
170.4822746282763
 10
120.6463531183531
 20
170.4576986353763
 10
120.6944536188531
 20
170.4381645346764
 10
120.7482312936531
 20
170.4244230106763
 10
120.8056194968531
 20
170.4170021425764
  0
LINE
  5
220
330
1F
100
AcDbEntity
  8
0
  6
Continuous
 62
     7
370
    25
100
AcDbLine
 10
120.5444199837531
 20
170.6100052458764
 30
0.0
 11
120.5931719124531
 21
170.8391988275764
 31
0.0
  0
LINE
  5
221
330
1F
100
AcDbEntity
  8
0
  6
Continuous
 62
     7
370
    25
100
AcDbLine
 10
120.5931719124531
 20
170.8391988275764
 30
0.0
 11
120.1961539664531
 21
170.8673427168764
 31
0.0
  0
LINE
  5
222
330
1F
100
AcDbEntity
  8
0
  6
Continuous
 62
     7
370
    25
100
AcDbLine
 10
120.1961539664531
 20
170.8673427168764
 30
0.0
 11
120.1474020377531
 21
170.6381491351763
 31
0.0
  0
ARC
  5
223
330
1F
100
AcDbEntity
  8
0
  6
Continuous
 62
     7
370
    25
100
AcDbCircle
 10
119.8790356454531
 20
170.7871433601763
 30
0.0
 40
0.306952438698067
100
AcDbArc
 50
257.5909252909052
 51
330.9614217062037
  0
LINE
  5
224
330
1F
100
AcDbEntity
  8
0
  6
Continuous
 62
     7
370
    25
100
AcDbLine
 10
119.8130746318531
 20
170.4873618659764
 30
0.0
 11
119.4160566857531
 21
170.5155057552764
 31
0.0
  0
LINE
  5
225
330
1F
100
AcDbEntity
  8
0
  6
Continuous
 62
     7
370
    25
100
AcDbLine
 10
119.4160566857531
 20
170.5155057552764
 30
0.0
 11
119.3673047571531
 21
170.2863121735764
 31
0.0
  0
LINE
  5
226
330
1F
100
AcDbEntity
  8
0
  6
Continuous
 62
     7
370
    25
100
AcDbLine
 10
119.3673047571531
 20
170.2863121735764
 30
0.0
 11
119.7643227031531
 21
170.2581682841763
 31
0.0
  0
LWPOLYLINE
  5
227
330
1F
100
AcDbEntity
  8
0
  6
Continuous
 62
     7
370
    25
100
AcDbPolyline
 90
        9
 70
   128
 43
0.0
 10
120.0255222161531
 20
170.0651651809764
 10
120.0269340469531
 20
170.0991058508764
 10
120.0168487389531
 20
170.1325533653764
 10
119.9956538651531
 20
170.1642223550764
 10
119.9641639325531
 20
170.1928957985764
 10
119.9235890816531
 20
170.2174717914764
 10
119.8754885811531
 20
170.2370058921763
 10
119.8217109063531
 20
170.2507474160764
 10
119.7643227031531
 20
170.2581682841763
  0
LINE
  5
228
330
1F
100
AcDbEntity
  8
0
  6
Continuous
 62
     7
370
    25
100
AcDbLine
 10
120.0255222161531
 20
170.0651651809764
 30
0.0
 11
119.9767702875531
 21
169.8359715991764
 31
0.0
  0
ARC
  5
229
330
1F
100
AcDbEntity
  8
0
  6
Continuous
 62
     7
370
    25
100
AcDbCircle
 10
119.9527941242531
 20
170.3555929603764
 30
0.0
 40
0.2084452127057643
100
AcDbArc
 50
284.2705240680053
 51
339.0057863211033
  0
LINE
  5
22A
330
1F
100
AcDbEntity
  8
0
  6
Continuous
 62
     7
370
    25
100
AcDbLine
 10
120.1961539664531
 20
170.5101061116764
 30
0.0
 11
120.1474020377531
 21
170.2809125299763
 31
0.0
  0
LINE
  5
22B
330
1F
100
AcDbEntity
  8
0
  6
Continuous
 62
     7
370
    25
100
AcDbLine
 10
120.5421834433531
 20
170.4855767033764
 30
0.0
 11
120.1961539664531
 21
170.5101061116764
 31
0.0
  0
ARC
  5
22C
330
1F
100
AcDbEntity
  8
0
  6
Continuous
 62
     7
370
    25
100
AcDbCircle
 10
120.6552193394531
 20
170.2334812118764
 30
0.0
 40
0.1130505550707245
100
AcDbArc
 50
180.9226916243951
 51
217.6959831182945
  0
LINE
  5
22D
330
1F
100
AcDbEntity
  8
0
  6
Continuous
 62
     7
370
    25
100
AcDbLine
 10
119.4160566857531
 20
170.2828562368763
 30
0.0
 11
119.4160566857531
 21
170.5155057552764
 31
0.0
  0
LINE
  5
22E
330
1F
100
AcDbEntity
  8
0
  6
Continuous
 62
     7
370
    25
100
AcDbLine
 10
120.1474020377531
 20
170.6381491351763
 30
0.0
 11
120.1474020377531
 21
170.2809125299763
 31
0.0
  0
LINE
  5
22F
330
1F
100
AcDbEntity
  8
0
  6
Continuous
 62
     7
370
    25
100
AcDbLine
 10
120.1961539664531
 20
170.5101061116764
 30
0.0
 11
120.1961539664531
 21
170.8673427168764
 31
0.0
  0
LWPOLYLINE
  5
230
330
1F
100
AcDbEntity
  8
0
  6
Continuous
 62
     7
370
    25
100
AcDbPolyline
 90
       37
 70
   128
 43
0.0
 10
117.1029905846531
 20
178.9914912936763
 10
117.8504715861531
 20
178.4980622025764
 10
118.4773579048531
 20
177.9515208713763
 10
118.9724627393531
 20
177.3616203430764
 10
119.3269509322531
 20
176.7388874065764
 10
119.5344966333531
 20
176.0944347459763
 10
119.5913961846531
 20
175.4397626340763
 10
119.4966342123531
 20
174.7865537104764
 10
119.2519017460531
 20
174.1464645036764
 10
118.8615660425531
 20
173.5309174207763
 10
118.3325926515531
 20
172.9508969141764
 10
117.6744211157531
 20
172.4167534633764
 10
116.8987965219531
 20
171.9380188710764
 10
116.0195599092531
 20
171.5232361673764
 10
115.0524012759531
 20
171.1798071593764
 10
114.0145795906531
 20
170.9138603458763
 10
112.9246148060531
 20
170.7301415540764
 10
111.8019573694531
 20
170.6319292502764
 10
110.6666411293531
 20
170.6209760351763
 10
109.5389258311531
 20
170.6974773693763
 10
108.4389355808531
 20
170.8600680845763
 10
107.3862997307531
 20
171.1058467455763
 10
106.3998025922531
 20
171.4304274265764
 10
105.4970482304531
 20
171.8280179774763
 10
104.6941463181531
 20
172.2915233854764
 10
104.0054246589531
 20
172.8126723855763
 10
103.4431735073531
 20
173.3821650615764
 10
103.0174262483531
 20
173.9898388031764
 10
102.7357803518531
 20
174.6248496580764
 10
102.6032617956531
 20
175.2758658424763
 10
102.6222353764531
 20
175.9312699571764
 10
102.7923625102531
 20
176.5793663001764
 10
103.1106072743531
 20
177.2085895769764
 10
103.5712905833531
 20
177.8077112832763
 10
104.1661915327531
 20
178.3660400778764
 10
104.8846941010531
 20
178.8736125703764
 10
105.0811986822531
 20
178.9909274100764
  0
LWPOLYLINE
  5
231
330
1F
100
AcDbEntity
  8
0
  6
Continuous
 62
     7
370
    25
100
AcDbPolyline
 90
       48
 70
   128
 43
0.0
 10
116.9969245674531
 20
179.0527418070764
 10
116.1572712910531
 20
179.4766384937764
 10
115.2272385310531
 20
179.8321459017764
 10
114.2234227441531
 20
180.1129199929763
 10
113.1637370468531
 20
180.3139503470763
 10
112.0670915555531
 20
180.4316495726763
 10
110.9530559349531
 20
180.4639173242764
 10
109.8415101772531
 20
180.4101777830764
 10
108.7522898426531
 20
180.2713899324764
 10
107.7048320938531
 20
180.0500304449764
 10
106.7178288393531
 20
179.7500494857763
 10
105.8088931754531
 20
179.3768002223763
 10
104.9942450806531
 20
178.9369432965763
 10
104.2884219694531
 20
178.4383279656764
 10
103.7040192720531
 20
177.8898520320764
 10
103.2514656685531
 20
177.3013030618764
 10
102.9388369884531
 20
176.6831837252764
 10
102.7717120982531
 20
176.0465243764764
 10
102.7530733453531
 20
175.4026862167763
 10
102.8832533387531
 20
174.7631585532764
 10
103.1599290135531
 20
174.1393537722764
 10
103.5781630856531
 20
173.5424036849764
 10
104.1304921581531
 20
172.9829608796763
 10
104.8070599056531
 20
172.4710086266764
 10
105.5957929606531
 20
172.0156827258764
 10
106.4826163632531
 20
171.6251084787764
 10
107.4517047286531
 20
171.3062556921764
 10
108.4857646520531
 20
171.0648143016764
 10
109.5663433096531
 20
170.9050928343763
 10
110.6741577496531
 20
170.8299415237763
 10
111.7894389972531
 20
170.8407014467764
 10
112.8922848319531
 20
170.9371805923764
 10
113.9630149439531
 20
171.1176572877764
 10
114.9825221289531
 20
171.3789109221763
 10
115.9326132569531
 20
171.7162794182763
 10
116.7963339293531
 20
172.1237424272764
 10
117.5582710304531
 20
172.5940287620764
 10
118.2048277743531
 20
173.1187461518764
 10
118.7244663407531
 20
173.6885310024764
 10
119.1079137672531
 20
174.2932154897763
 10
119.3483274252531
 20
174.9220090046764
 10
119.4414171274531
 20
175.5636907120764
 10
119.3855216858531
 20
176.2068097866764
 10
119.1816385559531
 20
176.8398897532764
 10
118.8334060370531
 20
177.4516332850764
 10
118.3470383467531
 20
178.0311238039764
 10
117.7312147278531
 20
178.5680202881763
 10
116.9969245674531
 20
179.0527418070764
  0
LINE
  5
232
330
1F
100
AcDbEntity
  8
0
  6
Continuous
 62
     7
370
    25
100
AcDbLine
 10
102.6016257094531
 20
174.7992429008764
 30
0.0
 11
102.5741617798531
 21
174.6933582048763
 31
0.0
  0
LINE
  5
233
330
1F
100
AcDbEntity
  8
0
  6
Continuous
 62
     7
370
    25
100
AcDbLine
 10
119.6162137901531
 20
174.6713163564764
 30
0.0
 11
119.5925829445531
 21
174.7660579559764
 31
0.0
  0
LWPOLYLINE
  5
234
330
1F
100
AcDbEntity
  8
0
  6
Continuous
 62
     7
370
    25
100
AcDbPolyline
 90
       18
 70
   128
 43
0.0
 10
99.60209775025311
 20
168.3985164227764
 10
98.54674775315311
 20
169.0696904914764
 10
97.60853483885313
 20
169.7965314720764
 10
96.79621884875314
 20
170.5722530462764
 10
96.11738415815313
 20
171.3896125106764
 10
95.57836886385314
 20
172.2409784002764
 10
95.1842056062531
 20
173.1184017409764
 10
94.93857458165314
 20
174.0136902675764
 10
94.84376918065311
 20
174.9184849122763
 10
94.9006745757531
 20
175.8243378513764
 10
95.1087594566531
 20
176.7227913798764
 10
95.46608099085313
 20
177.6054568793764
 10
95.96930296345312
 20
178.4640931398764
 10
96.61372692655311
 20
179.2906833059764
 10
97.3933360670531
 20
180.0775097280764
 10
98.30085138465313
 20
180.8172260197763
 10
99.32779965335311
 20
181.5029256493764
 10
99.6002306784531
 20
181.6640702270764
  0
LWPOLYLINE
  5
235
330
1F
100
AcDbEntity
  8
0
  6
Continuous
 62
     7
370
    25
100
AcDbPolyline
 90
       34
 70
   128
 43
0.0
 10
122.5849352106531
 20
181.6640702270764
 10
123.1247940306531
 20
181.3369241225764
 10
124.1227408619531
 20
180.6370993612763
 10
124.9990286194531
 20
179.8849397320764
 10
125.7454756406531
 20
179.0874679465764
 10
126.3551125507531
 20
178.2521297841764
 10
126.8222473341531
 20
177.3867245720764
 10
127.1425184792531
 20
176.4993323655764
 10
127.3129357007531
 20
175.5982385066764
 10
127.3319078588531
 20
174.6918562658764
 10
127.1992578156531
 20
173.7886482900764
 10
126.9162240889531
 20
172.8970475886763
 10
126.4854492882531
 20
172.0253787972763
 10
125.9109554419531
 20
171.1817804524763
 10
125.1981064442531
 20
170.3741290046763
 10
124.3535579740531
 20
169.6099652778763
 10
123.3851953530531
 20
168.8964240629764
 10
122.3020599220531
 20
168.2401675019763
 10
121.1142646247531
 20
167.6473228854763
 10
119.8328995858531
 20
167.1234254440764
 10
118.4699285653531
 20
166.6733666670764
 10
117.0380772565531
 20
166.3013486317764
 10
115.5507144692531
 20
166.0108447705763
 10
114.0217273090531
 20
165.8045674395763
 10
112.4653915171531
 20
165.6844425947764
 10
110.8962381815531
 20
165.6515918094763
 10
109.3289180640531
 20
165.7063218024764
 10
107.7780648103531
 20
165.8481215746764
 10
106.2581583194531
 20
166.0756671798763
 10
104.7833895486531
 20
166.3868340858764
 10
103.3675280167531
 20
166.7787170112763
 10
102.0237932412531
 20
167.2476570507764
 10
100.7647313117531
 20
167.7892758374764
 10
99.60209775025311
 20
168.3985164227764
  0
LWPOLYLINE
  5
236
330
1F
100
AcDbEntity
  8
0
  6
Continuous
 62
     7
370
    25
100
AcDbPolyline
 90
       65
 70
   128
 43
0.0
 10
100.1324278361531
 20
169.3170750735763
 10
101.2594870400531
 20
168.7273716815764
 10
102.4812443327531
 20
168.2042814928764
 10
103.7859335237531
 20
167.7528421517763
 10
105.1609897429531
 20
167.3774012659763
 10
106.5931704471531
 20
167.0815745364764
 10
108.0686829533531
 20
166.8682109363764
 10
109.5733172694531
 20
166.7393652737763
 10
111.0925829445531
 20
166.6962784028763
 10
112.6118486196531
 20
166.7393652737763
 10
114.1164829358531
 20
166.8682109363764
 10
115.5919954420531
 20
167.0815745364764
 10
117.0241761462531
 20
167.3774012659763
 10
118.3992323653531
 20
167.7528421517763
 10
119.7039215563531
 20
168.2042814928764
 10
120.9256788491531
 20
168.7273716815764
 10
122.0527380529531
 20
169.3170750735763
 10
123.0742449716531
 20
169.9677125027764
 10
123.9803619352531
 20
170.6730179750764
 10
124.7623625419531
 20
171.4261990130763
 10
125.4127156984531
 20
172.2200020718764
 10
125.9251581484531
 20
173.0467823938764
 10
126.2947547908531
 20
173.8985776326764
 10
126.5179462079531
 20
174.7671845345764
 10
126.5925829445531
 20
175.6442379402764
 10
126.5179462079531
 20
176.5212913458764
 10
126.2947547908531
 20
177.3898982477764
 10
125.9251581484531
 20
178.2416934865764
 10
125.4127156984531
 20
179.0684738086763
 10
124.7623625419531
 20
179.8622768673764
 10
123.9803619352531
 20
180.6154579054763
 10
123.0742449716531
 20
181.3207633776763
 10
122.0527380529531
 20
181.9714008068763
 10
120.9256788491531
 20
182.5611041988764
 10
119.7039215563531
 20
183.0841943876763
 10
118.3992323653531
 20
183.5356337287764
 10
117.0241761462531
 20
183.9110746144763
 10
115.5919954420531
 20
184.2069013439763
 10
114.1164829358531
 20
184.4202649440764
 10
112.6118486196531
 20
184.5491106066764
 10
111.0925829445531
 20
184.5921974775764
 10
109.5733172694531
 20
184.5491106066764
 10
108.0686829533531
 20
184.4202649440764
 10
106.5931704471531
 20
184.2069013439763
 10
105.1609897429531
 20
183.9110746144763
 10
103.7859335237531
 20
183.5356337287764
 10
102.4812443327531
 20
183.0841943876763
 10
101.2594870400531
 20
182.5611041988764
 10
100.1324278361531
 20
181.9714008068763
 10
99.11092091745314
 20
181.3207633776763
 10
98.20480395385312
 20
180.6154579054763
 10
97.42280334715309
 20
179.8622768673764
 10
96.7724501906531
 20
179.0684738086763
 10
96.26000774075311
 20
178.2416934865764
 10
95.89041109835313
 20
177.3898982477764
 10
95.66721968115314
 20
176.5212913458764
 10
95.5925829445531
 20
175.6442379402764
 10
95.66721968115314
 20
174.7671845345764
 10
95.89041109835313
 20
173.8985776326764
 10
96.26000774075311
 20
173.0467823938764
 10
96.7724501906531
 20
172.2200020718764
 10
97.42280334715309
 20
171.4261990130763
 10
98.20480395385312
 20
170.6730179750764
 10
99.11092091745314
 20
169.9677125027764
 10
100.1324278361531
 20
169.3170750735763
  0
LWPOLYLINE
  5
237
330
1F
100
AcDbEntity
  8
0
  6
Continuous
 62
     7
370
    25
100
AcDbPolyline
 90
       34
 70
   128
 43
0.0
 10
127.3425829445531
 20
174.6235619253764
 10
127.2844913133531
 20
173.8310564053764
 10
127.0764064324531
 20
172.9326028768764
 10
126.7190848982531
 20
172.0499373773764
 10
126.2158629256531
 20
171.1913011168764
 10
125.5714389626531
 20
170.3647109506764
 10
124.7918298220531
 20
169.5778845286763
 10
123.8843145044531
 20
168.8381682369763
 10
122.8573662358531
 20
168.1524686073764
 10
121.7205733554531
 20
167.5271878324764
 10
120.4845497921531
 20
166.9681639905764
 10
119.1608359649531
 20
166.4806165364764
 10
117.7617910331531
 20
166.0690975695763
 10
116.3004775023531
 20
165.7374493313764
 10
114.7905392632531
 20
165.4887683322764
 10
113.2460742024531
 20
165.3253764397764
 10
111.6815025738531
 20
165.2487991998763
 10
110.1114323614531
 20
165.2597515935764
 10
108.5505228876531
 20
165.3581313614764
 10
107.0133479437531
 20
165.5430199580763
 10
105.5142597178531
 20
165.8126911283763
 10
104.0672547929531
 20
166.1646270254764
 10
102.6858434641531
 20
166.5955417184764
 10
101.3829235968531
 20
167.1014118731763
 10
100.1706602027531
 20
167.6775143161763
 10
99.0603718584531
 20
168.3184701341764
 10
98.06242502725314
 20
169.0182948953764
 10
97.1861372696531
 20
169.7704545246764
 10
96.43969024855312
 20
170.5679263100764
 10
95.83005333845313
 20
171.4032644725764
 10
95.36291855505311
 20
172.2686696846764
 10
95.04264740995313
 20
173.1560618911764
 10
94.8722301884531
 20
174.0571557500764
 10
94.8425829445531
 20
174.6235619253764
  0
LWPOLYLINE
  5
238
330
1F
100
AcDbEntity
  8
0
  6
Continuous
 62
     7
370
    25
100
AcDbPolyline
 90
       21
 70
   128
 43
0.0
 10
100.7865016087531
 20
180.3079692790764
 10
101.1851597520531
 20
180.1407624565764
 10
101.6538105067531
 20
180.0528566277764
 10
102.1465790715531
 20
180.0528566277764
 10
102.6152298262531
 20
180.1407624565764
 10
103.0138879695531
 20
180.3079692790764
 10
103.3035300647531
 20
180.5381097264764
 10
103.4558039255531
 20
180.8086560483763
 10
103.4558039255531
 20
181.0931252857764
 10
103.3035300647531
 20
181.3636716076764
 10
103.0138879695531
 20
181.5938120551764
 10
102.6152298262531
 20
181.7610188776763
 10
102.1465790715531
 20
181.8489247063764
 10
101.6538105067531
 20
181.8489247063764
 10
101.1851597520531
 20
181.7610188776763
 10
100.7865016087531
 20
181.5938120551764
 10
100.4968595135531
 20
181.3636716076764
 10
100.3445856527531
 20
181.0931252857764
 10
100.3445856527531
 20
180.8086560483763
 10
100.4968595135531
 20
180.5381097264764
 10
100.7865016087531
 20
180.3079692790764
  0
LWPOLYLINE
  5
239
330
1F
100
AcDbEntity
  8
0
  6
Continuous
 62
     7
370
    25
100
AcDbPolyline
 90
       21
 70
   128
 43
0.0
 10
119.1712779196531
 20
169.6946638253764
 10
119.5699360629531
 20
169.5274570028764
 10
120.0385868175531
 20
169.4395511740763
 10
120.5313553824531
 20
169.4395511740763
 10
121.0000061370531
 20
169.5274570028764
 10
121.3986642803531
 20
169.6946638253764
 10
121.6883063755531
 20
169.9248042727764
 10
121.8405802364531
 20
170.1953505946763
 10
121.8405802364531
 20
170.4798198320763
 10
121.6883063755531
 20
170.7503661539764
 10
121.3986642803531
 20
170.9805066014763
 10
121.0000061370531
 20
171.1477134239763
 10
120.5313553824531
 20
171.2356192526763
 10
120.0385868175531
 20
171.2356192526763
 10
119.5699360629531
 20
171.1477134239763
 10
119.1712779196531
 20
170.9805066014763
 10
118.8816358244531
 20
170.7503661539764
 10
118.7293619635531
 20
170.4798198320763
 10
118.7293619635531
 20
170.1953505946763
 10
118.8816358244531
 20
169.9248042727764
 10
119.1712779196531
 20
169.6946638253764
  0
LWPOLYLINE
  5
23A
330
1F
100
AcDbEntity
  8
0
  6
Continuous
 62
     7
370
    25
100
AcDbPolyline
 90
       49
 70
   128
 43
0.0
 10
104.8700432701531
 20
172.0520422481763
 10
104.1110735500531
 20
172.5516496057764
 10
103.4715593912531
 20
173.1041720070764
 10
102.9624430584531
 20
173.7001556407764
 10
102.5924356732531
 20
174.3294030615764
 10
102.3678681644531
 20
174.9811476717763
 10
102.2925829445531
 20
175.6442379402764
 10
102.3678681644531
 20
176.3073282087764
 10
102.5924356732531
 20
176.9590728188764
 10
102.9624430584531
 20
177.5883202397764
 10
103.4715593912531
 20
178.1843038733764
 10
104.1110735500531
 20
178.7368262747763
 10
104.8700432701531
 20
179.2364336322763
 10
105.7354823692531
 20
179.6745775255764
 10
106.6925829445531
 20
180.0437611910764
 10
107.7249687397531
 20
180.3376677939764
 10
108.8149753476531
 20
180.5512685108764
 10
109.9439524530531
 20
180.6809085742763
 10
111.0925829445531
 20
180.7243698065764
 10
112.2412134361531
 20
180.6809085742763
 10
113.3701905414531
 20
180.5512685108764
 10
114.4601971493531
 20
180.3376677939764
 10
115.4925829445531
 20
180.0437611910764
 10
116.4496835198531
 20
179.6745775255764
 10
117.3151226190531
 20
179.2364336322763
 10
118.0740923391531
 20
178.7368262747763
 10
118.7136064978531
 20
178.1843038733764
 10
119.2227228306531
 20
177.5883202397764
 10
119.5927302159531
 20
176.9590728188764
 10
119.8172977246531
 20
176.3073282087764
 10
119.8925829445531
 20
175.6442379402764
 10
119.8172977246531
 20
174.9811476717763
 10
119.5927302159531
 20
174.3294030615764
 10
119.2227228306531
 20
173.7001556407764
 10
118.7136064978531
 20
173.1041720070764
 10
118.0740923391531
 20
172.5516496057764
 10
117.3151226190531
 20
172.0520422481763
 10
116.4496835198531
 20
171.6138983549764
 10
115.4925829445531
 20
171.2447146893764
 10
114.4601971493531
 20
170.9508080864763
 10
113.3701905414531
 20
170.7372073695764
 10
112.2412134361531
 20
170.6075673062764
 10
111.0925829445531
 20
170.5641060738764
 10
109.9439524530531
 20
170.6075673062764
 10
108.8149753476531
 20
170.7372073695764
 10
107.7249687397531
 20
170.9508080864763
 10
106.6925829445531
 20
171.2447146893764
 10
105.7354823692531
 20
171.6138983549764
 10
104.8700432701531
 20
172.0520422481763
  0
LWPOLYLINE
  5
23B
330
1F
100
AcDbEntity
  8
0
  6
Continuous
 62
     7
370
    25
100
AcDbPolyline
 90
       37
 70
   128
 43
0.0
 10
117.2626359740531
 20
172.0219958014764
 10
117.9550893380531
 20
172.4818830578764
 10
118.5837026873531
 20
173.0249874636764
 10
119.0841409007531
 20
173.6108122854764
 10
119.4478413419531
 20
174.2293338979763
 10
119.6685809954531
 20
174.8699692249764
 10
119.7425829445531
 20
175.5217568184763
 10
119.6685809954531
 20
176.1735444118763
 10
119.4478413419531
 20
176.8141797389763
 10
119.0841409007531
 20
177.4327013514764
 10
118.5837026873531
 20
178.0185261732763
 10
117.9550893380531
 20
178.5616305790764
 10
117.2090566018531
 20
179.0527219020763
 10
116.3583693054531
 20
179.4833974335764
 10
115.4175829445531
 20
179.8462881956764
 10
114.4027946345531
 20
180.1351850269764
 10
113.3313676847531
 20
180.3451448225763
 10
112.2216345072531
 20
180.4725751120764
 10
111.0925829445531
 20
180.5152955279763
 10
109.9635313818531
 20
180.4725751120764
 10
108.8537982044531
 20
180.3451448225763
 10
107.7823712546531
 20
180.1351850269764
 10
106.7675829445531
 20
179.8462881956764
 10
105.8267965836531
 20
179.4833974335764
 10
104.9761092873531
 20
179.0527219020763
 10
104.2300765510531
 20
178.5616305790764
 10
103.6014632018531
 20
178.0185261732763
 10
103.1010249883531
 20
177.4327013514764
 10
102.7373245471531
 20
176.8141797389763
 10
102.5165848936531
 20
176.1735444118763
 10
102.4425829445531
 20
175.5217568184763
 10
102.5165848936531
 20
174.8699692249764
 10
102.7373245471531
 20
174.2293338979763
 10
103.1010249883531
 20
173.6108122854764
 10
103.6014632018531
 20
173.0249874636764
 10
104.2300765510531
 20
172.4818830578764
 10
104.9225299151531
 20
172.0219958014764
  0
LINE
  5
23C
330
1F
100
AcDbEntity
  8
0
  6
Continuous
 62
     7
370
    25
100
AcDbLine
 10
119.5992058755531
 20
174.9165721095764
 30
0.0
 11
119.6430620923531
 21
174.7664565674764
 31
0.0
  0
LINE
  5
23D
330
1F
100
AcDbEntity
  8
0
  6
Continuous
 62
     7
370
    25
100
AcDbLine
 10
102.5427130806531
 20
174.7687516605764
 30
0.0
 11
102.5925829445531
 21
174.9370689398764
 31
0.0
  0
LINE
  5
23E
330
1F
100
AcDbEntity
  8
0
  6
Continuous
 62
     7
370
    25
100
AcDbLine
 10
99.88254414395311
 20
151.6207554835763
 30
0.0
 11
98.89816835855311
 21
85.92979504017634
 31
0.0
  0
SPLINE
  5
23F
330
1F
100
AcDbEntity
  8
0
  6
Continuous
 62
     7
370
    25
100
AcDbSpline
210
0.0
220
0.0
230
1.0
 70
     8
 71
     3
 72
    14
 73
    10
 74
     0
 42
0.000000001
 43
0.00000001
 40
0.0
 40
0.0
 40
0.0
 40
0.0
 40
0.1845913819903928
 40
0.3702871594941875
 40
0.5582528125811427
 40
0.7467427240229959
 40
0.8710655193110228
 40
0.9955043170406239
 40
1.0
 40
1.0
 40
1.0
 40
1.0
 10
97.4833900428294
 20
153.8088146843839
 30
0.0
 10
97.61093060982921
 20
153.6837972547164
 30
0.0
 10
97.86677480886704
 20
153.4330144260722
 30
0.0
 10
98.28592935973631
 20
153.0221454279703
 30
0.0
 10
98.73126233675384
 20
152.6021356471888
 30
0.0
 10
99.15051986997014
 20
152.226378267592
 30
0.0
 10
99.5321491578564
 20
151.9021560589211
 30
0.0
 10
99.76034527083073
 20
151.7171319448674
 30
0.0
 10
99.87842687858421
 20
151.6240027105098
 30
0.0
 10
99.88254414395004
 20
151.6207554836263
 30
0.0
  0
ARC
  5
240
330
1F
100
AcDbEntity
  8
0
  6
Continuous
 62
     7
370
    25
100
AcDbCircle
 10
101.5248618819531
 20
158.6733661280764
 30
0.0
 40
6.276245505287323
100
AcDbArc
 50
180.6131906014001
 51
221.7490072637001
  0
ARC
  5
241
330
1F
100
AcDbEntity
  8
0
  6
Continuous
 62
     7
370
    25
100
AcDbCircle
 10
121.8510116506531
 20
93.05864614167635
 30
0.0
 40
6.485852091012553
100
AcDbArc
 50
320.8068673044999
 51
0.2976422670001058
  0
ELLIPSE
  5
242
330
1F
100
AcDbEntity
  8
0
  6
Continuous
 62
     7
370
    25
100
AcDbEllipse
 10
111.2968475808531
 20
97.78633573557636
 30
0.0
 11
17.14322344956173
 21
-9.557250246872599
 31
0.0
210
0.0
220
0.0
230
1.0
 40
0.0152284264
 41
5.797651537793889
 42
5.861348424909793
  0
ELLIPSE
  5
243
330
1F
100
AcDbEntity
  8
0
  6
Continuous
 62
     7
370
    25
100
AcDbEllipse
 10
117.8562545049531
 20
-2.768642219923649
 30
0.0
 11
-13.89515380360377
 21
439.6041867531994
 31
0.0
210
0.0
220
0.0
230
1.0
 40
0.026585623
 41
4.922340881201388
 42
4.924917846388603
  0
ELLIPSE
  5
244
330
1F
100
AcDbEntity
  8
0
  6
Continuous
 62
     7
370
    25
100
AcDbEllipse
 10
110.9765168249531
 20
92.46957996667635
 30
0.0
 11
14.82021178990874
 21
12.54535726531404
 31
0.0
210
0.0
220
0.0
230
1.0
 40
0.7043230119999999
 41
5.274110852838406
 42
5.274219908541138
  0
ELLIPSE
  5
245
330
1F
100
AcDbEntity
  8
0
  6
Continuous
 62
     7
370
    25
100
AcDbEllipse
 10
117.7691887301531
 20
0.4742295719763518
 30
0.0
 11
-13.83913646961634
 21
434.143773981994
 31
0.0
210
0.0
220
0.0
230
1.0
 40
0.0269095157
 41
4.919981045072428
 42
4.92045803131696
  0
ELLIPSE
  5
246
330
1F
100
AcDbEntity
  8
0
  6
Continuous
 62
     7
370
    25
100
AcDbEllipse
 10
111.1892824004531
 20
97.04055711587637
 30
0.0
 11
17.09841078547851
 21
-4.96064370244895
 31
0.0
210
0.0
220
0.0
230
1.0
 40
0.291387156
 41
5.878944292086386
 42
5.87906217182802
  0
ELLIPSE
  5
247
330
1F
100
AcDbEntity
  8
0
  6
Continuous
 62
     7
370
    25
100
AcDbEllipse
 10
117.8562545049531
 20
-2.768642220023651
 30
0.0
 11
-13.89515380360461
 21
439.604186753409
 31
0.0
210
0.0
220
0.0
230
1.0
 40
0.026585623
 41
4.925386019409931
 42
4.934297036673835
  0
ELLIPSE
  5
248
330
1F
100
AcDbEntity
  8
0
  6
Continuous
 62
     7
370
    25
100
AcDbEllipse
 10
110.9771152589531
 20
96.63167735707634
 30
0.0
 11
14.74379914430949
 21
12.48067371340343
 31
0.0
210
0.0
220
0.0
230
1.0
 40
0.704323012
 41
5.264833524136451
 42
5.265036696364838
  0
ELLIPSE
  5
249
330
1F
100
AcDbEntity
  8
0
  6
Continuous
 62
     7
370
    25
100
AcDbEllipse
 10
117.7691887301531
 20
0.4742295719763518
 30
0.0
 11
-13.83913646961634
 21
434.143773981994
 31
0.0
210
0.0
220
0.0
230
1.0
 40
0.0269095157
 41
4.929464544319521
 42
4.92994555997705
  0
ELLIPSE
  5
24A
330
1F
100
AcDbEntity
  8
0
  6
Continuous
 62
     7
370
    25
100
AcDbEllipse
 10
111.1887984889531
 20
101.0573295009764
 30
0.0
 11
17.01284547399462
 21
-4.935819230228475
 31
0.0
210
0.0
220
0.0
230
1.0
 40
0.291387156
 41
5.869612427960506
 42
5.869827869231345
  0
ELLIPSE
  5
24B
330
1F
100
AcDbEntity
  8
0
  6
Continuous
 62
     7
370
    25
100
AcDbEllipse
 10
117.8562545051531
 20
-2.768642227623644
 30
0.0
 11
-13.89515380371609
 21
439.6041867649981
 31
0.0
210
0.0
220
0.0
230
1.0
 40
0.026585623
 41
4.934766257353242
 42
4.938787677421999
  0
SPLINE
  5
24C
330
1F
100
AcDbEntity
  8
0
  6
Continuous
 62
     7
370
    25
100
AcDbSpline
210
0.0
220
0.0
230
1.0
 70
     8
 71
     3
 72
    10
 73
     6
 74
     0
 42
0.000000001
 43
0.00000001
 40
0.0
 40
0.0
 40
0.0
 40
0.0
 40
0.4782393066553173
 40
0.9560310663585191
 40
1.0
 40
1.0
 40
1.0
 40
1.0
 10
126.1261229919641
 20
96.26911152340196
 30
0.0
 10
126.0825875800444
 20
96.67017812755745
 30
0.0
 10
125.9955574976092
 20
97.47193600884324
 30
0.0
 10
125.695190144397
 20
98.00721401939944
 30
0.0
 10
125.4644828104285
 20
98.15019160119186
 30
0.0
 10
125.4450410326417
 20
98.16224036585774
 30
0.0
  0
LINE
  5
24D
330
1F
100
AcDbEntity
  8
0
  6
Continuous
 62
     7
370
    25
100
AcDbLine
 10
125.3211744685531
 20
98.24177716437634
 30
0.0
 11
125.2251074795531
 21
98.30346338947635
 31
0.0
  0
ELLIPSE
  5
24E
330
1F
100
AcDbEntity
  8
0
  6
Continuous
 62
     7
370
    25
100
AcDbEllipse
 10
110.3065788060531
 20
90.07641179587637
 30
0.0
 11
11.25632189709808
 21
59.42712094256689
 31
0.0
210
0.0
220
0.0
230
1.0
 40
0.2206153688
 41
4.892634172694185
 42
4.892915820465195
  0
LINE
  5
24F
330
1F
100
AcDbEntity
  8
0
  6
Continuous
 62
     7
370
    25
100
AcDbLine
 10
125.2226510801531
 20
98.28687196517635
 30
0.0
 11
125.1051500911531
 21
98.33138516427636
 31
0.0
  0
ELLIPSE
  5
250
330
1F
100
AcDbEntity
  8
0
  6
Continuous
 62
     7
370
    25
100
AcDbEllipse
 10
110.9997432445531
 20
102.6860811315763
 30
0.0
 11
15.51920790006216
 21
9.80533720275716
 31
0.0
210
0.0
220
0.0
230
1.0
 40
0.7167542824
 41
5.262614806619642
 42
5.263612525769067
  0
SPLINE
  5
251
330
1F
100
AcDbEntity
  8
0
  6
Continuous
 62
     7
370
    25
100
AcDbSpline
210
0.0
220
0.0
230
1.0
 70
     8
 71
     3
 72
    24
 73
    20
 74
     0
 42
0.000000001
 43
0.00000001
 40
0.0
 40
0.0
 40
0.0
 40
0.0
 40
0.0599792776405431
 40
0.1203608403569948
 40
0.1820240861403982
 40
0.2441381416622368
 40
0.3041251618249358
 40
0.364541901169873
 40
0.4263323952086502
 40
0.4886048623664365
 40
0.547261843674562
 40
0.6063324207020379
 40
0.6666995004827186
 40
0.7275099154381551
 40
0.7860220412381786
 40
0.8449247764820439
 40
0.9050376516147066
 40
0.9655603843837962
 40
1.0
 40
1.0
 40
1.0
 40
1.0
 10
125.1146751432948
 20
98.34552936375374
 30
0.0
 10
125.0524212708217
 20
98.36231886575936
 30
0.0
 10
124.927495984938
 20
98.39601047809725
 30
0.0
 10
124.7184503430781
 20
98.41040768759567
 30
0.0
 10
124.492468524898
 20
98.39773186510735
 30
0.0
 10
124.2515933610786
 20
98.35518562648556
 30
0.0
 10
123.9987228347443
 20
98.28486021915904
 30
0.0
 10
123.7339978394049
 20
98.18747768076625
 30
0.0
 10
123.4548762011586
 20
98.06181397458815
 30
0.0
 10
123.1691249970089
 20
97.91114858391467
 30
0.0
 10
122.8807749109347
 20
97.73874620509406
 30
0.0
 10
122.5908912630351
 20
97.54624272221434
 30
0.0
 10
122.2950499462262
 20
97.33022947347047
 30
0.0
 10
122.0000770398915
 20
97.09492482854546
 30
0.0
 10
121.7099585891522
 20
96.84353193610926
 30
0.0
 10
121.4256445681886
 20
96.57693955741655
 30
0.0
 10
121.1455748105935
 20
96.29201371478047
 30
0.0
 10
120.9115173927293
 20
96.03444850730284
 30
0.0
 10
120.7744869725183
 20
95.87069195162655
 30
0.0
 10
120.7247906973098
 20
95.81130301561114
 30
0.0
  0
ELLIPSE
  5
252
330
1F
100
AcDbEntity
  8
0
  6
Continuous
 62
     7
370
    25
100
AcDbEllipse
 10
111.1854226445531
 20
102.7932715675764
 30
0.0
 11
16.97534488373327
 21
-4.791745922764363
 31
0.0
210
0.0
220
0.0
230
1.0
 40
0.300727483
 41
5.391388262632931
 42
5.392385981782331
  0
LINE
  5
253
330
1F
100
AcDbEntity
  8
0
  6
Continuous
 62
     7
370
    25
100
AcDbLine
 10
120.7388689675531
 20
95.81078472407634
 30
0.0
 11
120.5713367200531
 21
95.60172533997635
 31
0.0
  0
ELLIPSE
  5
254
330
1F
100
AcDbEntity
  8
0
  6
Continuous
 62
     7
370
    25
100
AcDbEllipse
 10
111.8785870830531
 20
90.98391285747635
 30
0.0
 11
-14.60836715604473
 21
45.39017257012053
 31
0.0
210
0.0
220
0.0
230
1.0
 40
0.2033404049
 41
4.748733102239996
 42
4.749014750011007
  0
SPLINE
  5
255
330
1F
100
AcDbEntity
  8
0
  6
Continuous
 62
     7
370
    25
100
AcDbSpline
210
0.0
220
0.0
230
1.0
 70
     8
 71
     3
 72
    11
 73
     7
 74
     0
 42
0.000000001
 43
0.00000001
 40
0.0
 40
0.0
 40
0.0
 40
0.0
 40
0.4208061426567765
 40
0.6290451859855994
 40
0.8436264658229545
 40
1.0
 40
1.0
 40
1.0
 40
1.0
 10
120.5671302221138
 20
95.61447035557384
 30
0.0
 10
120.2499521213784
 20
95.16012216901376
 30
0.0
 10
119.7758160830878
 20
94.48093640971734
 30
0.0
 10
119.3939701483721
 20
93.51173887693287
 30
0.0
 10
119.2258393825928
 20
92.84778918882125
 30
0.0
 10
119.199850241115
 20
92.43735195511354
 30
0.0
 10
119.1888946914103
 20
92.26433486956034
 30
0.0
  0
ELLIPSE
  5
256
330
1F
100
AcDbEntity
  8
0
  6
Continuous
 62
     7
370
    25
100
AcDbEllipse
 10
104.3289113840531
 20
-10.57781118842365
 30
0.0
 11
13.52864570282549
 21
455.4206894892378
 31
0.0
210
0.0
220
0.0
230
1.0
 40
0.0265897516
 41
4.936939905047934
 42
4.940961325116671
  0
ELLIPSE
  5
257
330
1F
100
AcDbEntity
  8
0
  6
Continuous
 62
     7
370
    25
100
AcDbEllipse
 10
110.9963674002531
 20
100.9462413980764
 30
0.0
 11
15.42690520785646
 21
10.21878812167566
 31
0.0
210
0.0
220
0.0
230
1.0
 40
0.7158837901
 41
4.767255472778825
 42
4.767470914049714
  0
ELLIPSE
  5
258
330
1F
100
AcDbEntity
  8
0
  6
Continuous
 62
     7
370
    25
100
AcDbEllipse
 10
104.4076588783531
 20
-7.239217426023643
 30
0.0
 11
13.48568972301553
 21
449.9029820729785
 31
0.0
210
0.0
220
0.0
230
1.0
 40
0.0268801833
 41
4.931663231615511
 42
4.932144247273039
  0
ELLIPSE
  5
259
330
1F
100
AcDbEntity
  8
0
  6
Continuous
 62
     7
370
    25
100
AcDbEllipse
 10
111.2080506301531
 20
96.76499350907636
 30
0.0
 11
17.11112669862405
 21
-5.742342548251743
 31
0.0
210
0.0
220
0.0
230
1.0
 40
0.2375365524
 41
5.272409958292145
 42
5.272613130520531
  0
ELLIPSE
  5
25A
330
1F
100
AcDbEntity
  8
0
  6
Continuous
 62
     7
370
    25
100
AcDbEllipse
 10
104.3289113842531
 20
-10.57781118082364
 30
0.0
 11
13.52864570270924
 21
455.4206894777579
 31
0.0
210
0.0
220
0.0
230
1.0
 40
0.0265897516
 41
4.927559667104934
 42
4.936470684368802
  0
ELLIPSE
  5
25B
330
1F
100
AcDbEntity
  8
0
  6
Continuous
 62
     7
370
    25
100
AcDbEllipse
 10
110.9958834886531
 20
96.92891030047636
 30
0.0
 11
15.50449410686593
 21
10.27018303911899
 31
0.0
210
0.0
220
0.0
230
1.0
 40
0.7158837901
 41
4.758021170182181
 42
4.758139049923855
  0
ELLIPSE
  5
25C
330
1F
100
AcDbEntity
  8
0
  6
Continuous
 62
     7
370
    25
100
AcDbEllipse
 10
104.4076588783531
 20
-7.239217426023643
 30
0.0
 11
13.48568972301553
 21
449.9029820729785
 31
0.0
210
0.0
220
0.0
230
1.0
 40
0.0268801833
 41
4.922179732368416
 42
4.922656718612949
  0
LINE
  5
25D
330
1F
100
AcDbEntity
  8
0
  6
Continuous
 62
     7
370
    25
100
AcDbLine
 10
119.0427672730531
 20
86.10119125507634
 30
0.0
 11
119.0444437779531
 21
86.10088812637636
 31
0.0
  0
ELLIPSE
  5
25E
330
1F
100
AcDbEntity
  8
0
  6
Continuous
 62
     7
370
    25
100
AcDbEllipse
 10
104.3289113842531
 20
-10.57781118082364
 30
0.0
 11
13.52864570271026
 21
455.4206894778255
 31
0.0
210
0.0
220
0.0
230
1.0
 40
0.0265897516
 41
4.924514528896687
 42
4.927091494083869
  0
ELLIPSE
  5
25F
330
1F
100
AcDbEntity
  8
0
  6
Continuous
 62
     7
370
    25
100
AcDbEllipse
 10
110.8883183082531
 20
97.55049680647636
 30
0.0
 11
12.23430614919676
 21
20.44688677269525
 31
0.0
210
0.0
220
0.0
230
1.0
 40
0.5873611199
 41
4.366439166925435
 42
4.430136054041249
  0
LWPOLYLINE
  5
260
330
1F
100
AcDbEntity
  8
0
  6
Continuous
 62
     7
370
    25
100
AcDbPolyline
 90
       13
 70
   128
 43
0.0
 10
98.89816835855311
 20
85.92979504017634
 10
100.1763902152531
 20
85.26221995417635
 10
101.5636651862531
 20
84.67164064977635
 10
103.0461343504531
 20
84.16395703317636
 10
104.6089877932531
 20
83.74424087977636
 10
106.2366125589531
 20
83.41668516757636
 10
107.9127486239531
 20
83.18456218857636
 10
109.6206513355531
 20
83.05019085857634
 10
111.3432586910531
 20
83.01491355167636
 10
113.0633617877531
 20
83.07908268917635
 10
114.7637767408531
 20
83.24205721937636
 10
116.4275163504531
 20
83.50220902157636
 10
118.0379598048531
 20
83.85693917077634
  0
LWPOLYLINE
  5
261
330
1F
100
AcDbEntity
  8
0
  6
Continuous
 62
     7
370
    25
100
AcDbPolyline
 90
        3
 70
   128
 43
0.0
 10
118.4953896449531
 20
160.5521199899763
 10
118.4835178244531
 20
161.3110833816764
 10
118.4060658378531
 20
166.2607618088764
  0
LINE
  5
262
330
1F
100
AcDbEntity
  8
0
  6
Continuous
 62
     7
370
    25
100
AcDbLine
 10
124.7865281964531
 20
97.45562818507636
 30
0.0
 11
124.5472204425531
 21
97.69078053377635
 31
0.0
  0
SPLINE
  5
263
330
1F
100
AcDbEntity
  8
0
  6
Continuous
 62
     7
370
    25
100
AcDbSpline
210
0.0
220
0.0
230
1.0
 70
     8
 71
     3
 72
     9
 73
     5
 74
     0
 42
0.000000001
 43
0.00000001
 40
0.0
 40
0.0
 40
0.0
 40
0.0
 40
0.5853970031603909
 40
1.0
 40
1.0
 40
1.0
 40
1.0
 10
124.9532895140982
 20
97.30478200545247
 30
0.0
 10
124.9318570944363
 20
97.57336009200284
 30
0.0
 10
124.8952453257628
 20
98.03215657558667
 30
0.0
 10
124.7194521971109
 20
98.26601780368685
 30
0.0
 10
124.646567839148
 20
98.36297736970175
 30
0.0
  0
LINE
  5
264
330
1F
100
AcDbEntity
  8
0
  6
Continuous
 62
     7
370
    25
100
AcDbLine
 10
118.4953896449531
 20
160.5521199899763
 30
0.0
 11
119.8472104749531
 21
159.7717304358763
 31
0.0
  0
LINE
  5
265
330
1F
100
AcDbEntity
  8
0
  6
Continuous
 62
     7
370
    25
100
AcDbLine
 10
119.7854928014531
 20
163.8903742575764
 30
0.0
 11
118.8939305826531
 21
166.3943974718763
 31
0.0
  0
LINE
  5
266
330
1F
100
AcDbEntity
  8
0
  6
Continuous
 62
     7
370
    25
100
AcDbLine
 10
119.8472104749531
 20
159.7717304358763
 30
0.0
 11
119.7854928014531
 21
163.8903742575764
 31
0.0
  0
LINE
  5
267
330
1F
100
AcDbEntity
  8
0
  6
Continuous
 62
     7
370
    25
100
AcDbLine
 10
119.8438479655531
 20
166.7191910775764
 30
0.0
 11
120.6693762779531
 21
164.4006293274764
 31
0.0
  0
LINE
  5
268
330
1F
100
AcDbEntity
  8
0
  6
Continuous
 62
     7
370
    25
100
AcDbLine
 10
120.6693762779531
 20
164.4006293274764
 30
0.0
 11
119.7854928014531
 21
163.8903742575764
 31
0.0
  0
ARC
  5
269
330
1F
100
AcDbEntity
  8
0
  6
Continuous
 62
     7
370
    25
100
AcDbCircle
 10
115.0944162230531
 20
175.1712513198763
 30
0.0
 40
13.92997770806361
100
AcDbArc
 50
293.7248799334
 51
310.7336801324
  0
LINE
  5
26A
330
1F
100
AcDbEntity
  8
0
  6
Continuous
 62
     7
370
    25
100
AcDbLine
 10
124.1184177969531
 20
169.0149473378764
 30
0.0
 11
124.1843388254531
 21
164.6157984148764
 31
0.0
  0
LINE
  5
26B
330
1F
100
AcDbEntity
  8
0
  6
Continuous
 62
     7
370
    25
100
AcDbLine
 10
119.8472104749531
 20
159.7717304358763
 30
0.0
 11
126.2111715056531
 21
163.4455669390763
 31
0.0
  0
LINE
  5
26C
330
1F
100
AcDbEntity
  8
0
  6
Continuous
 62
     7
370
    25
100
AcDbLine
 10
120.7156657079531
 20
161.3115680559764
 30
0.0
 11
125.3118597856531
 21
163.9648944193763
 31
0.0
  0
LINE
  5
26D
330
1F
100
AcDbEntity
  8
0
  6
Continuous
 62
     7
370
    25
100
AcDbLine
 10
125.2655703556531
 20
167.0539556909764
 30
0.0
 11
125.3118597856531
 21
163.9648944193763
 31
0.0
  0
LINE
  5
26E
330
1F
100
AcDbEntity
  8
0
  6
Continuous
 62
     7
370
    25
100
AcDbLine
 10
126.1494538321531
 20
167.5642107608764
 30
0.0
 11
125.2655703556531
 21
167.0539556909764
 31
0.0
  0
LINE
  5
26F
330
1F
100
AcDbEntity
  8
0
  6
Continuous
 62
     7
370
    25
100
AcDbLine
 10
126.2111715056531
 20
163.4455669390763
 30
0.0
 11
126.1494538321531
 21
167.5642107608764
 31
0.0
  0
LINE
  5
270
330
1F
100
AcDbEntity
  8
0
  6
Continuous
 62
     7
370
    25
100
AcDbLine
 10
120.6693762779531
 20
164.4006293274764
 30
0.0
 11
120.7156657079531
 21
161.3115680559764
 31
0.0
  0
LINE
  5
271
330
1F
100
AcDbEntity
  8
0
  6
Continuous
 62
     7
370
    25
100
AcDbLine
 10
125.3118597856531
 20
163.9648944193763
 30
0.0
 11
124.1843388254531
 21
164.6157984148764
 31
0.0
  0
LINE
  5
272
330
1F
100
AcDbEntity
  8
0
  6
Continuous
 62
     7
370
    25
100
AcDbLine
 10
125.2655703556531
 20
167.0539556909764
 30
0.0
 11
124.4673944090531
 21
169.2956961519764
 31
0.0
  0
LINE
  5
273
330
1F
100
AcDbEntity
  8
0
  6
Continuous
 62
     7
370
    25
100
AcDbLine
 10
125.2687097915531
 20
170.0378502633764
 30
0.0
 11
126.1494538321531
 21
167.5642107608764
 31
0.0
  0
LINE
  5
274
330
1F
100
AcDbEntity
  8
0
  6
Continuous
 62
     7
370
    25
100
AcDbLine
 10
80.21081499225312
 20
159.8579109148764
 30
0.0
 11
80.2571535746531
 21
162.9502523041764
 31
0.0
  0
LINE
  5
275
330
1F
100
AcDbEntity
  8
0
  6
Continuous
 62
     7
370
    25
100
AcDbLine
 10
99.88254414395311
 20
151.6207554835763
 30
0.0
 11
80.2571535746531
 21
162.9502523041764
 31
0.0
  0
LINE
  5
276
330
1F
100
AcDbEntity
  8
0
  6
Continuous
 62
     7
370
    25
100
AcDbLine
 10
80.1571031162531
 20
96.74878171587636
 30
0.0
 11
98.89816835855311
 21
85.92979504017634
 31
0.0
  0
LINE
  5
277
330
1F
100
AcDbEntity
  8
0
  6
Continuous
 62
     7
370
    25
100
AcDbLine
 10
79.44347214605313
 20
97.98395721067635
 30
0.0
 11
80.1571031162531
 21
96.74878171587636
 31
0.0
  0
LINE
  5
278
330
1F
100
AcDbEntity
  8
0
  6
Continuous
 62
     7
370
    25
100
AcDbLine
 10
79.44347214605313
 20
97.98395721067635
 30
0.0
 11
79.39043789095314
 21
105.1924161650764
 31
0.0
  0
ELLIPSE
  5
279
330
1F
100
AcDbEntity
  8
0
  6
Continuous
 62
     7
370
    25
100
AcDbEllipse
 10
75.8544985336531
 20
107.1251395220764
 30
0.0
 11
-2.43306420633951
 21
4.368532434545614
 31
0.0
210
0.0
220
0.0
230
1.0
 40
0.5873670492999999
 41
3.962240274180537
 42
7.051572707748682
  0
LINE
  5
27A
330
1F
100
AcDbEntity
  8
0
  6
Continuous
 62
     7
370
    25
100
AcDbLine
 10
72.32178394295312
 20
109.2730632302764
 30
0.0
 11
72.05547540325313
 21
102.2489569471764
 31
0.0
  0
LINE
  5
27B
330
1F
100
AcDbEntity
  8
0
  6
Continuous
 62
     7
370
    25
100
AcDbLine
 10
71.31738465025313
 20
101.8518425646764
 30
0.0
 11
72.05547540325313
 21
102.2489569471764
 31
0.0
  0
LINE
  5
27C
330
1F
100
AcDbEntity
  8
0
  6
Continuous
 62
     7
370
    25
100
AcDbLine
 10
52.57631941195311
 20
112.6708292380764
 30
0.0
 11
71.31738465025313
 21
101.8518425646764
 31
0.0
  0
LINE
  5
27D
330
1F
100
AcDbEntity
  8
0
  6
Continuous
 62
     7
370
    25
100
AcDbLine
 10
53.56069519745313
 20
178.3617896815764
 30
0.0
 11
52.57631941195311
 21
112.6708292380764
 31
0.0
  0
ARC
  5
27E
330
1F
100
AcDbEntity
  8
0
  6
Continuous
 62
     7
370
    25
100
AcDbCircle
 10
97.16310047815313
 20
153.8381420417764
 30
0.0
 40
0.3216294438507038
100
AcDbArc
 50
289.1665719196012
 51
354.7682928201995
  0
SPLINE
  5
27F
330
1F
100
AcDbEntity
  8
0
  6
Continuous
 62
     7
370
    25
100
AcDbSpline
210
0.0
220
0.0
230
1.0
 70
     8
 71
     3
 72
    11
 73
     7
 74
     0
 42
0.000000001
 43
0.00000001
 40
0.0
 40
0.0
 40
0.0
 40
0.0
 40
0.3722441691282471
 40
0.7460867566289593
 40
0.9954707999249173
 40
1.0
 40
1.0
 40
1.0
 40
1.0
 10
97.26869644621331
 20
153.5343411354619
 30
0.0
 10
97.57552681383754
 20
153.3023893709152
 30
0.0
 10
98.1905050802589
 20
152.8374898397541
 30
0.0
 10
99.06852409072792
 20
152.1862500441217
 30
0.0
 10
99.64234594222484
 20
151.7843713918157
 30
0.0
 10
99.8783346739466
 20
151.6236228500456
 30
0.0
 10
99.88254414395004
 20
151.6207554836263
 30
0.0
  0
LINE
  5
280
330
1F
100
AcDbEntity
  8
0
  6
Continuous
 62
     7
370
    25
100
AcDbLine
 10
80.43390334595313
 20
163.2528603277763
 30
0.0
 11
97.2686964462531
 21
153.5343411354764
 31
0.0
  0
ARC
  5
281
330
1F
100
AcDbEntity
  8
0
  6
Continuous
 62
     7
370
    25
100
AcDbCircle
 10
80.64172435075312
 20
162.9285517957763
 30
0.0
 40
0.3851825462243998
100
AcDbArc
 50
122.6522619102982
 51
176.770346352598
  0
LINE
  5
282
330
1F
100
AcDbEntity
  8
0
  6
Continuous
 62
     7
370
    25
100
AcDbLine
 10
73.18911755945311
 20
166.2141054949764
 30
0.0
 11
72.30523408295312
 21
166.7243605647764
 31
0.0
  0
LINE
  5
283
330
1F
100
AcDbEntity
  8
0
  6
Continuous
 62
     7
370
    25
100
AcDbLine
 10
73.36283553415313
 20
167.3349008868764
 30
0.0
 11
72.30523408295312
 21
166.7243605647764
 31
0.0
  0
LINE
  5
284
330
1F
100
AcDbEntity
  8
0
  6
Continuous
 62
     7
370
    25
100
AcDbLine
 10
53.73744496875312
 20
178.6643977050764
 30
0.0
 11
73.36283553415313
 21
167.3349008868764
 31
0.0
  0
LWPOLYLINE
  5
285
330
1F
100
AcDbEntity
  8
0
  6
Continuous
 62
     7
370
    25
100
AcDbPolyline
 90
       14
 70
   128
 43
0.0
 10
51.02426263825311
 20
189.2956123829764
 10
50.36593373795313
 20
188.4959982946764
 10
49.84675935995313
 20
187.6629381786763
 10
49.47175487815312
 20
186.8044796358763
 10
49.24454294415312
 20
185.9289156230763
 10
49.16731849065312
 20
185.0447043410764
 10
49.24082752805313
 20
184.1603875257764
 10
49.46435993785312
 20
183.2845079322763
 10
49.83575633265312
 20
182.4255268100763
 10
50.35142891625313
 20
181.5917421642764
 10
51.00639614275312
 20
180.7912085949764
 10
51.79433084005311
 20
180.0316594870764
 10
52.70762133185312
 20
179.3204323038763
 10
53.73744496875312
 20
178.6643977050764
  0
LINE
  5
286
330
1F
100
AcDbEntity
  8
0
  6
Continuous
 62
     7
370
    25
100
AcDbLine
 10
49.49786300235311
 20
190.1767841364764
 30
0.0
 11
51.02426263825311
 21
189.2956123829764
 31
0.0
  0
LINE
  5
287
330
1F
100
AcDbEntity
  8
0
  6
Continuous
 62
     7
370
    25
100
AcDbLine
 10
50.38174647875312
 20
190.6870392063763
 30
0.0
 11
49.49786300235311
 21
190.1767841364764
 31
0.0
  0
LINE
  5
288
330
1F
100
AcDbEntity
  8
0
  6
Continuous
 62
     7
370
    25
100
AcDbLine
 10
51.63086646635313
 20
189.9659375865764
 30
0.0
 11
50.38174647875312
 21
190.6870392063763
 31
0.0
  0
SPLINE
  5
289
330
1F
100
AcDbEntity
  8
0
  6
Continuous
 62
     7
370
    25
100
AcDbSpline
210
0.0
220
0.0
230
1.0
 70
     8
 71
     3
 72
    11
 73
     7
 74
     0
 42
0.000000001
 43
0.00000001
 40
0.0
 40
0.0
 40
0.0
 40
0.0
 40
0.1128542513408057
 40
0.3654917547304887
 40
0.6181292580782861
 40
1.0
 40
1.0
 40
1.0
 40
1.0
 10
56.22706054409852
 20
192.6192639500451
 30
0.0
 10
56.02258709075772
 20
192.5401010902711
 30
0.0
 10
55.36037578396642
 20
192.2837228662825
 30
0.0
 10
54.31186675844631
 20
191.7922225100554
 30
0.0
 10
52.92401338913703
 20
191.0090673364171
 30
0.0
 10
52.11672359352841
 20
190.3578590416053
 30
0.0
 10
51.63086646638592
 20
189.9659375866213
 30
0.0
  0
LINE
  5
28A
330
1F
100
AcDbEntity
  8
0
  6
Continuous
 62
     7
370
    25
100
AcDbLine
 10
54.97794055655311
 20
193.3403655697764
 30
0.0
 11
56.22706054405313
 21
192.6192639500764
 31
0.0
  0
LINE
  5
28B
330
1F
100
AcDbEntity
  8
0
  6
Continuous
 62
     7
370
    25
100
AcDbLine
 10
55.86182403295311
 20
193.8506206396764
 30
0.0
 11
54.97794055655311
 21
193.3403655697764
 31
0.0
  0
LINE
  5
28C
330
1F
100
AcDbEntity
  8
0
  6
Continuous
 62
     7
370
    25
100
AcDbLine
 10
57.38822366885313
 20
192.9694488861764
 30
0.0
 11
55.86182403295311
 21
193.8506206396764
 31
0.0
  0
LWPOLYLINE
  5
28D
330
1F
100
AcDbEntity
  8
0
  6
Continuous
 62
     7
370
    25
100
AcDbPolyline
 90
       14
 70
   128
 43
0.0
 10
75.80402302735314
 20
191.4031620660764
 10
74.66761463845313
 20
191.9976665972764
 10
73.43559953005314
 20
192.5248979757763
 10
72.11987932335313
 20
192.9797629944764
 10
70.7331642546531
 20
193.3578675261764
 10
69.28885039115312
 20
193.6555589720764
 10
67.80089022115311
 20
193.8699615470764
 10
66.28365786865311
 20
193.9990040605764
 10
64.75181023555311
 20
194.0414399245763
 10
63.22014541145313
 20
193.9968591964764
 10
61.70345972005313
 20
193.8656925389763
 10
60.21640478215312
 20
193.6492070596763
 10
58.77334597715313
 20
193.3494940707763
 10
57.38822366885313
 20
192.9694488861764
  0
LINE
  5
28E
330
1F
100
AcDbEntity
  8
0
  6
Continuous
 62
     7
370
    25
100
AcDbLine
 10
95.42941359265313
 20
180.0736652477763
 30
0.0
 11
75.80402302735314
 21
191.4031620660764
 31
0.0
  0
LINE
  5
28F
330
1F
100
AcDbEntity
  8
0
  6
Continuous
 62
     7
370
    25
100
AcDbLine
 10
95.42941359265313
 20
180.0736652477763
 30
0.0
 11
96.4870150437531
 21
180.6842055698764
 31
0.0
  0
LINE
  5
290
330
1F
100
AcDbEntity
  8
0
  6
Continuous
 62
     7
370
    25
100
AcDbLine
 10
97.37089852025309
 20
180.1739504999763
 30
0.0
 11
96.4870150437531
 21
180.6842055698764
 31
0.0
  0
LINE
  5
291
330
1F
100
AcDbEntity
  8
0
  6
Continuous
 62
     7
370
    25
100
AcDbLine
 10
96.31329706915312
 20
179.5634101779764
 30
0.0
 11
97.37089852025309
 21
180.1739504999763
 31
0.0
  0
LINE
  5
292
330
1F
100
AcDbEntity
  8
0
  6
Continuous
 62
     7
370
    25
100
AcDbLine
 10
80.43390334595313
 20
163.2528603277763
 30
0.0
 11
79.3763018948531
 21
162.6423200056764
 31
0.0
  0
LINE
  5
293
330
1F
100
AcDbEntity
  8
0
  6
Continuous
 62
     7
370
    25
100
AcDbLine
 10
79.3763018948531
 20
162.6423200056764
 30
0.0
 11
78.49241841835311
 21
163.1525750755764
 31
0.0
  0
LINE
  5
294
330
1F
100
AcDbEntity
  8
0
  6
Continuous
 62
     7
370
    25
100
AcDbLine
 10
79.55001986945314
 20
163.7631153975763
 30
0.0
 11
78.49241841835311
 21
163.1525750755764
 31
0.0
  0
LINE
  5
295
330
1F
100
AcDbEntity
  8
0
  6
Continuous
 62
     7
370
    25
100
AcDbLine
 10
74.24671901055314
 20
166.8246458169764
 30
0.0
 11
79.55001986945314
 21
163.7631153975763
 31
0.0
  0
LINE
  5
296
330
1F
100
AcDbEntity
  8
0
  6
Continuous
 62
     7
370
    25
100
AcDbLine
 10
74.24671901055314
 20
166.8246458169764
 30
0.0
 11
73.18911755945311
 21
166.2141054949764
 31
0.0
  0
LINE
  5
297
330
1F
100
AcDbEntity
  8
0
  6
Continuous
 62
     7
370
    25
100
AcDbLine
 10
79.32693151575313
 20
159.3476558449763
 30
0.0
 11
80.21081499225312
 21
159.8579109148764
 31
0.0
  0
LINE
  5
298
330
1F
100
AcDbEntity
  8
0
  6
Continuous
 62
     7
370
    25
100
AcDbLine
 10
79.3763018948531
 20
162.6423200056764
 30
0.0
 11
79.32693151575313
 21
159.3476558449763
 31
0.0
  0
LINE
  5
299
330
1F
100
AcDbEntity
  8
0
  6
Continuous
 62
     7
370
    25
100
AcDbLine
 10
79.32693151575313
 20
159.3476558449763
 30
0.0
 11
72.2558637038531
 21
163.4296964040764
 31
0.0
  0
LINE
  5
29A
330
1F
100
AcDbEntity
  8
0
  6
Continuous
 62
     7
370
    25
100
AcDbLine
 10
72.30523408295312
 20
166.7243605647764
 30
0.0
 11
72.2558637038531
 21
163.4296964040764
 31
0.0
  0
LINE
  5
29B
330
1F
100
AcDbEntity
  8
0
  6
Continuous
 62
     7
370
    25
100
AcDbLine
 10
73.18911755945311
 20
166.2141054949764
 30
0.0
 11
73.15517542385311
 21
163.9490238843763
 31
0.0
  0
LINE
  5
29C
330
1F
100
AcDbEntity
  8
0
  6
Continuous
 62
     7
370
    25
100
AcDbLine
 10
78.45847628275311
 20
160.8874934650763
 30
0.0
 11
73.15517542385311
 21
163.9490238843763
 31
0.0
  0
LINE
  5
29D
330
1F
100
AcDbEntity
  8
0
  6
Continuous
 62
     7
370
    25
100
AcDbLine
 10
78.49241841835311
 20
163.1525750755764
 30
0.0
 11
78.45847628275311
 21
160.8874934650763
 31
0.0
  0
ARC
  5
29E
330
1F
100
AcDbEntity
  8
0
  6
Continuous
 62
     7
370
    25
100
AcDbCircle
 10
74.45454001535313
 20
166.5003372849764
 30
0.0
 40
0.3851825462242843
100
AcDbArc
 50
122.6522619103002
 51
176.7703463526013
  0
LINE
  5
29F
330
1F
100
AcDbEntity
  8
0
  6
Continuous
 62
     7
370
    25
100
AcDbLine
 10
78.4736374231531
 20
161.8992512647764
 30
0.0
 11
74.0390589003531
 21
164.4592789542764
 31
0.0
  0
LINE
  5
2A0
330
1F
100
AcDbEntity
  8
0
  6
Continuous
 62
     7
370
    25
100
AcDbLine
 10
74.0390589003531
 20
164.4592789542764
 30
0.0
 11
74.06996923925311
 21
166.5220377933763
 31
0.0
  0
LINE
  5
2A1
330
1F
100
AcDbEntity
  8
0
  6
Continuous
 62
     7
370
    25
100
AcDbLine
 10
73.15517542385311
 20
163.9490238843763
 30
0.0
 11
74.0390589003531
 21
164.4592789542764
 31
0.0
  0
ARC
  5
2A2
330
1F
100
AcDbEntity
  8
0
  6
Continuous
 62
     7
370
    25
100
AcDbCircle
 10
53.94526597355312
 20
178.3400891731764
 30
0.0
 40
0.3851825462243232
100
AcDbArc
 50
122.6522619103015
 51
176.7703463526015
  0
ARC
  5
2A3
330
1F
100
AcDbEntity
  8
0
  6
Continuous
 62
     7
370
    25
100
AcDbCircle
 10
96.38588009585311
 20
179.4677234747764
 30
0.0
 40
0.1201009613881305
100
AcDbArc
 50
64.12836919559113
 51
127.1820892335938
  0
SPLINE
  5
2A4
330
1F
100
AcDbEntity
  8
0
  6
Continuous
 62
     7
370
    25
100
AcDbSpline
210
0.0
220
0.0
230
1.0
 70
     8
 71
     3
 72
    16
 73
    12
 74
     0
 42
0.000000001
 43
0.00000001
 40
0.0
 40
0.0
 40
0.0
 40
0.0
 40
0.1417456400975739
 40
0.283389508179775
 40
0.4276289443490314
 40
0.5734894395193493
 40
0.7164508646567408
 40
0.785787677081705
 40
0.8551191990532873
 40
0.9244445144032009
 40
1.0
 40
1.0
 40
1.0
 40
1.0
 10
119.5386628716342
 20
92.76921016146736
 30
0.0
 10
119.5755858060428
 20
93.14000927379936
 30
0.0
 10
119.6494051645458
 20
93.88134126824306
 30
0.0
 10
120.2136837766343
 20
95.04015748481896
 30
0.0
 10
121.0150226604349
 20
96.10306714159935
 30
0.0
 10
121.9685102304773
 20
96.98101060731744
 30
0.0
 10
122.7622868700823
 20
97.47436896189396
 30
0.0
 10
123.3318817601878
 20
97.69643340399077
 30
0.0
 10
123.715261904086
 20
97.77020617476157
 30
0.0
 10
124.0802512295646
 20
97.78042887695557
 30
0.0
 10
124.2583199172575
 20
97.65860463131546
 30
0.0
 10
124.3511829196725
 20
97.59507316284856
 30
0.0
  0
ELLIPSE
  5
2A5
330
1F
100
AcDbEntity
  8
0
  6
Continuous
 62
     7
370
    25
100
AcDbEllipse
 10
104.4374390980531
 20
-30.23559300922364
 30
0.0
 11
13.30768842304275
 21
447.8297897385506
 31
0.0
210
0.0
220
0.0
230
1.0
 40
0.0265637472
 41
4.972799640361816
 42
4.991423338440494
  0
LINE
  5
2A6
330
1F
100
AcDbEntity
  8
0
  6
Continuous
 62
     7
370
    25
100
AcDbLine
 10
119.3588223457531
 20
84.72886796187635
 30
0.0
 11
119.3575935274531
 21
84.72845721177634
 31
0.0
  0
ELLIPSE
  5
2A7
330
1F
100
AcDbEntity
  8
0
  6
Continuous
 62
     7
370
    25
100
AcDbEllipse
 10
104.4471343234531
 20
-29.75687964542364
 30
0.0
 11
13.29217705630646
 21
447.4603424963707
 31
0.0
210
0.0
220
0.0
230
1.0
 40
0.0265897516
 41
4.971911663792118
 42
4.975463241672101
  0
ELLIPSE
  5
2A8
330
1F
100
AcDbEntity
  8
0
  6
Continuous
 62
     7
370
    25
100
AcDbEllipse
 10
111.2036028782531
 20
92.60384970407637
 30
0.0
 11
16.45201548996477
 21
-5.52115066508867
 31
0.0
210
0.0
220
0.0
230
1.0
 40
0.2375365524
 41
5.285467834257402
 42
5.311103081265647
  0
ELLIPSE
  5
2A9
330
1F
100
AcDbEntity
  8
0
  6
Continuous
 62
     7
370
    25
100
AcDbEllipse
 10
111.0001108562531
 20
96.93357950977637
 30
0.0
 11
14.82669094741931
 21
9.821205957762457
 31
0.0
210
0.0
220
0.0
230
1.0
 40
0.7158837901
 41
4.783403114259092
 42
4.808104252690415
  0
ELLIPSE
  5
2AA
330
1F
100
AcDbEntity
  8
0
  6
Continuous
 62
     7
370
    25
100
AcDbEllipse
 10
104.4471343234531
 20
-29.75687964532364
 30
0.0
 11
13.29217705630145
 21
447.4603424960398
 31
0.0
210
0.0
220
0.0
230
1.0
 40
0.0265897516
 41
4.977876464858635
 42
4.98513229875034
  0
ELLIPSE
  5
2AB
330
1F
100
AcDbEntity
  8
0
  6
Continuous
 62
     7
370
    25
100
AcDbEllipse
 10
111.2030044442531
 20
96.76525615717637
 30
0.0
 11
16.36333370262963
 21
-5.49138984280961
 31
0.0
210
0.0
220
0.0
230
1.0
 40
0.2375365524
 41
5.295447934836434
 42
5.320828558830274
  0
ELLIPSE
  5
2AC
330
1F
100
AcDbEntity
  8
0
  6
Continuous
 62
     7
370
    25
100
AcDbEllipse
 10
111.0005947678531
 20
100.9509106073764
 30
0.0
 11
14.74910204840984
 21
9.769811040319155
 31
0.0
210
0.0
220
0.0
230
1.0
 40
0.7158837901
 41
4.793328202229649
 42
4.81789205644088
  0
ELLIPSE
  5
2AD
330
1F
100
AcDbEntity
  8
0
  6
Continuous
 62
     7
370
    25
100
AcDbEllipse
 10
104.4471343232531
 20
-29.75687965562364
 30
0.0
 11
13.29217705646181
 21
447.4603425111541
 31
0.0
210
0.0
220
0.0
230
1.0
 40
0.0265897516
 41
4.987552330423295
 42
4.990732832249228
  0
SPLINE
  5
2AE
330
1F
100
AcDbEntity
  8
0
  6
Continuous
 62
     7
370
    25
100
AcDbSpline
210
0.0
220
0.0
230
1.0
 70
     8
 71
     3
 72
     9
 73
     5
 74
     0
 42
0.000000001
 43
0.00000001
 40
0.0
 40
0.0
 40
0.0
 40
0.0
 40
0.5029362480993058
 40
1.0
 40
1.0
 40
1.0
 40
1.0
 10
120.2978184102152
 20
95.10308262703487
 30
0.0
 10
120.0862443691982
 20
94.72480880571126
 30
0.0
 10
119.6655667150888
 20
93.97267804807916
 30
0.0
 10
119.5812059402315
 20
93.22216443892265
 30
0.0
 10
119.5392732569676
 20
92.84911132850286
 30
0.0
  0
SPLINE
  5
2AF
330
1F
100
AcDbEntity
  8
0
  6
Continuous
 62
     7
370
    25
100
AcDbSpline
210
0.0
220
0.0
230
1.0
 70
     8
 71
     3
 72
    11
 73
     7
 74
     0
 42
0.000000001
 43
0.00000001
 40
0.0
 40
0.0
 40
0.0
 40
0.0
 40
0.3026653084814295
 40
0.6055336789125657
 40
0.9048962553103692
 40
1.0
 40
1.0
 40
1.0
 40
1.0
 10
123.9495704514886
 20
97.76727494829376
 30
0.0
 10
123.7003071760628
 20
97.74757643803926
 30
0.0
 10
123.2016133913549
 20
97.70816620155284
 30
0.0
 10
122.2720538316919
 20
97.19644221614016
 30
0.0
 10
121.5379230604052
 20
96.60226963586015
 30
0.0
 10
121.1550490448884
 20
96.19816965412664
 30
0.0
 10
121.0627401437897
 20
96.10074328478316
 30
0.0
  0
ELLIPSE
  5
2B0
330
1F
100
AcDbEntity
  8
0
  6
Continuous
 62
     7
370
    25
100
AcDbEllipse
 10
111.0038311676531
 20
102.6905252358764
 30
0.0
 11
14.83586522466186
 21
9.373588018102739
 31
0.0
210
0.0
220
0.0
230
1.0
 40
0.7167542823999999
 41
5.205982242107153
 42
5.251007911759558
  0
ELLIPSE
  5
2B1
330
1F
100
AcDbEntity
  8
0
  6
Continuous
 62
     7
370
    25
100
AcDbEllipse
 10
110.3408052886531
 20
90.24167816087635
 30
0.0
 11
10.76616632763279
 21
56.83937206921647
 31
0.0
210
0.0
220
0.0
230
1.0
 40
0.2206153688
 41
4.882858564909217
 42
4.898097446980949
  0
LINE
  5
2B2
330
1F
100
AcDbEntity
  8
0
  6
Continuous
 62
     7
370
    25
100
AcDbLine
 10
124.1585865611531
 20
97.64661251657637
 30
0.0
 11
124.4886953690531
 21
97.46498133247636
 31
0.0
  0
SPLINE
  5
2B3
330
1F
100
AcDbEntity
  8
0
  6
Continuous
 62
     7
370
    25
100
AcDbSpline
210
0.0
220
0.0
230
1.0
 70
     8
 71
     3
 72
    11
 73
     7
 74
     0
 42
0.000000001
 43
0.00000001
 40
0.0
 40
0.0
 40
0.0
 40
0.0
 40
0.3066189325824452
 40
0.6132385641211084
 40
0.7648896356092775
 40
1.0
 40
1.0
 40
1.0
 40
1.0
 10
121.2717562534669
 20
95.98008085303866
 30
0.0
 10
121.5502771055714
 20
96.30133213523666
 30
0.0
 10
122.1073194446857
 20
96.94383543194425
 30
0.0
 10
122.9007868886532
 20
97.42217483323196
 30
0.0
 10
123.5924690980032
 20
97.66033762538856
 30
0.0
 10
123.944555175607
 20
97.65180155284077
 30
0.0
 10
124.158586561167
 20
97.64661251654854
 30
0.0
  0
LINE
  5
2B4
330
1F
100
AcDbEntity
  8
0
  6
Continuous
 62
     7
370
    25
100
AcDbLine
 10
121.5911266825531
 20
95.79225053487636
 30
0.0
 11
121.2717562534531
 21
95.98008085307634
 31
0.0
  0
SPLINE
  5
2B5
330
1F
100
AcDbEntity
  8
0
  6
Continuous
 62
     7
370
    25
100
AcDbSpline
210
0.0
220
0.0
230
1.0
 70
     8
 71
     3
 72
     9
 73
     5
 74
     0
 42
0.000000001
 43
0.00000001
 40
0.0
 40
0.0
 40
0.0
 40
0.0
 40
0.980011015743195
 40
1.0
 40
1.0
 40
1.0
 40
1.0
 10
120.835980355612
 20
94.79490822621514
 30
0.0
 10
121.0697767364708
 20
95.13365279994645
 30
0.0
 10
121.3083417904375
 20
95.47930664290286
 30
0.0
 10
121.5855848749486
 20
95.78611769363965
 30
0.0
 10
121.5911266826002
 20
95.79225053490256
 30
0.0
  0
LINE
  5
2B6
330
1F
100
AcDbEntity
  8
0
  6
Continuous
 62
     7
370
    25
100
AcDbLine
 10
120.6115823267531
 20
94.92195057347635
 30
0.0
 11
120.8359803556531
 21
94.79490822617635
 31
0.0
  0
SPLINE
  5
2B7
330
1F
100
AcDbEntity
  8
0
  6
Continuous
 62
     7
370
    25
100
AcDbSpline
210
0.0
220
0.0
230
1.0
 70
     8
 71
     3
 72
     9
 73
     5
 74
     0
 42
0.000000001
 43
0.00000001
 40
0.0
 40
0.0
 40
0.0
 40
0.0
 40
0.4924974875535814
 40
1.0
 40
1.0
 40
1.0
 40
1.0
 10
119.992655785532
 20
92.58737916588836
 30
0.0
 10
120.0238689750268
 20
92.96140159726104
 30
0.0
 10
120.0872463328484
 20
93.72084188035896
 30
0.0
 10
120.435063991261
 20
94.51759590446926
 30
0.0
 10
120.6115823267786
 20
94.92195057350696
 30
0.0
  0
SPLINE
  5
2B8
330
1F
100
AcDbEntity
  8
0
  6
Continuous
 62
     7
370
    25
100
AcDbSpline
210
0.0
220
0.0
230
1.0
 70
     8
 71
     3
 72
    14
 73
    10
 74
     0
 42
0.000000001
 43
0.00000001
 40
0.0
 40
0.0
 40
0.0
 40
0.0
 40
0.2635372384953875
 40
0.7183720572789277
 40
0.9464392832813979
 40
0.9749986895055519
 40
0.9893658437527661
 40
0.9961027741226683
 40
0.9999999999999999
 40
0.9999999999999999
 40
0.9999999999999999
 40
0.9999999999999999
 10
120.0844090096665
 20
92.51516706347425
 30
0.0
 10
120.0761086961303
 20
92.52076081349406
 30
0.0
 10
120.0534830006306
 20
92.53600872962375
 30
0.0
 10
120.0240977265994
 20
92.55744083482566
 30
0.0
 10
120.001563797873
 20
92.57459710628095
 30
0.0
 10
119.9940697572386
 20
92.58376983984314
 30
0.0
 10
119.9929837191233
 20
92.58575789797936
 30
0.0
 10
119.9926779833083
 20
92.58681649673835
 30
0.0
 10
119.9926617388369
 20
92.58722826153846
 30
0.0
 10
119.992655785532
 20
92.58737916588836
 30
0.0
  0
LINE
  5
2B9
330
1F
100
AcDbEntity
  8
0
  6
Continuous
 62
     7
370
    25
100
AcDbLine
 10
120.0840558083531
 20
92.46535471427634
 30
0.0
 11
120.0844090096531
 21
92.51516706347635
 31
0.0
  0
LINE
  5
2BA
330
1F
100
AcDbEntity
  8
0
  6
Continuous
 62
     7
370
    25
100
AcDbLine
 10
119.5386628716531
 20
92.76921016147637
 30
0.0
 11
120.0840558083531
 21
92.46535471427634
 31
0.0
  0
SPLINE
  5
2BB
330
1F
100
AcDbEntity
  8
0
  6
Continuous
 62
     7
370
    25
100
AcDbSpline
210
0.0
220
0.0
230
1.0
 70
     8
 71
     3
 72
    10
 73
     6
 74
     0
 42
0.000000001
 43
0.00000001
 40
0.0
 40
0.0
 40
0.0
 40
0.0
 40
0.4235290639791603
 40
0.932895534557648
 40
1.0
 40
1.0
 40
1.0
 40
1.0
 10
124.4886953690668
 20
97.46498133252365
 30
0.0
 10
124.5800669362755
 20
97.45119415475847
 30
0.0
 10
124.7813285125971
 20
97.42082552680534
 30
0.0
 10
124.9612693055857
 20
97.32070370016774
 30
0.0
 10
125.0540849720241
 20
97.24501585195176
 30
0.0
 10
125.064889238626
 20
97.23620535990847
 30
0.0
  0
SPLINE
  5
2BC
330
1F
100
AcDbEntity
  8
0
  6
Continuous
 62
     7
370
    25
100
AcDbSpline
210
0.0
220
0.0
230
1.0
 70
     8
 71
     3
 72
     9
 73
     5
 74
     0
 42
0.000000001
 43
0.00000001
 40
0.0
 40
0.0
 40
0.0
 40
0.0
 40
0.5094314799466461
 40
1.0
 40
1.0
 40
1.0
 40
1.0
 10
125.0642785926946
 20
97.23219391818785
 30
0.0
 10
125.2129967083108
 20
97.05974058069654
 30
0.0
 10
125.5049262836717
 20
96.72121941685054
 30
0.0
 10
125.573835638513
 20
96.06870232305715
 30
0.0
 10
125.6076403987353
 20
95.74859797804535
 30
0.0
  0
LINE
  5
2BD
330
1F
100
AcDbEntity
  8
0
  6
Continuous
 62
     7
370
    25
100
AcDbLine
 10
125.6090242073531
 20
95.70335689957636
 30
0.0
 11
125.6076403935531
 21
95.74859886407634
 31
0.0
  0
ELLIPSE
  5
2BE
330
1F
100
AcDbEntity
  8
0
  6
Continuous
 62
     7
370
    25
100
AcDbEllipse
 10
118.0857152473531
 20
-33.67350556872365
 30
0.0
 11
-14.36220700688523
 21
454.795987017123
 31
0.0
210
0.0
220
0.0
230
1.0
 40
0.0265925572
 41
4.982111392929635
 42
5.000005043507722
  0
ARC
  5
2BF
330
1F
100
AcDbEntity
  8
0
  6
Continuous
 62
     7
370
    25
100
AcDbCircle
 10
115.0325006553531
 20
99.79435787907636
 30
0.0
 40
16.13576218772549
100
AcDbArc
 50
287.5814289231
 51
312.4131945442001
  0
ELLIPSE
  5
2C0
330
1F
100
AcDbEntity
  8
0
  6
Continuous
 62
     7
370
    25
100
AcDbEllipse
 10
104.0908161455531
 20
-41.75258885152364
 30
0.0
 11
14.0007989491599
 21
471.154316982452
 31
0.0
210
0.0
220
0.0
230
1.0
 40
0.0265637472
 41
4.984264653708951
 42
5.00204953313656
  0
LINE
  5
2C1
330
1F
100
AcDbEntity
  8
0
  6
Continuous
 62
     7
370
    25
100
AcDbLine
 10
120.0844090096531
 20
92.51516706347635
 30
0.0
 11
120.0848232478531
 21
92.53417202247635
 31
0.0
  0
SPLINE
  5
2C2
330
1F
100
AcDbEntity
  8
0
  6
Continuous
 62
     7
370
    25
100
AcDbSpline
210
0.0
220
0.0
230
1.0
 70
     8
 71
     3
 72
     9
 73
     5
 74
     0
 42
0.000000001
 43
0.00000001
 40
0.0
 40
0.0
 40
0.0
 40
0.0
 40
0.4986936729065509
 40
1.0
 40
1.0
 40
1.0
 40
1.0
 10
120.0848232478519
 20
92.53417202243696
 30
0.0
 10
120.1265180230149
 20
92.90865753826006
 30
0.0
 10
120.2101260121037
 20
93.65959049804766
 30
0.0
 10
120.6276678583021
 20
94.41375925587246
 30
0.0
 10
120.8369842276276
 20
94.79182882586616
 30
0.0
  0
LINE
  5
2C3
330
1F
100
AcDbEntity
  8
0
  6
Continuous
 62
     7
370
    25
100
AcDbLine
 10
120.8369842276531
 20
94.79182882587637
 30
0.0
 11
120.8359803556531
 21
94.79490822617635
 31
0.0
  0
ELLIPSE
  5
2C4
330
1F
100
AcDbEntity
  8
0
  6
Continuous
 62
     7
370
    25
100
AcDbEllipse
 10
111.1854226445531
 20
102.7932715675764
 30
0.0
 11
16.97534488373327
 21
-4.791745922764363
 31
0.0
210
0.0
220
0.0
230
1.0
 40
0.300727483
 41
5.454135456984847
 42
5.45458483565997
  0
SPLINE
  5
2C5
330
1F
100
AcDbEntity
  8
0
  6
Continuous
 62
     7
370
    25
100
AcDbSpline
210
0.0
220
0.0
230
1.0
 70
     8
 71
     3
 72
    11
 73
     7
 74
     0
 42
0.000000001
 43
0.00000001
 40
0.0
 40
0.0
 40
0.0
 40
0.0
 40
0.3030517701418406
 40
0.6062910851293576
 40
0.9063278432879652
 40
1.0
 40
1.0
 40
1.0
 40
1.0
 10
121.5971874180291
 20
95.79221344060716
 30
0.0
 10
121.8999979918695
 20
96.09287420474215
 30
0.0
 10
122.5058065351308
 20
96.69438179817385
 30
0.0
 10
123.4541669199379
 20
97.26670500963806
 30
0.0
 10
124.102455494455
 20
97.46754300678825
 30
0.0
 10
124.4106834105336
 20
97.46043601614895
 30
0.0
 10
124.4840177257279
 20
97.45874510411775
 30
0.0
  0
ELLIPSE
  5
2C6
330
1F
100
AcDbEntity
  8
0
  6
Continuous
 62
     7
370
    25
100
AcDbEllipse
 10
110.9997432445531
 20
102.6860811315763
 30
0.0
 11
15.51920790006216
 21
9.80533720275716
 31
0.0
210
0.0
220
0.0
230
1.0
 40
0.7167542824
 41
5.200415952742035
 42
5.200865331417146
  0
LINE
  5
2C7
330
1F
100
AcDbEntity
  8
0
  6
Continuous
 62
     7
370
    25
100
AcDbLine
 10
125.0642785926531
 20
97.23219391817636
 30
0.0
 11
125.0648892386531
 21
97.23620535987635
 31
0.0
  0
LINE
  5
2C8
330
1F
100
AcDbEntity
  8
0
  6
Continuous
 62
     7
370
    25
100
AcDbLine
 10
121.0627401437531
 20
96.10074328477634
 30
0.0
 11
121.0058242890531
 21
96.13360010837636
 31
0.0
  0
LINE
  5
2C9
330
1F
100
AcDbEntity
  8
0
  6
Continuous
 62
     7
370
    25
100
AcDbLine
 10
120.0848232478531
 20
92.53417202247635
 30
0.0
 11
119.9926557855531
 21
92.58737916587634
 31
0.0
  0
LINE
  5
2CA
330
1F
100
AcDbEntity
  8
0
  6
Continuous
 62
     7
370
    25
100
AcDbLine
 10
120.8369842276531
 20
94.79182882587637
 30
0.0
 11
120.6115823267531
 21
94.92195057347635
 31
0.0
  0
LINE
  5
2CB
330
1F
100
AcDbEntity
  8
0
  6
Continuous
 62
     7
370
    25
100
AcDbLine
 10
121.5971874180531
 20
95.79221344057635
 30
0.0
 11
121.2717562534531
 21
95.98008085307634
 31
0.0
  0
LINE
  5
2CC
330
1F
100
AcDbEntity
  8
0
  6
Continuous
 62
     7
370
    25
100
AcDbLine
 10
124.4840177257531
 20
97.45874510407634
 30
0.0
 11
124.1585865611531
 21
97.64661251657637
 31
0.0
  0
LINE
  5
2CD
330
1F
100
AcDbEntity
  8
0
  6
Continuous
 62
     7
370
    25
100
AcDbLine
 10
123.9495704514531
 20
97.76727494827637
 30
0.0
 11
123.4500647854531
 21
98.05563343137635
 31
0.0
  0
LWPOLYLINE
  5
2CE
330
1F
100
AcDbEntity
  8
0
  6
Continuous
 62
     7
370
    25
100
AcDbPolyline
 90
        9
 70
   128
 43
0.0
 10
52.57631941195311
 20
112.6708292380764
 10
51.41992014685312
 20
113.4087310092764
 10
50.39689593895312
 20
114.2095878033764
 10
49.51746683275312
 20
115.0653990353763
 10
48.79041835325313
 20
115.9676151236764
 10
48.22301373795312
 20
116.9072229007764
 10
47.82092137705311
 20
117.8748356549764
 10
47.58815818615312
 20
118.8607869037764
 10
47.52654071545311
 20
119.8333731360763
  0
LWPOLYLINE
  5
2CF
330
1F
100
AcDbEntity
  8
0
  6
Continuous
 62
     7
370
    25
100
AcDbPolyline
 90
       12
 70
   128
 43
0.0
 10
50.96416401375311
 20
180.3352296391764
 10
50.77772694735313
 20
180.5315153595764
 10
50.1116061300531
 20
181.3483824345764
 10
49.58814930395312
 20
182.1991641484763
 10
49.21245079935312
 20
183.0755806147764
 10
48.98816694885312
 20
183.9691024671764
 10
48.91748050385311
 20
184.8710338682763
 10
49.00107939125311
 20
185.7725971379764
 10
49.23815001895312
 20
186.6650181790763
 10
49.62638519355312
 20
187.5396118672764
 10
50.16200657455312
 20
188.3878665756763
 10
50.83980144485312
 20
189.2015270107763
  0
LINE
  5
2D0
330
1F
100
AcDbEntity
  8
0
  6
Continuous
 62
     7
370
    25
100
AcDbLine
 10
119.3588223457531
 20
84.72886796187635
 30
0.0
 11
119.9064838359531
 21
84.41231934927634
 31
0.0
  0
SPLINE
  5
2D1
330
1F
100
AcDbEntity
  8
0
  6
Continuous
 62
     7
370
    25
100
AcDbSpline
210
0.0
220
0.0
230
1.0
 70
     8
 71
     3
 72
    12
 73
     8
 74
     0
 42
0.000000001
 43
0.00000001
 40
0.0
 40
0.0
 40
0.0
 40
0.0
 40
0.2060757310230191
 40
0.412015057709376
 40
0.6217667250770578
 40
0.8398301355565844
 40
1.0
 40
1.0
 40
1.0
 40
1.0
 10
50.83980144489553
 20
189.201527010769
 30
0.0
 10
50.84207756036952
 20
189.2224416094076
 30
0.0
 10
50.84662828472571
 20
189.2642569630268
 30
0.0
 10
50.87740819328101
 20
189.3054478786825
 30
0.0
 10
50.92238911553571
 20
189.3247925087411
 30
0.0
 10
50.97401674386802
 20
189.3206347290768
 30
0.0
 10
51.00931495775973
 20
189.303056295313
 30
0.0
 10
51.02426263822301
 20
189.2956123829453
 30
0.0
  0
LINE
  5
2D2
330
1F
100
AcDbEntity
  8
0
  6
Continuous
 62
     7
370
    25
100
AcDbLine
 10
119.5089456756531
 20
91.47981063457635
 30
0.0
 11
119.1749688274531
 21
91.67261136527637
 31
0.0
  0
LINE
  5
2D3
330
1F
100
AcDbEntity
  8
0
  6
Continuous
 62
     7
370
    25
100
AcDbLine
 10
119.1469173760531
 20
90.48351810237637
 30
0.0
 11
119.1500514901531
 21
90.48170547887636
 31
0.0
  0
LINE
  5
2D4
330
1F
100
AcDbEntity
  8
0
  6
Continuous
 62
     7
370
    25
100
AcDbLine
 10
125.1051500911531
 20
98.33138516427636
 30
0.0
 11
125.0541472608531
 21
98.35965806707637
 31
0.0
  0
LINE
  5
2D5
330
1F
100
AcDbEntity
  8
0
  6
Continuous
 62
     7
370
    25
100
AcDbLine
 10
97.37089852025309
 20
180.1739504999763
 30
0.0
 11
97.3726552127531
 21
180.0587482875763
 31
0.0
  0
LINE
  5
2D6
330
1F
100
AcDbEntity
  8
0
  6
Continuous
 62
     7
370
    25
100
AcDbLine
 10
119.4157462201531
 20
87.30657988387637
 30
0.0
 11
119.0762040823531
 21
87.50259338777636
 31
0.0
  0
LINE
  5
2D7
330
1F
100
AcDbEntity
  8
0
  6
Continuous
 62
     7
370
    25
100
AcDbLine
 10
119.0478003397531
 20
86.31180754927635
 30
0.0
 11
119.0495322617531
 21
86.31080588737635
 31
0.0
  0
LINE
  5
2D8
330
1F
100
AcDbEntity
  8
0
  6
Continuous
 62
     7
370
    25
100
AcDbLine
 10
119.3575935274531
 20
84.72845721177634
 30
0.0
 11
118.9992801485531
 21
84.93530712257635
 31
0.0
  0
LINE
  5
2D9
330
1F
100
AcDbEntity
  8
0
  6
Continuous
 62
     7
370
    25
100
AcDbLine
 10
126.1910580796531
 20
94.54592888427635
 30
0.0
 11
125.6421657053531
 21
94.86279770717636
 31
0.0
  0
LINE
  5
2DA
330
1F
100
AcDbEntity
  8
0
  6
Continuous
 62
     7
370
    25
100
AcDbLine
 10
126.1893016850531
 20
94.54537811867635
 30
0.0
 11
125.6422375408531
 21
94.86097446837636
 31
0.0
  0
LINE
  5
2DB
330
1F
100
AcDbEntity
  8
0
  6
Continuous
 62
     7
370
    25
100
AcDbLine
 10
125.6502916764531
 20
94.65651914017636
 30
0.0
 11
126.1970135759531
 21
94.34149854477636
 31
0.0
  0
LINE
  5
2DC
330
1F
100
AcDbEntity
  8
0
  6
Continuous
 62
     7
370
    25
100
AcDbLine
 10
126.3419979267531
 20
90.52041869757636
 30
0.0
 11
125.8003998620531
 21
90.83307660517636
 31
0.0
  0
LINE
  5
2DD
330
1F
100
AcDbEntity
  8
0
  6
Continuous
 62
     7
370
    25
100
AcDbLine
 10
126.3410486132531
 20
90.52010867957637
 30
0.0
 11
125.8004428048531
 21
90.83197927377634
 31
0.0
  0
LINE
  5
2DE
330
1F
100
AcDbEntity
  8
0
  6
Continuous
 62
     7
370
    25
100
AcDbLine
 10
125.8083917865531
 20
90.62882143907635
 30
0.0
 11
126.3486574451531
 21
90.31752092297634
 31
0.0
  0
LINE
  5
2DF
330
1F
100
AcDbEntity
  8
0
  6
Continuous
 62
     7
370
    25
100
AcDbLine
 10
125.8516074214531
 20
89.52311300647636
 30
0.0
 11
126.3908381419531
 21
89.21182173757634
 31
0.0
  0
LINE
  5
2E0
330
1F
100
AcDbEntity
  8
0
  6
Continuous
 62
     7
370
    25
100
AcDbLine
 10
49.45232829775313
 20
187.1906616789763
 30
0.0
 11
49.49786300235311
 21
190.1767841364764
 31
0.0
  0
LINE
  5
2E1
330
1F
100
AcDbEntity
  8
0
  6
Continuous
 62
     7
370
    25
100
AcDbLine
 10
72.32178394295312
 20
109.2730632302764
 30
0.0
 11
72.85219481295314
 21
109.5792629078763
 31
0.0
  0
ELLIPSE
  5
2E2
330
1F
100
AcDbEntity
  8
0
  6
Continuous
 62
     7
370
    25
100
AcDbEllipse
 10
76.38490940365313
 20
107.4313391996764
 30
0.0
 11
-2.433064206339566
 21
4.368532434545614
 31
0.0
210
0.0
220
0.0
230
1.0
 40
0.5873670493000002
 41
0.1134819555605654
 42
0.7683874005690869
  0
LINE
  5
2E3
330
1F
100
AcDbEntity
  8
0
  6
Continuous
 62
     7
370
    25
100
AcDbLine
 10
79.26150763265309
 20
99.41447363557634
 30
0.0
 11
79.43287565175314
 21
99.42424131817634
 31
0.0
  0
LINE
  5
2E4
330
1F
100
AcDbEntity
  8
0
  6
Continuous
 62
     7
370
    25
100
AcDbLine
 10
79.26150763265309
 20
99.41447363557634
 30
0.0
 11
79.25397620395313
 21
100.4381515351764
 31
0.0
  0
LINE
  5
2E5
330
1F
100
AcDbEntity
  8
0
  6
Continuous
 62
     7
370
    25
100
AcDbLine
 10
79.42683797765312
 20
100.2448868636764
 30
0.0
 11
79.25397620395313
 21
100.4381515351764
 31
0.0
  0
LINE
  5
2E6
330
1F
100
AcDbEntity
  8
0
  6
Continuous
 62
     7
370
    25
100
AcDbLine
 10
79.23066360995313
 20
103.6068182061763
 30
0.0
 11
79.40203162895313
 21
103.6165858886764
 31
0.0
  0
LINE
  5
2E7
330
1F
100
AcDbEntity
  8
0
  6
Continuous
 62
     7
370
    25
100
AcDbLine
 10
79.23066360995313
 20
103.6068182061763
 30
0.0
 11
79.22341503335309
 21
104.5920506182763
 31
0.0
  0
LINE
  5
2E8
330
1F
100
AcDbEntity
  8
0
  6
Continuous
 62
     7
370
    25
100
AcDbLine
 10
79.39627680705314
 20
104.3987859468764
 30
0.0
 11
79.22341503335309
 21
104.5920506182763
 31
0.0
  0
SPLINE
  5
2E9
330
1F
100
AcDbEntity
  8
0
  6
Continuous
 62
     7
370
    25
100
AcDbSpline
210
0.0
220
0.0
230
1.0
 70
     8
 71
     3
 72
    10
 73
     6
 74
     0
 42
0.000000001
 43
0.00000001
 40
0.0
 40
0.0
 40
0.0
 40
0.0
 40
0.1947546152032898
 40
0.6767906423502369
 40
1.0
 40
1.0
 40
1.0
 40
1.0
 10
56.11277013088682
 20
192.6356407793948
 30
0.0
 10
56.11869304155161
 20
192.6386638023426
 30
0.0
 10
56.13927571431253
 20
192.6491690919886
 30
0.0
 10
56.18030424309612
 20
192.6423377142853
 30
0.0
 10
56.21366871415211
 20
192.6258726834201
 30
0.0
 10
56.22706054409852
 20
192.6192639500451
 30
0.0
  0
LINE
  5
2EA
330
1F
100
AcDbEntity
  8
0
  6
Continuous
 62
     7
370
    25
100
AcDbLine
 10
72.73204006325312
 20
101.0351793778763
 30
0.0
 11
78.7424477032531
 21
97.56544490267635
 31
0.0
  0
LINE
  5
2EB
330
1F
100
AcDbEntity
  8
0
  6
Continuous
 62
     7
370
    25
100
AcDbLine
 10
72.8007549403531
 20
102.5242128874764
 30
0.0
 11
72.73204006325312
 21
101.0351793778763
 31
0.0
  0
LINE
  5
2EC
330
1F
100
AcDbEntity
  8
0
  6
Continuous
 62
     7
370
    25
100
AcDbLine
 10
72.78903817545313
 20
102.5385513647764
 30
0.0
 11
72.8007549403531
 21
102.5242128874764
 31
0.0
  0
LINE
  5
2ED
330
1F
100
AcDbEntity
  8
0
  6
Continuous
 62
     7
370
    25
100
AcDbLine
 10
72.78903817545313
 20
102.5385513647764
 30
0.0
 11
72.82685682275314
 21
103.5360492227763
 31
0.0
  0
LINE
  5
2EE
330
1F
100
AcDbEntity
  8
0
  6
Continuous
 62
     7
370
    25
100
AcDbLine
 10
72.84740569255314
 20
103.5351225504764
 30
0.0
 11
72.82685682275314
 21
103.5360492227763
 31
0.0
  0
LINE
  5
2EF
330
1F
100
AcDbEntity
  8
0
  6
Continuous
 62
     7
370
    25
100
AcDbLine
 10
72.98747455195314
 20
106.5703782925764
 30
0.0
 11
72.84740569255314
 21
103.5351225504764
 31
0.0
  0
LINE
  5
2F0
330
1F
100
AcDbEntity
  8
0
  6
Continuous
 62
     7
370
    25
100
AcDbLine
 10
72.9439197066531
 20
106.6236788553764
 30
0.0
 11
72.98747455195314
 21
106.5703782925764
 31
0.0
  0
LINE
  5
2F1
330
1F
100
AcDbEntity
  8
0
  6
Continuous
 62
     7
370
    25
100
AcDbLine
 10
72.9439197066531
 20
106.6236788553764
 30
0.0
 11
72.98031802785312
 21
107.5837144496764
 31
0.0
  0
LINE
  5
2F2
330
1F
100
AcDbEntity
  8
0
  6
Continuous
 62
     7
370
    25
100
AcDbLine
 10
73.03412530415312
 20
107.5812879555764
 30
0.0
 11
72.98031802785312
 21
107.5837144496764
 31
0.0
  0
LINE
  5
2F3
330
1F
100
AcDbEntity
  8
0
  6
Continuous
 62
     7
370
    25
100
AcDbLine
 10
73.09538441715313
 20
108.9087569968763
 30
0.0
 11
73.03412530415312
 21
107.5812879555764
 31
0.0
  0
ELLIPSE
  5
2F4
330
1F
100
AcDbEntity
  8
0
  6
Continuous
 62
     7
370
    25
100
AcDbEllipse
 10
75.85562878955312
 20
107.2005655926764
 30
0.0
 11
-1.901890471800812
 21
3.414817492841677
 31
0.0
210
0.0
220
0.0
230
1.0
 40
0.5873670493
 41
0.0944456756085516
 42
0.7591750167884476
  0
LINE
  5
2F5
330
1F
100
AcDbEntity
  8
0
  6
Continuous
 62
     7
370
    25
100
AcDbLine
 10
73.7663415069531
 20
110.5297576201764
 30
0.0
 11
73.77306139795314
 21
110.4948151232764
 31
0.0
  0
ELLIPSE
  5
2F6
330
1F
100
AcDbEntity
  8
0
  6
Continuous
 62
     7
370
    25
100
AcDbEllipse
 10
75.8544985336531
 20
107.1251395220764
 30
0.0
 11
-1.946617481021974
 21
3.495124206480284
 31
0.0
210
0.0
220
0.0
230
1.0
 40
0.5873670493
 41
6.046834486923106
 42
6.354609035635282
  0
LINE
  5
2F7
330
1F
100
AcDbEntity
  8
0
  6
Continuous
 62
     7
370
    25
100
AcDbLine
 10
74.45335152865312
 20
110.7791119739763
 30
0.0
 11
74.44270378605313
 21
110.7908250952763
 31
0.0
  0
ELLIPSE
  5
2F8
330
1F
100
AcDbEntity
  8
0
  6
Continuous
 62
     7
370
    25
100
AcDbEllipse
 10
75.85562878955312
 20
107.2005655926764
 30
0.0
 11
-1.901890471800812
 21
3.414817492841677
 31
0.0
210
0.0
220
0.0
230
1.0
 40
0.5873670493
 41
4.957382789971241
 42
6.056430191957763
  0
LINE
  5
2F9
330
1F
100
AcDbEntity
  8
0
  6
Continuous
 62
     7
370
    25
100
AcDbLine
 10
77.35099496995309
 20
109.1119043316764
 30
0.0
 11
77.34018183635311
 21
109.1125803104763
 31
0.0
  0
ELLIPSE
  5
2FA
330
1F
100
AcDbEntity
  8
0
  6
Continuous
 62
     7
370
    25
100
AcDbEllipse
 10
75.8544985336531
 20
107.1251395220764
 30
0.0
 11
-1.946617481021974
 21
3.495124206480284
 31
0.0
210
0.0
220
0.0
230
1.0
 40
0.5873670493
 41
4.65920394629099
 42
4.966978495004764
  0
LINE
  5
2FB
330
1F
100
AcDbEntity
  8
0
  6
Continuous
 62
     7
370
    25
100
AcDbLine
 10
78.00035576305311
 20
108.0544500309763
 30
0.0
 11
78.00799863035314
 21
108.0811010838763
 31
0.0
  0
ELLIPSE
  5
2FC
330
1F
100
AcDbEntity
  8
0
  6
Continuous
 62
     7
370
    25
100
AcDbEllipse
 10
75.85562878955312
 20
107.2005655926764
 30
0.0
 11
-1.901890471800812
 21
3.414817492841677
 31
0.0
210
0.0
220
0.0
230
1.0
 40
0.5873670493
 41
3.971452657960424
 42
4.636181999140859
  0
LINE
  5
2FD
330
1F
100
AcDbEntity
  8
0
  6
Continuous
 62
     7
370
    25
100
AcDbLine
 10
78.64004773835313
 20
104.3450578193764
 30
0.0
 11
78.6192823046531
 21
105.7198786235764
 31
0.0
  0
LINE
  5
2FE
330
1F
100
AcDbEntity
  8
0
  6
Continuous
 62
     7
370
    25
100
AcDbLine
 10
78.69300416325314
 20
104.2858509406764
 30
0.0
 11
78.64004773835313
 21
104.3450578193764
 31
0.0
  0
LINE
  5
2FF
330
1F
100
AcDbEntity
  8
0
  6
Continuous
 62
     7
370
    25
100
AcDbLine
 10
78.69300416325314
 20
104.2858509406764
 30
0.0
 11
78.7002527399531
 21
103.3006185285764
 31
0.0
  0
LINE
  5
300
330
1F
100
AcDbEntity
  8
0
  6
Continuous
 62
     7
370
    25
100
AcDbLine
 10
78.65586127285314
 20
103.2980882911764
 30
0.0
 11
78.7002527399531
 21
103.3006185285764
 31
0.0
  0
LINE
  5
301
330
1F
100
AcDbEntity
  8
0
  6
Continuous
 62
     7
370
    25
100
AcDbLine
 10
78.70334140215311
 20
100.1545628225764
 30
0.0
 11
78.65586127285314
 21
103.2980882911764
 31
0.0
  0
LINE
  5
302
330
1F
100
AcDbEntity
  8
0
  6
Continuous
 62
     7
370
    25
100
AcDbLine
 10
78.7235653339531
 20
100.1319518574764
 30
0.0
 11
78.70334140215311
 21
100.1545628225764
 31
0.0
  0
LINE
  5
303
330
1F
100
AcDbEntity
  8
0
  6
Continuous
 62
     7
370
    25
100
AcDbLine
 10
78.7235653339531
 20
100.1319518574764
 30
0.0
 11
78.73109676265312
 21
99.10827395797637
 31
0.0
  0
LINE
  5
304
330
1F
100
AcDbEntity
  8
0
  6
Continuous
 62
     7
370
    25
100
AcDbLine
 10
78.71915493665313
 20
99.10759329437636
 30
0.0
 11
78.73109676265312
 21
99.10827395797637
 31
0.0
  0
LINE
  5
305
330
1F
100
AcDbEntity
  8
0
  6
Continuous
 62
     7
370
    25
100
AcDbLine
 10
78.7424477032531
 20
97.56544490267635
 30
0.0
 11
78.71915493665313
 21
99.10759329437636
 31
0.0
  0
LINE
  5
306
330
1F
100
AcDbEntity
  8
0
  6
Continuous
 62
     7
370
    25
100
AcDbLine
 10
78.00035576305311
 20
108.0544500309763
 30
0.0
 11
78.52633502595313
 21
108.3580913962764
 31
0.0
  0
LINE
  5
307
330
1F
100
AcDbEntity
  8
0
  6
Continuous
 62
     7
370
    25
100
AcDbLine
 10
78.00799863035314
 20
108.0811010838763
 30
0.0
 11
78.51738096925311
 21
108.3751612488764
 31
0.0
  0
LINE
  5
308
330
1F
100
AcDbEntity
  8
0
  6
Continuous
 62
     7
370
    25
100
AcDbLine
 10
77.87206344035314
 20
109.4127107567764
 30
0.0
 11
77.35099496995309
 21
109.1119043316764
 31
0.0
  0
LINE
  5
309
330
1F
100
AcDbEntity
  8
0
  6
Continuous
 62
     7
370
    25
100
AcDbLine
 10
77.34018183635311
 20
109.1125803104763
 30
0.0
 11
77.86851385895312
 21
109.4175798950764
 31
0.0
  0
LINE
  5
30A
330
1F
100
AcDbEntity
  8
0
  6
Continuous
 62
     7
370
    25
100
AcDbLine
 10
74.45335152865312
 20
110.7791119739763
 30
0.0
 11
75.5141732687531
 21
111.3915113292763
 31
0.0
  0
ELLIPSE
  5
30B
330
1F
100
AcDbEntity
  8
0
  6
Continuous
 62
     7
370
    25
100
AcDbEllipse
 10
76.9164505296531
 20
107.8129649478764
 30
0.0
 11
-1.901890471800812
 21
3.414817492841677
 31
0.0
210
0.0
220
0.0
230
1.0
 40
0.5873670493
 41
6.014244458610933
 42
6.056430191957786
  0
LINE
  5
30C
330
1F
100
AcDbEntity
  8
0
  6
Continuous
 62
     7
370
    25
100
AcDbLine
 10
74.9731146560531
 20
111.0970247729764
 30
0.0
 11
74.4063479467531
 21
111.7205003283763
 31
0.0
  0
ELLIPSE
  5
30D
330
1F
100
AcDbEntity
  8
0
  6
Continuous
 62
     7
370
    25
100
AcDbEllipse
 10
76.38490940365313
 20
107.4313391996764
 30
0.0
 11
-1.946617481021974
 21
3.495124206480284
 31
0.0
210
0.0
220
0.0
230
1.0
 40
0.5873670493
 41
6.046834486923106
 42
6.29222339029995
  0
LINE
  5
30E
330
1F
100
AcDbEntity
  8
0
  6
Continuous
 62
     7
370
    25
100
AcDbLine
 10
74.12845335545313
 20
111.7110887518764
 30
0.0
 11
74.29519698575314
 21
110.8440451150763
 31
0.0
  0
ELLIPSE
  5
30F
330
1F
100
AcDbEntity
  8
0
  6
Continuous
 62
     7
370
    25
100
AcDbEllipse
 10
76.38603965955309
 20
107.5067652702764
 30
0.0
 11
-2.388503313068668
 21
4.288523979750806
 31
0.0
210
0.0
220
0.0
230
1.0
 40
0.5873670493
 41
0.0971163968850266
 42
0.759175016788828
  0
LINE
  5
310
330
1F
100
AcDbEntity
  8
0
  6
Continuous
 62
     7
370
    25
100
AcDbLine
 10
72.83964679405312
 20
107.9201772602763
 30
0.0
 11
72.9195662079531
 21
109.6520101667764
 31
0.0
  0
LINE
  5
311
330
1F
100
AcDbEntity
  8
0
  6
Continuous
 62
     7
370
    25
100
AcDbLine
 10
73.0493277721531
 20
107.9107214823763
 30
0.0
 11
72.83964679405312
 21
107.9201772602763
 31
0.0
  0
LINE
  5
312
330
1F
100
AcDbEntity
  8
0
  6
Continuous
 62
     7
370
    25
100
AcDbLine
 10
72.83031664365313
 20
107.7179953276764
 30
0.0
 11
72.97853233315311
 21
107.5366152857763
 31
0.0
  0
LINE
  5
313
330
1F
100
AcDbEntity
  8
0
  6
Continuous
 62
     7
370
    25
100
AcDbLine
 10
72.65292718245314
 20
103.8740118551763
 30
0.0
 11
72.83031664365313
 21
107.7179953276764
 31
0.0
  0
LINE
  5
314
330
1F
100
AcDbEntity
  8
0
  6
Continuous
 62
     7
370
    25
100
AcDbLine
 10
72.86260816055312
 20
103.8645560772763
 30
0.0
 11
72.65292718245314
 21
103.8740118551763
 31
0.0
  0
LINE
  5
315
330
1F
100
AcDbEntity
  8
0
  6
Continuous
 62
     7
370
    25
100
AcDbLine
 10
72.6435970320531
 20
103.6718299226764
 30
0.0
 11
72.82365080195314
 21
103.4514877952764
 31
0.0
  0
LINE
  5
316
330
1F
100
AcDbEntity
  8
0
  6
Continuous
 62
     7
370
    25
100
AcDbLine
 10
72.59222290315313
 20
102.5585659167764
 30
0.0
 11
72.6435970320531
 21
103.6718299226764
 31
0.0
  0
LINE
  5
317
330
1F
100
AcDbEntity
  8
0
  6
Continuous
 62
     7
370
    25
100
AcDbLine
 10
72.58588627335314
 20
102.5551566248764
 30
0.0
 11
72.59222290315313
 21
102.5585659167764
 31
0.0
  0
LINE
  5
318
330
1F
100
AcDbEntity
  8
0
  6
Continuous
 62
     7
370
    25
100
AcDbLine
 10
72.85219481295314
 20
109.5792629078763
 30
0.0
 11
72.58588627335314
 21
102.5551566248764
 31
0.0
  0
LINE
  5
319
330
1F
100
AcDbEntity
  8
0
  6
Continuous
 62
     7
370
    25
100
AcDbLine
 10
78.64004773835313
 20
104.3450578193764
 30
0.0
 11
79.39347212615314
 21
104.7800004603764
 31
0.0
  0
LINE
  5
31A
330
1F
100
AcDbEntity
  8
0
  6
Continuous
 62
     7
370
    25
100
AcDbLine
 10
79.22341503335309
 20
104.5920506182763
 30
0.0
 11
78.69300416325314
 21
104.2858509406764
 31
0.0
  0
LINE
  5
31B
330
1F
100
AcDbEntity
  8
0
  6
Continuous
 62
     7
370
    25
100
AcDbLine
 10
78.7002527399531
 20
103.3006185285764
 30
0.0
 11
79.23066360995313
 21
103.6068182061763
 31
0.0
  0
LINE
  5
31C
330
1F
100
AcDbEntity
  8
0
  6
Continuous
 62
     7
370
    25
100
AcDbLine
 10
54.95982000705311
 20
192.1520372369763
 30
0.0
 11
54.97794055655311
 21
193.3403655697764
 31
0.0
  0
LINE
  5
31D
330
1F
100
AcDbEntity
  8
0
  6
Continuous
 62
     7
370
    25
100
AcDbLine
 10
74.44270378605313
 20
110.7908250952763
 30
0.0
 11
74.9731146560531
 21
111.0970247729764
 31
0.0
  0
LINE
  5
31E
330
1F
100
AcDbEntity
  8
0
  6
Continuous
 62
     7
370
    25
100
AcDbLine
 10
75.5141732687531
 20
111.3915113292763
 30
0.0
 11
75.42901566535312
 21
111.4851895273763
 31
0.0
  0
LINE
  5
31F
330
1F
100
AcDbEntity
  8
0
  6
Continuous
 62
     7
370
    25
100
AcDbLine
 10
78.70334140215311
 20
100.1545628225764
 30
0.0
 11
79.42443983705311
 21
100.5708440881764
 31
0.0
  0
ELLIPSE
  5
320
330
1F
100
AcDbEntity
  8
0
  6
Continuous
 62
     7
370
    25
100
AcDbEllipse
 10
76.9164505296531
 20
107.8129649478764
 30
0.0
 11
-2.388503313068668
 21
4.288523979750806
 31
0.0
210
0.0
220
0.0
230
1.0
 40
0.5873670493
 41
0.2161940113818378
 42
0.7076314302606975
  0
LINE
  5
321
330
1F
100
AcDbEntity
  8
0
  6
Continuous
 62
     7
370
    25
100
AcDbLine
 10
79.25397620395313
 20
100.4381515351764
 30
0.0
 11
78.7235653339531
 21
100.1319518574764
 31
0.0
  0
LINE
  5
322
330
1F
100
AcDbEntity
  8
0
  6
Continuous
 62
     7
370
    25
100
AcDbLine
 10
78.73109676265312
 20
99.10827395797637
 30
0.0
 11
79.26150763265309
 21
99.41447363557634
 31
0.0
  0
LINE
  5
323
330
1F
100
AcDbEntity
  8
0
  6
Continuous
 62
     7
370
    25
100
AcDbLine
 10
78.7424477032531
 20
97.56544490267635
 30
0.0
 11
79.44945949145313
 21
97.97359412027635
 31
0.0
  0
LINE
  5
324
330
1F
100
AcDbEntity
  8
0
  6
Continuous
 62
     7
370
    25
100
AcDbLine
 10
72.05547540325313
 20
102.2489569471764
 30
0.0
 11
72.58588627335314
 21
102.5551566248764
 31
0.0
  0
LINE
  5
325
330
1F
100
AcDbEntity
  8
0
  6
Continuous
 62
     7
370
    25
100
AcDbLine
 10
72.98031802785312
 20
107.5837144496764
 30
0.0
 11
73.0357130177531
 21
107.6156932965764
 31
0.0
  0
LINE
  5
326
330
1F
100
AcDbEntity
  8
0
  6
Continuous
 62
     7
370
    25
100
AcDbLine
 10
72.83964679405312
 20
107.9201772602763
 30
0.0
 11
73.05551491575312
 21
108.0447952743764
 31
0.0
  0
LINE
  5
327
330
1F
100
AcDbEntity
  8
0
  6
Continuous
 62
     7
370
    25
100
AcDbLine
 10
72.65292718245314
 20
103.8740118551763
 30
0.0
 11
72.86879530415314
 21
103.9986298692764
 31
0.0
  0
LINE
  5
328
330
1F
100
AcDbEntity
  8
0
  6
Continuous
 62
     7
370
    25
100
AcDbLine
 10
72.82685682275314
 20
103.5360492227763
 30
0.0
 11
72.84801203655314
 21
103.5482618677763
 31
0.0
  0
LINE
  5
329
330
1F
100
AcDbEntity
  8
0
  6
Continuous
 62
     7
370
    25
100
AcDbLine
 10
72.59222290315313
 20
102.5585659167764
 30
0.0
 11
72.79421806655313
 21
102.6751752424763
 31
0.0
  0
LINE
  5
32A
330
1F
100
AcDbEntity
  8
0
  6
Continuous
 62
     8
370
    25
100
AcDbLine
 10
101.6407459053531
 20
180.4458211162764
 30
0.0
 11
101.6407459053531
 21
180.6784706345763
 31
0.0
  0
LINE
  5
32B
330
1F
100
AcDbEntity
  8
0
  6
Continuous
 62
     8
370
    25
100
AcDbLine
 10
102.4208431859531
 20
181.0303075962763
 30
0.0
 11
102.4208431859531
 21
180.7976580778763
 31
0.0
  0
LINE
  5
32C
330
1F
100
AcDbEntity
  8
0
  6
Continuous
 62
     8
370
    25
100
AcDbLine
 10
101.4282983209531
 20
180.8656139658763
 30
0.0
 11
101.4282983209531
 21
181.1006673195764
 31
0.0
  0
LINE
  5
32D
330
1F
100
AcDbEntity
  8
0
  6
Continuous
 62
     8
370
    25
100
AcDbLine
 10
120.0255222161531
 20
169.8325156625764
 30
0.0
 11
120.0255222161531
 21
170.0651651809764
 31
0.0
  0
LINE
  5
32E
330
1F
100
AcDbEntity
  8
0
  6
Continuous
 62
     8
370
    25
100
AcDbLine
 10
120.8056194968531
 20
170.4170021425764
 30
0.0
 11
120.8056194968531
 21
170.1843526241763
 31
0.0
  0
LINE
  5
32F
330
1F
100
AcDbEntity
  8
0
  6
Continuous
 62
     8
370
    25
100
AcDbLine
 10
119.8130746318531
 20
170.2523085122764
 30
0.0
 11
119.8130746318531
 21
170.4873618659764
 31
0.0
  0
LINE
  5
330
330
1F
100
AcDbEntity
  8
0
  6
Continuous
 62
     8
370
    25
100
AcDbLine
 10
96.84235022415311
 20
154.4942104457764
 30
0.0
 11
97.4833900428531
 21
153.8088146843764
 31
0.0
  0
LINE
  5
331
330
1F
100
AcDbEntity
  8
0
  6
Continuous
 62
     8
370
    25
100
AcDbLine
 10
73.01236601415314
 20
167.1325791394763
 30
0.0
 11
53.56069519745313
 21
178.3617896815764
 31
0.0
  0
LINE
  5
332
330
1F
100
AcDbEntity
  8
0
  6
Continuous
 62
     8
370
    25
100
AcDbLine
 10
96.6721563643531
 20
179.3562451164763
 30
0.0
 11
96.31329706915312
 21
179.5634101779764
 31
0.0
  0
LWPOLYLINE
  5
333
330
1F
100
AcDbEntity
  8
0
  6
Continuous
 62
     8
370
    25
100
AcDbPolyline
 90
        9
 70
   128
 43
0.0
 10
97.2686964462531
 20
153.5343411354764
 10
96.52850055245312
 20
154.3380380741764
 10
95.92808021035313
 20
155.1796894423763
 10
95.47319782125311
 20
156.0512176776764
 10
95.16821901785312
 20
156.9442584811763
 10
95.0160707667531
 20
157.8502410915764
 10
95.01821327695313
 20
158.7604705417764
 10
95.1746259861531
 20
159.6662111064764
 10
95.27925933445312
 20
160.0227411066764
  0
LINE
  5
334
330
1F
100
AcDbEntity
  8
0
  6
Continuous
 62
     8
370
    25
100
AcDbLine
 10
79.19955034955314
 20
163.5607936502764
 30
0.0
 11
74.06996923925311
 21
166.5220377933763
 31
0.0
  0
LINE
  5
335
330
1F
100
AcDbEntity
  8
0
  6
Continuous
 62
     8
370
    25
100
AcDbLine
 10
119.5392732569531
 20
92.84911132847637
 30
0.0
 11
119.2867566544531
 21
92.99488606017636
 31
0.0
  0
ARC
  5
336
330
1F
100
AcDbEntity
  8
0
  6
Continuous
 62
     8
370
    25
100
AcDbCircle
 10
59.42366208105312
 20
188.7708198571763
 30
0.0
 40
11.94664345649922
100
AcDbArc
 50
224.9189221196
 51
240.6092766665
  0
LINE
  5
337
330
1F
100
AcDbEntity
  8
0
  6
Continuous
 62
     8
370
    25
100
AcDbLine
 10
126.1261229919531
 20
96.26911152337635
 30
0.0
 11
125.4270543996531
 21
96.67267523167635
 31
0.0
  0
ARC
  5
338
330
1F
100
AcDbEntity
  8
0
  6
Continuous
 62
     8
370
    25
100
AcDbCircle
 10
75.87699128375311
 20
191.3035851017763
 30
0.0
 40
0.1234501448812524
100
AcDbArc
 50
65.07714963120303
 51
126.2333087979094
  0
LINE
  5
339
330
1F
100
AcDbEntity
  8
0
  6
Continuous
 62
     8
370
    25
100
AcDbLine
 10
78.6192823046531
 20
105.7198786235764
 30
0.0
 11
79.30443308375311
 21
106.1154077492764
 31
0.0
  0
LINE
  5
33A
330
1F
100
AcDbEntity
  8
0
  6
Continuous
 62
     8
370
    25
100
AcDbLine
 10
72.9195662079531
 20
109.6520101667764
 30
0.0
 11
73.30663262675313
 21
109.8754588541763
 31
0.0
  0
ENDSEC
  0
SECTION
  2
OBJECTS
  0
DICTIONARY
  5
C
330
0
100
AcDbDictionary
281
     1
  3
ACAD_DETAILVIEWSTYLE
350
348
  3
ACAD_GROUP
350
D
  3
ACAD_LAYOUT
350
1A
  3
ACAD_MATERIAL
350
43
  3
ACAD_MLEADERSTYLE
350
6B
  3
ACAD_MLINESTYLE
350
17
  3
ACAD_PLOTSETTINGS
350
19
  3
ACAD_PLOTSTYLENAME
350
E
  3
ACAD_SCALELIST
350
47
  3
ACAD_SECTIONVIEWSTYLE
350
349
  3
ACAD_TABLESTYLE
350
69
  3
ACAD_VISUALSTYLE
350
2A
  3
ACDB_RECOMPOSE_DATA
350
351
  3
AcDbVariableDictionary
350
341
  3
APPDATA
350
34C
  0
SUN
  5
6D
330
29
100
AcDbSun
 90
        1
290
     0
 63
     7
421
 16777215
 40
1.0
291
     1
 91
  2455826
 92
 54000000
292
     0
 70
     2
 71
   256
280
     1
  0
DICTIONARY
  5
34D
330
1F
100
AcDbDictionary
280
     1
281
     1
  3
DIM_BOUNDING_BOXES_V1
360
34E
  0
DICTIONARY
  5
348
102
{ACAD_REACTORS
330
C
102
}
330
C
100
AcDbDictionary
281
     1
  0
DICTIONARY
  5
D
102
{ACAD_REACTORS
330
C
102
}
330
C
100
AcDbDictionary
281
     1
  0
DICTIONARY
  5
1A
102
{ACAD_REACTORS
330
C
102
}
330
C
100
AcDbDictionary
281
     1
  3
Layout1
350
1E
  3
Layout2
350
26
  3
Model
350
22
  0
DICTIONARY
  5
43
102
{ACAD_REACTORS
330
C
102
}
330
C
100
AcDbDictionary
281
     1
  3
ByBlock
350
45
  3
ByLayer
350
44
  3
Global
350
46
  0
DICTIONARY
  5
6B
102
{ACAD_REACTORS
330
C
102
}
330
C
100
AcDbDictionary
281
     1
  3
Standard
350
6C
  0
DICTIONARY
  5
17
102
{ACAD_REACTORS
330
C
102
}
330
C
100
AcDbDictionary
281
     1
  3
Standard
350
18
  0
DICTIONARY
  5
19
102
{ACAD_REACTORS
330
C
102
}
330
C
100
AcDbDictionary
281
     1
  0
ACDBDICTIONARYWDFLT
  5
E
102
{ACAD_REACTORS
330
C
102
}
330
C
100
AcDbDictionary
281
     1
  3
Normal
350
F
100
AcDbDictionaryWithDefault
340
F
  0
DICTIONARY
  5
47
102
{ACAD_REACTORS
330
C
102
}
330
C
100
AcDbDictionary
281
     1
  3
A0
350
48
  3
A1
350
49
  3
A2
350
4A
  3
A3
350
4B
  3
A4
350
4C
  3
A5
350
4D
  3
A6
350
4E
  3
A7
350
4F
  3
A8
350
50
  3
A9
350
51
  3
B0
350
52
  3
B1
350
53
  3
B2
350
54
  3
B3
350
55
  3
B4
350
56
  3
B5
350
57
  3
B6
350
58
  3
B7
350
59
  3
B8
350
5A
  3
B9
350
5B
  3
C0
350
5C
  3
C1
350
5D
  3
C2
350
5E
  3
C3
350
5F
  3
C4
350
60
  3
C5
350
61
  3
C6
350
62
  3
C7
350
63
  3
C8
350
64
  3
C9
350
65
  3
D0
350
66
  3
D1
350
67
  3
D2
350
68
  0
DICTIONARY
  5
349
102
{ACAD_REACTORS
330
C
102
}
330
C
100
AcDbDictionary
281
     1
  0
DICTIONARY
  5
69
102
{ACAD_REACTORS
330
C
102
}
330
C
100
AcDbDictionary
281
     1
  3
Standard
350
6A
  0
DICTIONARY
  5
2A
102
{ACAD_REACTORS
330
C
102
}
330
C
100
AcDbDictionary
281
     1
  3
2dWireframe
350
2F
  3
Basic
350
32
  3
Brighten
350
36
  3
ColorChange
350
3A
  3
Conceptual
350
34
  3
Dim
350
35
  3
EdgeColorOff
350
3D
  3
Facepattern
350
39
  3
Flat
350
2B
  3
FlatWithEdges
350
2C
  3
Gouraud
350
2D
  3
GouraudWithEdges
350
2E
  3
Hidden
350
31
  3
JitterOff
350
3B
  3
Linepattern
350
38
  3
OverhangOff
350
3C
  3
Realistic
350
33
  3
Shaded
350
42
  3
Shaded with edges
350
41
  3
Shades of Gray
350
3E
  3
Sketchy
350
3F
  3
Thicken
350
37
  3
Wireframe
350
30
  3
X-Ray
350
40
  0
XRECORD
  5
351
102
{ACAD_REACTORS
330
C
102
}
330
C
100
AcDbXrecord
280
     1
 90
        1
330
6A
  0
DICTIONARY
  5
341
102
{ACAD_REACTORS
330
C
102
}
330
C
100
AcDbDictionary
281
     1
  3
CANNOSCALE
350
342
  3
CENTEREXE
350
34A
  3
CENTERLTYPEFILE
350
34B
  3
CMLEADERSTYLE
350
347
  3
CTABLESTYLE
350
346
  0
DICTIONARY
  5
34C
102
{ACAD_REACTORS
330
C
102
}
330
C
100
AcDbDictionary
281
     1
  0
DICTIONARY
  5
34E
102
{ACAD_REACTORS
330
34D
102
}
330
34D
100
AcDbDictionary
281
     1
  0
LAYOUT
  5
1E
102
{ACAD_REACTORS
330
1A
102
}
330
1A
100
AcDbPlotSettings
  1

  2
none_device
  4

  6

 40
0.0
 41
0.0
 42
0.0
 43
0.0
 44
0.0
 45
0.0
 46
0.0
 47
0.0
 48
0.0
 49
0.0
140
0.0
141
0.0
142
1.0
143
1.0
 70
   688
 72
     1
 73
     0
 74
     5
  7

 75
    16
 76
     0
 77
     2
 78
   300
147
1.0
148
0.0
149
0.0
100
AcDbLayout
  1
Layout1
 70
     1
 71
     1
 10
0.0
 20
0.0
 11
420.0
 21
297.0
 12
0.0
 22
0.0
 32
0.0
 14
1.000000000000000E+20
 24
1.000000000000000E+20
 34
1.000000000000000E+20
 15
-1.000000000000000E+20
 25
-1.000000000000000E+20
 35
-1.000000000000000E+20
146
0.0
 13
0.0
 23
0.0
 33
0.0
 16
1.0
 26
0.0
 36
0.0
 17
0.0
 27
1.0
 37
0.0
 76
     0
330
1B
  0
LAYOUT
  5
26
102
{ACAD_REACTORS
330
1A
102
}
330
1A
100
AcDbPlotSettings
  1

  2
none_device
  4

  6

 40
0.0
 41
0.0
 42
0.0
 43
0.0
 44
0.0
 45
0.0
 46
0.0
 47
0.0
 48
0.0
 49
0.0
140
0.0
141
0.0
142
1.0
143
1.0
 70
   688
 72
     1
 73
     0
 74
     5
  7

 75
    16
 76
     0
 77
     2
 78
   300
147
1.0
148
0.0
149
0.0
100
AcDbLayout
  1
Layout2
 70
     1
 71
     2
 10
0.0
 20
0.0
 11
0.0
 21
0.0
 12
0.0
 22
0.0
 32
0.0
 14
0.0
 24
0.0
 34
0.0
 15
0.0
 25
0.0
 35
0.0
146
0.0
 13
0.0
 23
0.0
 33
0.0
 16
1.0
 26
0.0
 36
0.0
 17
0.0
 27
1.0
 37
0.0
 76
     0
330
23
  0
LAYOUT
  5
22
102
{ACAD_REACTORS
330
1A
102
}
330
1A
100
AcDbPlotSettings
  1

  2
none_device
  4
Letter_(8.50_x_11.00_Inches)
  6

 40
6.35
 41
6.35
 42
6.35000508
 43
6.35000508
 44
215.9
 45
279.4
 46
0.0
 47
0.0
 48
0.0
 49
0.0
140
0.0
141
0.0
142
1.0
143
1.0
 70
  1712
 72
     1
 73
     0
 74
     0
  7

 75
     0
 76
     0
 77
     2
 78
   300
147
1.0
148
0.0
149
0.0
100
AcDbLayout
  1
Model
 70
     1
 71
     0
 10
0.0
 20
0.0
 11
210.0
 21
297.0
 12
0.0
 22
0.0
 32
0.0
 14
47.52654071545311
 24
83.01491355167636
 34
0.0
 15
157.9933303123574
 25
194.0901426972885
 35
0.0
146
0.0
 13
0.0
 23
0.0
 33
0.0
 16
1.0
 26
0.0
 36
0.0
 17
0.0
 27
1.0
 37
0.0
 76
     0
330
1F
331
29
  0
MATERIAL
  5
45
102
{ACAD_REACTORS
330
43
102
}
330
43
100
AcDbMaterial
  1
ByBlock
 72
     1
 94
      127
  0
MATERIAL
  5
44
102
{ACAD_REACTORS
330
43
102
}
330
43
100
AcDbMaterial
  1
ByLayer
 72
     1
 94
      127
  0
MATERIAL
  5
46
102
{ACAD_REACTORS
330
43
102
}
330
43
100
AcDbMaterial
  1
Global
 72
     1
 94
      127
  0
MLEADERSTYLE
  5
6C
102
{ACAD_REACTORS
330
6B
102
}
330
6B
100
AcDbMLeaderStyle
179
     2
170
     2
171
     1
172
     0
 90
        2
 40
0.0
 41
0.0
173
     1
 91
-1056964608
340
14
 92
       -2
290
     1
 42
2.0
291
     1
 43
8.0
  3
Standard
341
0
 44
4.0
300

342
11
174
     1
178
     6
175
     1
176
     0
 93
-1056964608
 45
4.0
292
     0
297
     0
 46
4.0
343
0
 94
-1056964608
 47
1.0
 49
1.0
140
1.0
293
     1
141
0.0
294
     1
177
     0
142
1.0
295
     0
296
     0
143
3.75
271
     0
272
     9
273
     9
298
     0
  0
MLINESTYLE
  5
18
102
{ACAD_REACTORS
330
17
102
}
330
17
100
AcDbMlineStyle
  2
Standard
 70
     0
  3

 62
   256
 51
90.0
 52
90.0
 71
     2
 49
0.5
 62
   256
  6
BYLAYER
 49
-0.5
 62
   256
  6
BYLAYER
  0
ACDBPLACEHOLDER
  5
F
102
{ACAD_REACTORS
330
E
102
}
330
E
  0
SCALE
  5
48
102
{ACAD_REACTORS
330
47
102
}
330
47
100
AcDbScale
 70
     0
300
1:1
140
1.0
141
1.0
290
     1
  0
SCALE
  5
49
102
{ACAD_REACTORS
330
47
102
}
330
47
100
AcDbScale
 70
     0
300
1:2
140
1.0
141
2.0
290
     0
  0
SCALE
  5
4A
102
{ACAD_REACTORS
330
47
102
}
330
47
100
AcDbScale
 70
     0
300
1:4
140
1.0
141
4.0
290
     0
  0
SCALE
  5
4B
102
{ACAD_REACTORS
330
47
102
}
330
47
100
AcDbScale
 70
     0
300
1:5
140
1.0
141
5.0
290
     0
  0
SCALE
  5
4C
102
{ACAD_REACTORS
330
47
102
}
330
47
100
AcDbScale
 70
     0
300
1:8
140
1.0
141
8.0
290
     0
  0
SCALE
  5
4D
102
{ACAD_REACTORS
330
47
102
}
330
47
100
AcDbScale
 70
     0
300
1:10
140
1.0
141
10.0
290
     0
  0
SCALE
  5
4E
102
{ACAD_REACTORS
330
47
102
}
330
47
100
AcDbScale
 70
     0
300
1:16
140
1.0
141
16.0
290
     0
  0
SCALE
  5
4F
102
{ACAD_REACTORS
330
47
102
}
330
47
100
AcDbScale
 70
     0
300
1:20
140
1.0
141
20.0
290
     0
  0
SCALE
  5
50
102
{ACAD_REACTORS
330
47
102
}
330
47
100
AcDbScale
 70
     0
300
1:30
140
1.0
141
30.0
290
     0
  0
SCALE
  5
51
102
{ACAD_REACTORS
330
47
102
}
330
47
100
AcDbScale
 70
     0
300
1:40
140
1.0
141
40.0
290
     0
  0
SCALE
  5
52
102
{ACAD_REACTORS
330
47
102
}
330
47
100
AcDbScale
 70
     0
300
1:50
140
1.0
141
50.0
290
     0
  0
SCALE
  5
53
102
{ACAD_REACTORS
330
47
102
}
330
47
100
AcDbScale
 70
     0
300
1:100
140
1.0
141
100.0
290
     0
  0
SCALE
  5
54
102
{ACAD_REACTORS
330
47
102
}
330
47
100
AcDbScale
 70
     0
300
2:1
140
2.0
141
1.0
290
     0
  0
SCALE
  5
55
102
{ACAD_REACTORS
330
47
102
}
330
47
100
AcDbScale
 70
     0
300
4:1
140
4.0
141
1.0
290
     0
  0
SCALE
  5
56
102
{ACAD_REACTORS
330
47
102
}
330
47
100
AcDbScale
 70
     0
300
8:1
140
8.0
141
1.0
290
     0
  0
SCALE
  5
57
102
{ACAD_REACTORS
330
47
102
}
330
47
100
AcDbScale
 70
     0
300
10:1
140
10.0
141
1.0
290
     0
  0
SCALE
  5
58
102
{ACAD_REACTORS
330
47
102
}
330
47
100
AcDbScale
 70
     0
300
100:1
140
100.0
141
1.0
290
     0
  0
SCALE
  5
59
102
{ACAD_REACTORS
330
47
102
}
330
47
100
AcDbScale
 70
     0
300
1/128" = 1'-0"
140
0.0078125
141
12.0
290
     0
  0
SCALE
  5
5A
102
{ACAD_REACTORS
330
47
102
}
330
47
100
AcDbScale
 70
     0
300
1/64" = 1'-0"
140
0.015625
141
12.0
290
     0
  0
SCALE
  5
5B
102
{ACAD_REACTORS
330
47
102
}
330
47
100
AcDbScale
 70
     0
300
1/32" = 1'-0"
140
0.03125
141
12.0
290
     0
  0
SCALE
  5
5C
102
{ACAD_REACTORS
330
47
102
}
330
47
100
AcDbScale
 70
     0
300
1/16" = 1'-0"
140
0.0625
141
12.0
290
     0
  0
SCALE
  5
5D
102
{ACAD_REACTORS
330
47
102
}
330
47
100
AcDbScale
 70
     0
300
3/32" = 1'-0"
140
0.09375
141
12.0
290
     0
  0
SCALE
  5
5E
102
{ACAD_REACTORS
330
47
102
}
330
47
100
AcDbScale
 70
     0
300
1/8" = 1'-0"
140
0.125
141
12.0
290
     0
  0
SCALE
  5
5F
102
{ACAD_REACTORS
330
47
102
}
330
47
100
AcDbScale
 70
     0
300
3/16" = 1'-0"
140
0.1875
141
12.0
290
     0
  0
SCALE
  5
60
102
{ACAD_REACTORS
330
47
102
}
330
47
100
AcDbScale
 70
     0
300
1/4" = 1'-0"
140
0.25
141
12.0
290
     0
  0
SCALE
  5
61
102
{ACAD_REACTORS
330
47
102
}
330
47
100
AcDbScale
 70
     0
300
3/8" = 1'-0"
140
0.375
141
12.0
290
     0
  0
SCALE
  5
62
102
{ACAD_REACTORS
330
47
102
}
330
47
100
AcDbScale
 70
     0
300
1/2" = 1'-0"
140
0.5
141
12.0
290
     0
  0
SCALE
  5
63
102
{ACAD_REACTORS
330
47
102
}
330
47
100
AcDbScale
 70
     0
300
3/4" = 1'-0"
140
0.75
141
12.0
290
     0
  0
SCALE
  5
64
102
{ACAD_REACTORS
330
47
102
}
330
47
100
AcDbScale
 70
     0
300
1" = 1'-0"
140
1.0
141
12.0
290
     0
  0
SCALE
  5
65
102
{ACAD_REACTORS
330
47
102
}
330
47
100
AcDbScale
 70
     0
300
1-1/2" = 1'-0"
140
1.5
141
12.0
290
     0
  0
SCALE
  5
66
102
{ACAD_REACTORS
330
47
102
}
330
47
100
AcDbScale
 70
     0
300
3" = 1'-0"
140
3.0
141
12.0
290
     0
  0
SCALE
  5
67
102
{ACAD_REACTORS
330
47
102
}
330
47
100
AcDbScale
 70
     0
300
6" = 1'-0"
140
6.0
141
12.0
290
     0
  0
SCALE
  5
68
102
{ACAD_REACTORS
330
47
102
}
330
47
100
AcDbScale
 70
     0
300
1'-0" = 1'-0"
140
12.0
141
12.0
290
     0
  0
TABLESTYLE
  5
6A
102
{ACAD_REACTORS
330
69
102
}
102
{ACAD_XDICTIONARY
360
34F
102
}
330
69
100
AcDbTableStyle
  3
Standard
 70
     0
 71
     0
 40
0.06
 41
0.06
280
     0
281
     0
  7
Standard
140
4.5
170
     2
 62
     0
 63
   257
283
     0
 90
        4
 91
        0
  1

274
    -2
284
     1
 64
     0
275
    -2
285
     1
 65
     0
276
    -2
286
     1
 66
     0
277
    -2
287
     1
 67
     0
278
    -2
288
     1
 68
     0
279
    -2
289
     1
 69
     0
  7
Standard
140
6.0
170
     5
 62
     0
 63
   257
283
     0
 90
        4
 91
        0
  1

274
    -2
284
     1
 64
     0
275
    -2
285
     1
 65
     0
276
    -2
286
     1
 66
     0
277
    -2
287
     1
 67
     0
278
    -2
288
     1
 68
     0
279
    -2
289
     1
 69
     0
  7
Standard
140
4.5
170
     5
 62
     0
 63
   257
283
     0
 90
        4
 91
        0
  1

274
    -2
284
     1
 64
     0
275
    -2
285
     1
 65
     0
276
    -2
286
     1
 66
     0
277
    -2
287
     1
 67
     0
278
    -2
288
     1
 68
     0
279
    -2
289
     1
 69
     0
  0
VISUALSTYLE
  5
2F
102
{ACAD_REACTORS
330
2A
102
}
330
2A
100
AcDbVisualStyle
  2
2dWireframe
 70
     4
177
     3
291
     0
 70
    58
 90
        0
176
     1
 90
        2
176
     1
 90
        0
176
     1
 90
        0
176
     1
 40
0.6
176
     1
 40
30.0
176
     1
 62
     7
420
 16777215
176
     1
 90
        1
176
     1
 90
        4
176
     1
 62
     7
176
     1
 62
   257
176
     1
 90
        1
176
     1
 90
        1
176
     1
 40
1.0
176
     1
 90
        0
176
     1
 62
   257
176
     1
 40
1.0
176
     1
 90
        1
176
     1
 90
        6
176
     1
 90
        2
176
     1
 62
     7
176
     1
 90
        5
176
     1
 90
        0
176
     1
 90
        0
176
     1
290
     0
176
     1
 90
        1
176
     1
 40
0.0
176
     1
 90
        0
176
     1
290
     1
176
     1
290
     1
176
     1
290
     0
176
     1
290
     0
176
     1
290
     0
176
     1
290
     0
176
     1
290
     0
176
     1
290
     0
176
     1
290
     0
176
     1
 90
       50
176
     1
 40
0.0
176
     1
 40
1.0
176
     1
 90
        0
176
     1
 62
    18
420
        0
176
     1
 90
       50
176
     1
 90
        3
176
     1
 62
     5
420
      255
176
     1
290
     0
176
     1
 90
       50
176
     1
 90
       50
176
     1
 90
       50
176
     1
290
     0
176
     1
 90
       50
176
     1
 62
   256
176
     0
 40
1.0
176
     0
 90
        2
176
     1
  1
strokes_ogs.tif
176
     1
290
     0
176
     1
 40
1.0
176
     1
 40
1.0
176
     1
  0
VISUALSTYLE
  5
32
102
{ACAD_REACTORS
330
2A
102
}
330
2A
100
AcDbVisualStyle
  2
Basic
 70
     7
177
     3
291
     1
 70
    58
 90
        1
176
     1
 90
        0
176
     1
 90
        1
176
     1
 90
        0
176
     1
 40
0.6
176
     1
 40
30.0
176
     1
 62
     7
420
 16777215
176
     1
 90
        0
176
     1
 90
        4
176
     1
 62
     7
176
     1
 62
   257
176
     1
 90
        1
176
     1
 90
        1
176
     1
 40
1.0
176
     1
 90
        8
176
     1
 62
     7
176
     1
 40
1.0
176
     1
 90
        1
176
     1
 90
        6
176
     1
 90
        2
176
     1
 62
     7
176
     1
 90
        5
176
     1
 90
        0
176
     1
 90
        0
176
     1
290
     0
176
     1
 90
        1
176
     1
 40
0.0
176
     1
 90
        0
176
     1
290
     0
176
     1
290
     1
176
     1
290
     1
176
     1
290
     0
176
     1
290
     0
176
     1
290
     0
176
     1
290
     0
176
     1
290
     0
176
     1
290
     0
176
     1
 90
       50
176
     1
 40
0.0
176
     1
 40
1.0
176
     1
 90
        0
176
     1
 62
    18
420
        0
176
     1
 90
       50
176
     1
 90
        3
176
     1
 62
     5
420
      255
176
     1
290
     0
176
     1
 90
       50
176
     1
 90
       50
176
     1
 90
       50
176
     1
290
     0
176
     1
 90
       50
176
     1
 62
   256
176
     0
 40
1.0
176
     0
 90
        2
176
     1
  1
strokes_ogs.tif
176
     1
290
     0
176
     1
 40
1.0
176
     1
 40
1.0
176
     1
  0
VISUALSTYLE
  5
36
102
{ACAD_REACTORS
330
2A
102
}
330
2A
100
AcDbVisualStyle
  2
Brighten
 70
    12
177
     3
291
     1
 70
    58
 90
        2
176
     1
 90
        2
176
     1
 90
        0
176
     1
 90
        0
176
     1
 40
0.6
176
     1
 40
30.0
176
     1
 62
     7
420
 16777215
176
     1
 90
        1
176
     1
 90
        4
176
     1
 62
     7
176
     1
 62
   257
176
     1
 90
        1
176
     1
 90
        1
176
     1
 40
1.0
176
     1
 90
        8
176
     1
 62
     7
176
     1
 40
1.0
176
     1
 90
        1
176
     1
 90
        6
176
     1
 90
        2
176
     1
 62
     7
176
     1
 90
        5
176
     1
 90
        0
176
     1
 90
        0
176
     1
290
     0
176
     1
 90
        1
176
     1
 40
50.0
176
     1
 90
        0
176
     1
290
     0
176
     1
290
     1
176
     1
290
     1
176
     1
290
     0
176
     1
290
     0
176
     1
290
     0
176
     1
290
     0
176
     1
290
     0
176
     1
290
     0
176
     1
 90
       50
176
     1
 40
0.0
176
     1
 40
1.0
176
     1
 90
        0
176
     1
 62
    18
420
        0
176
     1
 90
       50
176
     1
 90
        3
176
     1
 62
     5
420
      255
176
     1
290
     0
176
     1
 90
       50
176
     1
 90
       50
176
     1
 90
       50
176
     1
290
     0
176
     1
 90
       50
176
     1
 62
   256
176
     0
 40
1.0
176
     0
 90
        2
176
     1
  1
strokes_ogs.tif
176
     1
290
     0
176
     1
 40
1.0
176
     1
 40
1.0
176
     1
  0
VISUALSTYLE
  5
3A
102
{ACAD_REACTORS
330
2A
102
}
330
2A
100
AcDbVisualStyle
  2
ColorChange
 70
    16
177
     3
291
     1
 70
    58
 90
        2
176
     1
 90
        2
176
     1
 90
        3
176
     1
 90
        0
176
     1
 40
0.6
176
     1
 40
30.0
176
     1
 62
     8
420
  8421504
176
     1
 90
        1
176
     1
 90
        4
176
     1
 62
     7
176
     1
 62
   257
176
     1
 90
        1
176
     1
 90
        1
176
     1
 40
1.0
176
     1
 90
        8
176
     1
 62
     8
420
  8421504
176
     1
 40
1.0
176
     1
 90
        1
176
     1
 90
        6
176
     1
 90
        2
176
     1
 62
     7
176
     1
 90
        5
176
     1
 90
        0
176
     1
 90
        0
176
     1
290
     0
176
     1
 90
        1
176
     1
 40
0.0
176
     1
 90
        0
176
     1
290
     0
176
     1
290
     1
176
     1
290
     1
176
     1
290
     0
176
     1
290
     0
176
     1
290
     0
176
     1
290
     0
176
     1
290
     0
176
     1
290
     0
176
     1
 90
       50
176
     1
 40
0.0
176
     1
 40
1.0
176
     1
 90
        0
176
     1
 62
    18
420
        0
176
     1
 90
       50
176
     1
 90
        3
176
     1
 62
     5
420
      255
176
     1
290
     0
176
     1
 90
       50
176
     1
 90
       50
176
     1
 90
       50
176
     1
290
     0
176
     1
 90
       50
176
     1
 62
   256
176
     0
 40
1.0
176
     0
 90
        2
176
     1
  1
strokes_ogs.tif
176
     1
290
     0
176
     1
 40
1.0
176
     1
 40
1.0
176
     1
  0
VISUALSTYLE
  5
34
102
{ACAD_REACTORS
330
2A
102
}
330
2A
100
AcDbVisualStyle
  2
Conceptual
 70
     9
177
     3
291
     0
 70
    58
 90
        3
176
     1
 90
        2
176
     1
 90
        0
176
     1
 90
        0
176
     1
 40
0.6
176
     1
 40
30.0
176
     1
 62
     7
420
 16777215
176
     1
 90
        2
176
     1
 90
        2
176
     1
 62
     7
176
     1
 62
   257
176
     1
 90
        1
176
     1
 90
        1
176
     1
 40
179.0
176
     1
 90
        8
176
     1
 62
     7
176
     1
 40
1.0
176
     1
 90
        1
176
     1
 90
        6
176
     1
 90
        2
176
     1
 62
     7
176
     1
 90
        3
176
     1
 90
        0
176
     1
 90
        0
176
     1
290
     0
176
     1
 90
        1
176
     1
 40
0.0
176
     1
 90
        0
176
     1
290
     0
176
     1
290
     1
176
     1
290
     1
176
     1
290
     0
176
     1
290
     0
176
     1
290
     0
176
     1
290
     0
176
     1
290
     0
176
     1
290
     0
176
     1
 90
       50
176
     1
 40
0.0
176
     1
 40
1.0
176
     1
 90
        0
176
     1
 62
    18
420
        0
176
     1
 90
       50
176
     1
 90
        3
176
     1
 62
     5
420
      255
176
     1
290
     0
176
     1
 90
       50
176
     1
 90
       50
176
     1
 90
       50
176
     1
290
     0
176
     1
 90
       50
176
     1
 62
   256
176
     0
 40
1.0
176
     0
 90
        2
176
     1
  1
strokes_ogs.tif
176
     1
290
     0
176
     1
 40
1.0
176
     1
 40
1.0
176
     1
  0
VISUALSTYLE
  5
35
102
{ACAD_REACTORS
330
2A
102
}
330
2A
100
AcDbVisualStyle
  2
Dim
 70
    11
177
     3
291
     1
 70
    58
 90
        2
176
     1
 90
        2
176
     1
 90
        0
176
     1
 90
        0
176
     1
 40
0.6
176
     1
 40
30.0
176
     1
 62
     7
420
 16777215
176
     1
 90
        1
176
     1
 90
        4
176
     1
 62
     7
176
     1
 62
   257
176
     1
 90
        1
176
     1
 90
        1
176
     1
 40
1.0
176
     1
 90
        8
176
     1
 62
     7
176
     1
 40
1.0
176
     1
 90
        1
176
     1
 90
        6
176
     1
 90
        2
176
     1
 62
     7
176
     1
 90
        5
176
     1
 90
        0
176
     1
 90
        0
176
     1
290
     0
176
     1
 90
        1
176
     1
 40
-50.0
176
     1
 90
        0
176
     1
290
     0
176
     1
290
     1
176
     1
290
     1
176
     1
290
     0
176
     1
290
     0
176
     1
290
     0
176
     1
290
     0
176
     1
290
     0
176
     1
290
     0
176
     1
 90
       50
176
     1
 40
0.0
176
     1
 40
1.0
176
     1
 90
        0
176
     1
 62
    18
420
        0
176
     1
 90
       50
176
     1
 90
        3
176
     1
 62
     5
420
      255
176
     1
290
     0
176
     1
 90
       50
176
     1
 90
       50
176
     1
 90
       50
176
     1
290
     0
176
     1
 90
       50
176
     1
 62
   256
176
     0
 40
1.0
176
     0
 90
        2
176
     1
  1
strokes_ogs.tif
176
     1
290
     0
176
     1
 40
1.0
176
     1
 40
1.0
176
     1
  0
VISUALSTYLE
  5
3D
102
{ACAD_REACTORS
330
2A
102
}
330
2A
100
AcDbVisualStyle
  2
EdgeColorOff
 70
    22
177
     3
291
     1
 70
    58
 90
        2
176
     0
 90
        2
176
     0
 90
        0
176
     0
 90
        0
176
     0
 40
0.6
176
     0
 40
30.0
176
     0
 62
     7
420
 16777215
176
     0
 90
        1
176
     0
 90
        4
176
     0
 62
     7
176
     0
 62
   257
176
     0
 90
        1
176
     0
 90
        1
176
     0
 40
1.0
176
     0
 90
        8
176
     2
 62
     7
176
     0
 40
1.0
176
     0
 90
        1
176
     0
 90
        6
176
     0
 90
        2
176
     0
 62
     7
176
     0
 90
        5
176
     0
 90
        0
176
     0
 90
        0
176
     0
290
     0
176
     0
 90
        1
176
     0
 40
0.0
176
     0
 90
        0
176
     0
290
     0
176
     0
290
     1
176
     0
290
     1
176
     0
290
     0
176
     0
290
     0
176
     0
290
     0
176
     0
290
     0
176
     0
290
     0
176
     0
290
     0
176
     0
 90
       50
176
     0
 40
0.0
176
     0
 40
1.0
176
     0
 90
        0
176
     0
 62
    18
420
        0
176
     0
 90
       50
176
     0
 90
        3
176
     0
 62
     5
420
      255
176
     0
290
     0
176
     0
 90
       50
176
     0
 90
       50
176
     0
 90
       50
176
     0
290
     0
176
     0
 90
       50
176
     0
 62
   256
176
     0
 40
1.0
176
     0
 90
        2
176
     0
  1
strokes_ogs.tif
176
     0
290
     0
176
     0
 40
1.0
176
     0
 40
1.0
176
     0
  0
VISUALSTYLE
  5
39
102
{ACAD_REACTORS
330
2A
102
}
330
2A
100
AcDbVisualStyle
  2
Facepattern
 70
    15
177
     3
291
     1
 70
    58
 90
        2
176
     1
 90
        2
176
     1
 90
        0
176
     1
 90
        0
176
     1
 40
0.6
176
     1
 40
30.0
176
     1
 62
     7
420
 16777215
176
     1
 90
        1
176
     1
 90
        4
176
     1
 62
     7
176
     1
 62
   257
176
     1
 90
        1
176
     1
 90
        1
176
     1
 40
1.0
176
     1
 90
        8
176
     1
 62
     7
176
     1
 40
1.0
176
     1
 90
        1
176
     1
 90
        6
176
     1
 90
        2
176
     1
 62
     7
176
     1
 90
        5
176
     1
 90
        0
176
     1
 90
        0
176
     1
290
     0
176
     1
 90
        1
176
     1
 40
0.0
176
     1
 90
        0
176
     1
290
     0
176
     1
290
     1
176
     1
290
     1
176
     1
290
     0
176
     1
290
     0
176
     1
290
     0
176
     1
290
     0
176
     1
290
     0
176
     1
290
     0
176
     1
 90
       50
176
     1
 40
0.0
176
     1
 40
1.0
176
     1
 90
        0
176
     1
 62
    18
420
        0
176
     1
 90
       50
176
     1
 90
        3
176
     1
 62
     5
420
      255
176
     1
290
     0
176
     1
 90
       50
176
     1
 90
       50
176
     1
 90
       50
176
     1
290
     0
176
     1
 90
       50
176
     1
 62
   256
176
     0
 40
1.0
176
     0
 90
        2
176
     1
  1
strokes_ogs.tif
176
     1
290
     0
176
     1
 40
1.0
176
     1
 40
1.0
176
     1
  0
VISUALSTYLE
  5
2B
102
{ACAD_REACTORS
330
2A
102
}
330
2A
100
AcDbVisualStyle
  2
Flat
 70
     0
177
     3
291
     1
 70
    58
 90
        2
176
     1
 90
        1
176
     1
 90
        1
176
     1
 90
        2
176
     1
 40
0.6
176
     1
 40
30.0
176
     1
 62
     7
420
 16777215
176
     1
 90
        0
176
     1
 90
        0
176
     1
 62
     7
176
     1
 62
   257
176
     1
 90
        1
176
     1
 90
        1
176
     1
 40
1.0
176
     1
 90
        8
176
     1
 62
     7
176
     1
 40
1.0
176
     1
 90
        1
176
     1
 90
        6
176
     1
 90
        2
176
     1
 62
     7
176
     1
 90
        5
176
     1
 90
        0
176
     1
 90
        0
176
     1
290
     0
176
     1
 90
       13
176
     1
 40
0.0
176
     1
 90
        0
176
     1
290
     0
176
     1
290
     1
176
     1
290
     1
176
     1
290
     0
176
     1
290
     0
176
     1
290
     0
176
     1
290
     0
176
     1
290
     0
176
     1
290
     0
176
     1
 90
       50
176
     1
 40
0.0
176
     1
 40
1.0
176
     1
 90
        0
176
     1
 62
    18
420
        0
176
     1
 90
       50
176
     1
 90
        3
176
     1
 62
     5
420
      255
176
     1
290
     0
176
     1
 90
       50
176
     1
 90
       50
176
     1
 90
       50
176
     1
290
     0
176
     1
 90
       50
176
     1
 62
   256
176
     0
 40
1.0
176
     0
 90
        2
176
     1
  1
strokes_ogs.tif
176
     1
290
     0
176
     1
 40
1.0
176
     1
 40
1.0
176
     1
  0
VISUALSTYLE
  5
2C
102
{ACAD_REACTORS
330
2A
102
}
330
2A
100
AcDbVisualStyle
  2
FlatWithEdges
 70
     1
177
     3
291
     1
 70
    58
 90
        2
176
     1
 90
        1
176
     1
 90
        1
176
     1
 90
        2
176
     1
 40
0.6
176
     1
 40
30.0
176
     1
 62
     7
420
 16777215
176
     1
 90
        1
176
     1
 90
        0
176
     1
 62
     7
176
     1
 62
   257
176
     1
 90
        1
176
     1
 90
        1
176
     1
 40
1.0
176
     1
 90
        0
176
     1
 62
   257
176
     1
 40
1.0
176
     1
 90
        1
176
     1
 90
        6
176
     1
 90
        2
176
     1
 62
     7
176
     1
 90
        5
176
     1
 90
        0
176
     1
 90
        0
176
     1
290
     0
176
     1
 90
       13
176
     1
 40
0.0
176
     1
 90
        0
176
     1
290
     0
176
     1
290
     1
176
     1
290
     1
176
     1
290
     0
176
     1
290
     0
176
     1
290
     0
176
     1
290
     0
176
     1
290
     0
176
     1
290
     0
176
     1
 90
       50
176
     1
 40
0.0
176
     1
 40
1.0
176
     1
 90
        0
176
     1
 62
    18
420
        0
176
     1
 90
       50
176
     1
 90
        3
176
     1
 62
     5
420
      255
176
     1
290
     0
176
     1
 90
       50
176
     1
 90
       50
176
     1
 90
       50
176
     1
290
     0
176
     1
 90
       50
176
     1
 62
   256
176
     0
 40
1.0
176
     0
 90
        2
176
     1
  1
strokes_ogs.tif
176
     1
290
     0
176
     1
 40
1.0
176
     1
 40
1.0
176
     1
  0
VISUALSTYLE
  5
2D
102
{ACAD_REACTORS
330
2A
102
}
330
2A
100
AcDbVisualStyle
  2
Gouraud
 70
     2
177
     3
291
     1
 70
    58
 90
        2
176
     1
 90
        2
176
     1
 90
        1
176
     1
 90
        2
176
     1
 40
0.6
176
     1
 40
30.0
176
     1
 62
     7
420
 16777215
176
     1
 90
        0
176
     1
 90
        0
176
     1
 62
     7
176
     1
 62
   257
176
     1
 90
        1
176
     1
 90
        1
176
     1
 40
1.0
176
     1
 90
        0
176
     1
 62
     7
176
     1
 40
1.0
176
     1
 90
        1
176
     1
 90
        6
176
     1
 90
        2
176
     1
 62
     7
176
     1
 90
        5
176
     1
 90
        0
176
     1
 90
        0
176
     1
290
     0
176
     1
 90
       13
176
     1
 40
0.0
176
     1
 90
        0
176
     1
290
     0
176
     1
290
     1
176
     1
290
     1
176
     1
290
     0
176
     1
290
     0
176
     1
290
     0
176
     1
290
     0
176
     1
290
     0
176
     1
290
     0
176
     1
 90
       50
176
     1
 40
0.0
176
     1
 40
1.0
176
     1
 90
        0
176
     1
 62
    18
420
        0
176
     1
 90
       50
176
     1
 90
        3
176
     1
 62
     5
420
      255
176
     1
290
     0
176
     1
 90
       50
176
     1
 90
       50
176
     1
 90
       50
176
     1
290
     0
176
     1
 90
       50
176
     1
 62
   256
176
     0
 40
1.0
176
     0
 90
        2
176
     1
  1
strokes_ogs.tif
176
     1
290
     0
176
     1
 40
1.0
176
     1
 40
1.0
176
     1
  0
VISUALSTYLE
  5
2E
102
{ACAD_REACTORS
330
2A
102
}
330
2A
100
AcDbVisualStyle
  2
GouraudWithEdges
 70
     3
177
     3
291
     1
 70
    58
 90
        2
176
     1
 90
        2
176
     1
 90
        1
176
     1
 90
        2
176
     1
 40
0.6
176
     1
 40
30.0
176
     1
 62
     7
420
 16777215
176
     1
 90
        1
176
     1
 90
        0
176
     1
 62
     7
176
     1
 62
   257
176
     1
 90
        1
176
     1
 90
        1
176
     1
 40
1.0
176
     1
 90
        0
176
     1
 62
   257
176
     1
 40
1.0
176
     1
 90
        1
176
     1
 90
        6
176
     1
 90
        2
176
     1
 62
     7
176
     1
 90
        5
176
     1
 90
        0
176
     1
 90
        0
176
     1
290
     0
176
     1
 90
       13
176
     1
 40
0.0
176
     1
 90
        0
176
     1
290
     0
176
     1
290
     1
176
     1
290
     1
176
     1
290
     0
176
     1
290
     0
176
     1
290
     0
176
     1
290
     0
176
     1
290
     0
176
     1
290
     0
176
     1
 90
       50
176
     1
 40
0.0
176
     1
 40
1.0
176
     1
 90
        0
176
     1
 62
    18
420
        0
176
     1
 90
       50
176
     1
 90
        3
176
     1
 62
     5
420
      255
176
     1
290
     0
176
     1
 90
       50
176
     1
 90
       50
176
     1
 90
       50
176
     1
290
     0
176
     1
 90
       50
176
     1
 62
   256
176
     0
 40
1.0
176
     0
 90
        2
176
     1
  1
strokes_ogs.tif
176
     1
290
     0
176
     1
 40
1.0
176
     1
 40
1.0
176
     1
  0
VISUALSTYLE
  5
31
102
{ACAD_REACTORS
330
2A
102
}
330
2A
100
AcDbVisualStyle
  2
Hidden
 70
     6
177
     3
291
     0
 70
    58
 90
        1
176
     1
 90
        2
176
     1
 90
        2
176
     1
 90
        0
176
     1
 40
0.6
176
     1
 40
30.0
176
     1
 62
     7
420
 16777215
176
     1
 90
        2
176
     1
 90
        2
176
     1
 62
     7
176
     1
 62
   257
176
     1
 90
        2
176
     1
 90
        1
176
     1
 40
40.0
176
     1
 90
        0
176
     1
 62
   257
176
     1
 40
1.0
176
     1
 90
        1
176
     1
 90
        6
176
     1
 90
        2
176
     1
 62
     7
176
     1
 90
        3
176
     1
 90
        0
176
     1
 90
        0
176
     1
290
     0
176
     1
 90
        1
176
     1
 40
0.0
176
     1
 90
        0
176
     1
290
     0
176
     1
290
     1
176
     1
290
     1
176
     1
290
     0
176
     1
290
     0
176
     1
290
     0
176
     1
290
     0
176
     1
290
     0
176
     1
290
     0
176
     1
 90
       50
176
     1
 40
0.0
176
     1
 40
1.0
176
     1
 90
        0
176
     1
 62
    18
420
        0
176
     1
 90
       50
176
     1
 90
        3
176
     1
 62
     5
420
      255
176
     1
290
     0
176
     1
 90
       50
176
     1
 90
       50
176
     1
 90
       50
176
     1
290
     0
176
     1
 90
       50
176
     1
 62
   256
176
     0
 40
1.0
176
     0
 90
        2
176
     1
  1
strokes_ogs.tif
176
     1
290
     0
176
     1
 40
1.0
176
     1
 40
1.0
176
     1
  0
VISUALSTYLE
  5
3B
102
{ACAD_REACTORS
330
2A
102
}
330
2A
100
AcDbVisualStyle
  2
JitterOff
 70
    20
177
     3
291
     1
 70
    58
 90
        2
176
     0
 90
        2
176
     0
 90
        0
176
     0
 90
        0
176
     0
 40
0.6
176
     0
 40
30.0
176
     0
 62
     7
420
 16777215
176
     0
 90
        1
176
     0
 90
        4
176
     0
 62
     7
176
     0
 62
   257
176
     0
 90
        1
176
     0
 90
        1
176
     0
 40
1.0
176
     0
 90
       10
176
     2
 62
     7
176
     0
 40
1.0
176
     0
 90
        1
176
     0
 90
        6
176
     0
 90
        2
176
     0
 62
     7
176
     0
 90
        5
176
     0
 90
        0
176
     0
 90
        0
176
     0
290
     0
176
     0
 90
        1
176
     0
 40
0.0
176
     0
 90
        0
176
     0
290
     0
176
     0
290
     1
176
     0
290
     1
176
     0
290
     0
176
     0
290
     0
176
     0
290
     0
176
     0
290
     0
176
     0
290
     0
176
     0
290
     0
176
     0
 90
       50
176
     0
 40
0.0
176
     0
 40
1.0
176
     0
 90
        0
176
     0
 62
    18
420
        0
176
     0
 90
       50
176
     0
 90
        3
176
     0
 62
     5
420
      255
176
     0
290
     0
176
     0
 90
       50
176
     0
 90
       50
176
     0
 90
       50
176
     0
290
     0
176
     0
 90
       50
176
     0
 62
   256
176
     0
 40
1.0
176
     0
 90
        2
176
     0
  1
strokes_ogs.tif
176
     0
290
     0
176
     0
 40
1.0
176
     0
 40
1.0
176
     0
  0
VISUALSTYLE
  5
38
102
{ACAD_REACTORS
330
2A
102
}
330
2A
100
AcDbVisualStyle
  2
Linepattern
 70
    14
177
     3
291
     1
 70
    58
 90
        2
176
     1
 90
        2
176
     1
 90
        0
176
     1
 90
        0
176
     1
 40
0.6
176
     1
 40
30.0
176
     1
 62
     7
420
 16777215
176
     1
 90
        1
176
     1
 90
        4
176
     1
 62
     7
176
     1
 62
   257
176
     1
 90
        7
176
     1
 90
        7
176
     1
 40
1.0
176
     1
 90
        8
176
     1
 62
     7
176
     1
 40
1.0
176
     1
 90
        1
176
     1
 90
        6
176
     1
 90
        2
176
     1
 62
     7
176
     1
 90
        5
176
     1
 90
        0
176
     1
 90
        0
176
     1
290
     0
176
     1
 90
        1
176
     1
 40
0.0
176
     1
 90
        0
176
     1
290
     0
176
     1
290
     1
176
     1
290
     1
176
     1
290
     0
176
     1
290
     0
176
     1
290
     0
176
     1
290
     0
176
     1
290
     0
176
     1
290
     0
176
     1
 90
       50
176
     1
 40
0.0
176
     1
 40
1.0
176
     1
 90
        0
176
     1
 62
    18
420
        0
176
     1
 90
       50
176
     1
 90
        3
176
     1
 62
     5
420
      255
176
     1
290
     0
176
     1
 90
       50
176
     1
 90
       50
176
     1
 90
       50
176
     1
290
     0
176
     1
 90
       50
176
     1
 62
   256
176
     0
 40
1.0
176
     0
 90
        2
176
     1
  1
strokes_ogs.tif
176
     1
290
     0
176
     1
 40
1.0
176
     1
 40
1.0
176
     1
  0
VISUALSTYLE
  5
3C
102
{ACAD_REACTORS
330
2A
102
}
330
2A
100
AcDbVisualStyle
  2
OverhangOff
 70
    21
177
     3
291
     1
 70
    58
 90
        2
176
     0
 90
        2
176
     0
 90
        0
176
     0
 90
        0
176
     0
 40
0.6
176
     0
 40
30.0
176
     0
 62
     7
420
 16777215
176
     0
 90
        1
176
     0
 90
        4
176
     0
 62
     7
176
     0
 62
   257
176
     0
 90
        1
176
     0
 90
        1
176
     0
 40
1.0
176
     0
 90
        9
176
     2
 62
     7
176
     0
 40
1.0
176
     0
 90
        1
176
     0
 90
        6
176
     0
 90
        2
176
     0
 62
     7
176
     0
 90
        5
176
     0
 90
        0
176
     0
 90
        0
176
     0
290
     0
176
     0
 90
        1
176
     0
 40
0.0
176
     0
 90
        0
176
     0
290
     0
176
     0
290
     1
176
     0
290
     1
176
     0
290
     0
176
     0
290
     0
176
     0
290
     0
176
     0
290
     0
176
     0
290
     0
176
     0
290
     0
176
     0
 90
       50
176
     0
 40
0.0
176
     0
 40
1.0
176
     0
 90
        0
176
     0
 62
    18
420
        0
176
     0
 90
       50
176
     0
 90
        3
176
     0
 62
     5
420
      255
176
     0
290
     0
176
     0
 90
       50
176
     0
 90
       50
176
     0
 90
       50
176
     0
290
     0
176
     0
 90
       50
176
     0
 62
   256
176
     0
 40
1.0
176
     0
 90
        2
176
     0
  1
strokes_ogs.tif
176
     0
290
     0
176
     0
 40
1.0
176
     0
 40
1.0
176
     0
  0
VISUALSTYLE
  5
33
102
{ACAD_REACTORS
330
2A
102
}
330
2A
100
AcDbVisualStyle
  2
Realistic
 70
     8
177
     3
291
     0
 70
    58
 90
        2
176
     1
 90
        3
176
     1
 90
        0
176
     1
 90
        2
176
     1
 40
0.6
176
     1
 40
30.0
176
     1
 62
     7
420
 16777215
176
     1
 90
        0
176
     1
 90
        0
176
     1
 62
     7
176
     1
 62
   257
176
     1
 90
        1
176
     1
 90
        1
176
     1
 40
1.0
176
     1
 90
        8
176
     1
 62
   257
176
     1
 40
1.0
176
     1
 90
        1
176
     1
 90
        6
176
     1
 90
        2
176
     1
 62
     7
176
     1
 90
        3
176
     1
 90
        0
176
     1
 90
        0
176
     1
290
     0
176
     1
 90
       13
176
     1
 40
0.0
176
     1
 90
        0
176
     1
290
     0
176
     1
290
     1
176
     1
290
     1
176
     1
290
     0
176
     1
290
     0
176
     1
290
     0
176
     1
290
     0
176
     1
290
     0
176
     1
290
     0
176
     1
 90
       50
176
     1
 40
0.0
176
     1
 40
1.0
176
     1
 90
        0
176
     1
 62
    18
420
        0
176
     1
 90
       50
176
     1
 90
        3
176
     1
 62
     5
420
      255
176
     1
290
     0
176
     1
 90
       50
176
     1
 90
       50
176
     1
 90
       50
176
     1
290
     0
176
     1
 90
       50
176
     1
 62
   256
176
     0
 40
1.0
176
     0
 90
        2
176
     1
  1
strokes_ogs.tif
176
     1
290
     0
176
     1
 40
1.0
176
     1
 40
1.0
176
     1
  0
VISUALSTYLE
  5
42
102
{ACAD_REACTORS
330
2A
102
}
330
2A
100
AcDbVisualStyle
  2
Shaded
 70
    27
177
     3
291
     0
 70
    58
 90
        2
176
     1
 90
        2
176
     1
 90
        1
176
     1
 90
        2
176
     1
 40
0.6
176
     1
 40
30.0
176
     1
 62
     7
420
 16777215
176
     1
 90
        0
176
     1
 90
        4
176
     1
 62
     7
176
     1
 62
   257
176
     1
 90
        1
176
     1
 90
        1
176
     1
 40
1.0
176
     1
 90
        8
176
     1
 62
   257
176
     1
 40
1.0
176
     1
 90
        1
176
     1
 90
        6
176
     1
 90
        2
176
     1
 62
     8
420
  7895160
176
     1
 90
        3
176
     1
 90
        0
176
     1
 90
        0
176
     1
290
     0
176
     1
 90
        5
176
     1
 40
0.0
176
     1
 90
        0
176
     1
290
     0
176
     1
290
     1
176
     1
290
     1
176
     1
290
     0
176
     1
290
     0
176
     1
290
     0
176
     1
290
     0
176
     1
290
     0
176
     1
290
     0
176
     1
 90
       50
176
     1
 40
0.0
176
     1
 40
1.0
176
     1
 90
        0
176
     1
 62
    18
420
        0
176
     1
 90
       50
176
     1
 90
        3
176
     1
 62
     5
420
      255
176
     1
290
     0
176
     1
 90
       50
176
     1
 90
       50
176
     1
 90
       50
176
     1
290
     0
176
     1
 90
       50
176
     1
 62
   256
176
     0
 40
1.0
176
     0
 90
        2
176
     1
  1
strokes_ogs.tif
176
     1
290
     0
176
     1
 40
1.0
176
     1
 40
1.0
176
     1
  0
VISUALSTYLE
  5
41
102
{ACAD_REACTORS
330
2A
102
}
330
2A
100
AcDbVisualStyle
  2
Shaded with edges
 70
    26
177
     3
291
     0
 70
    58
 90
        2
176
     1
 90
        2
176
     1
 90
        1
176
     1
 90
        2
176
     1
 40
0.6
176
     1
 40
30.0
176
     1
 62
     7
420
 16777215
176
     1
 90
        1
176
     1
 90
       10
176
     1
 62
     7
176
     1
 62
   257
176
     1
 90
        2
176
     1
 90
        1
176
     1
 40
1.0
176
     1
 90
        8
176
     1
 62
   257
176
     1
 40
1.0
176
     1
 90
        1
176
     1
 90
        6
176
     1
 90
        2
176
     1
 62
     7
176
     1
 90
        3
176
     1
 90
        0
176
     1
 90
        0
176
     1
290
     0
176
     1
 90
        5
176
     1
 40
0.0
176
     1
 90
        0
176
     1
290
     0
176
     1
290
     1
176
     1
290
     1
176
     1
290
     0
176
     1
290
     0
176
     1
290
     0
176
     1
290
     0
176
     1
290
     0
176
     1
290
     0
176
     1
 90
       50
176
     1
 40
0.0
176
     1
 40
1.0
176
     1
 90
        0
176
     1
 62
    18
420
        0
176
     1
 90
       50
176
     1
 90
        3
176
     1
 62
     5
420
      255
176
     1
290
     0
176
     1
 90
       50
176
     1
 90
       50
176
     1
 90
       50
176
     1
290
     0
176
     1
 90
       50
176
     1
 62
   256
176
     0
 40
1.0
176
     0
 90
        2
176
     1
  1
strokes_ogs.tif
176
     1
290
     0
176
     1
 40
1.0
176
     1
 40
1.0
176
     1
  0
VISUALSTYLE
  5
3E
102
{ACAD_REACTORS
330
2A
102
}
330
2A
100
AcDbVisualStyle
  2
Shades of Gray
 70
    23
177
     3
291
     0
 70
    58
 90
        2
176
     1
 90
        2
176
     1
 90
        3
176
     1
 90
        0
176
     1
 40
0.6
176
     1
 40
30.0
176
     1
 62
     7
420
 16777215
176
     1
 90
        2
176
     1
 90
        2
176
     1
 62
     7
176
     1
 62
     7
176
     1
 90
        1
176
     1
 90
        1
176
     1
 40
40.0
176
     1
 90
        8
176
     1
 62
     7
176
     1
 40
1.0
176
     1
 90
        1
176
     1
 90
        6
176
     1
 90
        2
176
     1
 62
     7
176
     1
 90
        3
176
     1
 90
        0
176
     1
 90
        0
176
     1
290
     0
176
     1
 90
        1
176
     1
 40
0.0
176
     1
 90
        0
176
     1
290
     0
176
     1
290
     1
176
     1
290
     1
176
     1
290
     0
176
     1
290
     0
176
     1
290
     0
176
     1
290
     0
176
     1
290
     0
176
     1
290
     0
176
     1
 90
       50
176
     1
 40
0.0
176
     1
 40
1.0
176
     1
 90
        0
176
     1
 62
    18
420
        0
176
     1
 90
       50
176
     1
 90
        3
176
     1
 62
     5
420
      255
176
     1
290
     0
176
     1
 90
       50
176
     1
 90
       50
176
     1
 90
       50
176
     1
290
     0
176
     1
 90
       50
176
     1
 62
   256
176
     0
 40
1.0
176
     0
 90
        2
176
     1
  1
strokes_ogs.tif
176
     1
290
     0
176
     1
 40
1.0
176
     1
 40
1.0
176
     1
  0
VISUALSTYLE
  5
3F
102
{ACAD_REACTORS
330
2A
102
}
330
2A
100
AcDbVisualStyle
  2
Sketchy
 70
    24
177
     3
291
     0
 70
    58
 90
        1
176
     1
 90
        2
176
     1
 90
        2
176
     1
 90
        0
176
     1
 40
0.6
176
     1
 40
30.0
176
     1
 62
     7
420
 16777215
176
     1
 90
        2
176
     1
 90
        2
176
     1
 62
     7
176
     1
 62
     7
176
     1
 90
        1
176
     1
 90
        1
176
     1
 40
40.0
176
     1
 90
       11
176
     1
 62
     7
176
     1
 40
1.0
176
     1
 90
        1
176
     1
 90
        6
176
     1
 90
        2
176
     1
 62
     7
176
     1
 90
        6
176
     1
 90
        0
176
     1
 90
        0
176
     1
290
     0
176
     1
 90
        1
176
     1
 40
0.0
176
     1
 90
        0
176
     1
290
     0
176
     1
290
     1
176
     1
290
     1
176
     1
290
     0
176
     1
290
     0
176
     1
290
     0
176
     1
290
     0
176
     1
290
     0
176
     1
290
     0
176
     1
 90
       50
176
     1
 40
0.0
176
     1
 40
1.0
176
     1
 90
        0
176
     1
 62
    18
420
        0
176
     1
 90
       50
176
     1
 90
        3
176
     1
 62
     5
420
      255
176
     1
290
     0
176
     1
 90
       50
176
     1
 90
       50
176
     1
 90
       50
176
     1
290
     0
176
     1
 90
       50
176
     1
 62
   256
176
     0
 40
1.0
176
     0
 90
        2
176
     1
  1
strokes_ogs.tif
176
     1
290
     0
176
     1
 40
1.0
176
     1
 40
1.0
176
     1
  0
VISUALSTYLE
  5
37
102
{ACAD_REACTORS
330
2A
102
}
330
2A
100
AcDbVisualStyle
  2
Thicken
 70
    13
177
     3
291
     1
 70
    58
 90
        2
176
     1
 90
        2
176
     1
 90
        0
176
     1
 90
        0
176
     1
 40
0.6
176
     1
 40
30.0
176
     1
 62
     7
420
 16777215
176
     1
 90
        1
176
     1
 90
        4
176
     1
 62
     7
176
     1
 62
   257
176
     1
 90
        1
176
     1
 90
        1
176
     1
 40
1.0
176
     1
 90
       12
176
     1
 62
     7
176
     1
 40
1.0
176
     1
 90
        1
176
     1
 90
        6
176
     1
 90
        2
176
     1
 62
     7
176
     1
 90
        5
176
     1
 90
        0
176
     1
 90
        0
176
     1
290
     0
176
     1
 90
        1
176
     1
 40
0.0
176
     1
 90
        0
176
     1
290
     0
176
     1
290
     1
176
     1
290
     1
176
     1
290
     0
176
     1
290
     0
176
     1
290
     0
176
     1
290
     0
176
     1
290
     0
176
     1
290
     0
176
     1
 90
       50
176
     1
 40
0.0
176
     1
 40
1.0
176
     1
 90
        0
176
     1
 62
    18
420
        0
176
     1
 90
       50
176
     1
 90
        3
176
     1
 62
     5
420
      255
176
     1
290
     0
176
     1
 90
       50
176
     1
 90
       50
176
     1
 90
       50
176
     1
290
     0
176
     1
 90
       50
176
     1
 62
   256
176
     0
 40
1.0
176
     0
 90
        2
176
     1
  1
strokes_ogs.tif
176
     1
290
     0
176
     1
 40
1.0
176
     1
 40
1.0
176
     1
  0
VISUALSTYLE
  5
30
102
{ACAD_REACTORS
330
2A
102
}
330
2A
100
AcDbVisualStyle
  2
Wireframe
 70
     5
177
     3
291
     0
 70
    58
 90
        0
176
     1
 90
        2
176
     1
 90
        0
176
     1
 90
        0
176
     1
 40
0.6
176
     1
 40
30.0
176
     1
 62
     7
420
 16777215
176
     1
 90
        1
176
     1
 90
        4
176
     1
 62
     7
176
     1
 62
   257
176
     1
 90
        1
176
     1
 90
        1
176
     1
 40
1.0
176
     1
 90
        0
176
     1
 62
   257
176
     1
 40
1.0
176
     1
 90
        1
176
     1
 90
        6
176
     1
 90
        2
176
     1
 62
     7
176
     1
 90
        3
176
     1
 90
        0
176
     1
 90
        0
176
     1
290
     0
176
     1
 90
        1
176
     1
 40
0.0
176
     1
 90
        0
176
     1
290
     0
176
     1
290
     1
176
     1
290
     1
176
     1
290
     0
176
     1
290
     0
176
     1
290
     0
176
     1
290
     0
176
     1
290
     0
176
     1
290
     0
176
     1
 90
       50
176
     1
 40
0.0
176
     1
 40
1.0
176
     1
 90
        0
176
     1
 62
    18
420
        0
176
     1
 90
       50
176
     1
 90
        3
176
     1
 62
     5
420
      255
176
     1
290
     0
176
     1
 90
       50
176
     1
 90
       50
176
     1
 90
       50
176
     1
290
     0
176
     1
 90
       50
176
     1
 62
   256
176
     0
 40
1.0
176
     0
 90
        2
176
     1
  1
strokes_ogs.tif
176
     1
290
     0
176
     1
 40
1.0
176
     1
 40
1.0
176
     1
  0
VISUALSTYLE
  5
40
102
{ACAD_REACTORS
330
2A
102
}
330
2A
100
AcDbVisualStyle
  2
X-Ray
 70
    25
177
     3
291
     0
 70
    58
 90
        2
176
     1
 90
        2
176
     1
 90
        1
176
     1
 90
        1
176
     1
 40
0.5
176
     1
 40
30.0
176
     1
 62
     7
420
 16777215
176
     1
 90
        1
176
     1
 90
        0
176
     1
 62
     7
176
     1
 62
   257
176
     1
 90
        1
176
     1
 90
        1
176
     1
 40
1.0
176
     1
 90
        8
176
     1
 62
     7
176
     1
 40
1.0
176
     1
 90
        1
176
     1
 90
        6
176
     1
 90
        2
176
     1
 62
     7
176
     1
 90
        3
176
     1
 90
        0
176
     1
 90
        0
176
     1
290
     0
176
     1
 90
       13
176
     1
 40
0.0
176
     1
 90
        0
176
     1
290
     0
176
     1
290
     1
176
     1
290
     1
176
     1
290
     0
176
     1
290
     0
176
     1
290
     0
176
     1
290
     0
176
     1
290
     0
176
     1
290
     0
176
     1
 90
       50
176
     1
 40
0.0
176
     1
 40
1.0
176
     1
 90
        0
176
     1
 62
    18
420
        0
176
     1
 90
       50
176
     1
 90
        3
176
     1
 62
     5
420
      255
176
     1
290
     0
176
     1
 90
       50
176
     1
 90
       50
176
     1
 90
       50
176
     1
290
     0
176
     1
 90
       50
176
     1
 62
   256
176
     0
 40
1.0
176
     0
 90
        2
176
     1
  1
strokes_ogs.tif
176
     1
290
     0
176
     1
 40
1.0
176
     1
 40
1.0
176
     1
  0
DICTIONARYVAR
  5
342
102
{ACAD_REACTORS
330
341
102
}
330
341
100
DictionaryVariables
280
     0
  1
1:1
  0
DICTIONARYVAR
  5
34A
102
{ACAD_REACTORS
330
341
102
}
330
341
100
DictionaryVariables
280
     0
  1
3.500000
  0
DICTIONARYVAR
  5
34B
102
{ACAD_REACTORS
330
341
102
}
330
341
100
DictionaryVariables
280
     0
  1
acadiso.lin
  0
DICTIONARYVAR
  5
347
102
{ACAD_REACTORS
330
341
102
}
330
341
100
DictionaryVariables
280
     0
  1
Standard
  0
DICTIONARYVAR
  5
346
102
{ACAD_REACTORS
330
341
102
}
330
341
100
DictionaryVariables
280
     0
  1
Standard
  0
DICTIONARY
  5
34F
330
6A
100
AcDbDictionary
280
     1
281
     1
  3
ACAD_ROUNDTRIP_2008_TABLESTYLE_CELLSTYLEMAP
360
350
  0
CELLSTYLEMAP
  5
350
102
{ACAD_REACTORS
330
34F
102
}
330
34F
100
AcDbCellStyleMap
 90
        3
300
CELLSTYLE
  1
TABLEFORMAT_BEGIN
 90
        5
170
     1
 91
        0
 92
    32768
 62
   257
 93
        1
300
CONTENTFORMAT
  1
CONTENTFORMAT_BEGIN
 90
        0
 91
        0
 92
        4
 93
        0
300

 40
0.0
140
1.0
 94
        5
 62
     0
340
11
144
6.0
309
CONTENTFORMAT_END
171
     1
301
MARGIN
  1
CELLMARGIN_BEGIN
 40
1.5
 40
1.5
 40
1.5
 40
1.5
 40
1.5
 40
1.5
309
CELLMARGIN_END
 94
        6
 95
        1
302
GRIDFORMAT
  1
GRIDFORMAT_BEGIN
 90
        0
 91
        1
 62
     0
 92
       -2
340
14
 93
        0
 40
0.045
309
GRIDFORMAT_END
 95
        2
302
GRIDFORMAT
  1
GRIDFORMAT_BEGIN
 90
        0
 91
        1
 62
     0
 92
       -2
340
14
 93
        0
 40
0.045
309
GRIDFORMAT_END
 95
        4
302
GRIDFORMAT
  1
GRIDFORMAT_BEGIN
 90
        0
 91
        1
 62
     0
 92
       -2
340
14
 93
        0
 40
0.045
309
GRIDFORMAT_END
 95
        8
302
GRIDFORMAT
  1
GRIDFORMAT_BEGIN
 90
        0
 91
        1
 62
     0
 92
       -2
340
14
 93
        0
 40
0.045
309
GRIDFORMAT_END
 95
       16
302
GRIDFORMAT
  1
GRIDFORMAT_BEGIN
 90
        0
 91
        1
 62
     0
 92
       -2
340
14
 93
        0
 40
0.045
309
GRIDFORMAT_END
 95
       32
302
GRIDFORMAT
  1
GRIDFORMAT_BEGIN
 90
        0
 91
        1
 62
     0
 92
       -2
340
14
 93
        0
 40
0.045
309
GRIDFORMAT_END
309
TABLEFORMAT_END
  1
CELLSTYLE_BEGIN
 90
        1
 91
        1
300
_TITLE
309
CELLSTYLE_END
300
CELLSTYLE
  1
TABLEFORMAT_BEGIN
 90
        5
170
     1
 91
        0
 92
        0
 62
   257
 93
        1
300
CONTENTFORMAT
  1
CONTENTFORMAT_BEGIN
 90
        0
 91
        0
 92
        4
 93
        0
300

 40
0.0
140
1.0
 94
        5
 62
     0
340
11
144
4.5
309
CONTENTFORMAT_END
171
     1
301
MARGIN
  1
CELLMARGIN_BEGIN
 40
1.5
 40
1.5
 40
1.5
 40
1.5
 40
1.5
 40
1.5
309
CELLMARGIN_END
 94
        6
 95
        1
302
GRIDFORMAT
  1
GRIDFORMAT_BEGIN
 90
        0
 91
        1
 62
     0
 92
       -2
340
14
 93
        0
 40
0.045
309
GRIDFORMAT_END
 95
        2
302
GRIDFORMAT
  1
GRIDFORMAT_BEGIN
 90
        0
 91
        1
 62
     0
 92
       -2
340
14
 93
        0
 40
0.045
309
GRIDFORMAT_END
 95
        4
302
GRIDFORMAT
  1
GRIDFORMAT_BEGIN
 90
        0
 91
        1
 62
     0
 92
       -2
340
14
 93
        0
 40
0.045
309
GRIDFORMAT_END
 95
        8
302
GRIDFORMAT
  1
GRIDFORMAT_BEGIN
 90
        0
 91
        1
 62
     0
 92
       -2
340
14
 93
        0
 40
0.045
309
GRIDFORMAT_END
 95
       16
302
GRIDFORMAT
  1
GRIDFORMAT_BEGIN
 90
        0
 91
        1
 62
     0
 92
       -2
340
14
 93
        0
 40
0.045
309
GRIDFORMAT_END
 95
       32
302
GRIDFORMAT
  1
GRIDFORMAT_BEGIN
 90
        0
 91
        1
 62
     0
 92
       -2
340
14
 93
        0
 40
0.045
309
GRIDFORMAT_END
309
TABLEFORMAT_END
  1
CELLSTYLE_BEGIN
 90
        2
 91
        1
300
_HEADER
309
CELLSTYLE_END
300
CELLSTYLE
  1
TABLEFORMAT_BEGIN
 90
        5
170
     1
 91
        0
 92
        0
 62
   257
 93
        1
300
CONTENTFORMAT
  1
CONTENTFORMAT_BEGIN
 90
        0
 91
        0
 92
        4
 93
        0
300

 40
0.0
140
1.0
 94
        2
 62
     0
340
11
144
4.5
309
CONTENTFORMAT_END
171
     1
301
MARGIN
  1
CELLMARGIN_BEGIN
 40
1.5
 40
1.5
 40
1.5
 40
1.5
 40
1.5
 40
1.5
309
CELLMARGIN_END
 94
        6
 95
        1
302
GRIDFORMAT
  1
GRIDFORMAT_BEGIN
 90
        0
 91
        1
 62
     0
 92
       -2
340
14
 93
        0
 40
0.045
309
GRIDFORMAT_END
 95
        2
302
GRIDFORMAT
  1
GRIDFORMAT_BEGIN
 90
        0
 91
        1
 62
     0
 92
       -2
340
14
 93
        0
 40
0.045
309
GRIDFORMAT_END
 95
        4
302
GRIDFORMAT
  1
GRIDFORMAT_BEGIN
 90
        0
 91
        1
 62
     0
 92
       -2
340
14
 93
        0
 40
0.045
309
GRIDFORMAT_END
 95
        8
302
GRIDFORMAT
  1
GRIDFORMAT_BEGIN
 90
        0
 91
        1
 62
     0
 92
       -2
340
14
 93
        0
 40
0.045
309
GRIDFORMAT_END
 95
       16
302
GRIDFORMAT
  1
GRIDFORMAT_BEGIN
 90
        0
 91
        1
 62
     0
 92
       -2
340
14
 93
        0
 40
0.045
309
GRIDFORMAT_END
 95
       32
302
GRIDFORMAT
  1
GRIDFORMAT_BEGIN
 90
        0
 91
        1
 62
     0
 92
       -2
340
14
 93
        0
 40
0.045
309
GRIDFORMAT_END
309
TABLEFORMAT_END
  1
CELLSTYLE_BEGIN
 90
        3
 91
        2
300
_DATA
309
CELLSTYLE_END
  0
ENDSEC
  0
EOF
