  0
SECTION
  2
HEADER
  9
$ACADVER
  1
AC1015
  9
$ACADMAINTVER
 70
     6
  9
$DWGCODEPAGE
  3
DOS932
  9
$INSBASE
 10
0.0
 20
0.0
 30
0.0
  9
$EXTMIN
 10
0.0
 20
0.0
 30
0.0
  9
$EXTMAX
 10
210.0
 20
297.0
 30
0.0
  9
$LIMMIN
 10
0.0
 20
0.0
  9
$LIMMAX
 10
210.0
 20
297.0
  9
$ORTHOMODE
 70
     0
  9
$REGENMODE
 70
     1
  9
$FILLMODE
 70
     1
  9
$QTEXTMODE
 70
     0
  9
$MIRRTEXT
 70
     1
  9
$LTSCALE
 40
1.0
  9
$ATTMODE
 70
     1
  9
$TEXTSIZE
 40
3.5
  9
$TRACEWID
 40
1.0
  9
$TEXTSTYLE
  7
Standard
  9
$CLAYER
  8
0
  9
$CELTYPE
  6
ByLayer
  9
$CECOLOR
 62
   256
  9
$CELTSCALE
 40
1.0
  9
$DISPSILH
 70
     0
  9
$DIMSCALE
 40
1.0
  9
$DIMASZ
 40
3.302
  9
$DIMEXO
 40
1.0
  9
$DIMDLI
 40
3.75
  9
$DIMRND
 40
0.0
  9
$DIMDLE
 40
0.0
  9
$DIMEXE
 40
1.0
  9
$DIMTP
 40
0.0
  9
$DIMTM
 40
0.0
  9
$DIMTXT
 40
3.5
  9
$DIMCEN
 40
2.5
  9
$DIMTSZ
 40
0.0
  9
$DIMTOL
 70
     0
  9
$DIMLIM
 70
     0
  9
$DIMTIH
 70
     1
  9
$DIMTOH
 70
     1
  9
$DIMSE1
 70
     0
  9
$DIMSE2
 70
     0
  9
$DIMTAD
 70
     1
  9
$DIMZIN
 70
     1
  9
$DIMBLK
  1

  9
$DIMASO
 70
     1
  9
$DIMSHO
 70
     1
  9
$DIMPOST
  1

  9
$DIMAPOST
  1

  9
$DIMALT
 70
     0
  9
$DIMALTD
 70
     3
  9
$DIMALTF
 40
0.0393700787
  9
$DIMLFAC
 40
1.0
  9
$DIMTOFL
 70
     1
  9
$DIMTVP
 40
0.0
  9
$DIMTIX
 70
     0
  9
$DIMSOXD
 70
     0
  9
$DIMSAH
 70
     0
  9
$DIMBLK1
  1

  9
$DIMBLK2
  1

  9
$DIMSTYLE
  2
ISO-25
  9
$DIMCLRD
 70
     0
  9
$DIMCLRE
 70
     0
  9
$DIMCLRT
 70
     0
  9
$DIMTFAC
 40
1.0
  9
$DIMGAP
 40
1.524
  9
$DIMJUST
 70
     0
  9
$DIMSD1
 70
     0
  9
$DIMSD2
 70
     0
  9
$DIMTOLJ
 70
     0
  9
$DIMTZIN
 70
     1
  9
$DIMALTZ
 70
     0
  9
$DIMALTTZ
 70
     0
  9
$DIMUPT
 70
     0
  9
$DIMDEC
 70
     2
  9
$DIMTDEC
 70
     2
  9
$DIMALTU
 70
     2
  9
$DIMALTTD
 70
     3
  9
$DIMTXSTY
  7
Standard
  9
$DIMAUNIT
 70
     0
  9
$DIMADEC
 70
     2
  9
$DIMALTRND
 40
0.0
  9
$DIMAZIN
 70
     0
  9
$DIMDSEP
 70
    44
  9
$DIMATFIT
 70
     3
  9
$DIMFRAC
 70
     0
  9
$DIMLDRBLK
  1

  9
$DIMLUNIT
 70
     2
  9
$DIMLWD
 70
    -2
  9
$DIMLWE
 70
    -2
  9
$DIMTMOVE
 70
     0
  9
$LUNITS
 70
     2
  9
$LUPREC
 70
     2
  9
$SKETCHINC
 40
1.0
  9
$FILLETRAD
 40
10.0
  9
$AUNITS
 70
     0
  9
$AUPREC
 70
     2
  9
$MENU
  1
.
  9
$ELEVATION
 40
0.0
  9
$PELEVATION
 40
0.0
  9
$THICKNESS
 40
0.0
  9
$LIMCHECK
 70
     0
  9
$CHAMFERA
 40
0.0
  9
$CHAMFERB
 40
0.0
  9
$CHAMFERC
 40
0.0
  9
$CHAMFERD
 40
0.0
  9
$SKPOLY
 70
     0
  9
$TDCREATE
 40
2458827.65990147
  9
$TDUCREATE
 40
2458827.28490147
  9
$TDUPDATE
 40
2458827.659901898
  9
$TDUUPDATE
 40
2458827.284901898
  9
$TDINDWG
 40
0.0000000116
  9
$TDUSRTIMER
 40
0.0000000116
  9
$USRTIMER
 70
     1
  9
$ANGBASE
 50
0.0
  9
$ANGDIR
 70
     0
  9
$PDMODE
 70
     0
  9
$PDSIZE
 40
-1.0
  9
$PLINEWID
 40
0.0
  9
$SPLFRAME
 70
     0
  9
$SPLINETYPE
 70
     6
  9
$SPLINESEGS
 70
     8
  9
$HANDSEED
  5
126
  9
$SURFTAB1
 70
     6
  9
$SURFTAB2
 70
     6
  9
$SURFTYPE
 70
     6
  9
$SURFU
 70
     6
  9
$SURFV
 70
     6
  9
$UCSBASE
  2

  9
$UCSNAME
  2

  9
$UCSORG
 10
0.0
 20
0.0
 30
0.0
  9
$UCSXDIR
 10
1.0
 20
0.0
 30
0.0
  9
$UCSYDIR
 10
0.0
 20
1.0
 30
0.0
  9
$UCSORTHOREF
  2

  9
$UCSORTHOVIEW
 70
     0
  9
$UCSORGTOP
 10
0.0
 20
0.0
 30
0.0
  9
$UCSORGBOTTOM
 10
0.0
 20
0.0
 30
0.0
  9
$UCSORGLEFT
 10
0.0
 20
0.0
 30
0.0
  9
$UCSORGRIGHT
 10
0.0
 20
0.0
 30
0.0
  9
$UCSORGFRONT
 10
0.0
 20
0.0
 30
0.0
  9
$UCSORGBACK
 10
0.0
 20
0.0
 30
0.0
  9
$PUCSBASE
  2

  9
$PUCSNAME
  2

  9
$PUCSORG
 10
0.0
 20
0.0
 30
0.0
  9
$PUCSXDIR
 10
1.0
 20
0.0
 30
0.0
  9
$PUCSYDIR
 10
0.0
 20
1.0
 30
0.0
  9
$PUCSORTHOREF
  2

  9
$PUCSORTHOVIEW
 70
     0
  9
$PUCSORGTOP
 10
0.0
 20
0.0
 30
0.0
  9
$PUCSORGBOTTOM
 10
0.0
 20
0.0
 30
0.0
  9
$PUCSORGLEFT
 10
0.0
 20
0.0
 30
0.0
  9
$PUCSORGRIGHT
 10
0.0
 20
0.0
 30
0.0
  9
$PUCSORGFRONT
 10
0.0
 20
0.0
 30
0.0
  9
$PUCSORGBACK
 10
0.0
 20
0.0
 30
0.0
  9
$USERI1
 70
     0
  9
$USERI2
 70
     0
  9
$USERI3
 70
     0
  9
$USERI4
 70
     0
  9
$USERI5
 70
     0
  9
$USERR1
 40
0.0
  9
$USERR2
 40
0.0
  9
$USERR3
 40
0.0
  9
$USERR4
 40
0.0
  9
$USERR5
 40
0.0
  9
$WORLDVIEW
 70
     1
  9
$SHADEDGE
 70
     3
  9
$SHADEDIF
 70
    70
  9
$TILEMODE
 70
     1
  9
$MAXACTVP
 70
    64
  9
$PINSBASE
 10
0.0
 20
0.0
 30
0.0
  9
$PLIMCHECK
 70
     0
  9
$PEXTMIN
 10
1.0000000000E+20
 20
1.0000000000E+20
 30
1.0000000000E+20
  9
$PEXTMAX
 10
-1.0000000000E+20
 20
-1.0000000000E+20
 30
-1.0000000000E+20
  9
$PLIMMIN
 10
0.0
 20
0.0
  9
$PLIMMAX
 10
420.0
 20
297.0
  9
$UNITMODE
 70
     0
  9
$VISRETAIN
 70
     1
  9
$PLINEGEN
 70
     0
  9
$PSLTSCALE
 70
     1
  9
$TREEDEPTH
 70
  3020
  9
$CMLSTYLE
  2
Standard
  9
$CMLJUST
 70
     0
  9
$CMLSCALE
 40
20.0
  9
$PROXYGRAPHICS
 70
     1
  9
$MEASUREMENT
 70
     1
  9
$CELWEIGHT
370
    -1
  9
$ENDCAPS
280
     0
  9
$JOINSTYLE
280
     0
  9
$LWDISPLAY
290
     1
  9
$INSUNITS
 70
     4
  9
$HYPERLINKBASE
  1

  9
$STYLESHEET
  1

  9
$XEDIT
290
     1
  9
$CEPSNTYPE
380
     0
  9
$PSTYLEMODE
290
     1
  9
$FINGERPRINTGUID
  2
{074CA819-B44A-4DE8-8BC3-9624148256D2}
  9
$VERSIONGUID
  2
{FAEB1C32-E019-11D5-929B-00C0DF256EC4}
  9
$EXTNAMES
290
     1
  9
$PSVPSCALE
 40
0.0
  9
$OLESTARTUP
290
     0
  0
ENDSEC
  0
SECTION
  2
CLASSES
  0
CLASS
  1
ACDBDICTIONARYWDFLT
  2
AcDbDictionaryWithDefault
  3
ObjectDBX Classes
 90
        0
280
     0
281
     0
  0
CLASS
  1
VISUALSTYLE
  2
AcDbVisualStyle
  3
ObjectDBX Classes
 90
     4095
280
     0
281
     0
  0
CLASS
  1
MATERIAL
  2
AcDbMaterial
  3
ObjectDBX Classes
 90
     1153
280
     0
281
     0
  0
CLASS
  1
SCALE
  2
AcDbScale
  3
ObjectDBX Classes
 90
     1153
280
     0
281
     0
  0
CLASS
  1
TABLESTYLE
  2
AcDbTableStyle
  3
ObjectDBX Classes
 90
     4095
280
     0
281
     0
  0
CLASS
  1
MLEADERSTYLE
  2
AcDbMLeaderStyle
  3
ACDB_MLEADERSTYLE_CLASS
 90
     4095
280
     0
281
     0
  0
CLASS
  1
SUN
  2
AcDbSun
  3
SCENEOE
 90
     1153
280
     0
281
     0
  0
CLASS
  1
ACDBPLACEHOLDER
  2
AcDbPlaceHolder
  3
ObjectDBX Classes
 90
        0
280
     0
281
     0
  0
CLASS
  1
LAYOUT
  2
AcDbLayout
  3
ObjectDBX Classes
 90
        0
280
     0
281
     0
  0
ENDSEC
  0
SECTION
  2
TABLES
  0
TABLE
  2
VPORT
  5
8
330
0
100
AcDbSymbolTable
 70
     1
  0
VPORT
  5
29
330
8
100
AcDbSymbolTableRecord
100
AcDbViewportTableRecord
  2
*Active
 70
     0
 10
0.0
 20
0.0
 11
1.0
 21
1.0
 12
105.0
 22
148.5
 13
0.0
 23
0.0
 14
10.0
 24
10.0
 15
10.0
 25
10.0
 16
0.0
 26
0.0
 36
1.0
 17
0.0
 27
0.0
 37
0.0
 40
297.0
 41
0.7070707071
 42
50.0
 43
0.0
 44
0.0
 50
0.0
 51
0.0
 71
     0
 72
  2000
 73
     1
 74
     3
 75
     0
 76
     0
 77
     0
 78
     0
281
     0
 65
     1
110
0.0
120
0.0
130
0.0
111
1.0
121
0.0
131
0.0
112
0.0
122
1.0
132
0.0
 79
     0
146
0.0
  0
ENDTAB
  0
TABLE
  2
LTYPE
  5
5
330
0
100
AcDbSymbolTable
 70
     6
  0
LTYPE
  5
14
330
5
100
AcDbSymbolTableRecord
100
AcDbLinetypeTableRecord
  2
ByBlock
 70
     0
  3

 72
    65
 73
     0
 40
0.0
  0
LTYPE
  5
15
330
5
100
AcDbSymbolTableRecord
100
AcDbLinetypeTableRecord
  2
ByLayer
 70
     0
  3

 72
    65
 73
     0
 40
0.0
  0
LTYPE
  5
16
330
5
100
AcDbSymbolTableRecord
100
AcDbLinetypeTableRecord
  2
Continuous
 70
     0
  3
Solid line
 72
    65
 73
     0
 40
0.0
  0
LTYPE
  5
6E
330
5
100
AcDbSymbolTableRecord
100
AcDbLinetypeTableRecord
  2
HIDDEN
 70
     0
  3
Hidden __ __ __ __ __ __ __ __ __ __ __ __ __ __
 72
    65
 73
     2
 40
1.905
 49
1.27
 74
     0
 49
-0.635
 74
     0
  0
LTYPE
  5
6F
330
5
100
AcDbSymbolTableRecord
100
AcDbLinetypeTableRecord
  2
PHANTOM
 70
     0
  3
Phantom ______  __  __  ______  __  __  ______
 72
    65
 73
     6
 40
12.7
 49
6.35
 74
     0
 49
-1.27
 74
     0
 49
1.27
 74
     0
 49
-1.27
 74
     0
 49
1.27
 74
     0
 49
-1.27
 74
     0
  0
LTYPE
  5
70
330
5
100
AcDbSymbolTableRecord
100
AcDbLinetypeTableRecord
  2
CENTER
 70
     0
  3
Center ____ _ ____ _ ____ _ ____ _ ____ _ ____
 72
    65
 73
     4
 40
10.16
 49
6.35
 74
     0
 49
-1.27
 74
     0
 49
1.27
 74
     0
 49
-1.27
 74
     0
  0
LTYPE
  5
71
330
5
100
AcDbSymbolTableRecord
100
AcDbLinetypeTableRecord
  2
CENTERX2
 70
     0
  3
Center (2x) ________  __  ________  __  _____
 72
    65
 73
     4
 40
20.32
 49
12.7
 74
     0
 49
-2.54
 74
     0
 49
2.54
 74
     0
 49
-2.54
 74
     0
  0
LTYPE
  5
72
330
5
100
AcDbSymbolTableRecord
100
AcDbLinetypeTableRecord
  2
DOT2
 70
     0
  3
Dot (.5x) ........................................
 72
    65
 73
     2
 40
0.635
 49
0.0
 74
     0
 49
-0.635
 74
     0
  0
ENDTAB
  0
TABLE
  2
LAYER
  5
2
330
0
100
AcDbSymbolTable
 70
     1
  0
LAYER
  5
10
330
2
100
AcDbSymbolTableRecord
100
AcDbLayerTableRecord
  2
0
 70
     0
 62
     7
  6
Continuous
370
    -3
390
F
  0
ENDTAB
  0
TABLE
  2
STYLE
  5
3
330
0
100
AcDbSymbolTable
 70
     2
  0
STYLE
  5
11
330
3
100
AcDbSymbolTableRecord
100
AcDbTextStyleTableRecord
  2
Standard
 70
     0
 40
0.0
 41
1.0
 50
0.0
 71
     0
 42
3.5
  3
txt
  4
bigfont
  0
STYLE
  5
73
330
3
100
AcDbSymbolTableRecord
100
AcDbTextStyleTableRecord
  2
SLDTEXTSTYLE0
 70
     0
 40
0.0
 41
0.7
 50
0.0
 71
     0
 42
3.5
  3
TXT
  4
bigfont
  0
ENDTAB
  0
TABLE
  2
VIEW
  5
6
330
0
100
AcDbSymbolTable
 70
     0
  0
ENDTAB
  0
TABLE
  2
UCS
  5
7
330
0
100
AcDbSymbolTable
 70
     0
  0
ENDTAB
  0
TABLE
  2
APPID
  5
9
330
0
100
AcDbSymbolTable
 70
     1
  0
APPID
  5
12
330
9
100
AcDbSymbolTableRecord
100
AcDbRegAppTableRecord
  2
ACAD
 70
     0
  0
ENDTAB
  0
TABLE
  2
DIMSTYLE
  5
A
330
0
100
AcDbSymbolTable
 70
     1
100
AcDbDimStyleTable
  0
DIMSTYLE
105
27
330
A
100
AcDbSymbolTableRecord
100
AcDbDimStyleTableRecord
  2
ISO-25
 70
     0
 41
2.5
 42
0.625
 43
3.75
 44
1.25
 73
     0
 74
     0
 77
     1
 78
     8
140
2.5
141
2.5
143
0.0393700787
147
0.625
171
     3
172
     1
178
     0
271
     2
272
     2
274
     3
278
    44
283
     0
284
     8
340
11
  0
ENDTAB
  0
TABLE
  2
BLOCK_RECORD
  5
1
330
0
100
AcDbSymbolTable
 70
     1
  0
BLOCK_RECORD
  5
1F
330
1
100
AcDbSymbolTableRecord
100
AcDbBlockTableRecord
  2
*Model_Space
340
22
  0
BLOCK_RECORD
  5
1B
330
1
100
AcDbSymbolTableRecord
100
AcDbBlockTableRecord
  2
*Paper_Space
340
1E
  0
BLOCK_RECORD
  5
23
330
1
100
AcDbSymbolTableRecord
100
AcDbBlockTableRecord
  2
*Paper_Space0
340
26
  0
ENDTAB
  0
ENDSEC
  0
SECTION
  2
BLOCKS
  0
BLOCK
  5
20
330
1F
100
AcDbEntity
  8
0
100
AcDbBlockBegin
  2
*Model_Space
 70
     0
 10
0.0
 20
0.0
 30
0.0
  3
*Model_Space
  1

  0
ENDBLK
  5
21
330
1F
100
AcDbEntity
  8
0
100
AcDbBlockEnd
  0
BLOCK
  5
1C
330
1B
100
AcDbEntity
 67
     1
  8
0
100
AcDbBlockBegin
  2
*Paper_Space
 70
     0
 10
0.0
 20
0.0
 30
0.0
  3
*Paper_Space
  1

  0
ENDBLK
  5
1D
330
1B
100
AcDbEntity
 67
     1
  8
0
100
AcDbBlockEnd
  0
BLOCK
  5
24
330
23
100
AcDbEntity
  8
0
100
AcDbBlockBegin
  2
*Paper_Space0
 70
     0
 10
0.0
 20
0.0
 30
0.0
  3
*Paper_Space0
  1

  0
ENDBLK
  5
25
330
23
100
AcDbEntity
  8
0
100
AcDbBlockEnd
  0
ENDSEC
  0
SECTION
  2
ENTITIES
  0
MTEXT
  5
74
330
1F
100
AcDbEntity
  8
0
  6
Continuous
 62
     7
370
     0
100
AcDbMText
 10
153.9144793573
 20
110.3835294914
 30
0.0
 40
3.5
 41
0.0
 71
     1
 72
     1
  1
HGA-D14W
  7
SLDTEXTSTYLE0
 73
     1
 44
1.0
  0
SPLINE
  5
75
330
1F
100
AcDbEntity
  8
0
  6
Continuous
 62
     7
370
    25
100
AcDbSpline
210
0.0
220
0.0
230
1.0
 70
     8
 71
     3
 72
    10
 73
     6
 74
     0
 42
0.000000001
 43
0.00000001
 40
0.0
 40
0.0
 40
0.0
 40
0.0
 40
0.2215571960621092
 40
0.5975422742502281
 40
1.0
 40
1.0
 40
1.0
 40
1.0
 10
121.5175674752875
 20
244.7609166427402
 30
0.0
 10
121.1547178754955
 20
244.9110694106024
 30
0.0
 10
120.1761083835711
 20
245.3160331309786
 30
0.0
 10
118.4429990584264
 20
245.9271315686335
 30
0.0
 10
117.0166691429894
 20
246.3385759468032
 30
0.0
 10
116.2792514534279
 20
246.5512941681973
 30
0.0
  0
SPLINE
  5
76
330
1F
100
AcDbEntity
  8
0
  6
Continuous
 62
     7
370
    25
100
AcDbSpline
210
0.0
220
0.0
230
1.0
 70
     8
 71
     3
 72
    10
 73
     6
 74
     0
 42
0.000000001
 43
0.00000001
 40
0.0
 40
0.0
 40
0.0
 40
0.0
 40
0.4024637261235126
 40
0.7784236767814823
 40
0.9999999999999999
 40
0.9999999999999999
 40
0.9999999999999999
 40
0.9999999999999999
 10
92.91719416990719
 20
246.5512940476753
 30
0.0
 10
92.17976365321472
 20
246.3385664281999
 30
0.0
 10
90.75346523943307
 20
245.9271201165037
 30
0.0
 10
89.02035634600864
 20
245.3160471921417
 30
0.0
 10
88.0417570670608
 20
244.911083381073
 30
0.0
 10
87.6788762854024
 20
244.7609161088653
 30
0.0
  0
SPLINE
  5
77
330
1F
100
AcDbEntity
  8
0
  6
Continuous
 62
     7
370
    25
100
AcDbSpline
210
0.0
220
0.0
230
1.0
 70
     8
 71
     3
 72
     9
 73
     5
 74
     0
 42
0.000000001
 43
0.00000001
 40
0.0
 40
0.0
 40
0.0
 40
0.0
 40
0.5518625945414751
 40
0.9999999999999999
 40
0.9999999999999999
 40
0.9999999999999999
 40
0.9999999999999999
 10
99.81441083267174
 20
248.3308998155038
 30
0.0
 10
98.54074827115468
 20
248.2928076206743
 30
0.0
 10
96.23281406051063
 20
248.2237828394945
 30
0.0
 10
93.92617731831021
 20
248.0024298222438
 30
0.0
 10
92.89248711332522
 20
247.9032332554027
 30
0.0
  0
SPLINE
  5
78
330
1F
100
AcDbEntity
  8
0
  6
Continuous
 62
     7
370
    25
100
AcDbSpline
210
0.0
220
0.0
230
1.0
 70
     8
 71
     3
 72
     9
 73
     5
 74
     0
 42
0.000000001
 43
0.00000001
 40
0.0
 40
0.0
 40
0.0
 40
0.0
 40
0.4481641803881917
 40
1.0
 40
1.0
 40
1.0
 40
1.0
 10
116.3039566473647
 20
247.9032327733146
 30
0.0
 10
115.2702049694269
 20
248.0024352575284
 30
0.0
 10
112.9635688678035
 20
248.2237882539413
 30
0.0
 10
110.6556355373467
 20
248.292810892324
 30
0.0
 10
109.3820352563246
 20
248.3309000565478
 30
0.0
  0
SPLINE
  5
79
330
1F
100
AcDbEntity
  8
0
  6
Continuous
 62
     7
370
    25
100
AcDbSpline
210
0.0
220
0.0
230
1.0
 70
     8
 71
     3
 72
     9
 73
     5
 74
     0
 42
0.000000001
 43
0.00000001
 40
0.0
 40
0.0
 40
0.0
 40
0.0
 40
0.5481732724506532
 40
0.9999999999999999
 40
0.9999999999999999
 40
0.9999999999999999
 40
0.9999999999999999
 10
109.4237119415387
 20
248.3244184620491
 30
0.0
 10
108.5919765998287
 20
248.511870148162
 30
0.0
 10
107.0746911291386
 20
248.8538271452167
 30
0.0
 10
105.3712011337014
 20
249.0630631707757
 30
0.0
 10
104.60151882365
 20
249.1576015994895
 30
0.0
  0
SPLINE
  5
7A
330
1F
100
AcDbEntity
  8
0
  6
Continuous
 62
     7
370
    25
100
AcDbSpline
210
0.0
220
0.0
230
1.0
 70
     8
 71
     3
 72
     9
 73
     5
 74
     0
 42
0.000000001
 43
0.00000001
 40
0.0
 40
0.0
 40
0.0
 40
0.0
 40
0.4518389624187437
 40
1.0
 40
1.0
 40
1.0
 40
1.0
 10
104.594925807199
 20
249.1576011174014
 30
0.0
 10
103.8252234638478
 20
249.0630571302769
 30
0.0
 10
102.1217352581586
 20
248.853814468647
 30
0.0
 10
100.6044499209088
 20
248.5118629573074
 30
0.0
 10
99.77273321613512
 20
248.3244184620491
 30
0.0
  0
SPLINE
  5
7B
330
1F
100
AcDbEntity
  8
0
  6
Continuous
 62
     7
370
    25
100
AcDbSpline
210
0.0
220
0.0
230
1.0
 70
     8
 71
     3
 72
     9
 73
     5
 74
     0
 42
0.000000001
 43
0.00000001
 40
0.0
 40
0.0
 40
0.0
 40
0.0
 40
0.4997649420608389
 40
1.0
 40
1.0
 40
1.0
 40
1.0
 10
99.46057856917224
 20
241.5668724513693
 30
0.0
 10
100.2697525413258
 20
241.2417984630417
 30
0.0
 10
101.8888616545359
 20
240.5913446977435
 30
0.0
 10
103.6948195482059
 20
239.9143498595716
 30
0.0
 10
104.5982229997815
 20
239.5756933074743
 30
0.0
  0
SPLINE
  5
7C
330
1F
100
AcDbEntity
  8
0
  6
Continuous
 62
     7
370
    25
100
AcDbSpline
210
0.0
220
0.0
230
1.0
 70
    24
 71
     3
 72
     9
 73
     5
 74
     0
 42
0.000000001
 43
0.00000001
 40
0.0
 40
0.0
 40
0.0
 40
0.0
 40
0.5597521815117602
 40
1.0
 40
1.0
 40
1.0
 40
1.0
 10
104.5982228116676
 20
219.9666996270878
 30
0.0
 10
104.5982228116676
 20
223.674730992232
 30
0.0
 10
104.5982228116676
 20
230.2991470956755
 30
0.0
 10
104.5982228116675
 20
236.7400846153976
 30
0.0
 10
104.5982228116675
 20
239.5756933074743
 30
0.0
  0
LINE
  5
7D
330
1F
100
AcDbEntity
  8
0
  6
Continuous
 62
     7
370
    25
100
AcDbLine
 10
92.4288896368
 20
210.6961486871
 30
0.0
 11
104.5982228117
 21
219.9666996271
 31
0.0
  0
SPLINE
  5
7E
330
1F
100
AcDbEntity
  8
0
  6
Continuous
 62
     7
370
    25
100
AcDbSpline
210
0.0
220
0.0
230
1.0
 70
     8
 71
     3
 72
    11
 73
     7
 74
     0
 42
0.000000001
 43
0.00000001
 40
0.0
 40
0.0
 40
0.0
 40
0.0
 40
0.2802030601873803
 40
0.5604015239293743
 40
0.7803670285274199
 40
1.0
 40
1.0
 40
1.0
 40
1.0
 10
99.46057437822066
 20
241.5668714871933
 30
0.0
 10
98.73653067236022
 20
238.7594389004329
 30
0.0
 10
97.28845513783776
 20
233.1446197799801
 30
0.0
 10
95.42981217004056
 20
225.1307844751753
 30
0.0
 10
93.80539772709852
 20
217.6478620469706
 30
0.0
 10
92.88749421835301
 20
213.0122176000157
 30
0.0
 10
92.42888963684283
 20
210.6961486871392
 30
0.0
  0
SPLINE
  5
7F
330
1F
100
AcDbEntity
  8
0
  6
Continuous
 62
     7
370
    25
100
AcDbSpline
210
0.0
220
0.0
230
1.0
 70
     8
 71
     3
 72
    11
 73
     7
 74
     0
 42
0.000000001
 43
0.00000001
 40
0.0
 40
0.0
 40
0.0
 40
0.0
 40
0.2802030601873803
 40
0.5604015239293743
 40
0.7803670285274199
 40
1.0
 40
1.0
 40
1.0
 40
1.0
 10
109.7358712451144
 20
241.5668714871933
 30
0.0
 10
110.4599149509749
 20
238.7594389004329
 30
0.0
 10
111.9079904854973
 20
233.1446197799801
 30
0.0
 10
113.7666334532945
 20
225.1307844751753
 30
0.0
 10
115.3910478962366
 20
217.6478620469706
 30
0.0
 10
116.3089514049821
 20
213.0122176000157
 30
0.0
 10
116.7675559864923
 20
210.6961486871392
 30
0.0
  0
LINE
  5
80
330
1F
100
AcDbEntity
  8
0
  6
Continuous
 62
     7
370
    25
100
AcDbLine
 10
116.7675559865
 20
210.6961486871
 30
0.0
 11
104.5982228117
 21
219.9666996271
 31
0.0
  0
SPLINE
  5
81
330
1F
100
AcDbEntity
  8
0
  6
Continuous
 62
     7
370
    25
100
AcDbSpline
210
0.0
220
0.0
230
1.0
 70
     8
 71
     3
 72
     9
 73
     5
 74
     0
 42
0.000000001
 43
0.00000001
 40
0.0
 40
0.0
 40
0.0
 40
0.0
 40
0.5002283973455587
 40
0.9999999999999999
 40
0.9999999999999999
 40
0.9999999999999999
 40
0.9999999999999999
 10
104.5982228075122
 20
239.5756933074743
 30
0.0
 10
105.5016141634025
 20
239.9143474116705
 30
0.0
 10
107.3075719232661
 20
240.5913463705325
 30
0.0
 10
108.9266815669863
 20
241.2417962924768
 30
0.0
 10
109.7358665885016
 20
241.5668726924133
 30
0.0
  0
LINE
  5
82
330
1F
100
AcDbEntity
  8
0
  6
Continuous
 62
     7
370
    25
100
AcDbLine
 10
93.6152083324
 20
198.5423085551
 30
0.0
 11
104.5982228117
 21
207.5543395356
 31
0.0
  0
LINE
  5
83
330
1F
100
AcDbEntity
  8
0
  6
Continuous
 62
     7
370
    25
100
AcDbLine
 10
104.5982228117
 20
192.1741017813
 30
0.0
 11
104.5982228117
 21
207.5543395356
 31
0.0
  0
LINE
  5
84
330
1F
100
AcDbEntity
  8
0
  6
Continuous
 62
     7
370
    25
100
AcDbLine
 10
90.0658197226
 20
183.3327860394
 30
0.0
 11
104.5982228117
 21
192.1741017813
 31
0.0
  0
LINE
  5
85
330
1F
100
AcDbEntity
  8
0
  6
Continuous
 62
     7
370
    25
100
AcDbLine
 10
93.6152083324
 20
198.5423085551
 30
0.0
 11
90.0658197226
 21
183.3327860394
 31
0.0
  0
LINE
  5
86
330
1F
100
AcDbEntity
  8
0
  6
Continuous
 62
     7
370
    25
100
AcDbLine
 10
115.5812372909
 20
198.5423085551
 30
0.0
 11
104.5982228117
 21
207.5543395356
 31
0.0
  0
LINE
  5
87
330
1F
100
AcDbEntity
  8
0
  6
Continuous
 62
     7
370
    25
100
AcDbLine
 10
115.5812372909
 20
198.5423085551
 30
0.0
 11
119.1306259008
 21
183.3327860394
 31
0.0
  0
LINE
  5
88
330
1F
100
AcDbEntity
  8
0
  6
Continuous
 62
     7
370
    25
100
AcDbLine
 10
119.1306259008
 20
183.3327860394
 30
0.0
 11
104.5982228117
 21
192.1741017813
 31
0.0
  0
LINE
  5
89
330
1F
100
AcDbEntity
  8
0
  6
Continuous
 62
     7
370
    25
100
AcDbLine
 10
91.4530470492
 20
170.7249240051
 30
0.0
 11
104.5982228117
 21
179.3534198882
 31
0.0
  0
LINE
  5
8A
330
1F
100
AcDbEntity
  8
0
  6
Continuous
 62
     7
370
    25
100
AcDbLine
 10
104.5982228117
 20
162.9125255631
 30
0.0
 11
104.5982228117
 21
179.3534198882
 31
0.0
  0
LINE
  5
8B
330
1F
100
AcDbEntity
  8
0
  6
Continuous
 62
     7
370
    25
100
AcDbLine
 10
88.1237001614
 20
154.3006046652
 30
0.0
 11
104.5982228117
 21
162.9125255631
 31
0.0
  0
LINE
  5
8C
330
1F
100
AcDbEntity
  8
0
  6
Continuous
 62
     7
370
    25
100
AcDbLine
 10
91.4530470492
 20
170.7249240051
 30
0.0
 11
88.1237001614
 21
154.3006046652
 31
0.0
  0
LINE
  5
8D
330
1F
100
AcDbEntity
  8
0
  6
Continuous
 62
     7
370
    25
100
AcDbLine
 10
117.7433985741
 20
170.7249240051
 30
0.0
 11
104.5982228117
 21
179.3534198882
 31
0.0
  0
LINE
  5
8E
330
1F
100
AcDbEntity
  8
0
  6
Continuous
 62
     7
370
    25
100
AcDbLine
 10
117.7433985741
 20
170.7249240051
 30
0.0
 11
121.0727454619
 21
154.3006046652
 31
0.0
  0
LINE
  5
8F
330
1F
100
AcDbEntity
  8
0
  6
Continuous
 62
     7
370
    25
100
AcDbLine
 10
121.0727454619
 20
154.3006046652
 30
0.0
 11
104.5982228117
 21
162.9125255631
 31
0.0
  0
LINE
  5
90
330
1F
100
AcDbEntity
  8
0
  6
Continuous
 62
     7
370
    25
100
AcDbLine
 10
104.5982228117
 20
179.3534198882
 30
0.0
 11
104.5982228117
 21
192.1741017813
 31
0.0
  0
LINE
  5
91
330
1F
100
AcDbEntity
  8
0
  6
Continuous
 62
     7
370
    25
100
AcDbLine
 10
90.0658197226
 20
183.3327860394
 30
0.0
 11
91.4530470492
 21
170.7249240051
 31
0.0
  0
LINE
  5
92
330
1F
100
AcDbEntity
  8
0
  6
Continuous
 62
     7
370
    25
100
AcDbLine
 10
119.1306259008
 20
183.3327860394
 30
0.0
 11
117.7433985741
 21
170.7249240051
 31
0.0
  0
LINE
  5
93
330
1F
100
AcDbEntity
  8
0
  6
Continuous
 62
     7
370
    25
100
AcDbLine
 10
104.5982228117
 20
207.5543395356
 30
0.0
 11
104.5982228117
 21
219.9666996271
 31
0.0
  0
LINE
  5
94
330
1F
100
AcDbEntity
  8
0
  6
Continuous
 62
     7
370
    25
100
AcDbLine
 10
116.7675559865
 20
210.6961486871
 30
0.0
 11
115.5812372909
 21
198.5423085551
 31
0.0
  0
LINE
  5
95
330
1F
100
AcDbEntity
  8
0
  6
Continuous
 62
     7
370
    25
100
AcDbLine
 10
92.4288896368
 20
210.6961486871
 30
0.0
 11
93.6152083324
 21
198.5423085551
 31
0.0
  0
LINE
  5
96
330
1F
100
AcDbEntity
  8
0
  6
Continuous
 62
     7
370
    25
100
AcDbLine
 10
90.113655244
 20
141.6346823181
 30
0.0
 11
104.5982228117
 21
149.9996459046
 31
0.0
  0
LINE
  5
97
330
1F
100
AcDbEntity
  8
0
  6
Continuous
 62
     7
370
    25
100
AcDbLine
 10
104.5982228117
 20
132.2914960484
 30
0.0
 11
104.5982228117
 21
149.9996459046
 31
0.0
  0
LINE
  5
98
330
1F
100
AcDbEntity
  8
0
  6
Continuous
 62
     7
370
    25
100
AcDbLine
 10
86.8991134213
 20
123.8332060027
 30
0.0
 11
104.5982228117
 21
132.2914960484
 31
0.0
  0
LINE
  5
99
330
1F
100
AcDbEntity
  8
0
  6
Continuous
 62
     7
370
    25
100
AcDbLine
 10
90.113655244
 20
141.6346823181
 30
0.0
 11
86.8991134213
 21
123.8332060027
 31
0.0
  0
LINE
  5
9A
330
1F
100
AcDbEntity
  8
0
  6
Continuous
 62
     7
370
    25
100
AcDbLine
 10
119.0827903794
 20
141.6346823181
 30
0.0
 11
104.5982228117
 21
149.9996459046
 31
0.0
  0
LINE
  5
9B
330
1F
100
AcDbEntity
  8
0
  6
Continuous
 62
     7
370
    25
100
AcDbLine
 10
119.0827903794
 20
141.6346823181
 30
0.0
 11
122.297332202
 21
123.8332060027
 31
0.0
  0
LINE
  5
9C
330
1F
100
AcDbEntity
  8
0
  6
Continuous
 62
     7
370
    25
100
AcDbLine
 10
122.297332202
 20
123.8332060027
 30
0.0
 11
104.5982228117
 21
132.2914960484
 31
0.0
  0
LINE
  5
9D
330
1F
100
AcDbEntity
  8
0
  6
Continuous
 62
     7
370
    25
100
AcDbLine
 10
104.5982228117
 20
149.9996459046
 30
0.0
 11
104.5982228117
 21
162.9125255631
 31
0.0
  0
LINE
  5
9E
330
1F
100
AcDbEntity
  8
0
  6
Continuous
 62
     7
370
    25
100
AcDbLine
 10
88.1237001614
 20
154.3006046652
 30
0.0
 11
90.113655244
 21
141.6346823181
 31
0.0
  0
LINE
  5
9F
330
1F
100
AcDbEntity
  8
0
  6
Continuous
 62
     7
370
    25
100
AcDbLine
 10
121.0727454619
 20
154.3006046652
 30
0.0
 11
119.0827903794
 21
141.6346823181
 31
0.0
  0
LINE
  5
A0
330
1F
100
AcDbEntity
  8
0
  6
Continuous
 62
     7
370
    25
100
AcDbLine
 10
92.4288896368
 20
210.6961486871
 30
0.0
 11
83.6855401741
 21
222.208672228
 31
0.0
  0
SPLINE
  5
A1
330
1F
100
AcDbEntity
  8
0
  6
Continuous
 62
     7
370
    25
100
AcDbSpline
210
0.0
220
0.0
230
1.0
 70
     8
 71
     3
 72
     9
 73
     5
 74
     0
 42
0.000000001
 43
0.00000001
 40
0.0
 40
0.0
 40
0.0
 40
0.0
 40
0.55975221914843
 40
1.0
 40
1.0
 40
1.0
 40
1.0
 10
83.68554017409525
 20
222.20867222799
 30
0.0
 10
85.16105966744882
 20
225.758518528975
 30
0.0
 10
87.79708225544026
 20
232.1003358180344
 30
0.0
 10
90.74777298547272
 20
238.2249408794203
 30
0.0
 10
92.0468080313488
 20
240.9212846662877
 30
0.0
  0
SPLINE
  5
A2
330
1F
100
AcDbEntity
  8
0
  6
Continuous
 62
     7
370
    25
100
AcDbSpline
210
0.0
220
0.0
230
1.0
 70
     8
 71
     3
 72
     9
 73
     5
 74
     0
 42
0.000000001
 43
0.00000001
 40
0.0
 40
0.0
 40
0.0
 40
0.0
 40
0.5002760060236882
 40
0.9999999999999999
 40
0.9999999999999999
 40
0.9999999999999999
 40
0.9999999999999999
 10
92.0468080313488
 20
240.9212846662877
 30
0.0
 10
93.28279009848747
 20
241.030607328241
 30
0.0
 10
95.75339043161668
 20
241.2491320238831
 30
0.0
 10
98.22530092703632
 20
241.4609984419004
 30
0.0
 10
99.46057391255937
 20
241.5668731745014
 30
0.0
  0
SPLINE
  5
A3
330
1F
100
AcDbEntity
  8
0
  6
Continuous
 62
     7
370
    25
100
AcDbSpline
210
0.0
220
0.0
230
1.0
 70
     8
 71
     3
 72
     9
 73
     5
 74
     0
 42
0.000000001
 43
0.00000001
 40
0.0
 40
0.0
 40
0.0
 40
0.0
 40
0.4997366038460943
 40
1.0
 40
1.0
 40
1.0
 40
1.0
 10
109.7358712451144
 20
241.5668729334574
 30
0.0
 10
110.9711758807287
 20
241.4609993231672
 30
0.0
 10
113.4430873358973
 20
241.249140496987
 30
0.0
 10
115.9136870089888
 20
241.0306083168779
 30
0.0
 10
117.1496375919863
 20
240.9212846662877
 30
0.0
  0
SPLINE
  5
A4
330
1F
100
AcDbEntity
  8
0
  6
Continuous
 62
     7
370
    25
100
AcDbSpline
210
0.0
220
0.0
230
1.0
 70
     8
 71
     3
 72
     9
 73
     5
 74
     0
 42
0.000000001
 43
0.00000001
 40
0.0
 40
0.0
 40
0.0
 40
0.0
 40
0.55975221914843
 40
1.0
 40
1.0
 40
1.0
 40
1.0
 10
125.5109054492398
 20
222.20867222799
 30
0.0
 10
124.0353859558863
 20
225.758518528975
 30
0.0
 10
121.3993633678948
 20
232.1003358180344
 30
0.0
 10
118.4486726378624
 20
238.2249408794203
 30
0.0
 10
117.1496375919863
 20
240.9212846662877
 30
0.0
  0
LINE
  5
A5
330
1F
100
AcDbEntity
  8
0
  6
Continuous
 62
     7
370
    25
100
AcDbLine
 10
116.7675559865
 20
210.6961486871
 30
0.0
 11
125.5109054492
 21
222.208672228
 31
0.0
  0
LINE
  5
A6
330
1F
100
AcDbEntity
  8
0
  6
Continuous
 62
     7
370
    25
100
AcDbLine
 10
78.3468843894
 20
194.9884121945
 30
0.0
 11
85.4002745347
 21
209.6124818434
 31
0.0
  0
LINE
  5
A7
330
1F
100
AcDbEntity
  8
0
  6
Continuous
 62
     7
370
    25
100
AcDbLine
 10
93.6152083324
 20
198.5423085551
 30
0.0
 11
85.4002745347
 21
209.6124818434
 31
0.0
  0
LINE
  5
A8
330
1F
100
AcDbEntity
  8
0
  6
Continuous
 62
     7
370
    25
100
AcDbLine
 10
90.0658197226
 20
183.3327860394
 30
0.0
 11
78.3468843894
 21
194.9884121945
 31
0.0
  0
LINE
  5
A9
330
1F
100
AcDbEntity
  8
0
  6
Continuous
 62
     7
370
    25
100
AcDbLine
 10
115.5812372909
 20
198.5423085551
 30
0.0
 11
123.7961710887
 21
209.6124818434
 31
0.0
  0
LINE
  5
AA
330
1F
100
AcDbEntity
  8
0
  6
Continuous
 62
     7
370
    25
100
AcDbLine
 10
130.849561234
 20
194.9884121945
 30
0.0
 11
123.7961710887
 21
209.6124818434
 31
0.0
  0
LINE
  5
AB
330
1F
100
AcDbEntity
  8
0
  6
Continuous
 62
     7
370
    25
100
AcDbLine
 10
119.1306259008
 20
183.3327860394
 30
0.0
 11
130.849561234
 21
194.9884121945
 31
0.0
  0
LINE
  5
AC
330
1F
100
AcDbEntity
  8
0
  6
Continuous
 62
     7
370
    25
100
AcDbLine
 10
74.4047635691
 20
166.1494565272
 30
0.0
 11
80.3974927859
 21
181.9478914064
 31
0.0
  0
LINE
  5
AD
330
1F
100
AcDbEntity
  8
0
  6
Continuous
 62
     7
370
    25
100
AcDbLine
 10
91.4530470492
 20
170.7249240051
 30
0.0
 11
80.3974927859
 21
181.9478914064
 31
0.0
  0
LINE
  5
AE
330
1F
100
AcDbEntity
  8
0
  6
Continuous
 62
     7
370
    25
100
AcDbLine
 10
88.1237001614
 20
154.3006046652
 30
0.0
 11
74.4047635691
 21
166.1494565272
 31
0.0
  0
LINE
  5
AF
330
1F
100
AcDbEntity
  8
0
  6
Continuous
 62
     7
370
    25
100
AcDbLine
 10
117.7433985741
 20
170.7249240051
 30
0.0
 11
128.7989528374
 21
181.9478914064
 31
0.0
  0
LINE
  5
B0
330
1F
100
AcDbEntity
  8
0
  6
Continuous
 62
     7
370
    25
100
AcDbLine
 10
134.7916820542
 20
166.1494565272
 30
0.0
 11
128.7989528374
 21
181.9478914064
 31
0.0
  0
LINE
  5
B1
330
1F
100
AcDbEntity
  8
0
  6
Continuous
 62
     7
370
    25
100
AcDbLine
 10
121.0727454619
 20
154.3006046652
 30
0.0
 11
134.7916820542
 21
166.1494565272
 31
0.0
  0
SPLINE
  5
B2
330
1F
100
AcDbEntity
  8
0
  6
Continuous
 62
     7
370
    25
100
AcDbSpline
210
0.0
220
0.0
230
1.0
 70
     8
 71
     3
 72
    11
 73
     7
 74
     0
 42
0.000000001
 43
0.00000001
 40
0.0
 40
0.0
 40
0.0
 40
0.0
 40
0.28021683922509
 40
0.5603715963049696
 40
0.7803197942865129
 40
1.0
 40
1.0
 40
1.0
 40
1.0
 10
104.5982228129727
 20
109.5037818296506
 30
0.0
 10
104.5982228124202
 20
111.4906634467093
 30
0.0
 10
104.5982228113153
 20
115.4639864864634
 30
0.0
 10
104.5982228117393
 20
121.3424598361396
 30
0.0
 10
104.5982228116515
 20
126.9459104978965
 30
0.0
 10
104.5982228116622
 20
130.5103584800224
 30
0.0
 10
104.5982228116676
 20
132.2914960484486
 30
0.0
  0
SPLINE
  5
B3
330
1F
100
AcDbEntity
  8
0
  6
Continuous
 62
     7
370
    25
100
AcDbSpline
210
0.0
220
0.0
230
1.0
 70
     8
 71
     3
 72
    10
 73
     6
 74
     0
 42
0.000000001
 43
0.00000001
 40
0.0
 40
0.0
 40
0.0
 40
0.0
 40
0.3815864488329508
 40
0.6906568192360825
 40
1.0
 40
1.0
 40
1.0
 40
1.0
 10
92.68962363615475
 20
103.3032280992726
 30
0.0
 10
94.16233347448922
 20
104.1707267851254
 30
0.0
 10
96.8278817289217
 20
105.7408660940421
 30
0.0
 10
100.8352547778559
 20
107.7439778533158
 30
0.0
 10
103.3435312962932
 20
108.9170080118769
 30
0.0
 10
104.5982228129727
 20
109.5037818296506
 30
0.0
  0
SPLINE
  5
B4
330
1F
100
AcDbEntity
  8
0
  6
Continuous
 62
     7
370
    25
100
AcDbSpline
210
0.0
220
0.0
230
1.0
 70
     8
 71
     3
 72
    10
 73
     6
 74
     0
 42
0.000000001
 43
0.00000001
 40
0.0
 40
0.0
 40
0.0
 40
0.0
 40
0.2798121059937392
 40
0.5598551414708973
 40
1.0
 40
1.0
 40
1.0
 40
1.0
 10
86.89911342128954
 20
123.8332060026904
 30
0.0
 10
87.39552202140219
 20
121.8263047630678
 30
0.0
 10
88.38874890862505
 20
117.8108459842679
 30
0.0
 10
90.28903826649078
 20
110.8939322739535
 30
0.0
 10
91.77901820369664
 20
106.1825826704514
 30
0.0
 10
92.68962363615475
 20
103.3032280992726
 30
0.0
  0
SPLINE
  5
B5
330
1F
100
AcDbEntity
  8
0
  6
Continuous
 62
     7
370
    25
100
AcDbSpline
210
0.0
220
0.0
230
1.0
 70
     8
 71
     3
 72
    10
 73
     6
 74
     0
 42
0.000000001
 43
0.00000001
 40
0.0
 40
0.0
 40
0.0
 40
0.0
 40
0.3815864488999762
 40
0.690656819357396
 40
1.0
 40
1.0
 40
1.0
 40
1.0
 10
116.5068219871803
 20
103.3032280992726
 30
0.0
 10
115.03411214886
 20
104.1707267851552
 30
0.0
 10
112.368563894453
 20
105.7408660941257
 30
0.0
 10
108.3611908460591
 20
107.743977852702
 30
0.0
 10
105.8529143287377
 20
108.9170080117832
 30
0.0
 10
104.5982228129727
 20
109.5037818296506
 30
0.0
  0
SPLINE
  5
B6
330
1F
100
AcDbEntity
  8
0
  6
Continuous
 62
     7
370
    25
100
AcDbSpline
210
0.0
220
0.0
230
1.0
 70
     8
 71
     3
 72
    10
 73
     6
 74
     0
 42
0.000000001
 43
0.00000001
 40
0.0
 40
0.0
 40
0.0
 40
0.0
 40
0.2798121059937392
 40
0.5598551414708973
 40
1.0
 40
1.0
 40
1.0
 40
1.0
 10
122.2973322020455
 20
123.8332060026904
 30
0.0
 10
121.8009236019329
 20
121.8263047630678
 30
0.0
 10
120.80769671471
 20
117.8108459842679
 30
0.0
 10
118.9074073568443
 20
110.8939322739535
 30
0.0
 10
117.4174274196385
 20
106.1825826704514
 30
0.0
 10
116.5068219871803
 20
103.3032280992726
 30
0.0
  0
LINE
  5
B7
330
1F
100
AcDbEntity
  8
0
  6
Continuous
 62
     7
370
    25
100
AcDbLine
 10
123.7961710887
 20
209.6124818434
 30
0.0
 11
125.5109054492
 21
222.208672228
 31
0.0
  0
LINE
  5
B8
330
1F
100
AcDbEntity
  8
0
  6
Continuous
 62
     7
370
    25
100
AcDbLine
 10
85.4002745347
 20
209.6124818434
 30
0.0
 11
83.6855401741
 21
222.208672228
 31
0.0
  0
LINE
  5
B9
330
1F
100
AcDbEntity
  8
0
  6
Continuous
 62
     7
370
    25
100
AcDbLine
 10
80.3974927859
 20
181.9478914064
 30
0.0
 11
78.3468843894
 21
194.9884121945
 31
0.0
  0
LINE
  5
BA
330
1F
100
AcDbEntity
  8
0
  6
Continuous
 62
     7
370
    25
100
AcDbLine
 10
128.7989528374
 20
181.9478914064
 30
0.0
 11
130.849561234
 21
194.9884121945
 31
0.0
  0
SPLINE
  5
BB
330
1F
100
AcDbEntity
  8
0
  6
Continuous
 62
     7
370
    25
100
AcDbSpline
210
0.0
220
0.0
230
1.0
 70
     8
 71
     3
 72
    10
 73
     6
 74
     0
 42
0.000000001
 43
0.00000001
 40
0.0
 40
0.0
 40
0.0
 40
0.0
 40
0.3268749245613689
 40
0.659922227005738
 40
1.0
 40
1.0
 40
1.0
 40
1.0
 10
99.9279306726142
 20
248.315232862999
 30
0.0
 10
100.40980702142
 20
248.4254582107238
 30
0.0
 10
101.3826589881839
 20
248.6479902909702
 30
0.0
 10
102.9378086867057
 20
248.9279955588813
 30
0.0
 10
104.0409109795507
 20
249.0756110372183
 30
0.0
 10
104.598222814786
 20
249.1501896630399
 30
0.0
  0
SPLINE
  5
BC
330
1F
100
AcDbEntity
  8
0
  6
Continuous
 62
     7
370
    25
100
AcDbSpline
210
0.0
220
0.0
230
1.0
 70
     8
 71
     3
 72
    10
 73
     6
 74
     0
 42
0.000000001
 43
0.00000001
 40
0.0
 40
0.0
 40
0.0
 40
0.0
 40
0.3400533189703764
 40
0.6731026503636388
 40
1.0
 40
1.0
 40
1.0
 40
1.0
 10
104.598222814786
 20
249.1501896630399
 30
0.0
 10
105.1554951218947
 20
249.0756141569523
 30
0.0
 10
106.2585617469312
 20
248.9279991565995
 30
0.0
 10
107.8137157229013
 20
248.6480205149148
 30
0.0
 10
108.7866049456451
 20
248.4254705480054
 30
0.0
 10
109.2685149507209
 20
248.315232862999
 30
0.0
  0
SPLINE
  5
BD
330
1F
100
AcDbEntity
  8
0
  6
Continuous
 62
     7
370
    25
100
AcDbSpline
210
0.0
220
0.0
230
1.0
 70
     8
 71
     3
 72
    10
 73
     6
 74
     0
 42
0.000000001
 43
0.00000001
 40
0.0
 40
0.0
 40
0.0
 40
0.0
 40
0.326863012996798
 40
0.6599092801631968
 40
0.9999999999999999
 40
0.9999999999999999
 40
0.9999999999999999
 40
0.9999999999999999
 10
109.2685149507209
 20
248.315232862999
 30
0.0
 10
110.0080957938075
 20
248.29450467412
 30
0.0
 10
111.5012481003629
 20
248.2526561820655
 30
0.0
 10
113.7688860965657
 20
248.1228625231856
 30
0.0
 10
115.2927586431446
 20
247.9888404548938
 30
0.0
 10
116.0626686634108
 20
247.9211281428987
 30
0.0
  0
SPLINE
  5
BE
330
1F
100
AcDbEntity
  8
0
  6
Continuous
 62
     7
370
    25
100
AcDbSpline
210
0.0
220
0.0
230
1.0
 70
     8
 71
     3
 72
    10
 73
     6
 74
     0
 42
0.000000001
 43
0.00000001
 40
0.0
 40
0.0
 40
0.0
 40
0.0
 40
0.3400851031566858
 40
0.6731319251446274
 40
1.0
 40
1.0
 40
1.0
 40
1.0
 10
116.0626686634108
 20
247.9211281428987
 30
0.0
 10
116.0809456725821
 20
247.7848381820554
 30
0.0
 10
116.1171214363988
 20
247.5150788692576
 30
0.0
 10
116.048796246475
 20
247.0756773872399
 30
0.0
 10
115.931435606377
 20
246.7614367131153
 30
0.0
 10
115.8733047069593
 20
246.6057874851865
 30
0.0
  0
SPLINE
  5
BF
330
1F
100
AcDbEntity
  8
0
  6
Continuous
 62
     7
370
    25
100
AcDbSpline
210
0.0
220
0.0
230
1.0
 70
     8
 71
     3
 72
    10
 73
     6
 74
     0
 42
0.000000001
 43
0.00000001
 40
0.0
 40
0.0
 40
0.0
 40
0.0
 40
0.326874924447356
 40
0.6599222267755595
 40
1.0
 40
1.0
 40
1.0
 40
1.0
 10
115.8733047069593
 20
246.6057874851865
 30
0.0
 10
116.4373921480391
 20
246.4452974835881
 30
0.0
 10
117.5762186910748
 20
246.1212869483379
 30
0.0
 10
119.2279912214817
 20
245.5712796674015
 30
0.0
 10
120.2799332101163
 20
245.1611286420229
 30
0.0
 10
120.8113977210208
 20
244.9539112132531
 30
0.0
  0
SPLINE
  5
C0
330
1F
100
AcDbEntity
  8
0
  6
Continuous
 62
     7
370
    25
100
AcDbSpline
210
0.0
220
0.0
230
1.0
 70
     8
 71
     3
 72
    10
 73
     6
 74
     0
 42
0.000000001
 43
0.00000001
 40
0.0
 40
0.0
 40
0.0
 40
0.0
 40
0.340053318740189
 40
0.673102650249618
 40
0.9999999999999999
 40
0.9999999999999999
 40
0.9999999999999999
 40
0.9999999999999999
 10
120.8113977210208
 20
244.9539112132531
 30
0.0
 10
120.2799717691981
 20
244.8726461784708
 30
0.0
 10
119.2280655037086
 20
244.7117899030864
 30
0.0
 10
117.5762992827269
 20
244.456816350576
 30
0.0
 10
116.4374307450809
 20
244.2772249914645
 30
0.0
 10
115.8733047069593
 20
244.1882663816273
 30
0.0
  0
SPLINE
  5
C1
330
1F
100
AcDbEntity
  8
0
  6
Continuous
 62
     7
370
    25
100
AcDbSpline
210
0.0
220
0.0
230
1.0
 70
     8
 71
     3
 72
    10
 73
     6
 74
     0
 42
0.000000001
 43
0.00000001
 40
0.0
 40
0.0
 40
0.0
 40
0.0
 40
0.326863012996798
 40
0.6599092801631968
 40
0.9999999999999999
 40
0.9999999999999999
 40
0.9999999999999999
 40
0.9999999999999999
 10
115.8733047069593
 20
244.1882663816273
 30
0.0
 10
115.9314347199876
 20
243.9610754307006
 30
0.0
 10
116.048794389109
 20
243.5023957669753
 30
0.0
 10
116.1171220812898
 20
242.7680096992357
 30
0.0
 10
116.0809459982675
 20
242.2489434528438
 30
0.0
 10
116.0626686634108
 20
241.9866942869432
 30
0.0
  0
SPLINE
  5
C2
330
1F
100
AcDbEntity
  8
0
  6
Continuous
 62
     7
370
    25
100
AcDbSpline
210
0.0
220
0.0
230
1.0
 70
     8
 71
     3
 72
    10
 73
     6
 74
     0
 42
0.000000001
 43
0.00000001
 40
0.0
 40
0.0
 40
0.0
 40
0.0
 40
0.3400851031566858
 40
0.6731319251446274
 40
1.0
 40
1.0
 40
1.0
 40
1.0
 10
116.0626686634108
 20
241.9866942869432
 30
0.0
 10
115.2927708593107
 20
242.0449381025226
 30
0.0
 10
113.7689087841181
 20
242.1602203402472
 30
0.0
 10
111.5012727410779
 20
242.3254101139417
 30
0.0
 10
110.0081074056819
 20
242.4280042349072
 30
0.0
 10
109.2685149507209
 20
242.4788210038147
 30
0.0
  0
SPLINE
  5
C3
330
1F
100
AcDbEntity
  8
0
  6
Continuous
 62
     7
370
    25
100
AcDbSpline
210
0.0
220
0.0
230
1.0
 70
     8
 71
     3
 72
    10
 73
     6
 74
     0
 42
0.000000001
 43
0.00000001
 40
0.0
 40
0.0
 40
0.0
 40
0.0
 40
0.3268749247893916
 40
0.6599222274660893
 40
1.0
 40
1.0
 40
1.0
 40
1.0
 10
109.2685149507209
 20
242.4788210038147
 30
0.0
 10
108.7866386019819
 20
242.2970532057869
 30
0.0
 10
107.8137866353529
 20
241.9300852891335
 30
0.0
 10
106.2586369368822
 20
241.3550701803241
 30
0.0
 10
105.1555346479119
 20
240.9581604156053
 30
0.0
 10
104.5982228151998
 20
240.757632766802
 30
0.0
  0
SPLINE
  5
C4
330
1F
100
AcDbEntity
  8
0
  6
Continuous
 62
     7
370
    25
100
AcDbSpline
210
0.0
220
0.0
230
1.0
 70
     8
 71
     3
 72
    10
 73
     6
 74
     0
 42
0.000000001
 43
0.00000001
 40
0.0
 40
0.0
 40
0.0
 40
0.0
 40
0.3400533194307455
 40
0.6731026505916776
 40
0.9999999999999999
 40
0.9999999999999999
 40
0.9999999999999999
 40
0.9999999999999999
 10
104.5982228151998
 20
240.757632766802
 30
0.0
 10
104.0409505055679
 20
240.9581435753127
 30
0.0
 10
102.9378838766567
 20
241.3550353242502
 30
0.0
 10
101.3827299006356
 20
241.930073796032
 30
0.0
 10
100.4098406777568
 20
242.2970455638565
 30
0.0
 10
99.9279306726142
 20
242.4788210038147
 30
0.0
  0
SPLINE
  5
C5
330
1F
100
AcDbEntity
  8
0
  6
Continuous
 62
     7
370
    25
100
AcDbSpline
210
0.0
220
0.0
230
1.0
 70
     8
 71
     3
 72
    10
 73
     6
 74
     0
 42
0.000000001
 43
0.00000001
 40
0.0
 40
0.0
 40
0.0
 40
0.0
 40
0.326863012996798
 40
0.6599092801631968
 40
0.9999999999999999
 40
0.9999999999999999
 40
0.9999999999999999
 40
0.9999999999999999
 10
99.9279306726142
 20
242.4788210038147
 30
0.0
 10
99.18834982952757
 20
242.4280025060081
 30
0.0
 10
97.69519752297224
 20
242.3254041789625
 30
0.0
 10
95.42755952676934
 20
242.1602415039941
 30
0.0
 10
93.9036869801905
 20
242.044945554229
 30
0.0
 10
93.13377695992432
 20
241.9866942869432
 30
0.0
  0
SPLINE
  5
C6
330
1F
100
AcDbEntity
  8
0
  6
Continuous
 62
     7
370
    25
100
AcDbSpline
210
0.0
220
0.0
230
1.0
 70
     8
 71
     3
 72
    10
 73
     6
 74
     0
 42
0.000000001
 43
0.00000001
 40
0.0
 40
0.0
 40
0.0
 40
0.0
 40
0.3400851031566858
 40
0.6731319251446274
 40
1.0
 40
1.0
 40
1.0
 40
1.0
 10
93.13377695992432
 20
241.9866942869432
 30
0.0
 10
93.11549995075299
 20
242.2489327550673
 30
0.0
 10
93.07932418693628
 20
242.7679824966081
 30
0.0
 10
93.1476493768601
 20
243.5023958051899
 30
0.0
 10
93.26501001695807
 20
243.96107438364
 30
0.0
 10
93.32314091637573
 20
244.1882663816273
 30
0.0
  0
SPLINE
  5
C7
330
1F
100
AcDbEntity
  8
0
  6
Continuous
 62
     7
370
    25
100
AcDbSpline
210
0.0
220
0.0
230
1.0
 70
     8
 71
     3
 72
    10
 73
     6
 74
     0
 42
0.000000001
 43
0.00000001
 40
0.0
 40
0.0
 40
0.0
 40
0.0
 40
0.3268749246753809
 40
0.6599222272359151
 40
1.0
 40
1.0
 40
1.0
 40
1.0
 10
93.32314091637573
 20
244.1882663816273
 30
0.0
 10
92.75905347522821
 20
244.2772139329313
 30
0.0
 10
91.62022693205557
 20
244.4567886317921
 30
0.0
 10
89.96845440385007
 20
244.7117860710142
 30
0.0
 10
88.91651241353061
 20
244.8726428096245
 30
0.0
 10
88.38504790231428
 20
244.9539112148674
 30
0.0
  0
SPLINE
  5
C8
330
1F
100
AcDbEntity
  8
0
  6
Continuous
 62
     7
370
    25
100
AcDbSpline
210
0.0
220
0.0
230
1.0
 70
     8
 71
     3
 72
    10
 73
     6
 74
     0
 42
0.000000001
 43
0.00000001
 40
0.0
 40
0.0
 40
0.0
 40
0.0
 40
0.3400533192005624
 40
0.6731026504776589
 40
1.0
 40
1.0
 40
1.0
 40
1.0
 10
88.38504790231428
 20
244.9539112148674
 30
0.0
 10
88.9164738538252
 20
245.1611115528337
 30
0.0
 10
89.96838011762978
 20
245.571244578422
 30
0.0
 10
91.62014634081302
 20
246.1212779602402
 30
0.0
 10
92.75901487832202
 20
246.445291120354
 30
0.0
 10
93.32314091637573
 20
246.6057874851865
 30
0.0
  0
SPLINE
  5
C9
330
1F
100
AcDbEntity
  8
0
  6
Continuous
 62
     7
370
    25
100
AcDbSpline
210
0.0
220
0.0
230
1.0
 70
     8
 71
     3
 72
    10
 73
     6
 74
     0
 42
0.000000001
 43
0.00000001
 40
0.0
 40
0.0
 40
0.0
 40
0.0
 40
0.326863012996798
 40
0.6599092801631968
 40
0.9999999999999999
 40
0.9999999999999999
 40
0.9999999999999999
 40
0.9999999999999999
 10
93.32314091637573
 20
246.6057874851865
 30
0.0
 10
93.26501090334752
 20
246.7614317494274
 30
0.0
 10
93.14765123422609
 20
247.0756645940527
 30
0.0
 10
93.07932354204526
 20
247.5150943279439
 30
0.0
 10
93.11549962506756
 20
247.784842556279
 30
0.0
 10
93.13377695992432
 20
247.9211281428987
 30
0.0
  0
SPLINE
  5
CA
330
1F
100
AcDbEntity
  8
0
  6
Continuous
 62
     7
370
    25
100
AcDbSpline
210
0.0
220
0.0
230
1.0
 70
     8
 71
     3
 72
    10
 73
     6
 74
     0
 42
0.000000001
 43
0.00000001
 40
0.0
 40
0.0
 40
0.0
 40
0.0
 40
0.3400851031566858
 40
0.6731319251446274
 40
1.0
 40
1.0
 40
1.0
 40
1.0
 10
93.13377695992432
 20
247.9211281428987
 30
0.0
 10
93.90367476402433
 20
247.9888328346001
 30
0.0
 10
95.42753683921701
 20
248.1228410256186
 30
0.0
 10
97.6951728822572
 20
248.252663078488
 30
0.0
 10
99.18833821765321
 20
248.294506861848
 30
0.0
 10
99.9279306726142
 20
248.315232862999
 30
0.0
  0
LINE
  5
CB
330
1F
100
AcDbEntity
  8
0
  6
Continuous
 62
     7
370
    25
100
AcDbLine
 10
132.0693218605
 20
152.9447217341
 30
0.0
 11
134.7916820542
 21
166.1494565272
 31
0.0
  0
LINE
  5
CC
330
1F
100
AcDbEntity
  8
0
  6
Continuous
 62
     7
370
    25
100
AcDbLine
 10
119.0827903794
 20
141.6346823181
 30
0.0
 11
132.0693218605
 21
152.9447217341
 31
0.0
  0
LINE
  5
CD
330
1F
100
AcDbEntity
  8
0
  6
Continuous
 62
     7
370
    25
100
AcDbLine
 10
77.1271237628
 20
152.9447217341
 30
0.0
 11
74.4047635691
 21
166.1494565272
 31
0.0
  0
LINE
  5
CE
330
1F
100
AcDbEntity
  8
0
  6
Continuous
 62
     7
370
    25
100
AcDbLine
 10
90.113655244
 20
141.6346823181
 30
0.0
 11
77.1271237628
 21
152.9447217341
 31
0.0
  0
LINE
  5
CF
330
1F
100
AcDbEntity
  8
0
  6
Continuous
 62
     7
370
    25
100
AcDbLine
 10
71.8945325808
 20
135.7975391618
 30
0.0
 11
77.1271237628
 21
152.9447217341
 31
0.0
  0
LINE
  5
D0
330
1F
100
AcDbEntity
  8
0
  6
Continuous
 62
     7
370
    25
100
AcDbLine
 10
86.8991134213
 20
123.8332060027
 30
0.0
 11
71.8945325808
 21
135.7975391618
 31
0.0
  0
LINE
  5
D1
330
1F
100
AcDbEntity
  8
0
  6
Continuous
 62
     7
370
    25
100
AcDbLine
 10
137.3019130425
 20
135.7975391618
 30
0.0
 11
132.0693218605
 21
152.9447217341
 31
0.0
  0
LINE
  5
D2
330
1F
100
AcDbEntity
  8
0
  6
Continuous
 62
     7
370
    25
100
AcDbLine
 10
122.297332202
 20
123.8332060027
 30
0.0
 11
137.3019130425
 21
135.7975391618
 31
0.0
  0
SPLINE
  5
D3
330
1F
100
AcDbEntity
  8
0
  6
Continuous
 62
     7
370
    25
100
AcDbSpline
210
0.0
220
0.0
230
1.0
 70
     8
 71
     3
 72
    11
 73
     7
 74
     0
 42
0.000000001
 43
0.00000001
 40
0.0
 40
0.0
 40
0.0
 40
0.0
 40
0.2802030601873803
 40
0.5604015239293743
 40
0.7803670285274199
 40
1.0
 40
1.0
 40
1.0
 40
1.0
 10
117.0016029374286
 20
243.4473812257691
 30
0.0
 10
118.7495993803263
 20
240.9049671086389
 30
0.0
 10
122.2455635920231
 20
235.8201805800887
 30
0.0
 10
126.7327225784465
 20
228.4866552812613
 30
0.0
 10
130.6544071009962
 20
221.5983101014033
 30
0.0
 10
132.8704228018937
 20
217.2986418124571
 30
0.0
 10
133.9775925026818
 20
215.1504339044389
 30
0.0
  0
LINE
  5
D4
330
1F
100
AcDbEntity
  8
0
  6
Continuous
 62
     7
370
    25
100
AcDbLine
 10
133.9775925027
 20
215.1504339044
 30
0.0
 11
125.5109054492
 21
222.208672228
 31
0.0
  0
SPLINE
  5
D5
330
1F
100
AcDbEntity
  8
0
  6
Continuous
 62
     7
370
    25
100
AcDbSpline
210
0.0
220
0.0
230
1.0
 70
     8
 71
     3
 72
     9
 73
     5
 74
     0
 42
0.000000001
 43
0.00000001
 40
0.0
 40
0.0
 40
0.0
 40
0.0
 40
0.5002760060236882
 40
0.9999999999999999
 40
0.9999999999999999
 40
0.9999999999999999
 40
0.9999999999999999
 10
117.1496375919863
 20
240.9212846662877
 30
0.0
 10
117.1913632273079
 20
241.3613024157119
 30
0.0
 10
117.2747684572593
 20
242.240852392377
 30
0.0
 10
117.0926202485316
 20
243.0453528989477
 30
0.0
 10
117.0015964181705
 20
243.4473811052471
 30
0.0
  0
SPLINE
  5
D6
330
1F
100
AcDbEntity
  8
0
  6
Continuous
 62
     7
370
    25
100
AcDbSpline
210
0.0
220
0.0
230
1.0
 70
     8
 71
     3
 72
     9
 73
     5
 74
     0
 42
0.000000001
 43
0.00000001
 40
0.0
 40
0.0
 40
0.0
 40
0.0
 40
0.4997366038460943
 40
1.0
 40
1.0
 40
1.0
 40
1.0
 10
92.19484827384196
 20
243.4473812257691
 30
0.0
 10
92.10382263080538
 20
243.0453464192892
 30
0.0
 10
91.9216753909674
 20
242.2408530053872
 30
0.0
 10
92.00508250514628
 20
241.3612952274114
 30
0.0
 10
92.0468080313488
 20
240.9212846662877
 30
0.0
  0
LINE
  5
D7
330
1F
100
AcDbEntity
  8
0
  6
Continuous
 62
     7
370
    25
100
AcDbLine
 10
75.2188531207
 20
215.1504339044
 30
0.0
 11
83.6855401741
 21
222.208672228
 31
0.0
  0
SPLINE
  5
D8
330
1F
100
AcDbEntity
  8
0
  6
Continuous
 62
     7
370
    25
100
AcDbSpline
210
0.0
220
0.0
230
1.0
 70
     8
 71
     3
 72
    11
 73
     7
 74
     0
 42
0.000000001
 43
0.00000001
 40
0.0
 40
0.0
 40
0.0
 40
0.0
 40
0.2802030601873803
 40
0.5604015239293743
 40
0.7803670285274199
 40
1.0
 40
1.0
 40
1.0
 40
1.0
 10
92.19484268590651
 20
243.4473812257691
 30
0.0
 10
90.44684624300878
 20
240.9049671086389
 30
0.0
 10
86.95088203131195
 20
235.8201805800887
 30
0.0
 10
82.46372304488861
 20
228.4866552812613
 30
0.0
 10
78.54203852233893
 20
221.5983101014033
 30
0.0
 10
76.32602282144137
 20
217.2986418124571
 30
0.0
 10
75.21885312065325
 20
215.1504339044389
 30
0.0
  0
SPLINE
  5
D9
330
1F
100
AcDbEntity
  8
0
  6
Continuous
 62
     7
370
    25
100
AcDbSpline
210
0.0
220
0.0
230
1.0
 70
     8
 71
     3
 72
    10
 73
     6
 74
     0
 42
0.000000001
 43
0.00000001
 40
0.0
 40
0.0
 40
0.0
 40
0.0
 40
0.2498926141877109
 40
0.5007547313953397
 40
1.0
 40
1.0
 40
1.0
 40
1.0
 10
104.5982229997816
 20
239.5756933074743
 30
0.0
 10
104.5982231906024
 20
239.7077035284558
 30
0.0
 10
104.5982235729845
 20
239.9722361276441
 30
0.0
 10
104.598224413334
 20
240.4119372828359
 30
0.0
 10
104.5982235090242
 20
240.6194920484707
 30
0.0
 10
104.5982229071471
 20
240.75763324889
 30
0.0
  0
SPLINE
  5
DA
330
1F
100
AcDbEntity
  8
0
  6
Continuous
 62
     7
370
    25
100
AcDbSpline
210
0.0
220
0.0
230
1.0
 70
     8
 71
     3
 72
    10
 73
     6
 74
     0
 42
0.000000001
 43
0.00000001
 40
0.0
 40
0.0
 40
0.0
 40
0.0
 40
0.2496873368069767
 40
0.5001875542982274
 40
1.0
 40
1.0
 40
1.0
 40
1.0
 10
109.7358665885016
 20
241.5668726924133
 30
0.0
 10
109.7054708420977
 20
241.6697686753153
 30
0.0
 10
109.6445803930696
 20
241.8758956287004
 30
0.0
 10
109.4913657899376
 20
242.223620508175
 30
0.0
 10
109.3576126520562
 20
242.376789453449
 30
0.0
 10
109.2685144850596
 20
242.4788212448587
 30
0.0
  0
SPLINE
  5
DB
330
1F
100
AcDbEntity
  8
0
  6
Continuous
 62
     7
370
    25
100
AcDbSpline
210
0.0
220
0.0
230
1.0
 70
     8
 71
     3
 72
    10
 73
     6
 74
     0
 42
0.000000001
 43
0.00000001
 40
0.0
 40
0.0
 40
0.0
 40
0.0
 40
0.2496990533179906
 40
0.5002261722974671
 40
1.0
 40
1.0
 40
1.0
 40
1.0
 10
99.46057391255937
 20
241.5668731745014
 30
0.0
 10
99.49097214460326
 20
241.6697750810661
 30
0.0
 10
99.55186941697119
 20
241.8759201431278
 30
0.0
 10
99.70508768774678
 20
242.2236388534794
 30
0.0
 10
99.83883940829958
 20
242.3768005632841
 30
0.0
 10
99.92793113827548
 20
242.4788212448587
 30
0.0
  0
LINE
  5
DC
330
1F
100
AcDbEntity
  8
0
  6
Continuous
 62
     7
370
    25
100
AcDbLine
 10
131.1135651068
 20
202.5623708086
 30
0.0
 11
123.7961710887
 21
209.6124818434
 31
0.0
  0
LINE
  5
DD
330
1F
100
AcDbEntity
  8
0
  6
Continuous
 62
     7
370
    25
100
AcDbLine
 10
131.1135651068
 20
202.5623708086
 30
0.0
 11
139.6825486319
 21
188.6520150557
 31
0.0
  0
LINE
  5
DE
330
1F
100
AcDbEntity
  8
0
  6
Continuous
 62
     7
370
    25
100
AcDbLine
 10
139.6825486319
 20
188.6520150557
 30
0.0
 11
130.849561234
 21
194.9884121945
 31
0.0
  0
LINE
  5
DF
330
1F
100
AcDbEntity
  8
0
  6
Continuous
 62
     7
370
    25
100
AcDbLine
 10
78.0828805165
 20
202.5623708086
 30
0.0
 11
85.4002745347
 21
209.6124818434
 31
0.0
  0
LINE
  5
E0
330
1F
100
AcDbEntity
  8
0
  6
Continuous
 62
     7
370
    25
100
AcDbLine
 10
69.5138969915
 20
188.6520150557
 30
0.0
 11
78.3468843894
 21
194.9884121945
 31
0.0
  0
LINE
  5
E1
330
1F
100
AcDbEntity
  8
0
  6
Continuous
 62
     7
370
    25
100
AcDbLine
 10
78.0828805165
 20
202.5623708086
 30
0.0
 11
69.5138969915
 21
188.6520150557
 31
0.0
  0
SPLINE
  5
E2
330
1F
100
AcDbEntity
  8
0
  6
Continuous
 62
     7
370
    25
100
AcDbSpline
210
0.0
220
0.0
230
1.0
 70
     8
 71
     3
 72
    10
 73
     6
 74
     0
 42
0.000000001
 43
0.00000001
 40
0.0
 40
0.0
 40
0.0
 40
0.0
 40
0.3815864449247806
 40
0.6906567994120699
 40
1.0
 40
1.0
 40
1.0
 40
1.0
 10
92.68962363615475
 20
103.3032280992726
 30
0.0
 10
91.80306349760379
 20
104.4236555430156
 30
0.0
 10
90.1984237208983
 20
106.4515861536576
 30
0.0
 10
87.72223417322478
 20
109.149777219683
 30
0.0
 10
86.15793967335746
 20
110.7594128447373
 30
0.0
 10
85.37544733747683
 20
111.5645857455384
 30
0.0
  0
SPLINE
  5
E3
330
1F
100
AcDbEntity
  8
0
  6
Continuous
 62
     7
370
    25
100
AcDbSpline
210
0.0
220
0.0
230
1.0
 70
     8
 71
     3
 72
    11
 73
     7
 74
     0
 42
0.000000001
 43
0.00000001
 40
0.0
 40
0.0
 40
0.0
 40
0.0
 40
0.2802168323010156
 40
0.5603716022429347
 40
0.7803197702193208
 40
1.0
 40
1.0
 40
1.0
 40
1.0
 10
85.37544733747683
 20
111.5645857455384
 30
0.0
 10
84.00739776322615
 20
113.698131104026
 30
0.0
 10
81.27160161002752
 20
117.9647492838696
 30
0.0
 10
77.71817898995052
 20
124.2241700894374
 30
0.0
 10
74.58537221741518
 20
130.1634801765533
 30
0.0
 10
72.791114613848
 20
133.9202827135034
 30
0.0
 10
71.89453258082114
 20
135.797539161832
 30
0.0
  0
SPLINE
  5
E4
330
1F
100
AcDbEntity
  8
0
  6
Continuous
 62
     7
370
    25
100
AcDbSpline
210
0.0
220
0.0
230
1.0
 70
     8
 71
     3
 72
    11
 73
     7
 74
     0
 42
0.000000001
 43
0.00000001
 40
0.0
 40
0.0
 40
0.0
 40
0.0
 40
0.2802168323010156
 40
0.5603716022429347
 40
0.7803197702193208
 40
1.0
 40
1.0
 40
1.0
 40
1.0
 10
123.8209982858583
 20
111.5645857455384
 30
0.0
 10
125.189047860109
 20
113.698131104026
 30
0.0
 10
127.9248440133076
 20
117.9647492838696
 30
0.0
 10
131.4782666333846
 20
124.2241700894374
 30
0.0
 10
134.6110734059199
 20
130.1634801765533
 30
0.0
 10
136.4053310094871
 20
133.9202827135034
 30
0.0
 10
137.3019130425139
 20
135.797539161832
 30
0.0
  0
SPLINE
  5
E5
330
1F
100
AcDbEntity
  8
0
  6
Continuous
 62
     7
370
    25
100
AcDbSpline
210
0.0
220
0.0
230
1.0
 70
     8
 71
     3
 72
    10
 73
     6
 74
     0
 42
0.000000001
 43
0.00000001
 40
0.0
 40
0.0
 40
0.0
 40
0.0
 40
0.3815864449247806
 40
0.6906567994120699
 40
1.0
 40
1.0
 40
1.0
 40
1.0
 10
116.5068219871803
 20
103.3032280992726
 30
0.0
 10
117.3933821257313
 20
104.4236555430156
 30
0.0
 10
118.9980219024368
 20
106.4515861536576
 30
0.0
 10
121.4742114501103
 20
109.149777219683
 30
0.0
 10
123.0385059499776
 20
110.7594128447373
 30
0.0
 10
123.8209982858583
 20
111.5645857455384
 30
0.0
  0
SPLINE
  5
E6
330
1F
100
AcDbEntity
  8
0
  6
Continuous
 62
     7
370
    25
100
AcDbSpline
210
0.0
220
0.0
230
1.0
 70
     8
 71
     3
 72
     9
 73
     5
 74
     0
 42
0.000000001
 43
0.00000001
 40
0.0
 40
0.0
 40
0.0
 40
0.0
 40
0.4997649418561751
 40
1.0
 40
1.0
 40
1.0
 40
1.0
 10
117.0015992121383
 20
243.4473823104672
 30
0.0
 10
117.9395083065938
 20
243.5744866930413
 30
0.0
 10
119.8162087629564
 20
243.8288150220793
 30
0.0
 10
121.5042073173963
 20
244.0561226564906
 30
0.0
 10
122.3486033724233
 20
244.1698299042069
 30
0.0
  0
SPLINE
  5
E7
330
1F
100
AcDbEntity
  8
0
  6
Continuous
 62
     7
370
    25
100
AcDbSpline
210
0.0
220
0.0
230
1.0
 70
     8
 71
     3
 72
     9
 73
     5
 74
     0
 42
0.000000001
 43
0.00000001
 40
0.0
 40
0.0
 40
0.0
 40
0.0
 40
0.5597521815117602
 40
1.0
 40
1.0
 40
1.0
 40
1.0
 10
134.1732223974153
 20
227.6212727787785
 30
0.0
 10
132.0865232403812
 20
230.7892266606829
 30
0.0
 10
128.3586250276429
 20
236.4487917084661
 30
0.0
 10
124.1857170196807
 20
241.8097011622667
 30
0.0
 10
122.3486033724233
 20
244.1698298544155
 30
0.0
  0
LINE
  5
E8
330
1F
100
AcDbEntity
  8
0
  6
Continuous
 62
     7
370
    25
100
AcDbLine
 10
133.9775925027
 20
215.1504339044
 30
0.0
 11
134.1732223974
 21
227.6212727788
 31
0.0
  0
LINE
  5
E9
330
1F
100
AcDbEntity
  8
0
  6
Continuous
 62
     7
370
    25
100
AcDbLine
 10
75.2188531207
 20
215.1504339044
 30
0.0
 11
75.0232232259
 21
227.6212727788
 31
0.0
  0
SPLINE
  5
EA
330
1F
100
AcDbEntity
  8
0
  6
Continuous
 62
     7
370
    25
100
AcDbSpline
210
0.0
220
0.0
230
1.0
 70
     8
 71
     3
 72
     9
 73
     5
 74
     0
 42
0.000000001
 43
0.00000001
 40
0.0
 40
0.0
 40
0.0
 40
0.0
 40
0.5597521815117602
 40
1.0
 40
1.0
 40
1.0
 40
1.0
 10
75.02322322591982
 20
227.6212727787785
 30
0.0
 10
77.10992238295387
 20
230.7892266606829
 30
0.0
 10
80.83782059569216
 20
236.4487917084661
 30
0.0
 10
85.01072860365436
 20
241.8097011622667
 30
0.0
 10
86.84784225091181
 20
244.1698298544155
 30
0.0
  0
SPLINE
  5
EB
330
1F
100
AcDbEntity
  8
0
  6
Continuous
 62
     7
370
    25
100
AcDbSpline
210
0.0
220
0.0
230
1.0
 70
     8
 71
     3
 72
     9
 73
     5
 74
     0
 42
0.000000001
 43
0.00000001
 40
0.0
 40
0.0
 40
0.0
 40
0.0
 40
0.5002283975397483
 40
0.9999999999999999
 40
0.9999999999999999
 40
0.9999999999999999
 40
0.9999999999999999
 10
86.84784225091181
 20
244.1698298565384
 30
0.0
 10
87.692226888185
 20
244.0561262466716
 30
0.0
 10
89.38022509345703
 20
243.8288228580074
 30
0.0
 10
91.25692568203011
 20
243.5744905140742
 30
0.0
 10
92.19484734251938
 20
243.4473824309892
 30
0.0
  0
SPLINE
  5
EC
330
1F
100
AcDbEntity
  8
0
  6
Continuous
 62
     7
370
    25
100
AcDbSpline
210
0.0
220
0.0
230
1.0
 70
     8
 71
     3
 72
    10
 73
     6
 74
     0
 42
0.000000001
 43
0.00000001
 40
0.0
 40
0.0
 40
0.0
 40
0.0
 40
0.499247751887892
 40
0.7501106350842089
 40
1.0
 40
1.0
 40
1.0
 40
1.0
 10
116.0626677320882
 20
241.9866945279872
 30
0.0
 10
116.2683345787974
 20
241.8706014982802
 30
0.0
 10
116.5773452622054
 20
241.6961738400421
 30
0.0
 10
116.9378524129543
 20
241.2951235288307
 30
0.0
 10
117.0791340880926
 20
241.0457360080737
 30
0.0
 10
117.1496375919863
 20
240.9212846662877
 30
0.0
  0
SPLINE
  5
ED
330
1F
100
AcDbEntity
  8
0
  6
Continuous
 62
     7
370
    25
100
AcDbSpline
210
0.0
220
0.0
230
1.0
 70
     8
 71
     3
 72
    10
 73
     6
 74
     0
 42
0.000000001
 43
0.00000001
 40
0.0
 40
0.0
 40
0.0
 40
0.0
 40
0.2498893649157911
 40
0.5007522481121081
 40
1.0
 40
1.0
 40
1.0
 40
1.0
 10
92.0468080313488
 20
240.9212846662877
 30
0.0
 10
92.1173115352425
 20
241.0457360080737
 30
0.0
 10
92.2585932103808
 20
241.2951235288306
 30
0.0
 10
92.61910036112971
 20
241.6961738400421
 30
0.0
 10
92.92811104453772
 20
241.8706014982802
 30
0.0
 10
93.1337778912469
 20
241.9866945279872
 30
0.0
  0
LINE
  5
EE
330
1F
100
AcDbEntity
  8
0
  6
Continuous
 62
     7
370
    25
100
AcDbLine
 10
133.9775925027
 20
215.1504339044
 30
0.0
 11
131.1135651068
 21
202.5623708086
 31
0.0
  0
LINE
  5
EF
330
1F
100
AcDbEntity
  8
0
  6
Continuous
 62
     7
370
    25
100
AcDbLine
 10
75.2188531207
 20
215.1504339044
 30
0.0
 11
78.0828805165
 21
202.5623708086
 31
0.0
  0
LINE
  5
F0
330
1F
100
AcDbEntity
  8
0
  6
Continuous
 62
     7
370
    25
100
AcDbLine
 10
72.8629590468
 20
175.5363928303
 30
0.0
 11
80.3974927859
 21
181.9478914064
 31
0.0
  0
LINE
  5
F1
330
1F
100
AcDbEntity
  8
0
  6
Continuous
 62
     7
370
    25
100
AcDbLine
 10
64.8252093689
 20
160.3306978045
 30
0.0
 11
74.4047635691
 21
166.1494565272
 31
0.0
  0
LINE
  5
F2
330
1F
100
AcDbEntity
  8
0
  6
Continuous
 62
     7
370
    25
100
AcDbLine
 10
72.8629590468
 20
175.5363928303
 30
0.0
 11
64.8252093689
 21
160.3306978045
 31
0.0
  0
LINE
  5
F3
330
1F
100
AcDbEntity
  8
0
  6
Continuous
 62
     7
370
    25
100
AcDbLine
 10
136.3334865765
 20
175.5363928303
 30
0.0
 11
128.7989528374
 21
181.9478914064
 31
0.0
  0
LINE
  5
F4
330
1F
100
AcDbEntity
  8
0
  6
Continuous
 62
     7
370
    25
100
AcDbLine
 10
136.3334865765
 20
175.5363928303
 30
0.0
 11
144.3712362544
 21
160.3306978045
 31
0.0
  0
LINE
  5
F5
330
1F
100
AcDbEntity
  8
0
  6
Continuous
 62
     7
370
    25
100
AcDbLine
 10
144.3712362544
 20
160.3306978045
 30
0.0
 11
134.7916820542
 21
166.1494565272
 31
0.0
  0
LINE
  5
F6
330
1F
100
AcDbEntity
  8
0
  6
Continuous
 62
     7
370
    25
100
AcDbLine
 10
139.6825486319
 20
188.6520150557
 30
0.0
 11
136.3334865765
 21
175.5363928303
 31
0.0
  0
LINE
  5
F7
330
1F
100
AcDbEntity
  8
0
  6
Continuous
 62
     7
370
    25
100
AcDbLine
 10
69.5138969915
 20
188.6520150557
 30
0.0
 11
72.8629590468
 21
175.5363928303
 31
0.0
  0
SPLINE
  5
F8
330
1F
100
AcDbEntity
  8
0
  6
Continuous
 62
     7
370
    25
100
AcDbSpline
210
0.0
220
0.0
230
1.0
 70
     8
 71
     3
 72
    10
 73
     6
 74
     0
 42
0.000000001
 43
0.00000001
 40
0.0
 40
0.0
 40
0.0
 40
0.0
 40
0.2496873368069767
 40
0.5001875542982274
 40
1.0
 40
1.0
 40
1.0
 40
1.0
 10
92.19484734251938
 20
243.4473824309892
 30
0.0
 10
92.26823081444975
 20
243.5391523718193
 30
0.0
 10
92.41523666512747
 20
243.7229910191808
 30
0.0
 10
92.78513108070653
 20
244.0146350365049
 30
0.0
 10
93.10803979483114
 20
244.1188469161598
 30
0.0
 10
93.32314184769831
 20
244.1882665021493
 30
0.0
  0
SPLINE
  5
F9
330
1F
100
AcDbEntity
  8
0
  6
Continuous
 62
     7
370
    25
100
AcDbSpline
210
0.0
220
0.0
230
1.0
 70
     8
 71
     3
 72
    10
 73
     6
 74
     0
 42
0.000000001
 43
0.00000001
 40
0.0
 40
0.0
 40
0.0
 40
0.0
 40
0.2496990533179906
 40
0.5002261722974671
 40
1.0
 40
1.0
 40
1.0
 40
1.0
 10
117.0015964181705
 20
243.4473811052471
 30
0.0
 10
116.9282111343692
 20
243.5391571441242
 30
0.0
 10
116.7811972024737
 20
243.7230135745995
 30
0.0
 10
116.4112944200997
 20
244.0146502065707
 30
0.0
 10
116.0883898242163
 20
244.118855549804
 30
0.0
 10
115.8733037756368
 20
244.1882665021493
 30
0.0
  0
LINE
  5
FA
330
1F
100
AcDbEntity
  8
0
  6
Continuous
 62
     7
370
    25
100
AcDbLine
 10
144.3712362544
 20
160.3306978045
 30
0.0
 11
139.5670646326
 21
146.9364026199
 31
0.0
  0
LINE
  5
FB
330
1F
100
AcDbEntity
  8
0
  6
Continuous
 62
     7
370
    25
100
AcDbLine
 10
139.5670646326
 20
146.9364026199
 30
0.0
 11
132.0693218605
 21
152.9447217341
 31
0.0
  0
LINE
  5
FC
330
1F
100
AcDbEntity
  8
0
  6
Continuous
 62
     7
370
    25
100
AcDbLine
 10
69.6293809907
 20
146.9364026199
 30
0.0
 11
77.1271237628
 21
152.9447217341
 31
0.0
  0
LINE
  5
FD
330
1F
100
AcDbEntity
  8
0
  6
Continuous
 62
     7
370
    25
100
AcDbLine
 10
64.8252093689
 20
160.3306978045
 30
0.0
 11
69.6293809907
 21
146.9364026199
 31
0.0
  0
LINE
  5
FE
330
1F
100
AcDbEntity
  8
0
  6
Continuous
 62
     7
370
    25
100
AcDbLine
 10
139.5670646326
 20
146.9364026199
 30
0.0
 11
147.3276527123
 21
130.3115296558
 31
0.0
  0
LINE
  5
FF
330
1F
100
AcDbEntity
  8
0
  6
Continuous
 62
     7
370
    25
100
AcDbLine
 10
147.3276527123
 20
130.3115296558
 30
0.0
 11
137.3019130425
 21
135.7975391618
 31
0.0
  0
LINE
  5
100
330
1F
100
AcDbEntity
  8
0
  6
Continuous
 62
     7
370
    25
100
AcDbLine
 10
61.868792911
 20
130.3115296558
 30
0.0
 11
71.8945325808
 21
135.7975391618
 31
0.0
  0
LINE
  5
101
330
1F
100
AcDbEntity
  8
0
  6
Continuous
 62
     7
370
    25
100
AcDbLine
 10
69.6293809907
 20
146.9364026199
 30
0.0
 11
61.868792911
 21
130.3115296558
 31
0.0
  0
LINE
  5
102
330
1F
100
AcDbEntity
  8
0
  6
Continuous
 62
     7
370
    25
100
AcDbLine
 10
141.7232216792
 20
201.7827585376
 30
0.0
 11
133.3736130492
 21
212.4958071799
 31
0.0
  0
LINE
  5
103
330
1F
100
AcDbEntity
  8
0
  6
Continuous
 62
     7
370
    25
100
AcDbLine
 10
139.6825486319
 20
188.6520150557
 30
0.0
 11
141.7232216792
 21
201.7827585376
 31
0.0
  0
LINE
  5
104
330
1F
100
AcDbEntity
  8
0
  6
Continuous
 62
     7
370
    25
100
AcDbLine
 10
67.4732239442
 20
201.7827585376
 30
0.0
 11
75.8228325741
 21
212.4958071799
 31
0.0
  0
LINE
  5
105
330
1F
100
AcDbEntity
  8
0
  6
Continuous
 62
     7
370
    25
100
AcDbLine
 10
69.5138969915
 20
188.6520150557
 30
0.0
 11
67.4732239442
 21
201.7827585376
 31
0.0
  0
SPLINE
  5
106
330
1F
100
AcDbEntity
  8
0
  6
Continuous
 62
     7
370
    25
100
AcDbSpline
210
0.0
220
0.0
230
1.0
 70
     8
 71
     3
 72
    10
 73
     6
 74
     0
 42
0.000000001
 43
0.00000001
 40
0.0
 40
0.0
 40
0.0
 40
0.0
 40
0.2498926141877109
 40
0.5007547313953397
 40
1.0
 40
1.0
 40
1.0
 40
1.0
 10
122.3486033724233
 20
244.1698299042069
 30
0.0
 10
122.248893803623
 20
244.2760334391899
 30
0.0
 10
122.0490878249452
 20
244.4888525447346
 30
0.0
 10
121.5392569439039
 20
244.7965999756203
 30
0.0
 10
121.1022514481619
 20
244.8910491620811
 30
0.0
 10
120.8113958583756
 20
244.9539112407061
 30
0.0
  0
SPLINE
  5
107
330
1F
100
AcDbEntity
  8
0
  6
Continuous
 62
     7
370
    25
100
AcDbSpline
210
0.0
220
0.0
230
1.0
 70
     8
 71
     3
 72
    10
 73
     6
 74
     0
 42
0.000000001
 43
0.00000001
 40
0.0
 40
0.0
 40
0.0
 40
0.0
 40
0.2498926141877109
 40
0.5007547313953397
 40
1.0
 40
1.0
 40
1.0
 40
1.0
 10
86.84784225091181
 20
244.169829805728
 30
0.0
 10
86.94755181971209
 20
244.2760332419369
 30
0.0
 10
87.14735779838988
 20
244.4888521495503
 30
0.0
 10
87.65718867943117
 20
244.7965991454488
 30
0.0
 10
88.0941941751732
 20
244.8910488000237
 30
0.0
 10
88.38504976495943
 20
244.953911190209
 30
0.0
  0
LINE
  5
108
330
1F
100
AcDbEntity
  8
0
  6
Continuous
 62
     7
370
    25
100
AcDbLine
 10
116.5068219872
 20
103.3032280993
 30
0.0
 11
92.6896236362
 21
103.3032280993
 31
0.0
  0
SPLINE
  5
109
330
1F
100
AcDbEntity
  8
0
  6
Continuous
 62
     7
370
    25
100
AcDbSpline
210
0.0
220
0.0
230
1.0
 70
     8
 71
     3
 72
    10
 73
     6
 74
     0
 42
0.000000001
 43
0.00000001
 40
0.0
 40
0.0
 40
0.0
 40
0.0
 40
0.3815864449247806
 40
0.6906567994120699
 40
1.0
 40
1.0
 40
1.0
 40
1.0
 10
75.84832101031981
 20
107.6620779631738
 30
0.0
 10
77.0444870923436
 20
108.2434561952977
 30
0.0
 10
79.20950172733328
 20
109.2957284507382
 30
0.0
 10
82.40059346326287
 20
110.5271191866141
 30
0.0
 10
84.38353775221817
 20
111.2186618555946
 30
0.0
 10
85.37544733747683
 20
111.5645857455384
 30
0.0
  0
SPLINE
  5
10A
330
1F
100
AcDbEntity
  8
0
  6
Continuous
 62
     7
370
    25
100
AcDbSpline
210
0.0
220
0.0
230
1.0
 70
     8
 71
     3
 72
    10
 73
     6
 74
     0
 42
0.000000001
 43
0.00000001
 40
0.0
 40
0.0
 40
0.0
 40
0.0
 40
0.2798121059937392
 40
0.5598551414708973
 40
1.0
 40
1.0
 40
1.0
 40
1.0
 10
61.86879291102133
 20
130.3115296557681
 30
0.0
 10
63.06722927082728
 20
128.1229302617462
 30
0.0
 10
65.46509106233256
 20
123.7439252183022
 30
0.0
 10
70.05279642394088
 20
116.131457064106
 30
0.0
 10
73.64992546938558
 20
110.8747371405209
 30
0.0
 10
75.84832101031981
 20
107.6620779631738
 30
0.0
  0
SPLINE
  5
10B
330
1F
100
AcDbEntity
  8
0
  6
Continuous
 62
     7
370
    25
100
AcDbSpline
210
0.0
220
0.0
230
1.0
 70
     8
 71
     3
 72
    10
 73
     6
 74
     0
 42
0.000000001
 43
0.00000001
 40
0.0
 40
0.0
 40
0.0
 40
0.0
 40
0.3815864449247806
 40
0.6906567994120699
 40
1.0
 40
1.0
 40
1.0
 40
1.0
 10
133.3481246130153
 20
107.6620779631738
 30
0.0
 10
132.1519585309915
 20
108.2434561952977
 30
0.0
 10
129.9869438960018
 20
109.2957284507382
 30
0.0
 10
126.7958521600722
 20
110.5271191866141
 30
0.0
 10
124.8129078711169
 20
111.2186618555946
 30
0.0
 10
123.8209982858583
 20
111.5645857455384
 30
0.0
  0
SPLINE
  5
10C
330
1F
100
AcDbEntity
  8
0
  6
Continuous
 62
     7
370
    25
100
AcDbSpline
210
0.0
220
0.0
230
1.0
 70
     8
 71
     3
 72
    10
 73
     6
 74
     0
 42
0.000000001
 43
0.00000001
 40
0.0
 40
0.0
 40
0.0
 40
0.0
 40
0.2798121059937392
 40
0.5598551414708973
 40
1.0
 40
1.0
 40
1.0
 40
1.0
 10
147.3276527123137
 20
130.3115296557681
 30
0.0
 10
146.1292163525078
 20
128.1229302617462
 30
0.0
 10
143.7313545610025
 20
123.7439252183022
 30
0.0
 10
139.1436491993942
 20
116.131457064106
 30
0.0
 10
135.5465201539495
 20
110.8747371405209
 30
0.0
 10
133.3481246130153
 20
107.6620779631738
 30
0.0
  0
LINE
  5
10D
330
1F
100
AcDbEntity
  8
0
  6
Continuous
 62
     7
370
    25
100
AcDbLine
 10
92.6896236362
 20
103.3032280993
 30
0.0
 11
92.6896236362
 21
93.6439700523
 31
0.0
  0
LINE
  5
10E
330
1F
100
AcDbEntity
  8
0
  6
Continuous
 62
     7
370
    25
100
AcDbLine
 10
116.5068219872
 20
93.6439700523
 30
0.0
 11
116.5068219872
 21
103.3032280993
 31
0.0
  0
LINE
  5
10F
330
1F
100
AcDbEntity
  8
0
  6
Continuous
 62
     7
370
    25
100
AcDbLine
 10
116.5068219872
 20
93.6439700523
 30
0.0
 11
92.6896236362
 21
93.6439700523
 31
0.0
  0
LINE
  5
110
330
1F
100
AcDbEntity
  8
0
  6
Continuous
 62
     7
370
    25
100
AcDbLine
 10
147.298222919
 20
173.9640988167
 30
0.0
 11
139.3457563119
 21
187.3330638405
 31
0.0
  0
LINE
  5
111
330
1F
100
AcDbEntity
  8
0
  6
Continuous
 62
     7
370
    25
100
AcDbLine
 10
144.3712362544
 20
160.3306978045
 30
0.0
 11
147.298222919
 21
173.9640988167
 31
0.0
  0
LINE
  5
112
330
1F
100
AcDbEntity
  8
0
  6
Continuous
 62
     7
370
    25
100
AcDbLine
 10
61.8982227044
 20
173.9640988167
 30
0.0
 11
69.8506893115
 21
187.3330638405
 31
0.0
  0
LINE
  5
113
330
1F
100
AcDbEntity
  8
0
  6
Continuous
 62
     7
370
    25
100
AcDbLine
 10
64.8252093689
 20
160.3306978045
 30
0.0
 11
61.8982227044
 21
173.9640988167
 31
0.0
  0
LINE
  5
114
330
1F
100
AcDbEntity
  8
0
  6
Continuous
 62
     7
370
    25
100
AcDbLine
 10
116.2731997193
 20
246.5257820142
 30
0.0
 11
115.8733037756
 21
246.6057873647
 31
0.0
  0
LINE
  5
115
330
1F
100
AcDbEntity
  8
0
  6
Continuous
 62
     7
370
    25
100
AcDbLine
 10
92.9232440414
 20
246.5257967692
 30
0.0
 11
93.3231418477
 21
246.6057873647
 31
0.0
  0
LINE
  5
116
330
1F
100
AcDbEntity
  8
0
  6
Continuous
 62
     7
370
    25
100
AcDbLine
 10
118.0148465084
 20
246.0323175989
 30
0.0
 11
117.149637592
 21
247.4183750425
 31
0.0
  0
LINE
  5
117
330
1F
100
AcDbEntity
  8
0
  6
Continuous
 62
     7
370
    25
100
AcDbLine
 10
91.1816000463
 20
246.0323173579
 30
0.0
 11
92.0468080313
 21
247.4183750425
 31
0.0
  0
LINE
  5
118
330
1F
100
AcDbEntity
  8
0
  6
Continuous
 62
     7
370
    25
100
AcDbLine
 10
150.8482234077
 20
144.2618770387
 30
0.0
 11
143.9149775998
 21
159.058625793
 31
0.0
  0
LINE
  5
119
330
1F
100
AcDbEntity
  8
0
  6
Continuous
 62
     7
370
    25
100
AcDbLine
 10
147.3276527123
 20
130.3115296558
 30
0.0
 11
150.8482234077
 21
144.2618770387
 31
0.0
  0
LINE
  5
11A
330
1F
100
AcDbEntity
  8
0
  6
Continuous
 62
     7
370
    25
100
AcDbLine
 10
58.3482222156
 20
144.2618770387
 30
0.0
 11
65.2814680235
 21
159.058625793
 31
0.0
  0
LINE
  5
11B
330
1F
100
AcDbEntity
  8
0
  6
Continuous
 62
     7
370
    25
100
AcDbLine
 10
61.868792911
 20
130.3115296558
 30
0.0
 11
58.3482222156
 21
144.2618770387
 31
0.0
  0
SPLINE
  5
11C
330
1F
100
AcDbEntity
  8
0
  6
Continuous
 62
     7
370
    25
100
AcDbSpline
210
0.0
220
0.0
230
1.0
 70
     8
 71
     3
 72
    10
 73
     6
 74
     0
 42
0.000000001
 43
0.00000001
 40
0.0
 40
0.0
 40
0.0
 40
0.0
 40
0.2498893649157911
 40
0.5007522481121081
 40
1.0
 40
1.0
 40
1.0
 40
1.0
 10
117.1496375919863
 20
247.4183750425432
 30
0.0
 10
117.0791340880926
 20
247.506331284263
 30
0.0
 10
116.9378524129543
 20
247.6825864273801
 30
0.0
 10
116.5773452622054
 20
247.8970243795859
 30
0.0
 10
116.2683345787974
 20
247.9114960544755
 30
0.0
 10
116.0626677320882
 20
247.9211279018547
 30
0.0
  0
SPLINE
  5
11D
330
1F
100
AcDbEntity
  8
0
  6
Continuous
 62
     7
370
    25
100
AcDbSpline
210
0.0
220
0.0
230
1.0
 70
     8
 71
     3
 72
    10
 73
     6
 74
     0
 42
0.000000001
 43
0.00000001
 40
0.0
 40
0.0
 40
0.0
 40
0.0
 40
0.2498893649157911
 40
0.5007522481121081
 40
1.0
 40
1.0
 40
1.0
 40
1.0
 10
92.0468080313488
 20
247.4183750425432
 30
0.0
 10
92.11731115072263
 20
247.506331184742
 30
0.0
 10
92.25859205532316
 20
247.6825861284292
 30
0.0
 10
92.61909944945987
 20
247.8970241436284
 30
0.0
 10
92.92811068023143
 20
247.911495960186
 30
0.0
 10
93.1337778912469
 20
247.9211279018547
 30
0.0
  0
LINE
  5
11E
330
1F
100
AcDbEntity
  8
0
  6
Continuous
 62
     7
370
    25
100
AcDbLine
 10
133.348124613
 20
107.6620779632
 30
0.0
 11
116.5068219872
 21
103.3032280993
 31
0.0
  0
LINE
  5
11F
330
1F
100
AcDbEntity
  8
0
  6
Continuous
 62
     7
370
    25
100
AcDbLine
 10
92.6896236362
 20
103.3032280993
 30
0.0
 11
75.8483210103
 21
107.6620779632
 31
0.0
  0
LINE
  5
120
330
1F
100
AcDbEntity
  8
0
  6
Continuous
 62
     7
370
    25
100
AcDbLine
 10
75.8483210103
 20
107.6620779632
 30
0.0
 11
75.8483210103
 21
98.0028199162
 31
0.0
  0
LINE
  5
121
330
1F
100
AcDbEntity
  8
0
  6
Continuous
 62
     7
370
    25
100
AcDbLine
 10
92.6896236362
 20
93.6439700523
 30
0.0
 11
75.8483210103
 21
98.0028199162
 31
0.0
  0
LINE
  5
122
330
1F
100
AcDbEntity
  8
0
  6
Continuous
 62
     7
370
    25
100
AcDbLine
 10
133.348124613
 20
107.6620779632
 30
0.0
 11
133.348124613
 21
98.0028199162
 31
0.0
  0
LINE
  5
123
330
1F
100
AcDbEntity
  8
0
  6
Continuous
 62
     7
370
    25
100
AcDbLine
 10
133.348124613
 20
98.0028199162
 30
0.0
 11
116.5068219872
 21
93.6439700523
 31
0.0
  0
SPLINE
  5
124
330
1F
100
AcDbEntity
  8
0
  6
Continuous
 62
     8
370
    25
100
AcDbSpline
210
0.0
220
0.0
230
1.0
 70
     8
 71
     3
 72
     9
 73
     5
 74
     0
 42
0.000000001
 43
0.00000001
 40
0.0
 40
0.0
 40
0.0
 40
0.0
 40
0.4106211176911679
 40
1.0
 40
1.0
 40
1.0
 40
1.0
 10
117.0641552181526
 20
246.316589779388
 30
0.0
 10
117.1248903181757
 20
246.4813818999339
 30
0.0
 10
117.2728006359999
 20
246.8827059269896
 30
0.0
 10
117.1953093308212
 20
247.2197363994062
 30
0.0
 10
117.1496375919863
 20
247.4183750425432
 30
0.0
  0
SPLINE
  5
125
330
1F
100
AcDbEntity
  8
0
  6
Continuous
 62
     8
370
    25
100
AcDbSpline
210
0.0
220
0.0
230
1.0
 70
     8
 71
     3
 72
     9
 73
     5
 74
     0
 42
0.000000001
 43
0.00000001
 40
0.0
 40
0.0
 40
0.0
 40
0.0
 40
0.5893937091394568
 40
1.0
 40
1.0
 40
1.0
 40
1.0
 10
92.0468080313488
 20
247.4183750425432
 30
0.0
 10
92.00113599002341
 20
247.2197268242001
 30
0.0
 10
91.92364612099837
 20
246.8826885842888
 30
0.0
 10
92.07155718983162
 20
246.4813726334323
 30
0.0
 10
92.13229040518246
 20
246.316589779388
 30
0.0
  0
ENDSEC
  0
SECTION
  2
OBJECTS
  0
DICTIONARY
  5
C
330
0
100
AcDbDictionary
281
     1
  3
ACAD_GROUP
350
D
  3
ACAD_LAYOUT
350
1A
  3
ACAD_MLINESTYLE
350
17
  3
ACAD_PLOTSETTINGS
350
19
  3
ACAD_PLOTSTYLENAME
350
E
  3
ACAD_SCALELIST
350
47
  0
DICTIONARY
  5
D
102
{ACAD_REACTORS
330
C
102
}
330
C
100
AcDbDictionary
281
     1
  0
DICTIONARY
  5
1A
102
{ACAD_REACTORS
330
C
102
}
330
C
100
AcDbDictionary
281
     1
  3
Layout1
350
1E
  3
Layout2
350
26
  3
Model
350
22
  0
DICTIONARY
  5
17
102
{ACAD_REACTORS
330
C
102
}
330
C
100
AcDbDictionary
281
     1
  3
Standard
350
18
  0
DICTIONARY
  5
19
102
{ACAD_REACTORS
330
C
102
}
330
C
100
AcDbDictionary
281
     1
  0
ACDBDICTIONARYWDFLT
  5
E
102
{ACAD_REACTORS
330
C
102
}
330
C
100
AcDbDictionary
281
     1
  3
Normal
350
F
100
AcDbDictionaryWithDefault
340
F
  0
DICTIONARY
  5
47
102
{ACAD_REACTORS
330
C
102
}
330
C
100
AcDbDictionary
281
     1
  3
A0
350
48
  3
A1
350
49
  3
A2
350
4A
  3
A3
350
4B
  3
A4
350
4C
  3
A5
350
4D
  3
A6
350
4E
  3
A7
350
4F
  3
A8
350
50
  3
A9
350
51
  3
B0
350
52
  3
B1
350
53
  3
B2
350
54
  3
B3
350
55
  3
B4
350
56
  3
B5
350
57
  3
B6
350
58
  3
B7
350
59
  3
B8
350
5A
  3
B9
350
5B
  3
C0
350
5C
  3
C1
350
5D
  3
C2
350
5E
  3
C3
350
5F
  3
C4
350
60
  3
C5
350
61
  3
C6
350
62
  3
C7
350
63
  3
C8
350
64
  3
C9
350
65
  3
D0
350
66
  3
D1
350
67
  3
D2
350
68
  0
LAYOUT
  5
1E
102
{ACAD_REACTORS
330
1A
102
}
330
1A
100
AcDbPlotSettings
  1

  2
none_device
  4

  6

 40
0.0
 41
0.0
 42
0.0
 43
0.0
 44
0.0
 45
0.0
 46
0.0
 47
0.0
 48
0.0
 49
0.0
140
0.0
141
0.0
142
1.0
143
1.0
 70
   688
 72
     1
 73
     0
 74
     5
  7

 75
    16
147
1.0
148
0.0
149
0.0
100
AcDbLayout
  1
Layout1
 70
     1
 71
     1
 10
0.0
 20
0.0
 11
420.0
 21
297.0
 12
0.0
 22
0.0
 32
0.0
 14
1.0000000000E+20
 24
1.0000000000E+20
 34
1.0000000000E+20
 15
-1.0000000000E+20
 25
-1.0000000000E+20
 35
-1.0000000000E+20
146
0.0
 13
0.0
 23
0.0
 33
0.0
 16
1.0
 26
0.0
 36
0.0
 17
0.0
 27
1.0
 37
0.0
 76
     0
330
1B
  0
LAYOUT
  5
26
102
{ACAD_REACTORS
330
1A
102
}
330
1A
100
AcDbPlotSettings
  1

  2
none_device
  4

  6

 40
0.0
 41
0.0
 42
0.0
 43
0.0
 44
0.0
 45
0.0
 46
0.0
 47
0.0
 48
0.0
 49
0.0
140
0.0
141
0.0
142
1.0
143
1.0
 70
   688
 72
     1
 73
     0
 74
     5
  7

 75
    16
147
1.0
148
0.0
149
0.0
100
AcDbLayout
  1
Layout2
 70
     1
 71
     2
 10
0.0
 20
0.0
 11
0.0
 21
0.0
 12
0.0
 22
0.0
 32
0.0
 14
0.0
 24
0.0
 34
0.0
 15
0.0
 25
0.0
 35
0.0
146
0.0
 13
0.0
 23
0.0
 33
0.0
 16
1.0
 26
0.0
 36
0.0
 17
0.0
 27
1.0
 37
0.0
 76
     0
330
23
  0
LAYOUT
  5
22
102
{ACAD_REACTORS
330
1A
102
}
330
1A
100
AcDbPlotSettings
  1

  2
none_device
  4
Letter_(8.50_x_11.00_Inches)
  6

 40
6.35
 41
6.35
 42
6.35000508
 43
6.35000508
 44
215.9
 45
279.4
 46
0.0
 47
0.0
 48
0.0
 49
0.0
140
0.0
141
0.0
142
1.0
143
1.0
 70
  1712
 72
     1
 73
     0
 74
     0
  7

 75
     0
147
1.0
148
0.0
149
0.0
100
AcDbLayout
  1
Model
 70
     1
 71
     0
 10
0.0
 20
0.0
 11
210.0
 21
297.0
 12
0.0
 22
0.0
 32
0.0
 14
0.0
 24
0.0
 34
0.0
 15
210.0
 25
297.0
 35
0.0
146
0.0
 13
0.0
 23
0.0
 33
0.0
 16
1.0
 26
0.0
 36
0.0
 17
0.0
 27
1.0
 37
0.0
 76
     0
330
1F
331
29
  0
MLINESTYLE
  5
18
102
{ACAD_REACTORS
330
17
102
}
330
17
100
AcDbMlineStyle
  2
Standard
 70
     0
  3

 62
   256
 51
90.0
 52
90.0
 71
     2
 49
0.5
 62
   256
  6
BYLAYER
 49
-0.5
 62
   256
  6
BYLAYER
  0
ACDBPLACEHOLDER
  5
F
102
{ACAD_REACTORS
330
E
102
}
330
E
  0
SCALE
  5
48
102
{ACAD_REACTORS
330
47
102
}
330
47
100
AcDbScale
 70
     0
300
1:1
140
1.0
141
1.0
290
     1
  0
SCALE
  5
49
102
{ACAD_REACTORS
330
47
102
}
330
47
100
AcDbScale
 70
     0
300
1:2
140
1.0
141
2.0
290
     0
  0
SCALE
  5
4A
102
{ACAD_REACTORS
330
47
102
}
330
47
100
AcDbScale
 70
     0
300
1:4
140
1.0
141
4.0
290
     0
  0
SCALE
  5
4B
102
{ACAD_REACTORS
330
47
102
}
330
47
100
AcDbScale
 70
     0
300
1:5
140
1.0
141
5.0
290
     0
  0
SCALE
  5
4C
102
{ACAD_REACTORS
330
47
102
}
330
47
100
AcDbScale
 70
     0
300
1:8
140
1.0
141
8.0
290
     0
  0
SCALE
  5
4D
102
{ACAD_REACTORS
330
47
102
}
330
47
100
AcDbScale
 70
     0
300
1:10
140
1.0
141
10.0
290
     0
  0
SCALE
  5
4E
102
{ACAD_REACTORS
330
47
102
}
330
47
100
AcDbScale
 70
     0
300
1:16
140
1.0
141
16.0
290
     0
  0
SCALE
  5
4F
102
{ACAD_REACTORS
330
47
102
}
330
47
100
AcDbScale
 70
     0
300
1:20
140
1.0
141
20.0
290
     0
  0
SCALE
  5
50
102
{ACAD_REACTORS
330
47
102
}
330
47
100
AcDbScale
 70
     0
300
1:30
140
1.0
141
30.0
290
     0
  0
SCALE
  5
51
102
{ACAD_REACTORS
330
47
102
}
330
47
100
AcDbScale
 70
     0
300
1:40
140
1.0
141
40.0
290
     0
  0
SCALE
  5
52
102
{ACAD_REACTORS
330
47
102
}
330
47
100
AcDbScale
 70
     0
300
1:50
140
1.0
141
50.0
290
     0
  0
SCALE
  5
53
102
{ACAD_REACTORS
330
47
102
}
330
47
100
AcDbScale
 70
     0
300
1:100
140
1.0
141
100.0
290
     0
  0
SCALE
  5
54
102
{ACAD_REACTORS
330
47
102
}
330
47
100
AcDbScale
 70
     0
300
2:1
140
2.0
141
1.0
290
     0
  0
SCALE
  5
55
102
{ACAD_REACTORS
330
47
102
}
330
47
100
AcDbScale
 70
     0
300
4:1
140
4.0
141
1.0
290
     0
  0
SCALE
  5
56
102
{ACAD_REACTORS
330
47
102
}
330
47
100
AcDbScale
 70
     0
300
8:1
140
8.0
141
1.0
290
     0
  0
SCALE
  5
57
102
{ACAD_REACTORS
330
47
102
}
330
47
100
AcDbScale
 70
     0
300
10:1
140
10.0
141
1.0
290
     0
  0
SCALE
  5
58
102
{ACAD_REACTORS
330
47
102
}
330
47
100
AcDbScale
 70
     0
300
100:1
140
100.0
141
1.0
290
     0
  0
SCALE
  5
59
102
{ACAD_REACTORS
330
47
102
}
330
47
100
AcDbScale
 70
     0
300
1/128" = 1'-0"
140
0.0078125
141
12.0
290
     0
  0
SCALE
  5
5A
102
{ACAD_REACTORS
330
47
102
}
330
47
100
AcDbScale
 70
     0
300
1/64" = 1'-0"
140
0.015625
141
12.0
290
     0
  0
SCALE
  5
5B
102
{ACAD_REACTORS
330
47
102
}
330
47
100
AcDbScale
 70
     0
300
1/32" = 1'-0"
140
0.03125
141
12.0
290
     0
  0
SCALE
  5
5C
102
{ACAD_REACTORS
330
47
102
}
330
47
100
AcDbScale
 70
     0
300
1/16" = 1'-0"
140
0.0625
141
12.0
290
     0
  0
SCALE
  5
5D
102
{ACAD_REACTORS
330
47
102
}
330
47
100
AcDbScale
 70
     0
300
3/32" = 1'-0"
140
0.09375
141
12.0
290
     0
  0
SCALE
  5
5E
102
{ACAD_REACTORS
330
47
102
}
330
47
100
AcDbScale
 70
     0
300
1/8" = 1'-0"
140
0.125
141
12.0
290
     0
  0
SCALE
  5
5F
102
{ACAD_REACTORS
330
47
102
}
330
47
100
AcDbScale
 70
     0
300
3/16" = 1'-0"
140
0.1875
141
12.0
290
     0
  0
SCALE
  5
60
102
{ACAD_REACTORS
330
47
102
}
330
47
100
AcDbScale
 70
     0
300
1/4" = 1'-0"
140
0.25
141
12.0
290
     0
  0
SCALE
  5
61
102
{ACAD_REACTORS
330
47
102
}
330
47
100
AcDbScale
 70
     0
300
3/8" = 1'-0"
140
0.375
141
12.0
290
     0
  0
SCALE
  5
62
102
{ACAD_REACTORS
330
47
102
}
330
47
100
AcDbScale
 70
     0
300
1/2" = 1'-0"
140
0.5
141
12.0
290
     0
  0
SCALE
  5
63
102
{ACAD_REACTORS
330
47
102
}
330
47
100
AcDbScale
 70
     0
300
3/4" = 1'-0"
140
0.75
141
12.0
290
     0
  0
SCALE
  5
64
102
{ACAD_REACTORS
330
47
102
}
330
47
100
AcDbScale
 70
     0
300
1" = 1'-0"
140
1.0
141
12.0
290
     0
  0
SCALE
  5
65
102
{ACAD_REACTORS
330
47
102
}
330
47
100
AcDbScale
 70
     0
300
1-1/2" = 1'-0"
140
1.5
141
12.0
290
     0
  0
SCALE
  5
66
102
{ACAD_REACTORS
330
47
102
}
330
47
100
AcDbScale
 70
     0
300
3" = 1'-0"
140
3.0
141
12.0
290
     0
  0
SCALE
  5
67
102
{ACAD_REACTORS
330
47
102
}
330
47
100
AcDbScale
 70
     0
300
6" = 1'-0"
140
6.0
141
12.0
290
     0
  0
SCALE
  5
68
102
{ACAD_REACTORS
330
47
102
}
330
47
100
AcDbScale
 70
     0
300
1'-0" = 1'-0"
140
12.0
141
12.0
290
     0
  0
ENDSEC
  0
EOF
