  0
SECTION
  2
HEADER
  9
$ACADVER
  1
AC1015
  9
$ACADMAINTVER
 70
     6
  9
$DWGCODEPAGE
  3
DOS932
  9
$INSBASE
 10
0.0
 20
0.0
 30
0.0
  9
$EXTMIN
 10
0.0
 20
0.0
 30
0.0
  9
$EXTMAX
 10
2100.0
 20
2970.0
 30
0.0
  9
$LIMMIN
 10
0.0
 20
0.0
  9
$LIMMAX
 10
2100.0
 20
2970.0
  9
$ORTHOMODE
 70
     0
  9
$REGENMODE
 70
     1
  9
$FILLMODE
 70
     1
  9
$QTEXTMODE
 70
     0
  9
$MIRRTEXT
 70
     1
  9
$LTSCALE
 40
10.0
  9
$ATTMODE
 70
     1
  9
$TEXTSIZE
 40
35.0
  9
$TRACEWID
 40
1.0
  9
$TEXTSTYLE
  7
Standard
  9
$CLAYER
  8
0
  9
$CELTYPE
  6
ByLayer
  9
$CECOLOR
 62
   256
  9
$CELTSCALE
 40
1.0
  9
$DISPSILH
 70
     0
  9
$DIMSCALE
 40
1.0
  9
$DIMASZ
 40
15.0
  9
$DIMEXO
 40
10.0
  9
$DIMDLI
 40
3.75
  9
$DIMRND
 40
0.0
  9
$DIMDLE
 40
0.0
  9
$DIMEXE
 40
10.0
  9
$DIMTP
 40
0.0
  9
$DIMTM
 40
0.0
  9
$DIMTXT
 40
35.0
  9
$DIMCEN
 40
2.5
  9
$DIMTSZ
 40
0.0
  9
$DIMTOL
 70
     0
  9
$DIMLIM
 70
     0
  9
$DIMTIH
 70
     1
  9
$DIMTOH
 70
     1
  9
$DIMSE1
 70
     0
  9
$DIMSE2
 70
     0
  9
$DIMTAD
 70
     1
  9
$DIMZIN
 70
     0
  9
$DIMBLK
  1

  9
$DIMASO
 70
     1
  9
$DIMSHO
 70
     1
  9
$DIMPOST
  1

  9
$DIMAPOST
  1

  9
$DIMALT
 70
     0
  9
$DIMALTD
 70
     3
  9
$DIMALTF
 40
0.0393700787
  9
$DIMLFAC
 40
1.0
  9
$DIMTOFL
 70
     1
  9
$DIMTVP
 40
0.0
  9
$DIMTIX
 70
     0
  9
$DIMSOXD
 70
     0
  9
$DIMSAH
 70
     0
  9
$DIMBLK1
  1

  9
$DIMBLK2
  1

  9
$DIMSTYLE
  2
ISO-25
  9
$DIMCLRD
 70
     0
  9
$DIMCLRE
 70
     0
  9
$DIMCLRT
 70
     0
  9
$DIMTFAC
 40
1.0
  9
$DIMGAP
 40
15.0
  9
$DIMJUST
 70
     0
  9
$DIMSD1
 70
     0
  9
$DIMSD2
 70
     0
  9
$DIMTOLJ
 70
     0
  9
$DIMTZIN
 70
     0
  9
$DIMALTZ
 70
     0
  9
$DIMALTTZ
 70
     0
  9
$DIMUPT
 70
     0
  9
$DIMDEC
 70
     1
  9
$DIMTDEC
 70
     1
  9
$DIMALTU
 70
     2
  9
$DIMALTTD
 70
     3
  9
$DIMTXSTY
  7
Standard
  9
$DIMAUNIT
 70
     0
  9
$DIMADEC
 70
     2
  9
$DIMALTRND
 40
0.0
  9
$DIMAZIN
 70
     0
  9
$DIMDSEP
 70
    44
  9
$DIMATFIT
 70
     3
  9
$DIMFRAC
 70
     0
  9
$DIMLDRBLK
  1

  9
$DIMLUNIT
 70
     2
  9
$DIMLWD
 70
    -2
  9
$DIMLWE
 70
    -2
  9
$DIMTMOVE
 70
     0
  9
$LUNITS
 70
     2
  9
$LUPREC
 70
     2
  9
$SKETCHINC
 40
1.0
  9
$FILLETRAD
 40
0.0
  9
$AUNITS
 70
     0
  9
$AUPREC
 70
     2
  9
$MENU
  1
.
  9
$ELEVATION
 40
0.0
  9
$PELEVATION
 40
0.0
  9
$THICKNESS
 40
0.0
  9
$LIMCHECK
 70
     0
  9
$CHAMFERA
 40
0.0
  9
$CHAMFERB
 40
0.0
  9
$CHAMFERC
 40
0.0
  9
$CHAMFERD
 40
0.0
  9
$SKPOLY
 70
     0
  9
$TDCREATE
 40
2460151.591113137
  9
$TDUCREATE
 40
2460151.216113137
  9
$TDUPDATE
 40
2460151.591113461
  9
$TDUUPDATE
 40
2460151.216113461
  9
$TDINDWG
 40
0.0000000116
  9
$TDUSRTIMER
 40
0.0000000116
  9
$USRTIMER
 70
     1
  9
$ANGBASE
 50
0.0
  9
$ANGDIR
 70
     0
  9
$PDMODE
 70
     0
  9
$PDSIZE
 40
-1.0
  9
$PLINEWID
 40
0.0
  9
$SPLFRAME
 70
     0
  9
$SPLINETYPE
 70
     6
  9
$SPLINESEGS
 70
     8
  9
$HANDSEED
  5
120
  9
$SURFTAB1
 70
     6
  9
$SURFTAB2
 70
     6
  9
$SURFTYPE
 70
     6
  9
$SURFU
 70
     6
  9
$SURFV
 70
     6
  9
$UCSBASE
  2

  9
$UCSNAME
  2

  9
$UCSORG
 10
0.0
 20
0.0
 30
0.0
  9
$UCSXDIR
 10
1.0
 20
0.0
 30
0.0
  9
$UCSYDIR
 10
0.0
 20
1.0
 30
0.0
  9
$UCSORTHOREF
  2

  9
$UCSORTHOVIEW
 70
     0
  9
$UCSORGTOP
 10
0.0
 20
0.0
 30
0.0
  9
$UCSORGBOTTOM
 10
0.0
 20
0.0
 30
0.0
  9
$UCSORGLEFT
 10
0.0
 20
0.0
 30
0.0
  9
$UCSORGRIGHT
 10
0.0
 20
0.0
 30
0.0
  9
$UCSORGFRONT
 10
0.0
 20
0.0
 30
0.0
  9
$UCSORGBACK
 10
0.0
 20
0.0
 30
0.0
  9
$PUCSBASE
  2

  9
$PUCSNAME
  2

  9
$PUCSORG
 10
0.0
 20
0.0
 30
0.0
  9
$PUCSXDIR
 10
1.0
 20
0.0
 30
0.0
  9
$PUCSYDIR
 10
0.0
 20
1.0
 30
0.0
  9
$PUCSORTHOREF
  2

  9
$PUCSORTHOVIEW
 70
     0
  9
$PUCSORGTOP
 10
0.0
 20
0.0
 30
0.0
  9
$PUCSORGBOTTOM
 10
0.0
 20
0.0
 30
0.0
  9
$PUCSORGLEFT
 10
0.0
 20
0.0
 30
0.0
  9
$PUCSORGRIGHT
 10
0.0
 20
0.0
 30
0.0
  9
$PUCSORGFRONT
 10
0.0
 20
0.0
 30
0.0
  9
$PUCSORGBACK
 10
0.0
 20
0.0
 30
0.0
  9
$USERI1
 70
     0
  9
$USERI2
 70
     0
  9
$USERI3
 70
     0
  9
$USERI4
 70
     0
  9
$USERI5
 70
     0
  9
$USERR1
 40
0.0
  9
$USERR2
 40
0.0
  9
$USERR3
 40
0.0
  9
$USERR4
 40
0.0
  9
$USERR5
 40
0.0
  9
$WORLDVIEW
 70
     1
  9
$SHADEDGE
 70
     3
  9
$SHADEDIF
 70
    70
  9
$TILEMODE
 70
     1
  9
$MAXACTVP
 70
    64
  9
$PINSBASE
 10
0.0
 20
0.0
 30
0.0
  9
$PLIMCHECK
 70
     0
  9
$PEXTMIN
 10
1.0000000000E+20
 20
1.0000000000E+20
 30
1.0000000000E+20
  9
$PEXTMAX
 10
-1.0000000000E+20
 20
-1.0000000000E+20
 30
-1.0000000000E+20
  9
$PLIMMIN
 10
0.0
 20
0.0
  9
$PLIMMAX
 10
420.0
 20
297.0
  9
$UNITMODE
 70
     0
  9
$VISRETAIN
 70
     1
  9
$PLINEGEN
 70
     0
  9
$PSLTSCALE
 70
     1
  9
$TREEDEPTH
 70
  3020
  9
$CMLSTYLE
  2
Standard
  9
$CMLJUST
 70
     0
  9
$CMLSCALE
 40
20.0
  9
$PROXYGRAPHICS
 70
     1
  9
$MEASUREMENT
 70
     1
  9
$CELWEIGHT
370
    -1
  9
$ENDCAPS
280
     0
  9
$JOINSTYLE
280
     0
  9
$LWDISPLAY
290
     1
  9
$INSUNITS
 70
     4
  9
$HYPERLINKBASE
  1

  9
$STYLESHEET
  1

  9
$XEDIT
290
     1
  9
$CEPSNTYPE
380
     0
  9
$PSTYLEMODE
290
     1
  9
$FINGERPRINTGUID
  2
{96db6668-b677-4c89-af24-f36c4ae48b0f}
  9
$VERSIONGUID
  2
{FAEB1C32-E019-11D5-929B-00C0DF256EC4}
  9
$EXTNAMES
290
     1
  9
$PSVPSCALE
 40
0.0
  9
$OLESTARTUP
290
     0
  0
ENDSEC
  0
SECTION
  2
CLASSES
  0
CLASS
  1
ACDBDICTIONARYWDFLT
  2
AcDbDictionaryWithDefault
  3
ObjectDBX Classes
 90
        0
280
     0
281
     0
  0
CLASS
  1
VISUALSTYLE
  2
AcDbVisualStyle
  3
ObjectDBX Classes
 90
     4095
280
     0
281
     0
  0
CLASS
  1
MATERIAL
  2
AcDbMaterial
  3
ObjectDBX Classes
 90
     1153
280
     0
281
     0
  0
CLASS
  1
SCALE
  2
AcDbScale
  3
ObjectDBX Classes
 90
     1153
280
     0
281
     0
  0
CLASS
  1
TABLESTYLE
  2
AcDbTableStyle
  3
ObjectDBX Classes
 90
     4095
280
     0
281
     0
  0
CLASS
  1
MLEADERSTYLE
  2
AcDbMLeaderStyle
  3
ACDB_MLEADERSTYLE_CLASS
 90
     4095
280
     0
281
     0
  0
CLASS
  1
SUN
  2
AcDbSun
  3
SCENEOE
 90
     1153
280
     0
281
     0
  0
CLASS
  1
ACDBPLACEHOLDER
  2
AcDbPlaceHolder
  3
ObjectDBX Classes
 90
        0
280
     0
281
     0
  0
CLASS
  1
LAYOUT
  2
AcDbLayout
  3
ObjectDBX Classes
 90
        0
280
     0
281
     0
  0
ENDSEC
  0
SECTION
  2
TABLES
  0
TABLE
  2
VPORT
  5
8
330
0
100
AcDbSymbolTable
 70
     1
  0
VPORT
  5
29
330
8
100
AcDbSymbolTableRecord
100
AcDbViewportTableRecord
  2
*Active
 70
     0
 10
0.0
 20
0.0
 11
1.0
 21
1.0
 12
1050.0
 22
1485.0
 13
0.0
 23
0.0
 14
10.0
 24
10.0
 15
10.0
 25
10.0
 16
0.0
 26
0.0
 36
1.0
 17
0.0
 27
0.0
 37
0.0
 40
2970.0
 41
0.7070707071
 42
50.0
 43
0.0
 44
0.0
 50
0.0
 51
0.0
 71
     0
 72
  2000
 73
     1
 74
     3
 75
     0
 76
     0
 77
     0
 78
     0
281
     0
 65
     1
110
0.0
120
0.0
130
0.0
111
1.0
121
0.0
131
0.0
112
0.0
122
1.0
132
0.0
 79
     0
146
0.0
  0
ENDTAB
  0
TABLE
  2
LTYPE
  5
5
330
0
100
AcDbSymbolTable
 70
     6
  0
LTYPE
  5
14
330
5
100
AcDbSymbolTableRecord
100
AcDbLinetypeTableRecord
  2
ByBlock
 70
     0
  3

 72
    65
 73
     0
 40
0.0
  0
LTYPE
  5
15
330
5
100
AcDbSymbolTableRecord
100
AcDbLinetypeTableRecord
  2
ByLayer
 70
     0
  3

 72
    65
 73
     0
 40
0.0
  0
LTYPE
  5
16
330
5
100
AcDbSymbolTableRecord
100
AcDbLinetypeTableRecord
  2
Continuous
 70
     0
  3
Solid line
 72
    65
 73
     0
 40
0.0
  0
LTYPE
  5
5E
330
5
100
AcDbSymbolTableRecord
100
AcDbLinetypeTableRecord
  2
HIDDEN
 70
     0
  3
Hidden __ __ __ __ __ __ __ __ __ __ __ __ __ __
 72
    65
 73
     2
 40
1.905
 49
1.27
 74
     0
 49
-0.635
 74
     0
  0
LTYPE
  5
5F
330
5
100
AcDbSymbolTableRecord
100
AcDbLinetypeTableRecord
  2
PHANTOM
 70
     0
  3
Phantom ______  __  __  ______  __  __  ______
 72
    65
 73
     6
 40
12.7
 49
6.35
 74
     0
 49
-1.27
 74
     0
 49
1.27
 74
     0
 49
-1.27
 74
     0
 49
1.27
 74
     0
 49
-1.27
 74
     0
  0
LTYPE
  5
60
330
5
100
AcDbSymbolTableRecord
100
AcDbLinetypeTableRecord
  2
CENTER
 70
     0
  3
Center ____ _ ____ _ ____ _ ____ _ ____ _ ____
 72
    65
 73
     4
 40
10.16
 49
6.35
 74
     0
 49
-1.27
 74
     0
 49
1.27
 74
     0
 49
-1.27
 74
     0
  0
LTYPE
  5
61
330
5
100
AcDbSymbolTableRecord
100
AcDbLinetypeTableRecord
  2
CENTERX2
 70
     0
  3
Center (2x) ________  __  ________  __  _____
 72
    65
 73
     4
 40
20.32
 49
12.7
 74
     0
 49
-2.54
 74
     0
 49
2.54
 74
     0
 49
-2.54
 74
     0
  0
LTYPE
  5
62
330
5
100
AcDbSymbolTableRecord
100
AcDbLinetypeTableRecord
  2
DOT2
 70
     0
  3
Dot (.5x) ........................................
 72
    65
 73
     2
 40
0.635
 49
0.0
 74
     0
 49
-0.635
 74
     0
  0
ENDTAB
  0
TABLE
  2
LAYER
  5
2
330
0
100
AcDbSymbolTable
 70
     2
  0
LAYER
  5
10
330
2
100
AcDbSymbolTableRecord
100
AcDbLayerTableRecord
  2
0
 70
     0
 62
     7
  6
Continuous
370
    -3
390
F
  0
LAYER
  5
63
330
2
100
AcDbSymbolTableRecord
100
AcDbLayerTableRecord
  2
FORMAT
 70
     0
 62
     7
  6
Continuous
370
    -3
390
F
  0
ENDTAB
  0
TABLE
  2
STYLE
  5
3
330
0
100
AcDbSymbolTable
 70
     2
  0
STYLE
  5
11
330
3
100
AcDbSymbolTableRecord
100
AcDbTextStyleTableRecord
  2
Standard
 70
     0
 40
0.0
 41
1.0
 50
0.0
 71
     0
 42
35.0
  3
txt
  4
bigfont
  0
STYLE
  5
64
330
3
100
AcDbSymbolTableRecord
100
AcDbTextStyleTableRecord
  2
SLDTEXTSTYLE0
 70
     0
 40
0.0
 41
0.7
 50
0.0
 71
     0
 42
35.0
  3
TXT
  4
bigfont
  0
ENDTAB
  0
TABLE
  2
VIEW
  5
6
330
0
100
AcDbSymbolTable
 70
     0
  0
ENDTAB
  0
TABLE
  2
UCS
  5
7
330
0
100
AcDbSymbolTable
 70
     0
  0
ENDTAB
  0
TABLE
  2
APPID
  5
9
330
0
100
AcDbSymbolTable
 70
     1
  0
APPID
  5
12
330
9
100
AcDbSymbolTableRecord
100
AcDbRegAppTableRecord
  2
ACAD
 70
     0
  0
ENDTAB
  0
TABLE
  2
DIMSTYLE
  5
A
330
0
100
AcDbSymbolTable
 70
     1
100
AcDbDimStyleTable
  0
DIMSTYLE
105
27
330
A
100
AcDbSymbolTableRecord
100
AcDbDimStyleTableRecord
  2
ISO-25
 70
     0
 41
2.5
 42
0.625
 43
3.75
 44
1.25
 73
     0
 74
     0
 77
     1
 78
     8
140
2.5
141
2.5
143
0.0393700787
147
0.625
171
     3
172
     1
178
     0
271
     2
272
     2
274
     3
278
    44
283
     0
284
     8
340
11
  0
ENDTAB
  0
TABLE
  2
BLOCK_RECORD
  5
1
330
0
100
AcDbSymbolTable
 70
     1
  0
BLOCK_RECORD
  5
1F
330
1
100
AcDbSymbolTableRecord
100
AcDbBlockTableRecord
  2
*Model_Space
340
22
  0
BLOCK_RECORD
  5
1B
330
1
100
AcDbSymbolTableRecord
100
AcDbBlockTableRecord
  2
*Paper_Space
340
1E
  0
BLOCK_RECORD
  5
23
330
1
100
AcDbSymbolTableRecord
100
AcDbBlockTableRecord
  2
*Paper_Space0
340
26
  0
ENDTAB
  0
ENDSEC
  0
SECTION
  2
BLOCKS
  0
BLOCK
  5
20
330
1F
100
AcDbEntity
  8
0
100
AcDbBlockBegin
  2
*Model_Space
 70
     0
 10
0.0
 20
0.0
 30
0.0
  3
*Model_Space
  1

  0
ENDBLK
  5
21
330
1F
100
AcDbEntity
  8
0
100
AcDbBlockEnd
  0
BLOCK
  5
1C
330
1B
100
AcDbEntity
 67
     1
  8
0
100
AcDbBlockBegin
  2
*Paper_Space
 70
     0
 10
0.0
 20
0.0
 30
0.0
  3
*Paper_Space
  1

  0
ENDBLK
  5
1D
330
1B
100
AcDbEntity
 67
     1
  8
0
100
AcDbBlockEnd
  0
BLOCK
  5
24
330
23
100
AcDbEntity
  8
0
100
AcDbBlockBegin
  2
*Paper_Space0
 70
     0
 10
0.0
 20
0.0
 30
0.0
  3
*Paper_Space0
  1

  0
ENDBLK
  5
25
330
23
100
AcDbEntity
  8
0
100
AcDbBlockEnd
  0
ENDSEC
  0
SECTION
  2
ENTITIES
  0
MTEXT
  5
65
330
1F
100
AcDbEntity
  8
0
  6
Continuous
 62
     7
370
     0
100
AcDbMText
 10
1382.2057441253
 20
1081.7246812058
 30
0.0
 40
35.0
 41
0.0
 71
     1
 72
     1
  1
HGB-D11D
  7
SLDTEXTSTYLE0
 73
     1
 44
1.0
  0
SPLINE
  5
66
330
1F
100
AcDbEntity
  8
0
  6
Continuous
 62
     7
370
    25
100
AcDbSpline
210
0.0
220
0.0
230
1.0
 70
     8
 71
     3
 72
    20
 73
    16
 74
     0
 42
0.00000001
 43
0.00000001
 40
0.0
 40
0.0
 40
0.0
 40
0.0
 40
0.1237857826647993
 40
0.1724931393509076
 40
0.2522132313942033
 40
0.3324804224332952
 40
0.4161863001154733
 40
0.5007987531098226
 40
0.585486439234545
 40
0.6698618062264519
 40
0.7542592712283911
 40
0.8384779343521778
 40
0.9156383717568484
 40
0.990767529848551
 40
1.0
 40
1.0
 40
1.0
 40
1.0
 10
1013.731677925807
 20
1207.229559227635
 30
0.0
 10
1014.861459835477
 20
1207.24594322175
 30
0.0
 10
1016.43578948938
 20
1207.26877400667
 30
0.0
 10
1018.669557825546
 20
1207.417118924132
 30
0.0
 10
1020.4665161445
 20
1207.586513015633
 30
0.0
 10
1022.453433597625
 20
1207.856750887827
 30
0.0
 10
1024.333895798734
 20
1208.202761270645
 30
0.0
 10
1026.06654298234
 20
1208.625605848768
 30
0.0
 10
1027.600703718896
 20
1209.119491940263
 30
0.0
 10
1028.924778384432
 20
1209.689306800414
 30
0.0
 10
1030.039395156551
 20
1210.357136680372
 30
0.0
 10
1030.957948018465
 20
1211.175387170151
 30
0.0
 10
1031.566056849972
 20
1212.221751699737
 30
0.0
 10
1031.835395418029
 20
1213.163482864111
 30
0.0
 10
1031.703112683388
 20
1213.599849337267
 30
0.0
 10
1031.688635765095
 20
1213.647604940405
 30
0.0
  0
SPLINE
  5
67
330
1F
100
AcDbEntity
  8
0
  6
Continuous
 62
     7
370
    25
100
AcDbSpline
210
0.0
220
0.0
230
1.0
 70
     8
 71
     3
 72
    17
 73
    13
 74
     0
 42
0.00000001
 43
0.00000001
 40
0.0
 40
0.0
 40
0.0
 40
0.0
 40
0.0754853263541084
 40
0.1687035451413473
 40
0.2664578939737166
 40
0.4093705334566077
 40
0.545494017079227
 40
0.6622461940589788
 40
0.754599215924735
 40
0.8240046891302336
 40
0.8988121932021812
 40
0.9999999999999999
 40
0.9999999999999999
 40
0.9999999999999999
 40
0.9999999999999999
 10
995.8042201269744
 20
1212.988000438558
 30
0.0
 10
995.8833828658777
 20
1212.594776692621
 30
0.0
 10
996.060305128006
 20
1211.715953705723
 30
0.0
 10
996.9491102031851
 20
1210.736083832219
 30
0.0
 10
998.2356963256443
 20
1209.81009007359
 30
0.0
 10
1000.102371334305
 20
1208.997511589088
 30
0.0
 10
1002.555352173051
 20
1208.309704904382
 30
0.0
 10
1005.050062000719
 20
1207.842700861219
 30
0.0
 10
1007.249982329166
 20
1207.558852720495
 30
0.0
 10
1009.211361242111
 20
1207.383705977328
 30
0.0
 10
1011.309365737937
 20
1207.258066864773
 30
0.0
 10
1012.847394424947
 20
1207.239966157549
 30
0.0
 10
1013.731677925807
 20
1207.229559227635
 30
0.0
  0
LINE
  5
68
330
1F
100
AcDbEntity
  8
0
  6
Continuous
 62
     7
370
    25
100
AcDbLine
 10
1026.1580042823
 20
1227.9040304766
 30
0.0
 11
1024.6373826277
 21
1228.2426256441
 31
0.0
  0
LINE
  5
69
330
1F
100
AcDbEntity
  8
0
  6
Continuous
 62
     7
370
    25
100
AcDbLine
 10
1002.8259732239
 20
1228.2426256441
 30
0.0
 11
999.9498476632
 21
1227.6022018984
 31
0.0
  0
LINE
  5
6A
330
1F
100
AcDbEntity
  8
0
  6
Continuous
 62
     7
370
    25
100
AcDbLine
 10
999.7316779258
 20
1209.7101438034
 30
0.0
 11
999.7316779258
 21
1209.434008594
 31
0.0
  0
LINE
  5
6B
330
1F
100
AcDbEntity
  8
0
  6
Continuous
 62
     7
370
    25
100
AcDbLine
 10
993.2316779258
 20
1168.9748349445
 30
0.0
 11
993.2316779258
 21
1168.93807594
 31
0.0
  0
LINE
  5
6C
330
1F
100
AcDbEntity
  8
0
  6
Continuous
 62
     7
370
    25
100
AcDbLine
 10
1081.2017016238
 20
1760.6627562239
 30
0.0
 11
1081.2017016238
 21
1778.0494210971
 31
0.0
  0
LINE
  5
6D
330
1F
100
AcDbEntity
  8
0
  6
Continuous
 62
     7
370
    25
100
AcDbLine
 10
1079.9457329318
 20
1759.2113779187
 30
0.0
 11
1080.9091659758
 21
1760.1079533909
 31
0.0
  0
LINE
  5
6E
330
1F
100
AcDbEntity
  8
0
  6
Continuous
 62
     7
370
    25
100
AcDbLine
 10
1080.9091659757
 20
1778.60422393
 30
0.0
 11
1079.9457329318
 21
1779.5007994021
 31
0.0
  0
SPLINE
  5
6F
330
1F
100
AcDbEntity
  8
0
  6
Continuous
 62
     7
370
    25
100
AcDbSpline
210
0.0
220
0.0
230
1.0
 70
     8
 71
     3
 72
    17
 73
    13
 74
     0
 42
0.00000001
 43
0.00000001
 40
0.0
 40
0.0
 40
0.0
 40
0.0
 40
0.1592819118804124
 40
0.2955880827154632
 40
0.4088150410009814
 40
0.4976369635713776
 40
0.5483114195862039
 40
0.6122621431131421
 40
0.691321821902666
 40
0.7830276785336666
 40
0.8860325327398827
 40
1.0
 40
1.0
 40
1.0
 40
1.0
 10
1069.589542302076
 20
2137.592217678776
 30
0.0
 10
1069.471234815004
 20
2140.311916605563
 30
0.0
 10
1069.2516851947
 20
2145.359009410022
 30
0.0
 10
1067.669372878522
 20
2151.763414267954
 30
0.0
 10
1065.921707284684
 20
2156.338784951123
 30
0.0
 10
1064.105524198071
 20
2159.69043780609
 30
0.0
 10
1062.303011636361
 20
2162.348387725457
 30
0.0
 10
1060.387160083873
 20
2164.713109924748
 30
0.0
 10
1057.739838316289
 20
2167.345526979414
 30
0.0
 10
1054.24262174083
 20
2169.986970592684
 30
0.0
 10
1049.847539455225
 20
2172.435346462091
 30
0.0
 10
1046.353072872076
 20
2173.516419274846
 30
0.0
 10
1044.517559921783
 20
2174.084266498681
 30
0.0
  0
LINE
  5
70
330
1F
100
AcDbEntity
  8
0
  6
Continuous
 62
     7
370
    25
100
AcDbLine
 10
1069.5895423021
 20
1835.6303453467
 30
0.0
 11
1069.5895423021
 21
2137.5424482251
 31
0.0
  0
LINE
  5
71
330
1F
100
AcDbEntity
  8
0
  6
Continuous
 62
     7
370
    25
100
AcDbLine
 10
929.5895423021
 20
2061.2116293054
 30
0.0
 11
929.5895423021
 21
1835.6303453467
 31
0.0
  0
SPLINE
  5
72
330
1F
100
AcDbEntity
  8
0
  6
Continuous
 62
     7
370
    25
100
AcDbSpline
210
0.0
220
0.0
230
1.0
 70
     8
 71
     3
 72
    30
 73
    26
 74
     0
 42
0.00000001
 43
0.00000001
 40
0.0
 40
0.0
 40
0.0
 40
0.0
 40
0.0382223931131255
 40
0.0718862901593273
 40
0.1011106397027184
 40
0.1367327831487118
 40
0.1630588504055565
 40
0.2156559840608535
 40
0.2764843065041461
 40
0.3380868870511538
 40
0.3935528667357219
 40
0.4447783787917017
 40
0.4956952454804274
 40
0.5490952364273525
 40
0.608766506590975
 40
0.6723771675234643
 40
0.72834477505423
 40
0.7603928547611803
 40
0.7902822654858161
 40
0.8240647514875572
 40
0.8463351326927485
 40
0.8726452902725199
 40
0.9072433294282971
 40
0.9498558574298324
 40
1.0
 40
1.0
 40
1.0
 40
1.0
 10
1044.517511473858
 20
2174.084278991683
 30
0.0
 10
1042.582487791209
 20
2174.49039738589
 30
0.0
 10
1038.943216081968
 20
2175.25419950154
 30
0.0
 10
1033.406309204918
 20
2175.398445094746
 30
0.0
 10
1027.880670586433
 20
2174.988150686913
 30
0.0
 10
1022.671170229501
 20
2174.05273190914
 30
0.0
 10
1016.174784039468
 20
2172.312858362514
 30
0.0
 10
1008.28328340265
 20
2169.370577350811
 30
0.0
 10
998.6034369357774
 20
2164.44252399121
 30
0.0
 10
989.1623123823542
 20
2158.35000214011
 30
0.0
 10
980.6971099131237
 20
2151.821849904998
 30
0.0
 10
973.2134401014843
 20
2145.181146275414
 30
0.0
 10
966.2783598827735
 20
2138.21992971271
 30
0.0
 10
959.4769145133397
 20
2130.51773542483
 30
0.0
 10
952.776779014683
 20
2121.871835787843
 30
0.0
 10
946.727926249217
 20
2112.817624811907
 30
0.0
 10
942.2731555603882
 20
2105.001237125481
 30
0.0
 10
939.2141840876673
 20
2098.863039827525
 30
0.0
 10
936.9688028517678
 20
2093.846052591505
 30
0.0
 10
935.1804351759613
 20
2089.3110880501
 30
0.0
 10
933.6815098081103
 20
2084.973251438017
 30
0.0
 10
932.350824055187
 20
2080.575600086057
 30
0.0
 10
931.0127667384485
 20
2075.081872014164
 30
0.0
 10
929.8545420550101
 20
2068.384677301081
 30
0.0
 10
929.6825311738676
 20
2063.696358992809
 30
0.0
 10
929.5895423020758
 20
2061.161859854199
 30
0.0
  0
SPLINE
  5
73
330
1F
100
AcDbEntity
  8
0
  6
Continuous
 62
     7
370
    25
100
AcDbSpline
210
0.0
220
0.0
230
1.0
 70
     8
 71
     3
 72
    42
 73
    38
 74
     0
 42
0.00000001
 43
0.00000001
 40
0.0
 40
0.0
 40
0.0
 40
0.0
 40
0.0171867028130203
 40
0.0384609904906965
 40
0.0600635314823903
 40
0.0831036417034135
 40
0.1088215608297911
 40
0.1383926052370127
 40
0.1717274396508834
 40
0.206228077916632
 40
0.2398184667235656
 40
0.2725332340050126
 40
0.3046382176248161
 40
0.3363352063339798
 40
0.3677571918971346
 40
0.3989923664255923
 40
0.4301015717934138
 40
0.4611290734839302
 40
0.4921092373247495
 40
0.5230709083748369
 40
0.5540383258686346
 40
0.5850316267105016
 40
0.6160794846969674
 40
0.6472156767778512
 40
0.6784830936336709
 40
0.7099396845451516
 40
0.7416678597029573
 40
0.7737898307129992
 40
0.8064919824097071
 40
0.8400550322705351
 40
0.8748264935875966
 40
0.9046294503748723
 40
0.930154855434906
 40
0.9529271182830508
 40
0.9741521921627969
 40
0.9946839194455414
 40
1.0
 40
1.0
 40
1.0
 40
1.0
 10
929.6427877522342
 20
1835.556682888
 30
0.0
 10
929.6654358749853
 20
1834.817182731193
 30
0.0
 10
929.7161186175246
 20
1833.162304025939
 30
0.0
 10
930.5184836253537
 20
1830.734768921584
 30
0.0
 10
931.7912454021265
 20
1828.383075804294
 30
0.0
 10
933.5247058827858
 20
1826.243822262386
 30
0.0
 10
935.7497873948565
 20
1824.233751604195
 30
0.0
 10
938.5963911054665
 20
1822.297966038863
 30
0.0
 10
942.1384366444754
 20
1820.452291057948
 30
0.0
 10
946.3191167410134
 20
1818.754224908318
 30
0.0
 10
950.9746975873098
 20
1817.249767037195
 30
0.0
 10
955.9826845670291
 20
1815.943136867559
 30
0.0
 10
961.3100944466066
 20
1814.816404062734
 30
0.0
 10
966.9312316710253
 20
1813.858973020941
 30
0.0
 10
972.8127246197607
 20
1813.066900265893
 30
0.0
 10
978.9133910916765
 20
1812.439790506128
 30
0.0
 10
985.1861022854984
 20
1811.978747108881
 30
0.0
 10
991.5795061579914
 20
1811.685200031354
 30
0.0
 10
998.0394520462207
 20
1811.560247734263
 30
0.0
 10
1004.510051768874
 20
1811.604300811116
 30
0.0
 10
1010.934481563599
 20
1811.81689079376
 30
0.0
 10
1017.256472004328
 20
1812.196620318799
 30
0.0
 10
1023.421521915904
 20
1812.741309289568
 30
0.0
 10
1029.378238895835
 20
1813.448355181604
 30
0.0
 10
1035.07913452005
 20
1814.315267616583
 30
0.0
 10
1040.482098016242
 20
1815.340644790037
 30
0.0
 10
1045.55225621285
 20
1816.525923075423
 30
0.0
 10
1050.26440728259
 20
1817.87866013138
 30
0.0
 10
1054.605840538762
 20
1819.418772862947
 30
0.0
 10
1058.57700822722
 20
1821.190552696941
 30
0.0
 10
1061.963414684695
 20
1823.155633476037
 30
0.0
 10
1064.689149203622
 20
1825.281840487713
 30
0.0
 10
1066.740738000112
 20
1827.489262460859
 30
0.0
 10
1068.25832687217
 20
1829.831331633074
 30
0.0
 10
1069.204306079887
 20
1832.337628753545
 30
0.0
 10
1069.640873724185
 20
1834.342675028153
 30
0.0
 10
1069.549035412759
 20
1835.446105327249
 30
0.0
 10
1069.53014716256
 20
1835.673046211101
 30
0.0
  0
LINE
  5
74
330
1F
100
AcDbEntity
  8
0
  6
Continuous
 62
     7
370
    25
100
AcDbLine
 10
992.9895423021
 20
1705.3604882568
 30
0.0
 11
992.9895423021
 21
1547.7844491126
 31
0.0
  0
LINE
  5
75
330
1F
100
AcDbEntity
  8
0
  6
Continuous
 62
     7
370
    25
100
AcDbLine
 10
1006.1895423021
 20
1547.7844491126
 30
0.0
 11
1006.1895423021
 21
1705.3604882568
 31
0.0
  0
SPLINE
  5
76
330
1F
100
AcDbEntity
  8
0
  6
Continuous
 62
     7
370
    25
100
AcDbSpline
210
0.0
220
0.0
230
1.0
 70
     8
 71
     3
 72
    28
 73
    24
 74
     0
 42
0.00000001
 43
0.00000001
 40
0.0
 40
0.0
 40
0.0
 40
0.0
 40
0.0252231652602069
 40
0.0744422868175666
 40
0.12356381884694
 40
0.1725227631336076
 40
0.221306208085799
 40
0.2699473665301649
 40
0.3185448146483295
 40
0.3672674594734608
 40
0.4164923608449246
 40
0.4668493628277476
 40
0.5192348221661188
 40
0.5744577420765815
 40
0.6318413996824687
 40
0.6813913714133947
 40
0.7340822082841734
 40
0.784823064466926
 40
0.8344896572181205
 40
0.8837015982927022
 40
0.9327887470252342
 40
0.9818720448556889
 40
1.0
 40
1.0
 40
1.0
 40
1.0
 10
1046.86042267252
 20
1546.311099125576
 30
0.0
 10
1046.601865130271
 20
1545.579162696993
 30
0.0
 10
1045.838772373263
 20
1543.418965077594
 30
0.0
 10
1044.304280224091
 20
1539.98309504101
 30
0.0
 10
1042.179668669023
 20
1536.168313703584
 30
0.0
 10
1039.79046005908
 20
1532.72559610196
 30
0.0
 10
1037.201549988807
 20
1529.715369397811
 30
0.0
 10
1034.474998265665
 20
1527.187307274882
 30
0.0
 10
1031.67827802165
 20
1525.175439694164
 30
0.0
 10
1028.875709825291
 20
1523.6962348105
 30
0.0
 10
1026.120145312822
 20
1522.748710401029
 30
0.0
 10
1023.440156977831
 20
1522.321609121169
 30
0.0
 10
1020.832244336617
 20
1522.412384118203
 30
0.0
 10
1018.276440249267
 20
1523.05215787078
 30
0.0
 10
1015.886957676971
 20
1524.252331324079
 30
0.0
 10
1013.644652900967
 20
1526.01636724852
 30
0.0
 10
1011.638280657681
 20
1528.271399273145
 30
0.0
 10
1009.849605295942
 20
1531.093037179272
 30
0.0
 10
1008.380899457227
 20
1534.345503632553
 30
0.0
 10
1007.256244695926
 20
1537.980955120883
 30
0.0
 10
1006.508186607563
 20
1541.94298810337
 30
0.0
 10
1006.216626111016
 20
1545.269680273332
 30
0.0
 10
1006.19529550842
 20
1547.250256005808
 30
0.0
 10
1006.189542302076
 20
1547.784449112605
 30
0.0
  0
SPLINE
  5
77
330
1F
100
AcDbEntity
  8
0
  6
Continuous
 62
     7
370
    25
100
AcDbSpline
210
0.0
220
0.0
230
1.0
 70
     8
 71
     3
 72
    31
 73
    27
 74
     0
 42
0.00000001
 43
0.00000001
 40
0.0
 40
0.0
 40
0.0
 40
0.0
 40
0.0241307745826763
 40
0.0689029137536208
 40
0.1138068270693309
 40
0.1587934899436141
 40
0.2037639483539589
 40
0.2485718132142898
 40
0.2930180627869097
 40
0.3368951872804783
 40
0.3800639965091557
 40
0.422522376334819
 40
0.4644229240707637
 40
0.506034503323736
 40
0.5475969434012041
 40
0.5893986933656877
 40
0.631683036949467
 40
0.6745759480536945
 40
0.7180721523938148
 40
0.7620616096660717
 40
0.8063853415152656
 40
0.8508917307288361
 40
0.8954624489563552
 40
0.9400288649190299
 40
0.9845763547476667
 40
0.9999999999999999
 40
0.9999999999999999
 40
0.9999999999999999
 40
0.9999999999999999
 10
992.9895423020757
 20
1547.784449112605
 30
0.0
 10
993.0034817057093
 20
1546.830310363767
 30
0.0
 10
993.0432842210843
 20
1544.105866533963
 30
0.0
 10
993.4816399521997
 20
1539.702862154585
 30
0.0
 10
994.4564160261438
 20
1534.691944450557
 30
0.0
 10
995.9169747324928
 20
1529.943001774806
 30
0.0
 10
997.8444849167446
 20
1525.527744372262
 30
0.0
 10
1000.220556138903
 20
1521.519498315358
 30
0.0
 10
1003.010929703212
 20
1517.988272553762
 30
0.0
 10
1006.167484058006
 20
1514.996272341263
 30
0.0
 10
1009.62943214737
 20
1512.591407190058
 30
0.0
 10
1013.329707747491
 20
1510.803361544781
 30
0.0
 10
1017.202616591226
 20
1509.644450994832
 30
0.0
 10
1021.187053805221
 20
1509.115166576956
 30
0.0
 10
1025.22995788754
 20
1509.208616928093
 30
0.0
 10
1029.285549955529
 20
1509.915228904693
 30
0.0
 10
1033.313369229407
 20
1511.22598421657
 30
0.0
 10
1037.270975864168
 20
1513.130718877895
 30
0.0
 10
1041.110161576869
 20
1515.612780171551
 30
0.0
 10
1044.777812371179
 20
1518.644201684721
 30
0.0
 10
1048.219905927894
 20
1522.183929329864
 30
0.0
 10
1051.38502595545
 20
1526.179609044169
 30
0.0
 10
1054.229748824762
 20
1530.570430203114
 30
0.0
 10
1056.710643461539
 20
1535.293710518569
 30
0.0
 10
1058.358815693847
 20
1539.191588939756
 30
0.0
 10
1059.15981694771
 20
1541.493553437999
 30
0.0
 10
1059.365822039486
 20
1542.08558298282
 30
0.0
  0
LINE
  5
78
330
1F
100
AcDbEntity
  8
0
  6
Continuous
 62
     7
370
    25
100
AcDbLine
 10
1059.3658220395
 20
1542.0855829828
 30
0.0
 11
1093.7400181689
 21
1643.8158890554
 31
0.0
  0
LINE
  5
79
330
1F
100
AcDbEntity
  8
0
  6
Continuous
 62
     7
370
    25
100
AcDbLine
 10
1081.234618802
 20
1648.0414051982
 30
0.0
 11
1046.8604226725
 21
1546.3110991256
 31
0.0
  0
SPLINE
  5
7A
330
1F
100
AcDbEntity
  8
0
  6
Continuous
 62
     7
370
    25
100
AcDbSpline
210
0.0
220
0.0
230
1.0
 70
     8
 71
     3
 72
    15
 73
    11
 74
     0
 42
0.00000001
 43
0.00000001
 40
0.0
 40
0.0
 40
0.0
 40
0.0
 40
0.1167711980370769
 40
0.2545821875348132
 40
0.393440398641255
 40
0.5328708421343976
 40
0.6725028167582865
 40
0.8121213131669112
 40
0.9516805174309833
 40
1.0
 40
1.0
 40
1.0
 40
1.0
 10
1102.827132355312
 20
1676.560641413443
 30
0.0
 10
1101.720058914587
 20
1675.882320298643
 30
0.0
 10
1099.306439948273
 20
1674.403458420373
 30
0.0
 10
1095.825715960232
 20
1671.473440111467
 30
0.0
 10
1092.379701201452
 20
1667.945582646961
 30
0.0
 10
1089.215639060662
 20
1663.946700520033
 30
0.0
 10
1086.370631794928
 20
1659.556740279971
 30
0.0
 10
1083.889813967988
 20
1654.833227447387
 30
0.0
 10
1082.241623944456
 20
1650.935402883418
 30
0.0
 10
1081.440623647619
 20
1648.633435488085
 30
0.0
 10
1081.234618801976
 20
1648.041405198177
 30
0.0
  0
SPLINE
  5
7B
330
1F
100
AcDbEntity
  8
0
  6
Continuous
 62
     7
370
    25
100
AcDbSpline
210
0.0
220
0.0
230
1.0
 70
     8
 71
     3
 72
    12
 73
     8
 74
     0
 42
0.00000001
 43
0.00000001
 40
0.0
 40
0.0
 40
0.0
 40
0.0
 40
0.1201201300514728
 40
0.3545160602013483
 40
0.5884472403218921
 40
0.8216041298013963
 40
1.0
 40
1.0
 40
1.0
 40
1.0
 10
1093.740018168942
 20
1643.815889055421
 30
0.0
 10
1093.998602035723
 20
1644.547752031565
 30
0.0
 10
1094.761772485535
 20
1646.707732867405
 30
0.0
 10
1096.295251784086
 20
1650.146429026269
 30
0.0
 10
1098.424095104462
 20
1653.949402614385
 30
0.0
 10
1100.614653713028
 20
1657.166972305291
 30
0.0
 10
1102.158096048255
 20
1658.891296378153
 30
0.0
 10
1102.827132355312
 20
1659.638739533979
 30
0.0
  0
LINE
  5
7C
330
1F
100
AcDbEntity
  8
0
  6
Continuous
 62
     7
370
    25
100
AcDbLine
 10
862.3103216885
 20
1744.8333176756
 30
0.0
 11
862.3103216885
 21
1740.9696143704
 31
0.0
  0
LINE
  5
7D
330
1F
100
AcDbEntity
  8
0
  6
Continuous
 62
     7
370
    25
100
AcDbLine
 10
1165.642817994
 20
1750.7071202929
 30
0.0
 11
1102.0032076873
 21
1767.1782634632
 31
0.0
  0
LINE
  5
7E
330
1F
100
AcDbEntity
  8
0
  6
Continuous
 62
     7
370
    25
100
AcDbLine
 10
1087.8610720635
 20
1770.838517501
 30
0.0
 11
1081.2017016238
 21
1772.5620893993
 31
0.0
  0
LINE
  5
7F
330
1F
100
AcDbEntity
  8
0
  6
Continuous
 62
     7
370
    25
100
AcDbLine
 10
862.3103216885
 20
1207.7785582589
 30
0.0
 11
862.3103216885
 21
1203.9148549537
 31
0.0
  0
LINE
  5
80
330
1F
100
AcDbEntity
  8
0
  6
Continuous
 62
     7
370
    25
100
AcDbLine
 10
931.1857961779
 20
1721.5568518335
 30
0.0
 11
935.0395283539
 21
1717.9705499448
 31
0.0
  0
LINE
  5
81
330
1F
100
AcDbEntity
  8
0
  6
Continuous
 62
     7
370
    25
100
AcDbLine
 10
1064.1395562502
 20
1717.9705499448
 30
0.0
 11
1067.9932884262
 21
1721.5568518335
 31
0.0
  0
LINE
  5
82
330
1F
100
AcDbEntity
  8
0
  6
Continuous
 62
     7
370
    25
100
AcDbLine
 10
1071.5895423021
 20
1748.6970209807
 30
0.0
 11
1071.5895423021
 21
1751.5947984596
 31
0.0
  0
LINE
  5
83
330
1F
100
AcDbEntity
  8
0
  6
Continuous
 62
     7
370
    25
100
AcDbLine
 10
927.5895423021
 20
1751.5947984596
 30
0.0
 11
927.5895423021
 21
1748.6970209807
 31
0.0
  0
SPLINE
  5
84
330
1F
100
AcDbEntity
  8
0
  6
Continuous
 62
     7
370
    25
100
AcDbSpline
210
0.0
220
0.0
230
1.0
 70
     8
 71
     3
 72
    10
 73
     6
 74
     0
 42
0.00000001
 43
0.00000001
 40
0.0
 40
0.0
 40
0.0
 40
0.0
 40
0.3212335744486292
 40
0.8132951976895991
 40
1.0
 40
1.0
 40
1.0
 40
1.0
 10
1065.137687350323
 20
1820.868882815678
 30
0.0
 10
1065.284601258961
 20
1821.400948959624
 30
0.0
 10
1065.656556078981
 20
1822.748027453731
 30
0.0
 10
1065.664530746691
 20
1824.566747059729
 30
0.0
 10
1065.333915195925
 20
1825.683765823166
 30
0.0
 10
1065.242974470629
 20
1825.991018450217
 30
0.0
  0
SPLINE
  5
85
330
1F
100
AcDbEntity
  8
0
  6
Continuous
 62
     7
370
    25
100
AcDbSpline
210
0.0
220
0.0
230
1.0
 70
     8
 71
     3
 72
    10
 73
     6
 74
     0
 42
0.00000001
 43
0.00000001
 40
0.0
 40
0.0
 40
0.0
 40
0.0
 40
0.3217482410928607
 40
0.810029176560916
 40
1.0
 40
1.0
 40
1.0
 40
1.0
 10
933.9240145081551
 20
1825.988829895983
 30
0.0
 10
933.800893336462
 20
1825.448172136285
 30
0.0
 10
933.4909250799611
 20
1824.087019210004
 30
0.0
 10
933.5713607031682
 20
1822.277130794908
 30
0.0
 10
933.9445989702236
 20
1821.1838279231
 30
0.0
 10
934.0491388847912
 20
1820.877605868976
 30
0.0
  0
LINE
  5
86
330
1F
100
AcDbEntity
  8
0
  6
Continuous
 62
     7
370
    25
100
AcDbLine
 10
1094.5895423021
 20
1744.8333176756
 30
0.0
 11
1094.5895423021
 21
1748.6970209807
 31
0.0
  0
LINE
  5
87
330
1F
100
AcDbEntity
  8
0
  6
Continuous
 62
     7
370
    25
100
AcDbLine
 10
904.5895423021
 20
1748.6970209807
 30
0.0
 11
904.5895423021
 21
1744.8333176756
 31
0.0
  0
LINE
  5
88
330
1F
100
AcDbEntity
  8
0
  6
Continuous
 62
     7
370
    25
100
AcDbLine
 10
1069.5895423021
 20
1751.5947984596
 30
0.0
 11
1069.5895423021
 21
1818.2436804735
 31
0.0
  0
LINE
  5
89
330
1F
100
AcDbEntity
  8
0
  6
Continuous
 62
     7
370
    25
100
AcDbLine
 10
929.5895423021
 20
1818.2436804735
 30
0.0
 11
929.5895423021
 21
1751.5947984596
 31
0.0
  0
LINE
  5
8A
330
1F
100
AcDbEntity
  8
0
  6
Continuous
 62
     7
370
    25
100
AcDbLine
 10
932.5895423021
 20
1822.1073837787
 30
0.0
 11
932.5895423021
 21
1818.2436804735
 31
0.0
  0
LINE
  5
8B
330
1F
100
AcDbEntity
  8
0
  6
Continuous
 62
     7
370
    25
100
AcDbLine
 10
1066.5895423021
 20
1818.2436804735
 30
0.0
 11
1066.5895423021
 21
1822.1073837787
 31
0.0
  0
LWPOLYLINE
  5
8C
330
1F
100
AcDbEntity
  8
0
  6
Continuous
 62
     7
370
    25
100
AcDbPolyline
 90
       31
 70
   128
 43
0.0
 10
1001.9075204206
 20
1228.0220910194
 10
1004.6242872108
 20
1228.5914914611
 10
1007.7390906773
 20
1229.0022558265
 10
1011.1157989623
 20
1229.2364317419
 10
1014.6068337103
 20
1229.2837845959
 10
1018.0596199511
 20
1229.1422448416
 10
1021.3232543576
 20
1228.8179984456
 10
1024.2551004456
 20
1228.3252165311
 10
1026.7270224725
 20
1227.6854360325
 10
1028.6309855841
 20
1226.9266184276
 10
1029.8837774563
 20
1226.081927687
 10
1030.4306450726
 20
1225.1882808492
 10
1030.247687694
 20
1224.2847345693
 10
1029.342901436
 20
1223.4107781554
 10
1027.7558297996
 20
1222.6046076965
 10
1025.555835431
 20
1221.9014567101
 10
1022.8390686408
 20
1221.3320562684
 10
1019.7242651743
 20
1220.9212919029
 10
1016.3475568893
 20
1220.6871159876
 10
1012.8565221413
 20
1220.6397631336
 10
1009.4037359005
 20
1220.7813028879
 10
1006.140101494
 20
1221.1055492839
 10
1003.208255406
 20
1221.5983311984
 10
1000.7363333791
 20
1222.238111697
 10
998.8323702675
 20
1222.9969293019
 10
997.5795783953
 20
1223.8416200425
 10
997.032710779
 20
1224.7352668803
 10
997.2156681576
 20
1225.6388131602
 10
998.1204544156
 20
1226.5127695741
 10
999.707526052
 20
1227.318940033
 10
1001.9075204206
 20
1228.0220910194
  0
SPLINE
  5
8D
330
1F
100
AcDbEntity
  8
0
  6
Continuous
 62
     7
370
    25
100
AcDbSpline
210
0.0
220
0.0
230
1.0
 70
     8
 71
     3
 72
     9
 73
     5
 74
     0
 42
0.00000001
 43
0.00000001
 40
0.0
 40
0.0
 40
0.0
 40
0.0
 40
0.4917076251264897
 40
1.0
 40
1.0
 40
1.0
 40
1.0
 10
992.5399315644489
 20
1221.71077645564
 30
0.0
 10
995.0820524847697
 20
1221.548992165171
 30
0.0
 10
1000.252037228583
 20
1221.219966780569
 30
0.0
 10
1005.424329751873
 20
1218.883309229063
 30
0.0
 10
1008.053366602076
 20
1217.695604012942
 30
0.0
  0
SPLINE
  5
8E
330
1F
100
AcDbEntity
  8
0
  6
Continuous
 62
     7
370
    25
100
AcDbSpline
210
0.0
220
0.0
230
1.0
 70
     8
 71
     3
 72
     9
 73
     5
 74
     0
 42
0.00000001
 43
0.00000001
 40
0.0
 40
0.0
 40
0.0
 40
0.0
 40
0.4917076251264895
 40
1.0
 40
1.0
 40
1.0
 40
1.0
 10
998.21824288818
 20
1227.195604012942
 30
0.0
 10
997.2877620518507
 20
1226.792993560928
 30
0.0
 10
995.3954162984369
 20
1225.974193055422
 30
0.0
 10
993.5022258391086
 20
1223.147541757036
 30
0.0
 10
992.5399315644489
 20
1221.71077645564
 30
0.0
  0
LINE
  5
8F
330
1F
100
AcDbEntity
  8
0
  6
Continuous
 62
     7
370
    25
100
AcDbLine
 10
999.9707917343
 20
1227.4803482388
 30
0.0
 11
998.2182428882
 21
1227.1956040129
 31
0.0
  0
SPLINE
  5
90
330
1F
100
AcDbEntity
  8
0
  6
Continuous
 62
     7
370
    25
100
AcDbSpline
210
0.0
220
0.0
230
1.0
 70
     8
 71
     3
 72
     9
 73
     5
 74
     0
 42
0.00000001
 43
0.00000001
 40
0.0
 40
0.0
 40
0.0
 40
0.0
 40
0.8720150052636543
 40
1.0
 40
1.0
 40
1.0
 40
1.0
 10
1034.923424287165
 20
1224.650086684846
 30
0.0
 10
1032.381447218461
 20
1225.929268980538
 30
0.0
 10
1029.466386063137
 20
1227.396195911807
 30
0.0
 10
1026.550023608227
 20
1227.731742479543
 30
0.0
 10
1026.176772974786
 20
1227.774687405249
 30
0.0
  0
SPLINE
  5
91
330
1F
100
AcDbEntity
  8
0
  6
Continuous
 62
     7
370
    25
100
AcDbSpline
210
0.0
220
0.0
230
1.0
 70
     8
 71
     3
 72
     9
 73
     5
 74
     0
 42
0.00000001
 43
0.00000001
 40
0.0
 40
0.0
 40
0.0
 40
0.0
 40
0.49170762512649
 40
1.0
 40
1.0
 40
1.0
 40
1.0
 10
1029.245112963434
 20
1219.165259127545
 30
0.0
 10
1030.175593799763
 20
1220.560199616886
 30
0.0
 10
1032.067939553177
 20
1223.397130382362
 30
0.0
 10
1033.961130012505
 20
1224.227842201474
 30
0.0
 10
1034.923424287165
 20
1224.650086684846
 30
0.0
  0
SPLINE
  5
92
330
1F
100
AcDbEntity
  8
0
  6
Continuous
 62
     7
370
    25
100
AcDbSpline
210
0.0
220
0.0
230
1.0
 70
     8
 71
     3
 72
     9
 73
     5
 74
     0
 42
0.00000001
 43
0.00000001
 40
0.0
 40
0.0
 40
0.0
 40
0.0
 40
0.49170762512649
 40
1.0
 40
1.0
 40
1.0
 40
1.0
 10
1008.053366602076
 20
1217.695604012942
 30
0.0
 10
1011.525968358726
 20
1218.43259519315
 30
0.0
 10
1018.588298855953
 20
1219.931435444038
 30
0.0
 10
1025.653781838571
 20
1219.423459451282
 30
0.0
 10
1029.245112963434
 20
1219.165259127545
 30
0.0
  0
LINE
  5
93
330
1F
100
AcDbEntity
  8
0
  6
Continuous
 62
     7
370
    25
100
AcDbLine
 10
1029.2451129634
 20
1211.2873431592
 30
0.0
 11
1029.2451129634
 21
1219.1652591275
 31
0.0
  0
LINE
  5
94
330
1F
100
AcDbEntity
  8
0
  6
Continuous
 62
     7
370
    25
100
AcDbLine
 10
1008.0533666021
 20
1209.8176880446
 30
0.0
 11
1029.2451129634
 21
1211.2873431592
 31
0.0
  0
LINE
  5
95
330
1F
100
AcDbEntity
  8
0
  6
Continuous
 62
     7
370
    25
100
AcDbLine
 10
1008.0533666021
 20
1209.8176880446
 30
0.0
 11
1008.0533666021
 21
1217.6956040129
 31
0.0
  0
LINE
  5
96
330
1F
100
AcDbEntity
  8
0
  6
Continuous
 62
     7
370
    25
100
AcDbLine
 10
992.5399315644
 20
1213.8328604873
 30
0.0
 11
992.5399315644
 21
1221.7107764556
 31
0.0
  0
LINE
  5
97
330
1F
100
AcDbEntity
  8
0
  6
Continuous
 62
     7
370
    25
100
AcDbLine
 10
992.5399315644
 20
1213.8328604873
 30
0.0
 11
1008.0533666021
 21
1209.8176880446
 31
0.0
  0
SPLINE
  5
98
330
1F
100
AcDbEntity
  8
0
  6
Continuous
 62
     7
370
    25
100
AcDbSpline
210
0.0
220
0.0
230
1.0
 70
     8
 71
     3
 72
    11
 73
     7
 74
     0
 42
0.00000001
 43
0.00000001
 40
0.0
 40
0.0
 40
0.0
 40
0.0
 40
0.2560198039464083
 40
0.5629213667350333
 40
0.8636982487401987
 40
1.0
 40
1.0
 40
1.0
 40
1.0
 10
1013.687159863179
 20
1207.582412948603
 30
0.0
 10
1012.448350369927
 20
1207.5712716983
 30
0.0
 10
1009.724528531475
 20
1207.546774968942
 30
0.0
 10
1006.017044430544
 20
1207.970536903912
 30
0.0
 10
1003.320385618708
 20
1208.541286166695
 30
0.0
 10
1002.556691602376
 20
1208.997758148089
 30
0.0
 10
1002.318535755966
 20
1209.140107660808
 30
0.0
  0
LINE
  5
99
330
1F
100
AcDbEntity
  8
0
  6
Continuous
 62
     7
370
    25
100
AcDbLine
 10
1034.9234242872
 20
1216.7721707165
 30
0.0
 11
1034.9234242872
 21
1224.6500866848
 31
0.0
  0
LINE
  5
9A
330
1F
100
AcDbEntity
  8
0
  6
Continuous
 62
     7
370
    25
100
AcDbLine
 10
1029.2451129634
 20
1211.2873431592
 30
0.0
 11
1034.9234242872
 21
1216.7721707165
 31
0.0
  0
LINE
  5
9B
330
1F
100
AcDbEntity
  8
0
  6
Continuous
 62
     7
370
    25
100
AcDbLine
 10
999.5895423021
 20
1009.6316134845
 30
0.0
 11
995.346901615
 21
1010.7296896959
 31
0.0
  0
LINE
  5
9C
330
1F
100
AcDbEntity
  8
0
  6
Continuous
 62
     7
370
    25
100
AcDbLine
 10
995.346901615
 20
1010.7296896959
 30
0.0
 11
995.346901615
 21
1070.1700972007
 31
0.0
  0
LINE
  5
9D
330
1F
100
AcDbEntity
  8
0
  6
Continuous
 62
     7
370
    25
100
AcDbLine
 10
995.346901615
 20
1070.1700972007
 30
0.0
 11
986.2741324021
 21
1090.2234929897
 31
0.0
  0
LINE
  5
9E
330
1F
100
AcDbEntity
  8
0
  6
Continuous
 62
     7
370
    25
100
AcDbLine
 10
986.2741324021
 20
1090.2234929897
 30
0.0
 11
980.9145153676
 21
1172.1457672137
 31
0.0
  0
LINE
  5
9F
330
1F
100
AcDbEntity
  8
0
  6
Continuous
 62
     7
370
    25
100
AcDbLine
 10
985.1746515545
 20
1171.0431628338
 30
0.0
 11
990.3971541467
 21
1091.2166963648
 31
0.0
  0
LINE
  5
A0
330
1F
100
AcDbEntity
  8
0
  6
Continuous
 62
     7
370
    25
100
AcDbLine
 10
990.3971541467
 20
1091.2166963648
 30
0.0
 11
995.346901615
 21
1080.2763491887
 31
0.0
  0
LINE
  5
A1
330
1F
100
AcDbEntity
  8
0
  6
Continuous
 62
     7
370
    25
100
AcDbLine
 10
995.346901615
 20
1080.2763491887
 30
0.0
 11
999.5895423021
 21
1079.1782729773
 31
0.0
  0
LINE
  5
A2
330
1F
100
AcDbEntity
  8
0
  6
Continuous
 62
     7
370
    25
100
AcDbLine
 10
999.5895423021
 20
1079.1782729773
 30
0.0
 11
1004.5392897704
 21
1087.556442327
 31
0.0
  0
LINE
  5
A3
330
1F
100
AcDbEntity
  8
0
  6
Continuous
 62
     7
370
    25
100
AcDbLine
 10
1010.1247170477
 20
1170.0390184429
 30
0.0
 11
1004.5392897704
 21
1087.556442327
 31
0.0
  0
LINE
  5
A4
330
1F
100
AcDbEntity
  8
0
  6
Continuous
 62
     7
370
    25
100
AcDbLine
 10
1014.5368460164
 20
1171.1809614495
 30
0.0
 11
1008.6623115149
 21
1084.4290058502
 31
0.0
  0
LINE
  5
A5
330
1F
100
AcDbEntity
  8
0
  6
Continuous
 62
     7
370
    25
100
AcDbLine
 10
1008.6623115149
 20
1084.4290058502
 30
0.0
 11
999.5895423021
 21
1069.0720209894
 31
0.0
  0
LINE
  5
A6
330
1F
100
AcDbEntity
  8
0
  6
Continuous
 62
     7
370
    25
100
AcDbLine
 10
999.5895423021
 20
1069.0720209894
 30
0.0
 11
999.5895423021
 21
1009.6316134845
 31
0.0
  0
LINE
  5
A7
330
1F
100
AcDbEntity
  8
0
  6
Continuous
 62
     7
370
    25
100
AcDbLine
 10
1028.6789816402
 20
1174.8412154873
 30
0.0
 11
1022.8044471386
 21
1088.089259888
 31
0.0
  0
LINE
  5
A8
330
1F
100
AcDbEntity
  8
0
  6
Continuous
 62
     7
370
    25
100
AcDbLine
 10
1008.6623115149
 20
1084.4290058502
 30
0.0
 11
1022.8044471386
 21
1088.089259888
 31
0.0
  0
LINE
  5
A9
330
1F
100
AcDbEntity
  8
0
  6
Continuous
 62
     7
370
    25
100
AcDbLine
 10
1037.719069033
 20
1177.180962274
 30
0.0
 11
1029.2880271119
 21
1009.2655880807
 31
0.0
  0
LINE
  5
AA
330
1F
100
AcDbEntity
  8
0
  6
Continuous
 62
     7
370
    25
100
AcDbLine
 10
1029.2880271119
 20
1009.2655880807
 30
0.0
 11
1013.7316779258
 21
916.6992848935
 31
0.0
  0
LINE
  5
AB
330
1F
100
AcDbEntity
  8
0
  6
Continuous
 62
     7
370
    25
100
AcDbLine
 10
1013.7316779258
 20
1072.7322750272
 30
0.0
 11
1013.7316779258
 21
916.6992848935
 31
0.0
  0
LINE
  5
AC
330
1F
100
AcDbEntity
  8
0
  6
Continuous
 62
     7
370
    25
100
AcDbLine
 10
1022.8044471386
 20
1088.089259888
 30
0.0
 11
1013.7316779258
 21
1072.7322750272
 31
0.0
  0
LINE
  5
AD
330
1F
100
AcDbEntity
  8
0
  6
Continuous
 62
     7
370
    25
100
AcDbLine
 10
1033.530667799
 20
1010.3636642921
 30
0.0
 11
1029.2880271119
 21
1009.2655880807
 31
0.0
  0
LINE
  5
AE
330
1F
100
AcDbEntity
  8
0
  6
Continuous
 62
     7
370
    25
100
AcDbLine
 10
1041.9617097201
 20
1178.2790384853
 30
0.0
 11
1033.530667799
 21
1010.3636642921
 31
0.0
  0
LWPOLYLINE
  5
AF
330
1F
100
AcDbEntity
  8
0
  6
Continuous
 62
     7
370
    25
100
AcDbPolyline
 90
        8
 70
   128
 43
0.0
 10
993.2316779258
 20
1168.93807594
 10
993.6159633957
 20
1167.9155595891
 10
994.7795198518
 20
1166.9155462021
 10
996.6773722743
 20
1165.9938951536
 10
999.2359889115
 20
1165.1863155512
 10
1002.3562368907
 20
1164.5240968364
 10
1005.9172230927
 20
1164.0328964846
 10
1009.6979000321
 20
1163.7360150683
  0
LINE
  5
B0
330
1F
100
AcDbEntity
  8
0
  6
Continuous
 62
     7
370
    25
100
AcDbLine
 10
1047.063757951
 20
1179.5995457365
 30
0.0
 11
1041.1892234495
 21
1092.8475901372
 31
0.0
  0
LINE
  5
B1
330
1F
100
AcDbEntity
  8
0
  6
Continuous
 62
     7
370
    25
100
AcDbLine
 10
1041.1892234495
 20
1092.8475901372
 30
0.0
 11
1037.625884375
 21
1091.9253301206
 31
0.0
  0
LINE
  5
B2
330
1F
100
AcDbEntity
  8
0
  6
Continuous
 62
     7
370
    25
100
AcDbLine
 10
990.3971541467
 20
1091.2166963648
 30
0.0
 11
1005.0438516999
 21
1095.0075406395
 31
0.0
  0
LINE
  5
B3
330
1F
100
AcDbEntity
  8
0
  6
Continuous
 62
     7
370
    25
100
AcDbLine
 10
1009.4890372387
 20
917.7973611048
 30
0.0
 11
993.9326880526
 21
1018.4162231754
 31
0.0
  0
LINE
  5
B4
330
1F
100
AcDbEntity
  8
0
  6
Continuous
 62
     7
370
    25
100
AcDbLine
 10
990.9212387283
 20
1079.9520686598
 30
0.0
 11
993.9326880526
 21
1018.4162231754
 31
0.0
  0
LINE
  5
B5
330
1F
100
AcDbEntity
  8
0
  6
Continuous
 62
     7
370
    25
100
AcDbLine
 10
999.5895423021
 20
1069.0720209894
 30
0.0
 11
1013.7316779258
 21
1072.7322750272
 31
0.0
  0
LINE
  5
B6
330
1F
100
AcDbEntity
  8
0
  6
Continuous
 62
     7
370
    25
100
AcDbLine
 10
995.346901615
 20
1080.2763491887
 30
0.0
 11
1001.1212143737
 21
1081.770851303
 31
0.0
  0
LINE
  5
B7
330
1F
100
AcDbEntity
  8
0
  6
Continuous
 62
     7
370
    25
100
AcDbLine
 10
999.5895423021
 20
1009.6316134845
 30
0.0
 11
1013.7316779258
 21
916.6992848935
 31
0.0
  0
LINE
  5
B8
330
1F
100
AcDbEntity
  8
0
  6
Continuous
 62
     7
370
    25
100
AcDbLine
 10
1041.1892234495
 20
1092.8475901372
 30
0.0
 11
1037.3455232686
 21
1086.3415671026
 31
0.0
  0
LINE
  5
B9
330
1F
100
AcDbEntity
  8
0
  6
Continuous
 62
     7
370
    25
100
AcDbLine
 10
1013.7316779258
 20
916.6992848935
 30
0.0
 11
1017.9743186129
 21
917.7973611048
 31
0.0
  0
LINE
  5
BA
330
1F
100
AcDbEntity
  8
0
  6
Continuous
 62
     7
370
    25
100
AcDbLine
 10
1033.530667799
 20
1010.3636642921
 30
0.0
 11
1017.9743186129
 21
917.7973611048
 31
0.0
  0
LINE
  5
BB
330
1F
100
AcDbEntity
  8
0
  6
Continuous
 62
     7
370
    25
100
AcDbLine
 10
1013.7316779258
 20
916.6992848935
 30
0.0
 11
1009.4890372387
 21
917.7973611048
 31
0.0
  0
LINE
  5
BC
330
1F
100
AcDbEntity
  8
0
  6
Continuous
 62
     7
370
    25
100
AcDbLine
 10
1009.4890372387
 20
917.7973611048
 30
0.0
 11
995.346901615
 21
1010.7296896959
 31
0.0
  0
LWPOLYLINE
  5
BD
330
1F
100
AcDbEntity
  8
0
  6
Continuous
 62
     7
370
    25
100
AcDbPolyline
 90
        8
 70
   128
 43
0.0
 10
1069.5895423021
 20
1758.8152830179
 10
1071.7144087664
 20
1758.6283008931
 10
1074.0974174326
 20
1758.6052230617
 10
1076.4008378183
 20
1758.7649660811
 10
1078.420000914
 20
1759.0933360831
 10
1079.9754952176
 20
1759.5611559518
 10
1080.9291082341
 20
1760.126857839
 10
1081.2017016238
 20
1760.6627562239
  0
ARC
  5
BE
330
1F
100
AcDbEntity
  8
0
  6
Continuous
 62
     7
370
    25
100
AcDbCircle
 10
1073.201860522
 20
1805.1613041972
 30
0.0
 40
29.18378249270472
100
AcDbArc
 50
262.8897918857
 51
277.0969568659
  0
LINE
  5
BF
330
1F
100
AcDbEntity
  8
0
  6
Continuous
 62
     7
370
    25
100
AcDbLine
 10
1076.8074809858
 20
1769.4396324323
 30
0.0
 11
1076.8074809858
 21
1776.2011132162
 31
0.0
  0
ARC
  5
C0
330
1F
100
AcDbEntity
  8
0
  6
Continuous
 62
     7
370
    25
100
AcDbCircle
 10
1075.7084951068
 20
1780.9734465789
 30
0.0
 40
11.5860536306701
100
AcDbArc
 50
275.4429283457
 51
293.5787090525
  0
LINE
  5
C1
330
1F
100
AcDbEntity
  8
0
  6
Continuous
 62
     7
370
    25
100
AcDbLine
 10
1080.3430148918
 20
1777.1161767257
 30
0.0
 11
1080.3430148918
 21
1770.3546959417
 31
0.0
  0
LWPOLYLINE
  5
C2
330
1F
100
AcDbEntity
  8
0
  6
Continuous
 62
     7
370
    25
100
AcDbPolyline
 90
        4
 70
   128
 43
0.0
 10
1080.9091659758
 20
1778.60422393
 10
1081.100902109
 20
1778.3770733014
 10
1081.1066179698
 20
1777.7311370611
 10
1080.3430148918
 20
1777.1161767257
  0
LINE
  5
C3
330
1F
100
AcDbEntity
  8
0
  6
Continuous
 62
     7
370
    25
100
AcDbLine
 10
1069.5959222617
 20
1779.0335277852
 30
0.0
 11
1069.5959222617
 21
1779.8977289779
 31
0.0
  0
ARC
  5
C4
330
1F
100
AcDbEntity
  8
0
  6
Continuous
 62
     7
370
    25
100
AcDbCircle
 10
1073.2126252968
 20
1802.0333627162
 30
0.0
 40
24.83559475410147
100
AcDbArc
 50
261.6116037304
 51
276.5769795398
  0
LINE
  5
C5
330
1F
100
AcDbEntity
  8
0
  6
Continuous
 62
     7
370
    25
100
AcDbLine
 10
1076.8074809858
 20
1776.2011132162
 30
0.0
 11
1076.057245173
 21
1777.3612143592
 31
0.0
  0
LINE
  5
C6
330
1F
100
AcDbEntity
  8
0
  6
Continuous
 62
     7
370
    25
100
AcDbLine
 10
1076.057245173
 20
1777.3612143592
 30
0.0
 11
1069.5895423021
 21
1779.0351790402
 31
0.0
  0
ARC
  5
C7
330
1F
100
AcDbEntity
  8
0
  6
Continuous
 62
     7
370
    25
100
AcDbCircle
 10
1073.1735798551
 20
1774.1581493791
 30
0.0
 40
16.40938860483203
100
AcDbArc
 50
257.3841128316
 51
294.3745516722
  0
LINE
  5
C8
330
1F
100
AcDbEntity
  8
0
  6
Continuous
 62
     7
370
    25
100
AcDbLine
 10
1076.8074809858
 20
1771.2697594512
 30
0.0
 11
1080.3430148918
 21
1770.3546959417
 31
0.0
  0
LINE
  5
C9
330
1F
100
AcDbEntity
  8
0
  6
Continuous
 62
     7
370
    25
100
AcDbLine
 10
1079.5927790789
 20
1778.2762778686
 30
0.0
 11
1080.3430148918
 21
1777.1161767257
 31
0.0
  0
LINE
  5
CA
330
1F
100
AcDbEntity
  8
0
  6
Continuous
 62
     7
370
    25
100
AcDbLine
 10
1069.5959222617
 20
1779.8977289779
 30
0.0
 11
1070.3461580745
 21
1780.6694794874
 31
0.0
  0
LINE
  5
CB
330
1F
100
AcDbEntity
  8
0
  6
Continuous
 62
     7
370
    25
100
AcDbLine
 10
1070.3461580745
 20
1780.6694794874
 30
0.0
 11
1079.5927790789
 21
1778.2762778686
 31
0.0
  0
LWPOLYLINE
  5
CC
330
1F
100
AcDbEntity
  8
0
  6
Continuous
 62
     7
370
    25
100
AcDbPolyline
 90
        9
 70
   128
 43
0.0
 10
1070.3461580745
 20
1780.6694794874
 10
1072.372100394
 20
1780.8143117339
 10
1074.4728351912
 20
1780.7969587873
 10
1076.4589712805
 20
1780.618985098
 10
1078.1514490921
 20
1780.2964358365
 10
1079.3976837399
 20
1779.8583903455
 10
1080.0853212714
 20
1779.3443404994
 10
1080.1523679084
 20
1778.8006303251
 10
1079.5927790789
 20
1778.2762778686
  0
LINE
  5
CD
330
1F
100
AcDbEntity
  8
0
  6
Continuous
 62
     7
370
    25
100
AcDbLine
 10
1069.5170105162
 20
2138.625282771
 30
0.0
 11
1069.4976058544
 21
2137.5427948533
 31
0.0
  0
LINE
  5
CE
330
1F
100
AcDbEntity
  8
0
  6
Continuous
 62
     7
370
    25
100
AcDbLine
 10
929.6814787458
 20
2061.2112826772
 30
0.0
 11
929.6864909645
 21
2061.4908889848
 31
0.0
  0
LINE
  5
CF
330
1F
100
AcDbEntity
  8
0
  6
Continuous
 62
     7
370
    25
100
AcDbLine
 10
1006.6606101139
 20
1710.0609043161
 30
0.0
 11
1006.6606101139
 21
1706.1972010109
 31
0.0
  0
ARC
  5
D0
330
1F
100
AcDbEntity
  8
0
  6
Continuous
 62
     7
370
    25
100
AcDbCircle
 10
999.5895423021
 20
1737.8822549414
 30
0.0
 40
32.46448278626477
100
AcDbArc
 50
257.4196020624
 51
282.5803979376
  0
LINE
  5
D1
330
1F
100
AcDbEntity
  8
0
  6
Continuous
 62
     7
370
    25
100
AcDbLine
 10
992.5184744902
 20
1710.0609043161
 30
0.0
 11
992.5184744902
 21
1706.1972010109
 31
0.0
  0
ARC
  5
D2
330
1F
100
AcDbEntity
  8
0
  6
Continuous
 62
     7
370
    25
100
AcDbCircle
 10
999.5895423021
 20
1741.7459582466
 30
0.0
 40
32.4644827862732
100
AcDbArc
 50
257.4196020624
 51
282.5803979376
  0
LINE
  5
D3
330
1F
100
AcDbEntity
  8
0
  6
Continuous
 62
     7
370
    25
100
AcDbLine
 10
1099.9987052306
 20
1767.1608673064
 30
0.0
 11
1081.2017016238
 21
1762.2958447821
 31
0.0
  0
LINE
  5
D4
330
1F
100
AcDbEntity
  8
0
  6
Continuous
 62
     7
370
    25
100
AcDbLine
 10
1099.9987052306
 20
1767.1608673064
 30
0.0
 11
1163.6383155374
 21
1750.6897241361
 31
0.0
  0
LINE
  5
D5
330
1F
100
AcDbEntity
  8
0
  6
Continuous
 62
     7
370
    25
100
AcDbLine
 10
1163.6383155374
 20
1750.6897241361
 30
0.0
 11
1006.6606101139
 21
1710.0609043161
 31
0.0
  0
LINE
  5
D6
330
1F
100
AcDbEntity
  8
0
  6
Continuous
 62
     7
370
    25
100
AcDbLine
 10
992.5184744902
 20
1710.0609043161
 30
0.0
 11
865.2392538766
 21
1743.0031906567
 31
0.0
  0
LWPOLYLINE
  5
D7
330
1F
100
AcDbEntity
  8
0
  6
Continuous
 62
     7
370
    25
100
AcDbPolyline
 90
        9
 70
   128
 43
0.0
 10
865.2392538766
 20
1743.0031906567
 10
863.9956255655
 20
1743.3953961036
 10
863.0715263634
 20
1743.8428600702
 10
862.5024688845
 20
1744.328386767
 10
862.3103216885
 20
1744.8333176756
 10
862.5024688845
 20
1745.3382485841
 10
863.0715263634
 20
1745.823775281
 10
863.9956255655
 20
1746.2712392475
 10
865.2392538766
 20
1746.6634446945
  0
LINE
  5
D8
330
1F
100
AcDbEntity
  8
0
  6
Continuous
 62
     7
370
    25
100
AcDbLine
 10
913.7073619722
 20
1759.2079141497
 30
0.0
 11
865.2392538766
 21
1746.6634446945
 31
0.0
  0
LINE
  5
D9
330
1F
100
AcDbEntity
  8
0
  6
Continuous
 62
     7
370
    25
100
AcDbLine
 10
1081.2017016238
 20
1769.6163528578
 30
0.0
 11
1085.8565696068
 21
1770.8211213443
 31
0.0
  0
LINE
  5
DA
330
1F
100
AcDbEntity
  8
0
  6
Continuous
 62
     7
370
    25
100
AcDbLine
 10
1006.6606101139
 20
1173.0061448993
 30
0.0
 11
1006.6606101139
 21
1169.1424415942
 31
0.0
  0
LINE
  5
DB
330
1F
100
AcDbEntity
  8
0
  6
Continuous
 62
     7
370
    25
100
AcDbLine
 10
1163.6383155374
 20
1213.6349647194
 30
0.0
 11
1006.6606101139
 21
1173.0061448993
 31
0.0
  0
ARC
  5
DC
330
1F
100
AcDbEntity
  8
0
  6
Continuous
 62
     7
370
    25
100
AcDbCircle
 10
1161.7872276975
 20
1217.9424503906
 30
0.0
 40
4.688385542831208
100
AcDbArc
 50
293.2550072406
 51
3.5250918323
  0
LINE
  5
DD
330
1F
100
AcDbEntity
  8
0
  6
Continuous
 62
     7
370
    25
100
AcDbLine
 10
1166.4667426621
 20
1743.6943683334
 30
0.0
 11
1166.4667426621
 21
1218.2307188321
 31
0.0
  0
LWPOLYLINE
  5
DE
330
1F
100
AcDbEntity
  8
0
  6
Continuous
 62
     7
370
    25
100
AcDbPolyline
 90
        9
 70
   128
 43
0.0
 10
1163.6383155374
 20
1746.826020831
 10
1164.1901142959
 20
1746.8945968831
 10
1164.7207077376
 20
1746.8120576448
 10
1165.2097054541
 20
1746.5815750527
 10
1165.6383155374
 20
1746.2120064236
 10
1165.9900667422
 20
1745.7175540725
 10
1166.2514414671
 20
1745.1172195261
 10
1166.412395228
 20
1744.4340733044
 10
1166.4667426621
 20
1743.6943683334
  0
LWPOLYLINE
  5
DF
330
1F
100
AcDbEntity
  8
0
  6
Continuous
 62
     7
370
    25
100
AcDbPolyline
 90
        9
 70
   128
 43
0.0
 10
1163.6383155374
 20
1750.6897241361
 10
1164.7419130545
 20
1750.8268762405
 10
1165.8030999379
 20
1750.6617977639
 10
1166.7810953709
 20
1750.2008325797
 10
1167.6383155374
 20
1749.4616953214
 10
1168.341817947
 20
1748.4727906193
 10
1168.8645673969
 20
1747.2721215265
 10
1169.1864749186
 20
1745.9058290829
 10
1169.2951697868
 20
1744.426419141
  0
LINE
  5
E0
330
1F
100
AcDbEntity
  8
0
  6
Continuous
 62
     7
370
    25
100
AcDbLine
 10
1169.2951697868
 20
1218.9627696397
 30
0.0
 11
1169.2951697868
 21
1744.426419141
 31
0.0
  0
ARC
  5
E1
330
1F
100
AcDbEntity
  8
0
  6
Continuous
 62
     7
370
    25
100
AcDbCircle
 10
1159.9361398577
 20
1218.3862327566
 30
0.0
 40
9.376771085661884
100
AcDbArc
 50
293.2550072406
 51
3.5250918323
  0
LINE
  5
E2
330
1F
100
AcDbEntity
  8
0
  6
Continuous
 62
     7
370
    25
100
AcDbLine
 10
1006.6606101139
 20
1169.1424415942
 30
0.0
 11
1163.6383155374
 21
1209.7712614142
 31
0.0
  0
LINE
  5
E3
330
1F
100
AcDbEntity
  8
0
  6
Continuous
 62
     7
370
    25
100
AcDbLine
 10
1006.6606101139
 20
1706.1972010109
 30
0.0
 11
1163.6383155374
 21
1746.826020831
 31
0.0
  0
LINE
  5
E4
330
1F
100
AcDbEntity
  8
0
  6
Continuous
 62
     7
370
    25
100
AcDbLine
 10
865.2392538766
 20
1739.1394873515
 30
0.0
 11
865.2392538766
 21
1743.0031906567
 31
0.0
  0
LINE
  5
E5
330
1F
100
AcDbEntity
  8
0
  6
Continuous
 62
     7
370
    25
100
AcDbLine
 10
865.2392538766
 20
1739.1394873515
 30
0.0
 11
992.5184744902
 21
1706.1972010109
 31
0.0
  0
LWPOLYLINE
  5
E6
330
1F
100
AcDbEntity
  8
0
  6
Continuous
 62
     7
370
    25
100
AcDbPolyline
 90
        5
 70
   128
 43
0.0
 10
862.3103216885
 20
1740.9696143704
 10
862.5024688845
 20
1740.4646834619
 10
863.0715263634
 20
1739.979156765
 10
863.9956255655
 20
1739.5316927984
 10
865.2392538766
 20
1739.1394873515
  0
ARC
  5
E7
330
1F
100
AcDbEntity
  8
0
  6
Continuous
 62
     7
370
    25
100
AcDbCircle
 10
999.5895423021
 20
1200.8274955247
 30
0.0
 40
32.46448278626987
100
AcDbArc
 50
257.4196020624
 51
282.5803979376
  0
LINE
  5
E8
330
1F
100
AcDbEntity
  8
0
  6
Continuous
 62
     7
370
    25
100
AcDbLine
 10
992.5184744902
 20
1173.0061448993
 30
0.0
 11
992.5184744902
 21
1169.1424415942
 31
0.0
  0
ARC
  5
E9
330
1F
100
AcDbEntity
  8
0
  6
Continuous
 62
     7
370
    25
100
AcDbCircle
 10
999.5895423021
 20
1204.6911988298
 30
0.0
 40
32.46448278626566
100
AcDbArc
 50
257.4196020624
 51
282.5803979376
  0
LWPOLYLINE
  5
EA
330
1F
100
AcDbEntity
  8
0
  6
Continuous
 62
     7
370
    25
100
AcDbPolyline
 90
        9
 70
   128
 43
0.0
 10
865.2392538766
 20
1205.9484312399
 10
863.9956255655
 20
1206.3406366869
 10
863.0715263634
 20
1206.7881006534
 10
862.5024688845
 20
1207.2736273503
 10
862.3103216885
 20
1207.7785582589
 10
862.5024688845
 20
1208.2834891674
 10
863.0715263634
 20
1208.7690158643
 10
863.9956255655
 20
1209.2164798308
 10
865.2392538766
 20
1209.6086852778
  0
LINE
  5
EB
330
1F
100
AcDbEntity
  8
0
  6
Continuous
 62
     7
370
    25
100
AcDbLine
 10
1022.2169593
 20
1250.2375050978
 30
0.0
 11
1163.6383155374
 21
1213.6349647194
 31
0.0
  0
LINE
  5
EC
330
1F
100
AcDbEntity
  8
0
  6
Continuous
 62
     7
370
    25
100
AcDbLine
 10
992.5184744902
 20
1173.0061448993
 30
0.0
 11
865.2392538766
 21
1205.9484312399
 31
0.0
  0
LINE
  5
ED
330
1F
100
AcDbEntity
  8
0
  6
Continuous
 62
     7
370
    25
100
AcDbLine
 10
1022.2169593
 20
1250.2375050978
 30
0.0
 11
865.2392538766
 21
1209.6086852778
 31
0.0
  0
LINE
  5
EE
330
1F
100
AcDbEntity
  8
0
  6
Continuous
 62
     7
370
    25
100
AcDbLine
 10
865.2392538766
 20
1202.0847279348
 30
0.0
 11
865.2392538766
 21
1205.9484312399
 31
0.0
  0
LINE
  5
EF
330
1F
100
AcDbEntity
  8
0
  6
Continuous
 62
     7
370
    25
100
AcDbLine
 10
865.2392538766
 20
1202.0847279348
 30
0.0
 11
992.5184744902
 21
1169.1424415942
 31
0.0
  0
LWPOLYLINE
  5
F0
330
1F
100
AcDbEntity
  8
0
  6
Continuous
 62
     7
370
    25
100
AcDbPolyline
 90
        3
 70
   128
 43
0.0
 10
1102.0032076873
 20
1767.1782634632
 10
1101.1023027477
 20
1767.2980194108
 10
1099.9987052306
 20
1767.1608673064
  0
LWPOLYLINE
  5
F1
330
1F
100
AcDbEntity
  8
0
  6
Continuous
 62
     7
370
    25
100
AcDbPolyline
 90
       12
 70
   128
 43
0.0
 10
1102.8271323553
 20
1584.3670111191
 10
1102.5407044249
 20
1581.7198165949
 10
1101.7046253211
 20
1579.4353480345
 10
1100.3866292005
 20
1577.6986794944
 10
1098.6934922704
 20
1576.6505055313
 10
1096.7623824155
 20
1576.375742966
 10
1094.7497466714
 20
1576.8966514274
 10
1092.8186368164
 20
1578.17103001
 10
1091.1254998864
 20
1580.0956361401
 10
1089.8075037658
 20
1582.5145496749
 10
1088.971424662
 20
1585.2318046259
 10
1088.6849967316
 20
1588.0272651569
  0
LINE
  5
F2
330
1F
100
AcDbEntity
  8
0
  6
Continuous
 62
     7
370
    25
100
AcDbLine
 10
1102.8271323553
 20
1731.0869284682
 30
0.0
 11
1102.8271323553
 21
1584.3670111191
 31
0.0
  0
LINE
  5
F3
330
1F
100
AcDbEntity
  8
0
  6
Continuous
 62
     7
370
    25
100
AcDbLine
 10
1166.4667426621
 20
1218.2307188321
 30
0.0
 11
1025.0453864248
 21
1254.8332592106
 31
0.0
  0
LINE
  5
F4
330
1F
100
AcDbEntity
  8
0
  6
Continuous
 62
     7
370
    25
100
AcDbLine
 10
1088.6849967316
 20
1588.0272651569
 30
0.0
 11
1088.6849967316
 21
1628.8555718428
 31
0.0
  0
LINE
  5
F5
330
1F
100
AcDbEntity
  8
0
  6
Continuous
 62
     7
370
    25
100
AcDbLine
 10
1088.6849967316
 20
1662.9798840233
 30
0.0
 11
1088.6849967316
 21
1727.4266744304
 31
0.0
  0
LINE
  5
F6
330
1F
100
AcDbEntity
  8
0
  6
Continuous
 62
     7
370
    25
100
AcDbLine
 10
1025.0453864248
 20
1706.5765058479
 30
0.0
 11
1025.0453864248
 21
1522.6612851797
 31
0.0
  0
LINE
  5
F7
330
1F
100
AcDbEntity
  8
0
  6
Continuous
 62
     7
370
    25
100
AcDbLine
 10
1025.0453864248
 20
1509.3055149401
 30
0.0
 11
1025.0453864248
 21
1254.8332592106
 31
0.0
  0
LWPOLYLINE
  5
F8
330
1F
100
AcDbEntity
  8
0
  6
Continuous
 62
     7
370
    25
100
AcDbPolyline
 90
        9
 70
   128
 43
0.0
 10
1085.8565696068
 20
1770.8211213443
 10
1086.960167124
 20
1770.9582734486
 10
1088.0213540074
 20
1770.793194972
 10
1088.9993494404
 20
1770.3322297878
 10
1089.8565696068
 20
1769.5930925295
 10
1090.5600720165
 20
1768.6041878274
 10
1091.0828214663
 20
1767.4035187346
 10
1091.4047289881
 20
1766.0372262911
 10
1091.5055759995
 20
1764.9626837089
  0
LINE
  5
F9
330
1F
100
AcDbEntity
  8
0
  6
Continuous
 62
     7
370
    25
100
AcDbLine
 10
1091.5134238563
 20
1588.7593159645
 30
0.0
 11
1088.6849967316
 21
1588.0272651569
 31
0.0
  0
LWPOLYLINE
  5
FA
330
1F
100
AcDbEntity
  8
0
  6
Continuous
 62
     7
370
    25
100
AcDbPolyline
 90
        9
 70
   128
 43
0.0
 10
1088.669268173
 20
1764.2285932256
 10
1088.6306492975
 20
1764.5654705125
 10
1088.4696955366
 20
1765.2486167343
 10
1088.2083208117
 20
1765.8489512807
 10
1087.8565696068
 20
1766.3434036317
 10
1087.4279595236
 20
1766.7129722609
 10
1086.9389618071
 20
1766.943454853
 10
1086.4083683654
 20
1767.0259940913
 10
1085.8565696068
 20
1766.9574180391
  0
LINE
  5
FB
330
1F
100
AcDbEntity
  8
0
  6
Continuous
 62
     7
370
    25
100
AcDbLine
 10
1091.5134238563
 20
1588.7593159645
 30
0.0
 11
1091.5134238563
 21
1637.2262914378
 31
0.0
  0
LINE
  5
FC
330
1F
100
AcDbEntity
  8
0
  6
Continuous
 62
     7
370
    25
100
AcDbLine
 10
1091.5134238563
 20
1666.7137978021
 30
0.0
 11
1091.5134238563
 21
1728.158725238
 31
0.0
  0
LINE
  5
FD
330
1F
100
AcDbEntity
  8
0
  6
Continuous
 62
     7
370
    25
100
AcDbLine
 10
1085.8565696068
 20
1766.9574180391
 30
0.0
 11
1081.2017016238
 21
1765.7526495527
 31
0.0
  0
LWPOLYLINE
  5
FE
330
1F
100
AcDbEntity
  8
0
  6
Continuous
 62
     7
370
    25
100
AcDbPolyline
 90
        8
 70
   128
 43
0.0
 10
1099.6179269676
 20
1577.1061745447
 10
1099.5908095403
 20
1577.1077937736
 10
1097.5781737961
 20
1577.628702235
 10
1095.6470639412
 20
1578.9030808176
 10
1093.9539270111
 20
1580.8276869476
 10
1092.6359308906
 20
1583.2466004825
 10
1091.7998517868
 20
1585.9638554334
 10
1091.5134238563
 20
1588.7593159645
  0
LWPOLYLINE
  5
FF
330
1F
100
AcDbEntity
  8
0
  6
Continuous
 62
     7
370
    25
100
AcDbPolyline
 90
        5
 70
   128
 43
0.0
 10
862.3103216885
 20
1203.9148549537
 10
862.5024688845
 20
1203.4099240452
 10
863.0715263634
 20
1202.9243973483
 10
863.9956255655
 20
1202.4769333817
 10
865.2392538766
 20
1202.0847279348
  0
ARC
  5
100
330
1F
100
AcDbEntity
  8
0
  6
Continuous
 62
     7
370
    25
100
AcDbCircle
 10
1020.3658714602
 20
1254.544990769
 30
0.0
 40
4.688385542831534
100
AcDbArc
 50
293.2550072406
 51
3.5250918323
  0
LWPOLYLINE
  5
101
330
1F
100
AcDbEntity
  8
0
  6
Continuous
 62
     7
370
    25
100
AcDbPolyline
 90
       13
 70
   128
 43
0.0
 10
930.4973621268
 20
1722.249446089
 10
932.0100354719
 20
1720.8457765447
 10
934.5136221353
 20
1719.1322502727
 10
937.6639625299
 20
1717.4917564637
 10
941.4297471576
 20
1715.9405990821
 10
945.7735499587
 20
1714.4941942268
 10
950.6522002697
 20
1713.1669169192
 10
956.0172118718
 20
1711.9719582374
 10
961.8152648695
 20
1710.9211942177
 10
967.9887356071
 20
1710.025067825
 10
974.4762693589
 20
1709.2924851659
 10
981.2133900998
 20
1708.7307269761
 10
983.2411283535
 20
1708.5983548791
  0
LWPOLYLINE
  5
102
330
1F
100
AcDbEntity
  8
0
  6
Continuous
 62
     7
370
    25
100
AcDbPolyline
 90
       14
 70
   128
 43
0.0
 10
1015.9379562506
 20
1708.5983548791
 10
1016.2502177353
 20
1708.6176711783
 10
1023.0393557009
 20
1709.1357832371
 10
1029.5954388857
 20
1709.8262771394
 10
1035.8533099895
 20
1710.6822904464
 10
1041.7507754778
 20
1711.6953157135
 10
1047.2292236891
 20
1712.8552850403
 10
1052.2342073437
 20
1714.1506701305
 10
1056.7159846655
 20
1715.5685968652
 10
1060.630013738
 20
1717.0949732514
 10
1063.9373951817
 20
1718.7146294749
 10
1066.605258754
 20
1720.4114686644
 10
1068.6070900281
 20
1722.1686268697
 10
1068.6817224773
 20
1722.249446089
  0
ARC
  5
103
330
1F
100
AcDbEntity
  8
0
  6
Continuous
 62
     7
370
    25
100
AcDbCircle
 10
1039.2741009309
 20
1750.8734667959
 30
0.0
 40
41.24188169261381
100
AcDbArc
 50
280.7485767117
 51
307.0791406206
  0
LWPOLYLINE
  5
104
330
1F
100
AcDbEntity
  8
0
  6
Continuous
 62
     7
370
    25
100
AcDbPolyline
 90
       22
 70
   128
 43
0.0
 10
935.0395283539
 20
1717.9705499448
 10
935.5059246068
 20
1717.5565325504
 10
937.855956181
 20
1715.8779584791
 10
940.8603791256
 20
1714.2708201753
 10
944.4873458099
 20
1712.7521537048
 10
948.6984094849
 20
1711.33805731
 10
953.448931828
 20
1710.0435207646
 10
958.6885561206
 20
1708.8822664779
 10
964.3617410416
 20
1707.8666040342
 10
970.4083494197
 20
1707.0072997082
 10
976.7642857017
 20
1706.3134623394
 10
983.362175382
 20
1705.7924467766
 10
990.1320791885
 20
1705.4497759143
 10
997.0022344568
 20
1705.289082149
 10
1003.8998158319
 20
1705.3120688745
 10
1010.7517072352
 20
1705.5184924257
 10
1017.4852769135
 20
1705.9061646618
 10
1024.029147353
 20
1706.4709761606
 10
1030.313951899
 20
1707.2069397796
 10
1036.27307006
 20
1708.1062541215
 10
1041.843333701
 20
1709.1593862305
 10
1046.9656966416
 20
1710.3551726441
  0
LWPOLYLINE
  5
105
330
1F
100
AcDbEntity
  8
0
  6
Continuous
 62
     7
370
    25
100
AcDbPolyline
 90
       38
 70
   128
 43
0.0
 10
929.5895423021
 20
1755.956494536
 10
928.5330318244
 20
1754.6016956895
 10
927.7293723641
 20
1752.7556235601
 10
927.6398915573
 20
1750.8980146294
 10
928.2654787043
 20
1749.0473306493
 10
929.5999164391
 20
1747.2219645489
 10
931.6299425199
 20
1745.4400576365
 10
934.3353816354
 20
1743.7193193034
 10
937.6893459164
 20
1742.0768510205
 10
941.6585021589
 20
1740.5289763753
 10
946.2034031049
 20
1739.0910788416
 10
951.2788794871
 20
1737.7774488909
 10
956.8344889408
 20
1736.6011419679
 10
962.8150173233
 20
1735.5738487394
 10
969.1610274567
 20
1734.7057789069
 10
975.8094498413
 20
1734.0055597384
 10
982.6942094684
 20
1733.4801503267
 10
989.7468825038
 20
1733.1347724264
 10
996.8973763142
 20
1732.9728585584
 10
1004.0746260797
 20
1732.9960178954
 10
1011.2073010676
 20
1733.2040202694
 10
1018.2245135495
 20
1733.5947984596
 10
1025.0565233149
 20
1734.1644687366
 10
1031.6354307815
 20
1734.9073694613
 10
1037.8958518112
 20
1735.8161173525
 10
1043.7755675271
 20
1736.8816808655
 10
1049.2161426729
 20
1738.0934699512
 10
1054.1635063685
 20
1739.4394413054
 10
1058.5684894909
 20
1740.90621806
 10
1062.3873133386
 20
1742.4792227287
 10
1065.5820247247
 20
1744.1428220843
 10
1068.1208731721
 20
1745.8804825291
 10
1069.9786264643
 20
1747.6749344129
 10
1071.1368214144
 20
1749.5083436667
 10
1071.5839473607
 20
1751.3624890456
 10
1071.3155605647
 20
1753.2189432197
 10
1070.3343283749
 20
1755.0592559136
 10
1069.6494929079
 20
1755.8915323157
  0
LWPOLYLINE
  5
106
330
1F
100
AcDbEntity
  8
0
  6
Continuous
 62
     7
370
    25
100
AcDbPolyline
 90
       34
 70
   128
 43
0.0
 10
1071.5895423021
 20
1748.6970209807
 10
1071.5839473607
 20
1748.4647115667
 10
1071.1368214144
 20
1746.6105661878
 10
1069.9786264643
 20
1744.7771569341
 10
1068.1208731721
 20
1742.9827050503
 10
1065.5820247247
 20
1741.2450446055
 10
1062.3873133386
 20
1739.5814452498
 10
1058.5684894909
 20
1738.0084405812
 10
1054.1635063685
 20
1736.5416638265
 10
1049.2161426729
 20
1735.1956924723
 10
1043.7755675271
 20
1733.9839033866
 10
1037.8958518112
 20
1732.9183398736
 10
1031.6354307815
 20
1732.0095919824
 10
1025.0565233149
 20
1731.2666912577
 10
1018.2245135495
 20
1730.6970209807
 10
1011.2073010676
 20
1730.3062427906
 10
1004.0746260797
 20
1730.0982404165
 10
996.8973763142
 20
1730.0750810795
 10
989.7468825038
 20
1730.2369949475
 10
982.6942094684
 20
1730.5823728478
 10
975.8094498413
 20
1731.1077822596
 10
969.1610274567
 20
1731.808001428
 10
962.8150173233
 20
1732.6760712605
 10
956.8344889408
 20
1733.7033644891
 10
951.2788794871
 20
1734.879671412
 10
946.2034031049
 20
1736.1933013627
 10
941.6585021589
 20
1737.6311988965
 10
937.6893459164
 20
1739.1790735416
 10
934.3353816354
 20
1740.8215418246
 10
931.6299425199
 20
1742.5422801576
 10
929.5999164391
 20
1744.32418707
 10
928.2654787043
 20
1746.1495531705
 10
927.6398915573
 20
1748.0002371505
 10
927.5895423021
 20
1748.6970209807
  0
LINE
  5
107
330
1F
100
AcDbEntity
  8
0
  6
Continuous
 62
     7
370
    25
100
AcDbLine
 10
1081.8619556616
 20
1760.9909256231
 30
0.0
 11
1081.2017016238
 21
1761.2822695738
 31
0.0
  0
LWPOLYLINE
  5
108
330
1F
100
AcDbEntity
  8
0
  6
Continuous
 62
     7
370
    25
100
AcDbPolyline
 90
       54
 70
   128
 43
0.0
 10
929.5895423021
 20
1765.3199751314
 10
928.4462744427
 20
1764.9915976458
 10
923.2975133195
 20
1763.3483881344
 10
918.7135916867
 20
1761.5967050266
 10
914.7284472962
 20
1759.7495171714
 10
911.3715847629
 20
1757.8205005012
 10
908.6678571225
 20
1755.8239367808
 10
906.6372818284
 20
1753.7746078692
 10
905.2948925497
 20
1751.6876862808
 10
904.650627867
 20
1749.5786228529
 10
904.7092576906
 20
1747.4630323531
 10
905.4703479458
 20
1745.3565778735
 10
906.9282637865
 20
1743.2748548658
 10
909.0722113141
 20
1741.233275679
 10
911.8863174911
 20
1739.2469554512
 10
915.3497476599
 20
1737.3306002022
 10
919.4368597953
 20
1735.4983979558
 10
924.1173943491
 20
1733.7639136966
 10
929.3566982809
 20
1732.1399889391
 10
935.1159816175
 20
1730.638646654
 10
941.3526046401
 20
1729.2710022543
 10
948.0203935739
 20
1728.0471813008
 10
955.0699824424
 20
1726.9762445355
 10
962.4491785561
 20
1726.0661207995
 10
970.1033489287
 20
1725.3235483307
 10
977.9758247607
 20
1724.7540248757
 10
986.0083209954
 20
1724.3617669869
 10
994.141367841
 20
1724.1496788045
 10
1002.3147510642
 20
1724.1193305553
 10
1010.4679577951
 20
1724.270946927
 10
1018.5406245438
 20
1724.603405405
 10
1026.47298411
 20
1725.1142445832
 10
1034.2063080787
 20
1725.7996823869
 10
1041.6833416249
 20
1726.6546440745
 10
1048.8487274083
 20
1727.6727998088
 10
1055.6494154194
 20
1728.8466115208
 10
1062.0350557436
 20
1730.1673887195
 10
1067.958371334
 20
1731.6253528325
 10
1073.3755080344
 20
1733.2097096036
 10
1078.24635926
 20
1734.9087290097
 10
1082.5348629324
 20
1736.7098321053
 10
1086.2092684709
 20
1738.5996841535
 10
1089.2423718624
 20
1740.5642933508
 10
1091.6117170706
 20
1742.589114418
 10
1093.2997622926
 20
1744.6591562885
 10
1094.294009832
 20
1746.7590930964
 10
1094.5870986281
 20
1748.8733776444
 10
1094.1768587538
 20
1750.9863565094
 10
1093.0663274817
 20
1753.082385935
 10
1091.2637267968
 20
1755.1459476528
 10
1088.7824025238
 20
1757.1617637739
 10
1085.6407255197
 20
1759.1149099008
 10
1081.8619556616
 20
1760.9909256231
 10
1081.8619556616
 20
1760.9909256231
  0
LWPOLYLINE
  5
109
330
1F
100
AcDbEntity
  8
0
  6
Continuous
 62
     7
370
    25
100
AcDbPolyline
 90
       38
 70
   128
 43
0.0
 10
904.5895423021
 20
1744.8333176756
 10
904.7092576906
 20
1743.599329048
 10
905.4703479458
 20
1741.4928745683
 10
906.9282637865
 20
1739.4111515607
 10
909.0722113141
 20
1737.3695723739
 10
911.8863174911
 20
1735.383252146
 10
915.3497476599
 20
1733.466896897
 10
919.4368597953
 20
1731.6346946507
 10
924.1173943491
 20
1729.9002103915
 10
929.3566982809
 20
1728.2762856339
 10
935.1159816175
 20
1726.7749433488
 10
941.3526046401
 20
1725.4072989492
 10
948.0203935739
 20
1724.1834779956
 10
955.0699824424
 20
1723.1125412303
 10
962.4491785561
 20
1722.2024174944
 10
970.1033489287
 20
1721.4598450255
 10
977.9758247607
 20
1720.8903215705
 10
986.0083209954
 20
1720.4980636817
 10
994.141367841
 20
1720.2859754994
 10
1002.3147510642
 20
1720.2556272501
 10
1010.4679577951
 20
1720.4072436218
 10
1018.5406245438
 20
1720.7397020999
 10
1026.47298411
 20
1721.250541278
 10
1034.2063080787
 20
1721.9359790817
 10
1041.6833416249
 20
1722.7909407693
 10
1048.8487274083
 20
1723.8090965036
 10
1055.6494154194
 20
1724.9829082157
 10
1062.0350557436
 20
1726.3036854144
 10
1067.958371334
 20
1727.7616495274
 10
1073.3755080344
 20
1729.3460062985
 10
1078.24635926
 20
1731.0450257045
 10
1082.5348629324
 20
1732.8461288002
 10
1086.2092684709
 20
1734.7359808483
 10
1089.2423718624
 20
1736.7005900456
 10
1091.6117170706
 20
1738.7254111129
 10
1093.2997622926
 20
1740.7954529834
 10
1094.294009832
 20
1742.8953897913
 10
1094.5895423021
 20
1744.8333176756
  0
LINE
  5
10A
330
1F
100
AcDbEntity
  8
0
  6
Continuous
 62
     7
370
    25
100
AcDbLine
 10
1042.3122393365
 20
1803.8920041888
 30
0.0
 11
1042.3122393365
 21
1807.755707494
 31
0.0
  0
ARC
  5
10B
330
1F
100
AcDbEntity
  8
0
  6
Continuous
 62
     7
370
    25
100
AcDbCircle
 10
1022.4887800362
 20
1910.5832442974
 30
0.0
 40
104.7209237148281
100
AcDbArc
 50
280.911817945
 51
288.1098194532
  0
LINE
  5
10C
330
1F
100
AcDbEntity
  8
0
  6
Continuous
 62
     7
370
    25
100
AcDbLine
 10
1055.0401613979
 20
1807.1862328229
 30
0.0
 11
1055.0401613979
 21
1811.049936128
 31
0.0
  0
LWPOLYLINE
  5
10D
330
1F
100
AcDbEntity
  8
0
  6
Continuous
 62
     7
370
    25
100
AcDbPolyline
 90
       11
 70
   128
 43
0.0
 10
1055.0401613979
 20
1807.1862328229
 10
1059.043894921
 20
1808.6807459556
 10
1062.4485583594
 20
1810.2716165077
 10
1065.2198458648
 20
1811.9428146528
 10
1067.3298335699
 20
1813.6775011726
 10
1068.7572609538
 20
1815.4581971316
 10
1069.4877450654
 20
1817.2669599968
 10
1069.5139254482
 20
1819.0855644295
 10
1068.8355383051
 20
1820.8956859257
 10
1067.4594191565
 20
1822.6790854569
 10
1066.292521742
 20
1823.7384065691
  0
LWPOLYLINE
  5
10E
330
1F
100
AcDbEntity
  8
0
  6
Continuous
 62
     7
370
    25
100
AcDbPolyline
 90
       27
 70
   128
 43
0.0
 10
932.8865628622
 20
1823.7384065691
 10
932.3796202247
 20
1823.3077208034
 10
930.7566745544
 20
1821.5382783417
 10
929.8272981534
 20
1819.7356390671
 10
929.6008555439
 20
1817.9179666163
 10
930.0796283922
 20
1816.1035761022
 10
931.2587925184
 20
1814.3107495688
 10
933.1264665055
 20
1812.5575517782
 10
935.6638314184
 20
1810.8616481881
 10
938.8453204255
 20
1809.240126952
 10
942.638876414
 20
1807.7093267369
 10
947.0062750015
 20
1806.2846720924
 10
951.9035096903
 20
1804.9805180311
 10
957.2812352823
 20
1803.8100053853
 10
963.0852650884
 20
1802.7849283987
 10
969.2571169206
 20
1801.9156158852
 10
975.7346023665
 20
1801.2108271551
 10
982.4524534081
 20
1800.6776637548
 10
989.3429800713
 20
1800.3214979109
 10
996.336752479
 20
1800.1459183983
 10
1003.3633004361
 20
1800.15269438
 10
1010.3518234968
 20
1800.3417575802
 10
1017.231904359
 20
1800.7112029726
 10
1023.9342183991
 20
1801.2573079757
 10
1030.3912321957
 20
1801.9745699615
 10
1036.537884006
 20
1802.8557617015
 10
1042.3122393365
 20
1803.8920041888
  0
LWPOLYLINE
  5
10F
330
1F
100
AcDbEntity
  8
0
  6
Continuous
 62
     7
370
    25
100
AcDbPolyline
 90
       25
 70
   128
 43
0.0
 10
950.092067619
 20
1738.7839093271
 10
955.3535996108
 20
1737.5535816996
 10
961.0690522355
 20
1736.4673359569
 10
967.1797772147
 20
1735.5363184502
 10
973.6230702412
 20
1734.7700826789
 10
980.3328144093
 20
1734.1764912591
 10
987.240158664
 20
1733.7616352418
 10
994.2742243063
 20
1733.5297716113
 10
1001.362832304
 20
1733.4832796022
 10
1008.4332439466
 20
1733.6226362853
 10
1015.4129072429
 20
1733.9464116726
 10
1022.2302014025
 20
1734.4512833904
 10
1028.815171762
 20
1735.1320707716
 10
1035.1002476147
 20
1735.9817880166
 10
1041.0209355772
 20
1736.9917158765
 10
1046.516481379
 20
1738.1514911248
 10
1051.5304932836
 20
1739.4492128981
 10
1056.0115207439
 20
1740.8715648149
 10
1059.9135823541
 20
1742.4039516197
 10
1063.196637682
 20
1744.0306489503
 10
1065.8269981371
 20
1745.7349646907
 10
1067.7776726618
 20
1747.4994102553
 10
1069.0286446956
 20
1749.3058800448
 10
1069.5670775728
 20
1751.1358372346
 10
1069.5895423021
 20
1751.5947984596
  0
LWPOLYLINE
  5
110
330
1F
100
AcDbEntity
  8
0
  6
Continuous
 62
     7
370
    25
100
AcDbPolyline
 90
        9
 70
   128
 43
0.0
 10
929.5895423021
 20
1751.5947984596
 10
929.7916383607
 20
1750.2190929315
 10
930.6874906362
 20
1748.3985427788
 10
932.2903712012
 20
1746.6107905346
 10
934.583832332
 20
1744.8741809561
 10
937.5443400139
 20
1743.2065340077
 10
941.1415154318
 20
1741.6249620037
 10
945.3384466982
 20
1740.145694013
 10
950.092067619
 20
1738.7839093271
  0
LWPOLYLINE
  5
111
330
1F
100
AcDbEntity
  8
0
  6
Continuous
 62
     7
370
    25
100
AcDbPolyline
 90
        8
 70
   128
 43
0.0
 10
1055.0401613979
 20
1808.5104708783
 10
1056.8142621083
 20
1809.2245462368
 10
1060.1135978354
 20
1810.8058916014
 10
1062.7628510748
 20
1812.4671254707
 10
1064.7335664773
 20
1814.1904047072
 10
1066.0045767969
 20
1815.9572197505
 10
1066.562230246
 20
1817.7485934269
 10
1066.5895423021
 20
1818.2436804735
  0
LWPOLYLINE
  5
112
330
1F
100
AcDbEntity
  8
0
  6
Continuous
 62
     7
370
    25
100
AcDbPolyline
 90
       23
 70
   128
 43
0.0
 10
932.5895423021
 20
1818.2436804735
 10
932.6546227298
 20
1817.4795485557
 10
933.3196615942
 20
1815.6906314917
 10
934.6964982476
 20
1813.9291364572
 10
936.7703442329
 20
1812.2139834842
 10
939.5189245895
 20
1810.5635948497
 10
942.912717106
 20
1808.9956972037
 10
946.9152694156
 20
1807.5271311691
 10
951.4835905266
 20
1806.1736704588
 10
956.5686125844
 20
1804.9498524511
 10
962.1157179044
 20
1803.8688220461
 10
968.065325614
 20
1802.9421904771
 10
974.3535316054
 20
1802.1799105959
 10
980.9127949222
 20
1801.5901699703
 10
987.6726632098
 20
1801.179302942
 10
994.5605294371
 20
1800.9517225904
 10
1001.5024117604
 20
1800.9098733319
 10
1008.4237481549
 20
1801.0542046651
 10
1015.2501972774
 20
1801.3831663424
 10
1021.9084369589
 20
1801.893225021
 10
1028.3269517504
 20
1802.5789022147
 10
1034.4368010623
 20
1803.432833137
 10
1040.1723596486
 20
1804.4458458063
  0
LINE
  5
113
330
1F
100
AcDbEntity
  8
0
  6
Continuous
 62
     7
370
    25
100
AcDbLine
 10
1040.1723596486
 20
1804.4458458063
 30
0.0
 11
1042.3122393365
 21
1803.8920041888
 31
0.0
  0
LINE
  5
114
330
1F
100
AcDbEntity
  8
0
  6
Continuous
 62
     7
370
    25
100
AcDbLine
 10
1040.1723596486
 20
1808.3095491114
 30
0.0
 11
1042.3122393365
 21
1807.755707494
 31
0.0
  0
LWPOLYLINE
  5
115
330
1F
100
AcDbEntity
  8
0
  6
Continuous
 62
     7
370
    25
100
AcDbPolyline
 90
        9
 70
   128
 43
0.0
 10
1052.90028171
 20
1811.6037777455
 10
1056.8142621083
 20
1813.0882495419
 10
1060.1135978354
 20
1814.6695949066
 10
1062.7628510748
 20
1816.3308287759
 10
1064.7335664773
 20
1818.0541080123
 10
1066.0045767969
 20
1819.8209230556
 10
1066.562230246
 20
1821.6122967321
 10
1066.4005371278
 20
1823.4089880862
 10
1065.5274951565
 20
1825.1827201313
  0
LWPOLYLINE
  5
116
330
1F
100
AcDbEntity
  8
0
  6
Continuous
 62
     7
370
    25
100
AcDbPolyline
 90
       25
 70
   128
 43
0.0
 10
933.9908818694
 20
1825.6354561987
 10
933.4807887486
 20
1824.9264056448
 10
932.7085247667
 20
1823.1403763851
 10
932.6546227298
 20
1821.3432518609
 10
933.3196615942
 20
1819.5543347969
 10
934.6964982476
 20
1817.7928397623
 10
936.7703442329
 20
1816.0776867893
 10
939.5189245895
 20
1814.4272981548
 10
942.912717106
 20
1812.8594005088
 10
946.9152694156
 20
1811.3908344743
 10
951.4835905266
 20
1810.0373737639
 10
956.5686125844
 20
1808.8135557563
 10
962.1157179044
 20
1807.7325253512
 10
968.065325614
 20
1806.8058937822
 10
974.3535316054
 20
1806.0436139011
 10
980.9127949222
 20
1805.4538732755
 10
987.6726632098
 20
1805.0430062472
 10
994.5605294371
 20
1804.8154258956
 10
1001.5024117604
 20
1804.7735766371
 10
1008.4237481549
 20
1804.9179079703
 10
1015.2501972774
 20
1805.2468696475
 10
1021.9084369589
 20
1805.7569283262
 10
1028.3269517504
 20
1806.4426055198
 10
1034.4368010623
 20
1807.2965364422
 10
1040.1723596486
 20
1808.3095491114
  0
LINE
  5
117
330
1F
100
AcDbEntity
  8
0
  6
Continuous
 62
     7
370
    25
100
AcDbLine
 10
1055.0401613979
 20
1811.049936128
 30
0.0
 11
1052.90028171
 21
1811.6037777455
 31
0.0
  0
LINE
  5
118
330
1F
100
AcDbEntity
  8
0
  6
Continuous
 62
     7
370
    25
100
AcDbLine
 10
1040.1723596486
 20
1804.4458458063
 30
0.0
 11
1040.1723596486
 21
1808.3095491114
 31
0.0
  0
SPLINE
  5
119
330
1F
100
AcDbEntity
  8
0
  6
Continuous
 62
     7
370
    25
100
AcDbSpline
210
0.0
220
0.0
230
1.0
 70
     8
 71
     3
 72
    36
 73
    32
 74
     0
 42
0.00000001
 43
0.00000001
 40
0.0
 40
0.0
 40
0.0
 40
0.0
 40
0.0282781268220178
 40
0.0755668743056886
 40
0.1267234381396175
 40
0.1564897236141429
 40
0.1874584875903117
 40
0.2188121297623822
 40
0.2503977586139042
 40
0.2834667025015018
 40
0.3124113960437601
 40
0.3501289611924556
 40
0.3878458094587714
 40
0.4167908244796605
 40
0.4498595046902041
 40
0.4814452612751476
 40
0.5127991160399321
 40
0.5437675849630125
 40
0.5735344843704313
 40
0.6246904771286651
 40
0.6719797957197321
 40
0.7163908747772045
 40
0.7582936893207051
 40
0.7838028066597055
 40
0.8085969357694757
 40
0.8327095495848369
 40
0.8544178706703957
 40
0.8757167461646521
 40
0.8966384496813747
 40
0.9488141201498016
 40
1.0
 40
1.0
 40
1.0
 40
1.0
 10
1069.497605854376
 20
2137.542794853338
 30
0.0
 10
1069.501608178561
 20
2136.265355395927
 30
0.0
 10
1069.512303481346
 20
2132.851688446948
 30
0.0
 10
1068.558227729742
 20
2126.817874182046
 30
0.0
 10
1066.970794462445
 20
2120.594513629281
 30
0.0
 10
1065.069066671056
 20
2115.088595432144
 30
0.0
 10
1063.221871660895
 20
2110.533515155294
 30
0.0
 10
1061.051973479566
 20
2105.877363298849
 30
0.0
 10
1058.553971298388
 20
2101.121341465186
 30
0.0
 10
1055.850766990661
 20
2096.503361065078
 30
0.0
 10
1052.710966183292
 20
2091.61540453086
 30
0.0
 10
1049.141818131546
 20
2086.552006804262
 30
0.0
 10
1045.269484724843
 20
2081.567062823685
 30
0.0
 10
1041.327725636251
 20
2076.886701355002
 30
0.0
 10
1037.422303945155
 20
2072.579880279989
 30
0.0
 10
1033.207315322772
 20
2068.268193868975
 30
0.0
 10
1028.893574401383
 20
2064.167078023164
 30
0.0
 10
1024.486376042785
 20
2060.273922043909
 30
0.0
 10
1018.934297633705
 20
2055.715552381273
 30
0.0
 10
1012.282279468279
 20
2050.785734245988
 30
0.0
 10
1004.536409970413
 20
2045.774192254361
 30
0.0
 10
997.0486183493952
 20
2041.591940971523
 30
0.0
 10
990.642359310896
 20
2038.5533563925
 30
0.0
 10
985.3134639072483
 20
2036.396049745721
 30
0.0
 10
981.0022773797942
 20
2034.881103882552
 30
0.0
 10
976.9209881465285
 20
2033.668937048378
 30
0.0
 10
973.0697781121098
 20
2032.733375945998
 30
0.0
 10
969.4418551141181
 20
2032.044325353247
 30
0.0
 10
964.1800406232222
 20
2031.345725993849
 30
0.0
 10
957.4404622903718
 20
2031.087219920547
 30
0.0
 10
952.5258450446847
 20
2032.046619254077
 30
0.0
 10
950.0920676190173
 20
2032.521725314919
 30
0.0
  0
SPLINE
  5
11A
330
1F
100
AcDbEntity
  8
0
  6
Continuous
 62
     7
370
    25
100
AcDbSpline
210
0.0
220
0.0
230
1.0
 70
     8
 71
     3
 72
    17
 73
    13
 74
     0
 42
0.00000001
 43
0.00000001
 40
0.0
 40
0.0
 40
0.0
 40
0.0
 40
0.0851692096943681
 40
0.1708992077868349
 40
0.2574562557228574
 40
0.3450990774511892
 40
0.4502111644344067
 40
0.5582793640915077
 40
0.6797308363440535
 40
0.8064261603071917
 40
0.9461881017432945
 40
1.0
 40
1.0
 40
1.0
 40
1.0
 10
950.0920676190173
 20
2032.521725314919
 30
0.0
 10
948.9506042540247
 20
2032.855641617513
 30
0.0
 10
946.6601616692574
 20
2033.525672862201
 30
0.0
 10
943.5529939390658
 20
2034.952506404952
 30
0.0
 10
940.7007359858259
 20
2036.684216817451
 30
0.0
 10
937.9871041524003
 20
2038.873390849909
 30
0.0
 10
935.4860765112411
 20
2041.58230475338
 30
0.0
 10
933.2338378628635
 20
2044.978263047889
 30
0.0
 10
931.4216661977714
 20
2048.969121478765
 30
0.0
 10
930.1698383646414
 20
2053.697830771814
 30
0.0
 10
929.5673057180659
 20
2057.818780530647
 30
0.0
 10
929.6566435738018
 20
2060.473338033092
 30
0.0
 10
929.6814787458012
 20
2061.211282677186
 30
0.0
  0
LWPOLYLINE
  5
11B
330
1F
100
AcDbEntity
  8
0
  6
Continuous
 62
     7
370
    25
100
AcDbPolyline
 90
       33
 70
   128
 43
0.0
 10
929.5895423021
 20
1835.6303453467
 10
929.7916383607
 20
1834.2546398187
 10
930.6874906362
 20
1832.4340896659
 10
932.2903712012
 20
1830.6463374217
 10
934.583832332
 20
1828.9097278433
 10
937.5443400139
 20
1827.2420808948
 10
941.1415154318
 20
1825.6605088908
 10
945.3384466982
 20
1824.1812409002
 10
950.092067619
 20
1822.8194562143
 10
955.3535996108
 20
1821.5891285868
 10
961.0690522355
 20
1820.5028828441
 10
967.1797772147
 20
1819.5718653373
 10
973.6230702412
 20
1818.8056295661
 10
980.3328144093
 20
1818.2120381462
 10
987.240158664
 20
1817.797182129
 10
994.2742243063
 20
1817.5653184985
 10
1001.362832304
 20
1817.5188264893
 10
1008.4332439466
 20
1817.6581831725
 10
1015.4129072429
 20
1817.9819585597
 10
1022.2302014025
 20
1818.4868302775
 10
1028.815171762
 20
1819.1676176588
 10
1035.1002476147
 20
1820.0173349037
 10
1041.0209355772
 20
1821.0272627637
 10
1046.516481379
 20
1822.187038012
 10
1051.5304932836
 20
1823.4847597853
 10
1056.0115207439
 20
1824.907111702
 10
1059.9135823541
 20
1826.4394985068
 10
1063.196637682
 20
1828.0661958374
 10
1065.8269981371
 20
1829.7705115779
 10
1067.7776726618
 20
1831.5349571424
 10
1069.0286446956
 20
1833.3414269319
 10
1069.5670775728
 20
1835.1713841218
 10
1069.5895423021
 20
1835.6303453467
  0
LINE
  5
11C
330
1F
100
AcDbEntity
  8
0
  6
Continuous
 62
     7
370
    25
100
AcDbLine
 10
1081.2017016238
 20
1772.0258898307
 30
0.0
 11
1085.8565696068
 21
1770.8211213443
 31
0.0
  0
LINE
  5
11D
330
1F
100
AcDbEntity
  8
0
  6
Continuous
 62
     7
370
    25
100
AcDbLine
 10
1159.002641047
 20
1745.626219986
 30
0.0
 11
1166.4667426621
 21
1743.6943683334
 31
0.0
  0
LINE
  5
11E
330
1F
100
AcDbEntity
  8
0
  6
Continuous
 62
     7
370
    25
100
AcDbLine
 10
1087.898929125
 20
1764.0292148088
 30
0.0
 11
1081.2208951164
 21
1765.7576171941
 31
0.0
  0
ENDSEC
  0
SECTION
  2
OBJECTS
  0
DICTIONARY
  5
C
330
0
100
AcDbDictionary
281
     1
  3
ACAD_GROUP
350
D
  3
ACAD_LAYOUT
350
1A
  3
ACAD_MLINESTYLE
350
17
  3
ACAD_PLOTSETTINGS
350
19
  3
ACAD_PLOTSTYLENAME
350
E
  3
ACAD_SCALELIST
350
47
  3
DWGPROPS
350
11F
  0
DICTIONARY
  5
D
102
{ACAD_REACTORS
330
C
102
}
330
C
100
AcDbDictionary
281
     1
  0
DICTIONARY
  5
1A
102
{ACAD_REACTORS
330
C
102
}
330
C
100
AcDbDictionary
281
     1
  3
Layout1
350
1E
  3
Layout2
350
26
  3
Model
350
22
  0
DICTIONARY
  5
17
102
{ACAD_REACTORS
330
C
102
}
330
C
100
AcDbDictionary
281
     1
  3
Standard
350
18
  0
DICTIONARY
  5
19
102
{ACAD_REACTORS
330
C
102
}
330
C
100
AcDbDictionary
281
     1
  0
ACDBDICTIONARYWDFLT
  5
E
102
{ACAD_REACTORS
330
C
102
}
330
C
100
AcDbDictionary
281
     1
  3
Normal
350
F
100
AcDbDictionaryWithDefault
340
F
  0
DICTIONARY
  5
47
102
{ACAD_REACTORS
330
C
102
}
330
C
100
AcDbDictionary
281
     1
  3
A0
350
48
  3
A1
350
49
  3
A2
350
4A
  3
A3
350
4B
  3
A4
350
4C
  3
A5
350
4D
  3
A6
350
4E
  3
A7
350
4F
  3
A8
350
50
  3
A9
350
51
  3
B0
350
52
  3
B1
350
53
  3
B2
350
54
  3
B3
350
55
  3
B4
350
56
  3
B5
350
57
  3
B6
350
58
  0
XRECORD
  5
11F
102
{ACAD_REACTORS
330
C
102
}
330
C
100
AcDbXrecord
280
     1
  1
DWGPROPS COOKIE
  2

  3

  4

  6

  7

  8
9128
  9

300
=
301
=
302
=
303
=
304
=
305
=
306
=
307
=
308
=
309
=
 40
0.0
 41
2460151.216113137
 42
2460151.216113461
  1

 90
        0
  0
LAYOUT
  5
1E
102
{ACAD_REACTORS
330
1A
102
}
330
1A
100
AcDbPlotSettings
  1

  2
none_device
  4

  6

 40
0.0
 41
0.0
 42
0.0
 43
0.0
 44
0.0
 45
0.0
 46
0.0
 47
0.0
 48
0.0
 49
0.0
140
0.0
141
0.0
142
1.0
143
1.0
 70
   688
 72
     1
 73
     0
 74
     5
  7

 75
    16
147
1.0
148
0.0
149
0.0
100
AcDbLayout
  1
Layout1
 70
     1
 71
     1
 10
0.0
 20
0.0
 11
420.0
 21
297.0
 12
0.0
 22
0.0
 32
0.0
 14
1.0000000000E+20
 24
1.0000000000E+20
 34
1.0000000000E+20
 15
-1.0000000000E+20
 25
-1.0000000000E+20
 35
-1.0000000000E+20
146
0.0
 13
0.0
 23
0.0
 33
0.0
 16
1.0
 26
0.0
 36
0.0
 17
0.0
 27
1.0
 37
0.0
 76
     0
330
1B
  0
LAYOUT
  5
26
102
{ACAD_REACTORS
330
1A
102
}
330
1A
100
AcDbPlotSettings
  1

  2
none_device
  4

  6

 40
0.0
 41
0.0
 42
0.0
 43
0.0
 44
0.0
 45
0.0
 46
0.0
 47
0.0
 48
0.0
 49
0.0
140
0.0
141
0.0
142
1.0
143
1.0
 70
   688
 72
     1
 73
     0
 74
     5
  7

 75
    16
147
1.0
148
0.0
149
0.0
100
AcDbLayout
  1
Layout2
 70
     1
 71
     2
 10
0.0
 20
0.0
 11
0.0
 21
0.0
 12
0.0
 22
0.0
 32
0.0
 14
0.0
 24
0.0
 34
0.0
 15
0.0
 25
0.0
 35
0.0
146
0.0
 13
0.0
 23
0.0
 33
0.0
 16
1.0
 26
0.0
 36
0.0
 17
0.0
 27
1.0
 37
0.0
 76
     0
330
23
  0
LAYOUT
  5
22
102
{ACAD_REACTORS
330
1A
102
}
330
1A
100
AcDbPlotSettings
  1

  2
none_device
  4
Letter_(8.50_x_11.00_Inches)
  6

 40
6.35
 41
6.35
 42
6.35000508
 43
6.35000508
 44
215.9
 45
279.4
 46
0.0
 47
0.0
 48
0.0
 49
0.0
140
0.0
141
0.0
142
1.0
143
1.0
 70
  1712
 72
     1
 73
     0
 74
     0
  7

 75
     0
147
1.0
148
0.0
149
0.0
100
AcDbLayout
  1
Model
 70
     1
 71
     0
 10
0.0
 20
0.0
 11
2100.0
 21
2970.0
 12
0.0
 22
0.0
 32
0.0
 14
0.0
 24
0.0
 34
0.0
 15
2100.0
 25
2970.0
 35
0.0
146
0.0
 13
0.0
 23
0.0
 33
0.0
 16
1.0
 26
0.0
 36
0.0
 17
0.0
 27
1.0
 37
0.0
 76
     0
330
1F
331
29
  0
MLINESTYLE
  5
18
102
{ACAD_REACTORS
330
17
102
}
330
17
100
AcDbMlineStyle
  2
Standard
 70
     0
  3

 62
   256
 51
90.0
 52
90.0
 71
     2
 49
0.5
 62
   256
  6
BYLAYER
 49
-0.5
 62
   256
  6
BYLAYER
  0
ACDBPLACEHOLDER
  5
F
102
{ACAD_REACTORS
330
E
102
}
330
E
  0
SCALE
  5
48
102
{ACAD_REACTORS
330
47
102
}
330
47
100
AcDbScale
 70
     0
300
1:1
140
1.0
141
1.0
290
     1
  0
SCALE
  5
49
102
{ACAD_REACTORS
330
47
102
}
330
47
100
AcDbScale
 70
     0
300
1:2
140
1.0
141
2.0
290
     0
  0
SCALE
  5
4A
102
{ACAD_REACTORS
330
47
102
}
330
47
100
AcDbScale
 70
     0
300
1:4
140
1.0
141
4.0
290
     0
  0
SCALE
  5
4B
102
{ACAD_REACTORS
330
47
102
}
330
47
100
AcDbScale
 70
     0
300
1:5
140
1.0
141
5.0
290
     0
  0
SCALE
  5
4C
102
{ACAD_REACTORS
330
47
102
}
330
47
100
AcDbScale
 70
     0
300
1:8
140
1.0
141
8.0
290
     0
  0
SCALE
  5
4D
102
{ACAD_REACTORS
330
47
102
}
330
47
100
AcDbScale
 70
     0
300
1:10
140
1.0
141
10.0
290
     0
  0
SCALE
  5
4E
102
{ACAD_REACTORS
330
47
102
}
330
47
100
AcDbScale
 70
     0
300
1:16
140
1.0
141
16.0
290
     0
  0
SCALE
  5
4F
102
{ACAD_REACTORS
330
47
102
}
330
47
100
AcDbScale
 70
     0
300
1:20
140
1.0
141
20.0
290
     0
  0
SCALE
  5
50
102
{ACAD_REACTORS
330
47
102
}
330
47
100
AcDbScale
 70
     0
300
1:30
140
1.0
141
30.0
290
     0
  0
SCALE
  5
51
102
{ACAD_REACTORS
330
47
102
}
330
47
100
AcDbScale
 70
     0
300
1:40
140
1.0
141
40.0
290
     0
  0
SCALE
  5
52
102
{ACAD_REACTORS
330
47
102
}
330
47
100
AcDbScale
 70
     0
300
1:50
140
1.0
141
50.0
290
     0
  0
SCALE
  5
53
102
{ACAD_REACTORS
330
47
102
}
330
47
100
AcDbScale
 70
     0
300
1:100
140
1.0
141
100.0
290
     0
  0
SCALE
  5
54
102
{ACAD_REACTORS
330
47
102
}
330
47
100
AcDbScale
 70
     0
300
2:1
140
2.0
141
1.0
290
     0
  0
SCALE
  5
55
102
{ACAD_REACTORS
330
47
102
}
330
47
100
AcDbScale
 70
     0
300
4:1
140
4.0
141
1.0
290
     0
  0
SCALE
  5
56
102
{ACAD_REACTORS
330
47
102
}
330
47
100
AcDbScale
 70
     0
300
8:1
140
8.0
141
1.0
290
     0
  0
SCALE
  5
57
102
{ACAD_REACTORS
330
47
102
}
330
47
100
AcDbScale
 70
     0
300
10:1
140
10.0
141
1.0
290
     0
  0
SCALE
  5
58
102
{ACAD_REACTORS
330
47
102
}
330
47
100
AcDbScale
 70
     0
300
100:1
140
100.0
141
1.0
290
     0
  0
ENDSEC
  0
EOF
