  0
SECTION
  2
HEADER
  9
$ACADVER
  1
AC1015
  9
$ACADMAINTVER
 70
     6
  9
$DWGCODEPAGE
  3
ANSI_932
  9
$INSBASE
 10
0.0
 20
0.0
 30
0.0
  9
$EXTMIN
 10
1.000000000000000E+20
 20
1.000000000000000E+20
 30
1.000000000000000E+20
  9
$EXTMAX
 10
-1.000000000000000E+20
 20
-1.000000000000000E+20
 30
-1.000000000000000E+20
  9
$LIMMIN
 10
0.0
 20
0.0
  9
$LIMMAX
 10
12.0
 20
9.0
  9
$ORTHOMODE
 70
     0
  9
$REGENMODE
 70
     1
  9
$FILLMODE
 70
     1
  9
$QTEXTMODE
 70
     0
  9
$MIRRTEXT
 70
     1
  9
$LTSCALE
 40
1.0
  9
$ATTMODE
 70
     1
  9
$TEXTSIZE
 40
0.2
  9
$TRACEWID
 40
0.05
  9
$TEXTSTYLE
  7
Standard
  9
$CLAYER
  8
0
  9
$CELTYPE
  6
ByLayer
  9
$CECOLOR
 62
   256
  9
$CELTSCALE
 40
1.0
  9
$DISPSILH
 70
     0
  9
$DIMSCALE
 40
1.0
  9
$DIMASZ
 40
0.18
  9
$DIMEXO
 40
0.0625
  9
$DIMDLI
 40
0.38
  9
$DIMRND
 40
0.0
  9
$DIMDLE
 40
0.0
  9
$DIMEXE
 40
0.18
  9
$DIMTP
 40
0.0
  9
$DIMTM
 40
0.0
  9
$DIMTXT
 40
0.18
  9
$DIMCEN
 40
0.09
  9
$DIMTSZ
 40
0.0
  9
$DIMTOL
 70
     0
  9
$DIMLIM
 70
     0
  9
$DIMTIH
 70
     1
  9
$DIMTOH
 70
     1
  9
$DIMSE1
 70
     0
  9
$DIMSE2
 70
     0
  9
$DIMTAD
 70
     0
  9
$DIMZIN
 70
     0
  9
$DIMBLK
  1

  9
$DIMASO
 70
     1
  9
$DIMSHO
 70
     1
  9
$DIMPOST
  1

  9
$DIMAPOST
  1

  9
$DIMALT
 70
     0
  9
$DIMALTD
 70
     2
  9
$DIMALTF
 40
25.4
  9
$DIMLFAC
 40
1.0
  9
$DIMTOFL
 70
     0
  9
$DIMTVP
 40
0.0
  9
$DIMTIX
 70
     0
  9
$DIMSOXD
 70
     0
  9
$DIMSAH
 70
     0
  9
$DIMBLK1
  1

  9
$DIMBLK2
  1

  9
$DIMSTYLE
  2
Standard
  9
$DIMCLRD
 70
     0
  9
$DIMCLRE
 70
     0
  9
$DIMCLRT
 70
     0
  9
$DIMTFAC
 40
1.0
  9
$DIMGAP
 40
0.09
  9
$DIMJUST
 70
     0
  9
$DIMSD1
 70
     0
  9
$DIMSD2
 70
     0
  9
$DIMTOLJ
 70
     1
  9
$DIMTZIN
 70
     0
  9
$DIMALTZ
 70
     0
  9
$DIMALTTZ
 70
     0
  9
$DIMUPT
 70
     0
  9
$DIMDEC
 70
     4
  9
$DIMTDEC
 70
     4
  9
$DIMALTU
 70
     2
  9
$DIMALTTD
 70
     2
  9
$DIMTXSTY
  7
Standard
  9
$DIMAUNIT
 70
     0
  9
$DIMADEC
 70
     0
  9
$DIMALTRND
 40
0.0
  9
$DIMAZIN
 70
     0
  9
$DIMDSEP
 70
    46
  9
$DIMATFIT
 70
     3
  9
$DIMFRAC
 70
     0
  9
$DIMLDRBLK
  1

  9
$DIMLUNIT
 70
     2
  9
$DIMLWD
 70
    -2
  9
$DIMLWE
 70
    -2
  9
$DIMTMOVE
 70
     0
  9
$LUNITS
 70
     2
  9
$LUPREC
 70
     4
  9
$SKETCHINC
 40
0.1
  9
$FILLETRAD
 40
0.5
  9
$AUNITS
 70
     0
  9
$AUPREC
 70
     0
  9
$MENU
  1
.
  9
$ELEVATION
 40
0.0
  9
$PELEVATION
 40
0.0
  9
$THICKNESS
 40
0.0
  9
$LIMCHECK
 70
     0
  9
$CHAMFERA
 40
0.5
  9
$CHAMFERB
 40
0.5
  9
$CHAMFERC
 40
1.0
  9
$CHAMFERD
 40
0.0
  9
$SKPOLY
 70
     0
  9
$TDCREATE
 40
2457058.379405486
  9
$TDUCREATE
 40
2457058.004405486
  9
$TDUPDATE
 40
2457058.379405498
  9
$TDUUPDATE
 40
2457058.004405498
  9
$TDINDWG
 40
0.0000000116
  9
$TDUSRTIMER
 40
0.0000000116
  9
$USRTIMER
 70
     1
  9
$ANGBASE
 50
0.0
  9
$ANGDIR
 70
     0
  9
$PDMODE
 70
     0
  9
$PDSIZE
 40
0.0
  9
$PLINEWID
 40
0.0
  9
$SPLFRAME
 70
     0
  9
$SPLINETYPE
 70
     6
  9
$SPLINESEGS
 70
     8
  9
$HANDSEED
  5
2AA
  9
$SURFTAB1
 70
     6
  9
$SURFTAB2
 70
     6
  9
$SURFTYPE
 70
     6
  9
$SURFU
 70
     6
  9
$SURFV
 70
     6
  9
$UCSBASE
  2

  9
$UCSNAME
  2

  9
$UCSORG
 10
0.0
 20
0.0
 30
0.0
  9
$UCSXDIR
 10
1.0
 20
0.0
 30
0.0
  9
$UCSYDIR
 10
0.0
 20
1.0
 30
0.0
  9
$UCSORTHOREF
  2

  9
$UCSORTHOVIEW
 70
     0
  9
$UCSORGTOP
 10
0.0
 20
0.0
 30
0.0
  9
$UCSORGBOTTOM
 10
0.0
 20
0.0
 30
0.0
  9
$UCSORGLEFT
 10
0.0
 20
0.0
 30
0.0
  9
$UCSORGRIGHT
 10
0.0
 20
0.0
 30
0.0
  9
$UCSORGFRONT
 10
0.0
 20
0.0
 30
0.0
  9
$UCSORGBACK
 10
0.0
 20
0.0
 30
0.0
  9
$PUCSBASE
  2

  9
$PUCSNAME
  2

  9
$PUCSORG
 10
0.0
 20
0.0
 30
0.0
  9
$PUCSXDIR
 10
1.0
 20
0.0
 30
0.0
  9
$PUCSYDIR
 10
0.0
 20
1.0
 30
0.0
  9
$PUCSORTHOREF
  2

  9
$PUCSORTHOVIEW
 70
     0
  9
$PUCSORGTOP
 10
0.0
 20
0.0
 30
0.0
  9
$PUCSORGBOTTOM
 10
0.0
 20
0.0
 30
0.0
  9
$PUCSORGLEFT
 10
0.0
 20
0.0
 30
0.0
  9
$PUCSORGRIGHT
 10
0.0
 20
0.0
 30
0.0
  9
$PUCSORGFRONT
 10
0.0
 20
0.0
 30
0.0
  9
$PUCSORGBACK
 10
0.0
 20
0.0
 30
0.0
  9
$USERI1
 70
     0
  9
$USERI2
 70
     0
  9
$USERI3
 70
     0
  9
$USERI4
 70
     0
  9
$USERI5
 70
     0
  9
$USERR1
 40
0.0
  9
$USERR2
 40
0.0
  9
$USERR3
 40
0.0
  9
$USERR4
 40
0.0
  9
$USERR5
 40
0.0
  9
$WORLDVIEW
 70
     1
  9
$SHADEDGE
 70
     3
  9
$SHADEDIF
 70
    70
  9
$TILEMODE
 70
     1
  9
$MAXACTVP
 70
    64
  9
$PINSBASE
 10
0.0
 20
0.0
 30
0.0
  9
$PLIMCHECK
 70
     0
  9
$PEXTMIN
 10
1.000000000000000E+20
 20
1.000000000000000E+20
 30
1.000000000000000E+20
  9
$PEXTMAX
 10
-1.000000000000000E+20
 20
-1.000000000000000E+20
 30
-1.000000000000000E+20
  9
$PLIMMIN
 10
0.0
 20
0.0
  9
$PLIMMAX
 10
12.0
 20
9.0
  9
$UNITMODE
 70
     0
  9
$VISRETAIN
 70
     1
  9
$PLINEGEN
 70
     0
  9
$PSLTSCALE
 70
     1
  9
$TREEDEPTH
 70
  3020
  9
$CMLSTYLE
  2
Standard
  9
$CMLJUST
 70
     0
  9
$CMLSCALE
 40
1.0
  9
$PROXYGRAPHICS
 70
     1
  9
$MEASUREMENT
 70
     0
  9
$CELWEIGHT
370
    -1
  9
$ENDCAPS
280
     0
  9
$JOINSTYLE
280
     0
  9
$LWDISPLAY
290
     1
  9
$INSUNITS
 70
     1
  9
$HYPERLINKBASE
  1

  9
$STYLESHEET
  1

  9
$XEDIT
290
     1
  9
$CEPSNTYPE
380
     0
  9
$PSTYLEMODE
290
     1
  9
$FINGERPRINTGUID
  2
{8D76DA83-986D-4E5D-8E32-A192748AC855}
  9
$VERSIONGUID
  2
{FAEB1C32-E019-11D5-929B-00C0DF256EC4}
  9
$EXTNAMES
290
     1
  9
$PSVPSCALE
 40
0.0
  9
$OLESTARTUP
290
     0
  0
ENDSEC
  0
SECTION
  2
CLASSES
  0
CLASS
  1
ACDBDICTIONARYWDFLT
  2
AcDbDictionaryWithDefault
  3
ObjectDBX Classes
 90
        0
280
     0
281
     0
  0
CLASS
  1
VISUALSTYLE
  2
AcDbVisualStyle
  3
ObjectDBX Classes
 90
     4095
280
     0
281
     0
  0
CLASS
  1
ACDBPLACEHOLDER
  2
AcDbPlaceHolder
  3
ObjectDBX Classes
 90
        0
280
     0
281
     0
  0
CLASS
  1
LAYOUT
  2
AcDbLayout
  3
ObjectDBX Classes
 90
        0
280
     0
281
     0
  0
ENDSEC
  0
SECTION
  2
TABLES
  0
TABLE
  2
VPORT
  5
8
330
0
100
AcDbSymbolTable
 70
     1
  0
VPORT
  5
29
330
8
100
AcDbSymbolTableRecord
100
AcDbViewportTableRecord
  2
*Active
 70
     0
 10
0.0
 20
0.0
 11
1.0
 21
1.0
 12
0.0
 22
0.0
 13
0.0
 23
0.0
 14
0.5
 24
0.5
 15
0.5
 25
0.5
 16
0.0
 26
0.0
 36
1.0
 17
148.3916313648118
 27
104.891616455982
 37
0.0
 40
296.9999592356459
 41
0.7070705664688927
 42
50.0
 43
0.0
 44
0.0
 50
0.0
 51
0.0
 71
     0
 72
   100
 73
     1
 74
     3
 75
     0
 76
     0
 77
     0
 78
     0
281
     0
 65
     1
110
0.0
120
0.0
130
0.0
111
1.0
121
0.0
131
0.0
112
0.0
122
1.0
132
0.0
 79
     0
146
0.0
  0
ENDTAB
  0
TABLE
  2
LTYPE
  5
5
330
0
100
AcDbSymbolTable
 70
     1
  0
LTYPE
  5
14
330
5
100
AcDbSymbolTableRecord
100
AcDbLinetypeTableRecord
  2
ByBlock
 70
     0
  3

 72
    65
 73
     0
 40
0.0
  0
LTYPE
  5
15
330
5
100
AcDbSymbolTableRecord
100
AcDbLinetypeTableRecord
  2
ByLayer
 70
     0
  3

 72
    65
 73
     0
 40
0.0
  0
LTYPE
  5
16
330
5
100
AcDbSymbolTableRecord
100
AcDbLinetypeTableRecord
  2
Continuous
 70
     0
  3
Solid line
 72
    65
 73
     0
 40
0.0
  0
ENDTAB
  0
TABLE
  2
LAYER
  5
2
330
0
100
AcDbSymbolTable
 70
     3
  0
LAYER
  5
10
330
2
100
AcDbSymbolTableRecord
100
AcDbLayerTableRecord
  2
0
 70
     0
 62
     7
  6
Continuous
370
    -3
390
F
  0
LAYER
  5
3B
330
2
100
AcDbSymbolTableRecord
100
AcDbLayerTableRecord
  2
\U+30D5\U+30A9\U+30FC\U+30DE\U+30C3\U+30C8
 70
     4
 62
     7
  6
Continuous
370
    -3
390
F
  0
LAYER
  5
198
330
2
100
AcDbSymbolTableRecord
100
AcDbLayerTableRecord
  2
\U+30EC\U+30A4\U+30E4\U+30FC 1
 70
     0
 62
     7
  6
Continuous
370
    -3
390
F
  0
ENDTAB
  0
TABLE
  2
STYLE
  5
3
330
0
100
AcDbSymbolTable
 70
     1
  0
STYLE
  5
11
330
3
100
AcDbSymbolTableRecord
100
AcDbTextStyleTableRecord
  2
Standard
 70
     0
 40
0.0
 41
1.0
 50
0.0
 71
     0
 42
0.2
  3
txt
  4

  0
ENDTAB
  0
TABLE
  2
VIEW
  5
6
330
0
100
AcDbSymbolTable
 70
     0
  0
ENDTAB
  0
TABLE
  2
UCS
  5
7
330
0
100
AcDbSymbolTable
 70
     0
  0
ENDTAB
  0
TABLE
  2
APPID
  5
9
330
0
100
AcDbSymbolTable
 70
     1
  0
APPID
  5
12
330
9
100
AcDbSymbolTableRecord
100
AcDbRegAppTableRecord
  2
ACAD
 70
     0
  0
ENDTAB
  0
TABLE
  2
DIMSTYLE
  5
A
330
0
100
AcDbSymbolTable
 70
     1
100
AcDbDimStyleTable
  0
DIMSTYLE
105
27
330
A
100
AcDbSymbolTableRecord
100
AcDbDimStyleTableRecord
  2
Standard
 70
     0
340
11
  0
ENDTAB
  0
TABLE
  2
BLOCK_RECORD
  5
1
330
0
100
AcDbSymbolTable
 70
    19
  0
BLOCK_RECORD
  5
1F
330
1
100
AcDbSymbolTableRecord
100
AcDbBlockTableRecord
  2
*Model_Space
340
22
  0
BLOCK_RECORD
  5
1B
330
1
100
AcDbSymbolTableRecord
100
AcDbBlockTableRecord
  2
*Paper_Space
340
1E
  0
BLOCK_RECORD
  5
23
330
1
100
AcDbSymbolTableRecord
100
AcDbBlockTableRecord
  2
*Paper_Space0
340
26
  0
BLOCK_RECORD
  5
3C
330
1
100
AcDbSymbolTableRecord
100
AcDbBlockTableRecord
  2
block 2
340
0
102
{BLKREFS
331
3D
102
}
  0
BLOCK_RECORD
  5
50
330
1
100
AcDbSymbolTableRecord
100
AcDbBlockTableRecord
  2
block 3
340
0
102
{BLKREFS
331
51
102
}
  0
BLOCK_RECORD
  5
54
330
1
100
AcDbSymbolTableRecord
100
AcDbBlockTableRecord
  2
block 4
340
0
102
{BLKREFS
331
55
102
}
  0
BLOCK_RECORD
  5
58
330
1
100
AcDbSymbolTableRecord
100
AcDbBlockTableRecord
  2
block 5
340
0
102
{BLKREFS
331
59
102
}
  0
BLOCK_RECORD
  5
5C
330
1
100
AcDbSymbolTableRecord
100
AcDbBlockTableRecord
  2
block 6
340
0
102
{BLKREFS
331
5D
102
}
  0
BLOCK_RECORD
  5
97
330
1
100
AcDbSymbolTableRecord
100
AcDbBlockTableRecord
  2
block 7
340
0
102
{BLKREFS
331
98
102
}
  0
BLOCK_RECORD
  5
9B
330
1
100
AcDbSymbolTableRecord
100
AcDbBlockTableRecord
  2
block 8
340
0
102
{BLKREFS
331
9C
102
}
  0
BLOCK_RECORD
  5
9F
330
1
100
AcDbSymbolTableRecord
100
AcDbBlockTableRecord
  2
block 9
340
0
102
{BLKREFS
331
A0
102
}
  0
BLOCK_RECORD
  5
A3
330
1
100
AcDbSymbolTableRecord
100
AcDbBlockTableRecord
  2
block 10
340
0
102
{BLKREFS
331
A4
102
}
  0
BLOCK_RECORD
  5
B1
330
1
100
AcDbSymbolTableRecord
100
AcDbBlockTableRecord
  2
block 11
340
0
102
{BLKREFS
331
B2
102
}
  0
BLOCK_RECORD
  5
B5
330
1
100
AcDbSymbolTableRecord
100
AcDbBlockTableRecord
  2
block 12
340
0
102
{BLKREFS
331
B6
102
}
  0
BLOCK_RECORD
  5
B9
330
1
100
AcDbSymbolTableRecord
100
AcDbBlockTableRecord
  2
block 13
340
0
102
{BLKREFS
331
BA
102
}
  0
BLOCK_RECORD
  5
BD
330
1
100
AcDbSymbolTableRecord
100
AcDbBlockTableRecord
  2
block 14
340
0
102
{BLKREFS
331
BE
102
}
  0
BLOCK_RECORD
  5
F8
330
1
100
AcDbSymbolTableRecord
100
AcDbBlockTableRecord
  2
block 15
340
0
102
{BLKREFS
331
F9
102
}
  0
BLOCK_RECORD
  5
FC
330
1
100
AcDbSymbolTableRecord
100
AcDbBlockTableRecord
  2
block 16
340
0
102
{BLKREFS
331
FD
102
}
  0
BLOCK_RECORD
  5
100
330
1
100
AcDbSymbolTableRecord
100
AcDbBlockTableRecord
  2
block 17
340
0
102
{BLKREFS
331
101
102
}
  0
BLOCK_RECORD
  5
104
330
1
100
AcDbSymbolTableRecord
100
AcDbBlockTableRecord
  2
block 18
340
0
102
{BLKREFS
331
105
102
}
  0
BLOCK_RECORD
  5
1AA
330
1
100
AcDbSymbolTableRecord
100
AcDbBlockTableRecord
  2
block 19
340
0
102
{BLKREFS
331
1AB
102
}
  0
ENDTAB
  0
ENDSEC
  0
SECTION
  2
BLOCKS
  0
BLOCK
  5
20
330
1F
100
AcDbEntity
  8
0
100
AcDbBlockBegin
  2
*Model_Space
 70
     0
 71
     0
 10
0.0
 20
0.0
 30
0.0
  3
*Model_Space
  1

  0
ENDBLK
  5
21
330
1F
100
AcDbEntity
  8
0
100
AcDbBlockEnd
  0
BLOCK
  5
1C
330
1B
100
AcDbEntity
 67
     1
  8
0
100
AcDbBlockBegin
  2
*Paper_Space
 70
     0
 71
     0
 10
0.0
 20
0.0
 30
0.0
  3
*Paper_Space
  1

  0
ENDBLK
  5
1D
330
1B
100
AcDbEntity
 67
     1
  8
0
100
AcDbBlockEnd
  0
BLOCK
  5
24
330
23
100
AcDbEntity
  8
0
100
AcDbBlockBegin
  2
*Paper_Space0
 70
     0
 71
     0
 10
0.0
 20
0.0
 30
0.0
  3
*Paper_Space0
  1

  0
ENDBLK
  5
25
330
23
100
AcDbEntity
  8
0
100
AcDbBlockEnd
  0
BLOCK
  5
3E
330
3C
100
AcDbEntity
  8
0
100
AcDbBlockBegin
  2
block 2
 70
     0
 71
     0
 10
0.0
 20
0.0
 30
0.0
  3
block 2
  1

  0
POLYLINE
  5
40
330
3C
100
AcDbEntity
  8
\U+30D5\U+30A9\U+30FC\U+30DE\U+30C3\U+30C8
 62
     7
370
    35
100
AcDb2dPolyline
 66
     1
 10
0.0
 20
0.0
 30
0.0
  0
VERTEX
  5
41
330
40
100
AcDbEntity
  8
\U+30D5\U+30A9\U+30FC\U+30DE\U+30C3\U+30C8
 62
     7
370
    35
100
AcDbVertex
100
AcDb2dVertex
 10
243.3915174087702
 20
-33.60828449680626
 30
0.0
  0
VERTEX
  5
42
330
40
100
AcDbEntity
  8
\U+30D5\U+30A9\U+30FC\U+30DE\U+30C3\U+30C8
 62
     7
370
    35
100
AcDbVertex
100
AcDb2dVertex
 10
53.39174532085345
 20
-33.60828449680626
 30
0.0
  0
VERTEX
  5
43
330
40
100
AcDbEntity
  8
\U+30D5\U+30A9\U+30FC\U+30DE\U+30C3\U+30C8
 62
     7
370
    35
100
AcDbVertex
100
AcDb2dVertex
 10
53.39174532085345
 20
243.3915174087702
 30
0.0
  0
VERTEX
  5
44
330
40
100
AcDbEntity
  8
\U+30D5\U+30A9\U+30FC\U+30DE\U+30C3\U+30C8
 62
     7
370
    35
100
AcDbVertex
100
AcDb2dVertex
 10
243.3915174087702
 20
243.3915174087702
 30
0.0
  0
VERTEX
  5
45
330
40
100
AcDbEntity
  8
\U+30D5\U+30A9\U+30FC\U+30DE\U+30C3\U+30C8
 62
     7
370
    35
100
AcDbVertex
100
AcDb2dVertex
 10
243.3915174087702
 20
-33.60828449680626
 30
0.0
  0
SEQEND
  5
46
330
40
100
AcDbEntity
  8
\U+30D5\U+30A9\U+30FC\U+30DE\U+30C3\U+30C8
370
    35
  0
POLYLINE
  5
47
330
3C
100
AcDbEntity
  8
\U+30D5\U+30A9\U+30FC\U+30DE\U+30C3\U+30C8
 62
     7
370
    35
100
AcDb2dPolyline
 66
     1
 10
0.0
 20
0.0
 30
0.0
  0
VERTEX
  5
48
330
47
100
AcDbEntity
  8
\U+30D5\U+30A9\U+30FC\U+30DE\U+30C3\U+30C8
 62
     7
370
    35
100
AcDbVertex
100
AcDb2dVertex
 10
53.39174532085345
 20
-33.60828449680626
 30
0.0
  0
VERTEX
  5
49
330
47
100
AcDbEntity
  8
\U+30D5\U+30A9\U+30FC\U+30DE\U+30C3\U+30C8
 62
     7
370
    35
100
AcDbVertex
100
AcDb2dVertex
 10
53.39174532085345
 20
-8.631686738293467
 30
0.0
  0
VERTEX
  5
4A
330
47
100
AcDbEntity
  8
\U+30D5\U+30A9\U+30FC\U+30DE\U+30C3\U+30C8
 62
     7
370
    35
100
AcDbVertex
100
AcDb2dVertex
 10
243.3084906075757
 20
-8.631686738293467
 30
0.0
  0
SEQEND
  5
4B
330
47
100
AcDbEntity
  8
\U+30D5\U+30A9\U+30FC\U+30DE\U+30C3\U+30C8
370
    35
  0
POLYLINE
  5
4C
330
3C
100
AcDbEntity
  8
\U+30D5\U+30A9\U+30FC\U+30DE\U+30C3\U+30C8
 62
     7
370
    35
100
AcDb2dPolyline
 66
     1
 10
0.0
 20
0.0
 30
0.0
  0
VERTEX
  5
4D
330
4C
100
AcDbEntity
  8
\U+30D5\U+30A9\U+30FC\U+30DE\U+30C3\U+30C8
 62
     7
370
    35
100
AcDbVertex
100
AcDb2dVertex
 10
243.3915174087702
 20
-33.60828449680626
 30
0.0
  0
VERTEX
  5
4E
330
4C
100
AcDbEntity
  8
\U+30D5\U+30A9\U+30FC\U+30DE\U+30C3\U+30C8
 62
     7
370
    35
100
AcDbVertex
100
AcDb2dVertex
 10
54.09247774255327
 20
-33.60828449680626
 30
0.0
  0
SEQEND
  5
4F
330
4C
100
AcDbEntity
  8
\U+30D5\U+30A9\U+30FC\U+30DE\U+30C3\U+30C8
370
    35
  0
INSERT
  5
51
330
3C
100
AcDbEntity
  8
\U+30D5\U+30A9\U+30FC\U+30DE\U+30C3\U+30C8
100
AcDbBlockReference
  2
block 3
 10
0.0
 20
0.0
 30
0.0
  0
INSERT
  5
98
330
3C
100
AcDbEntity
  8
\U+30D5\U+30A9\U+30FC\U+30DE\U+30C3\U+30C8
100
AcDbBlockReference
  2
block 7
 10
0.0
 20
0.0
 30
0.0
  0
INSERT
  5
B2
330
3C
100
AcDbEntity
  8
\U+30D5\U+30A9\U+30FC\U+30DE\U+30C3\U+30C8
100
AcDbBlockReference
  2
block 11
 10
0.0
 20
0.0
 30
0.0
  0
INSERT
  5
F9
330
3C
100
AcDbEntity
  8
\U+30D5\U+30A9\U+30FC\U+30DE\U+30C3\U+30C8
100
AcDbBlockReference
  2
block 15
 10
0.0
 20
0.0
 30
0.0
  0
POLYLINE
  5
127
330
3C
100
AcDbEntity
  8
\U+30D5\U+30A9\U+30FC\U+30DE\U+30C3\U+30C8
 62
     7
370
    35
100
AcDb2dPolyline
 66
     1
 10
0.0
 20
0.0
 30
0.0
  0
VERTEX
  5
128
330
127
100
AcDbEntity
  8
\U+30D5\U+30A9\U+30FC\U+30DE\U+30C3\U+30C8
 62
     7
370
    35
100
AcDbVertex
100
AcDb2dVertex
 10
53.39174532085345
 20
-19.04104274697585
 30
0.0
  0
VERTEX
  5
129
330
127
100
AcDbEntity
  8
\U+30D5\U+30A9\U+30FC\U+30DE\U+30C3\U+30C8
 62
     7
370
    35
100
AcDbVertex
100
AcDb2dVertex
 10
119.1162434598043
 20
-19.04104274697585
 30
0.0
  0
SEQEND
  5
12A
330
127
100
AcDbEntity
  8
\U+30D5\U+30A9\U+30FC\U+30DE\U+30C3\U+30C8
370
    35
  0
POLYLINE
  5
12B
330
3C
100
AcDbEntity
  8
\U+30D5\U+30A9\U+30FC\U+30DE\U+30C3\U+30C8
 62
     7
370
    35
100
AcDb2dPolyline
 66
     1
 10
0.0
 20
0.0
 30
0.0
  0
VERTEX
  5
12C
330
12B
100
AcDbEntity
  8
\U+30D5\U+30A9\U+30FC\U+30DE\U+30C3\U+30C8
 62
     7
370
    35
100
AcDbVertex
100
AcDb2dVertex
 10
59.08786619616554
 20
-8.631686738293467
 30
0.0
  0
VERTEX
  5
12D
330
12B
100
AcDbEntity
  8
\U+30D5\U+30A9\U+30FC\U+30DE\U+30C3\U+30C8
 62
     7
370
    35
100
AcDbVertex
100
AcDb2dVertex
 10
59.08786619616554
 20
-33.60828449680626
 30
0.0
  0
SEQEND
  5
12E
330
12B
100
AcDbEntity
  8
\U+30D5\U+30A9\U+30FC\U+30DE\U+30C3\U+30C8
370
    35
  0
POLYLINE
  5
12F
330
3C
100
AcDbEntity
  8
\U+30D5\U+30A9\U+30FC\U+30DE\U+30C3\U+30C8
 62
     7
370
    35
100
AcDb2dPolyline
 66
     1
 10
0.0
 20
0.0
 30
0.0
  0
VERTEX
  5
130
330
12F
100
AcDbEntity
  8
\U+30D5\U+30A9\U+30FC\U+30DE\U+30C3\U+30C8
 62
     7
370
    35
100
AcDbVertex
100
AcDb2dVertex
 10
59.08786619616554
 20
-8.631686738293467
 30
0.0
  0
VERTEX
  5
131
330
12F
100
AcDbEntity
  8
\U+30D5\U+30A9\U+30FC\U+30DE\U+30C3\U+30C8
 62
     7
370
    35
100
AcDbVertex
100
AcDb2dVertex
 10
59.08786619616554
 20
-33.60828449680626
 30
0.0
  0
SEQEND
  5
132
330
12F
100
AcDbEntity
  8
\U+30D5\U+30A9\U+30FC\U+30DE\U+30C3\U+30C8
370
    35
  0
POLYLINE
  5
133
330
3C
100
AcDbEntity
  8
\U+30D5\U+30A9\U+30FC\U+30DE\U+30C3\U+30C8
 62
     7
370
    35
100
AcDb2dPolyline
 66
     1
 10
0.0
 20
0.0
 30
0.0
  0
VERTEX
  5
134
330
133
100
AcDbEntity
  8
\U+30D5\U+30A9\U+30FC\U+30DE\U+30C3\U+30C8
 62
     7
370
    35
100
AcDbVertex
100
AcDb2dVertex
 10
119.1162434598043
 20
-8.631686738293467
 30
0.0
  0
VERTEX
  5
135
330
133
100
AcDbEntity
  8
\U+30D5\U+30A9\U+30FC\U+30DE\U+30C3\U+30C8
 62
     7
370
    35
100
AcDbVertex
100
AcDb2dVertex
 10
119.1162434598043
 20
-33.60828449680626
 30
0.0
  0
SEQEND
  5
136
330
133
100
AcDbEntity
  8
\U+30D5\U+30A9\U+30FC\U+30DE\U+30C3\U+30C8
370
    35
  0
ENDBLK
  5
3F
330
3C
100
AcDbEntity
  8
0
100
AcDbBlockEnd
  0
BLOCK
  5
52
330
50
100
AcDbEntity
  8
0
100
AcDbBlockBegin
  2
block 3
 70
     0
 71
     0
 10
0.0
 20
0.0
 30
0.0
  3
block 3
  1

  0
INSERT
  5
55
330
50
100
AcDbEntity
  8
\U+30D5\U+30A9\U+30FC\U+30DE\U+30C3\U+30C8
100
AcDbBlockReference
  2
block 4
 10
0.0
 20
0.0
 30
0.0
  0
ENDBLK
  5
53
330
50
100
AcDbEntity
  8
0
100
AcDbBlockEnd
  0
BLOCK
  5
56
330
54
100
AcDbEntity
  8
0
100
AcDbBlockBegin
  2
block 4
 70
     0
 71
     0
 10
0.0
 20
0.0
 30
0.0
  3
block 4
  1

  0
INSERT
  5
59
330
54
100
AcDbEntity
  8
\U+30D5\U+30A9\U+30FC\U+30DE\U+30C3\U+30C8
100
AcDbBlockReference
  2
block 5
 10
0.0
 20
0.0
 30
0.0
  0
ENDBLK
  5
57
330
54
100
AcDbEntity
  8
0
100
AcDbBlockEnd
  0
BLOCK
  5
5A
330
58
100
AcDbEntity
  8
0
100
AcDbBlockBegin
  2
block 5
 70
     0
 71
     0
 10
0.0
 20
0.0
 30
0.0
  3
block 5
  1

  0
INSERT
  5
5D
330
58
100
AcDbEntity
  8
\U+30D5\U+30A9\U+30FC\U+30DE\U+30C3\U+30C8
100
AcDbBlockReference
  2
block 6
 10
0.0
 20
0.0
 30
0.0
  0
ENDBLK
  5
5B
330
58
100
AcDbEntity
  8
0
100
AcDbBlockEnd
  0
BLOCK
  5
5E
330
5C
100
AcDbEntity
  8
0
100
AcDbBlockBegin
  2
block 6
 70
     0
 71
     0
 10
0.0
 20
0.0
 30
0.0
  3
block 6
  1

  0
POLYLINE
  5
60
330
5C
100
AcDbEntity
  8
\U+30D5\U+30A9\U+30FC\U+30DE\U+30C3\U+30C8
370
     0
100
AcDb2dPolyline
 66
     1
 10
0.0
 20
0.0
 30
0.0
  0
VERTEX
  5
61
330
60
100
AcDbEntity
  8
\U+30D5\U+30A9\U+30FC\U+30DE\U+30C3\U+30C8
370
     0
100
AcDbVertex
100
AcDb2dVertex
 10
55.79228785497554
 20
-24.07708332731406
 30
0.0
  0
VERTEX
  5
62
330
60
100
AcDbEntity
  8
\U+30D5\U+30A9\U+30FC\U+30DE\U+30C3\U+30C8
370
     0
100
AcDbVertex
100
AcDb2dVertex
 10
55.18905163550829
 20
-24.07708332731406
 30
0.0
  0
VERTEX
  5
63
330
60
100
AcDbEntity
  8
\U+30D5\U+30A9\U+30FC\U+30DE\U+30C3\U+30C8
370
     0
100
AcDbVertex
100
AcDb2dVertex
 10
55.18905163550829
 20
-24.30342610069498
 30
0.0
  0
VERTEX
  5
64
330
60
100
AcDbEntity
  8
\U+30D5\U+30A9\U+30FC\U+30DE\U+30C3\U+30C8
370
     0
100
AcDbVertex
100
AcDb2dVertex
 10
54.93773191985932
 20
-24.30342610069498
 30
0.0
  0
VERTEX
  5
65
330
60
100
AcDbEntity
  8
\U+30D5\U+30A9\U+30FC\U+30DE\U+30C3\U+30C8
370
     0
100
AcDbVertex
100
AcDb2dVertex
 10
54.93773191985932
 20
-22.97120767654886
 30
0.0
  0
VERTEX
  5
66
330
60
100
AcDbEntity
  8
\U+30D5\U+30A9\U+30FC\U+30DE\U+30C3\U+30C8
370
     0
100
AcDbVertex
100
AcDb2dVertex
 10
56.04360757062452
 20
-22.97120767654886
 30
0.0
  0
VERTEX
  5
67
330
60
100
AcDbEntity
  8
\U+30D5\U+30A9\U+30FC\U+30DE\U+30C3\U+30C8
370
     0
100
AcDbVertex
100
AcDb2dVertex
 10
56.04360757062452
 20
-24.26553005035723
 30
0.0
  0
VERTEX
  5
68
330
60
100
AcDbEntity
  8
\U+30D5\U+30A9\U+30FC\U+30DE\U+30C3\U+30C8
370
     0
100
AcDbVertex
100
AcDb2dVertex
 10
55.79228785497554
 20
-24.26553005035723
 30
0.0
  0
VERTEX
  5
69
330
60
100
AcDbEntity
  8
\U+30D5\U+30A9\U+30FC\U+30DE\U+30C3\U+30C8
370
     0
100
AcDbVertex
100
AcDb2dVertex
 10
55.79228785497554
 20
-24.07708332731406
 30
0.0
  0
SEQEND
  5
6A
330
60
100
AcDbEntity
  8
\U+30D5\U+30A9\U+30FC\U+30DE\U+30C3\U+30C8
370
     0
  0
POLYLINE
  5
6B
330
5C
100
AcDbEntity
  8
\U+30D5\U+30A9\U+30FC\U+30DE\U+30C3\U+30C8
370
     0
100
AcDb2dPolyline
 66
     1
 10
0.0
 20
0.0
 30
0.0
  0
VERTEX
  5
6C
330
6B
100
AcDbEntity
  8
\U+30D5\U+30A9\U+30FC\U+30DE\U+30C3\U+30C8
370
     0
100
AcDbVertex
100
AcDb2dVertex
 10
55.18905163550829
 20
-23.20995279367668
 30
0.0
  0
VERTEX
  5
6D
330
6B
100
AcDbEntity
  8
\U+30D5\U+30A9\U+30FC\U+30DE\U+30C3\U+30C8
370
     0
100
AcDbVertex
100
AcDb2dVertex
 10
55.18905163550829
 20
-23.83833821018625
 30
0.0
  0
VERTEX
  5
6E
330
6B
100
AcDbEntity
  8
\U+30D5\U+30A9\U+30FC\U+30DE\U+30C3\U+30C8
370
     0
100
AcDbVertex
100
AcDb2dVertex
 10
55.79228785497554
 20
-23.83833821018625
 30
0.0
  0
VERTEX
  5
6F
330
6B
100
AcDbEntity
  8
\U+30D5\U+30A9\U+30FC\U+30DE\U+30C3\U+30C8
370
     0
100
AcDbVertex
100
AcDb2dVertex
 10
55.79228785497554
 20
-23.20995279367668
 30
0.0
  0
VERTEX
  5
70
330
6B
100
AcDbEntity
  8
\U+30D5\U+30A9\U+30FC\U+30DE\U+30C3\U+30C8
370
     0
100
AcDbVertex
100
AcDb2dVertex
 10
55.18905163550829
 20
-23.20995279367668
 30
0.0
  0
SEQEND
  5
71
330
6B
100
AcDbEntity
  8
\U+30D5\U+30A9\U+30FC\U+30DE\U+30C3\U+30C8
370
     0
  0
POLYLINE
  5
72
330
5C
100
AcDbEntity
  8
\U+30D5\U+30A9\U+30FC\U+30DE\U+30C3\U+30C8
370
     0
100
AcDb2dPolyline
 66
     1
 10
0.0
 20
0.0
 30
0.0
  0
VERTEX
  5
73
330
72
100
AcDbEntity
  8
\U+30D5\U+30A9\U+30FC\U+30DE\U+30C3\U+30C8
370
     0
100
AcDbVertex
100
AcDb2dVertex
 10
56.73486597973989
 20
-22.65701496829408
 30
0.0
  0
VERTEX
  5
74
330
72
100
AcDbEntity
  8
\U+30D5\U+30A9\U+30FC\U+30DE\U+30C3\U+30C8
370
     0
100
AcDbVertex
100
AcDb2dVertex
 10
55.62881807420044
 20
-22.65701496829408
 30
0.0
  0
VERTEX
  5
75
330
72
100
AcDbEntity
  8
\U+30D5\U+30A9\U+30FC\U+30DE\U+30C3\U+30C8
370
     0
100
AcDbVertex
100
AcDb2dVertex
 10
55.62881807420044
 20
-22.74486490316795
 30
0.0
  0
VERTEX
  5
76
330
72
100
AcDbEntity
  8
\U+30D5\U+30A9\U+30FC\U+30DE\U+30C3\U+30C8
370
     0
100
AcDbVertex
100
AcDb2dVertex
 10
55.37749835855146
 20
-22.74486490316795
 30
0.0
  0
VERTEX
  5
77
330
72
100
AcDbEntity
  8
\U+30D5\U+30A9\U+30FC\U+30DE\U+30C3\U+30C8
370
     0
100
AcDbVertex
100
AcDb2dVertex
 10
55.37749835855146
 20
-21.57594400502268
 30
0.0
  0
VERTEX
  5
78
330
72
100
AcDbEntity
  8
\U+30D5\U+30A9\U+30FC\U+30DE\U+30C3\U+30C8
370
     0
100
AcDbVertex
100
AcDb2dVertex
 10
56.98618569538888
 20
-21.57594400502268
 30
0.0
  0
VERTEX
  5
79
330
72
100
AcDbEntity
  8
\U+30D5\U+30A9\U+30FC\U+30DE\U+30C3\U+30C8
370
     0
100
AcDbVertex
100
AcDb2dVertex
 10
56.98618569538888
 20
-22.71971570612563
 30
0.0
  0
VERTEX
  5
7A
330
72
100
AcDbEntity
  8
\U+30D5\U+30A9\U+30FC\U+30DE\U+30C3\U+30C8
370
     0
100
AcDbVertex
100
AcDb2dVertex
 10
56.73486597973989
 20
-22.71971570612563
 30
0.0
  0
VERTEX
  5
7B
330
72
100
AcDbEntity
  8
\U+30D5\U+30A9\U+30FC\U+30DE\U+30C3\U+30C8
370
     0
100
AcDbVertex
100
AcDb2dVertex
 10
56.73486597973989
 20
-22.65701496829408
 30
0.0
  0
SEQEND
  5
7C
330
72
100
AcDbEntity
  8
\U+30D5\U+30A9\U+30FC\U+30DE\U+30C3\U+30C8
370
     0
  0
POLYLINE
  5
7D
330
5C
100
AcDbEntity
  8
\U+30D5\U+30A9\U+30FC\U+30DE\U+30C3\U+30C8
370
     0
100
AcDb2dPolyline
 66
     1
 10
0.0
 20
0.0
 30
0.0
  0
VERTEX
  5
7E
330
7D
100
AcDbEntity
  8
\U+30D5\U+30A9\U+30FC\U+30DE\U+30C3\U+30C8
370
     0
100
AcDbVertex
100
AcDb2dVertex
 10
55.62881807420044
 20
-22.41826985116627
 30
0.0
  0
VERTEX
  5
7F
330
7D
100
AcDbEntity
  8
\U+30D5\U+30A9\U+30FC\U+30DE\U+30C3\U+30C8
370
     0
100
AcDbVertex
100
AcDb2dVertex
 10
56.73486597973989
 20
-22.41826985116627
 30
0.0
  0
VERTEX
  5
80
330
7D
100
AcDbEntity
  8
\U+30D5\U+30A9\U+30FC\U+30DE\U+30C3\U+30C8
370
     0
100
AcDbVertex
100
AcDb2dVertex
 10
56.73486597973989
 20
-21.81503363169902
 30
0.0
  0
VERTEX
  5
81
330
7D
100
AcDbEntity
  8
\U+30D5\U+30A9\U+30FC\U+30DE\U+30C3\U+30C8
370
     0
100
AcDbVertex
100
AcDb2dVertex
 10
55.62881807420044
 20
-21.81503363169902
 30
0.0
  0
VERTEX
  5
82
330
7D
100
AcDbEntity
  8
\U+30D5\U+30A9\U+30FC\U+30DE\U+30C3\U+30C8
370
     0
100
AcDbVertex
100
AcDb2dVertex
 10
55.62881807420044
 20
-22.41826985116627
 30
0.0
  0
SEQEND
  5
83
330
7D
100
AcDbEntity
  8
\U+30D5\U+30A9\U+30FC\U+30DE\U+30C3\U+30C8
370
     0
  0
POLYLINE
  5
84
330
5C
100
AcDbEntity
  8
\U+30D5\U+30A9\U+30FC\U+30DE\U+30C3\U+30C8
370
     0
100
AcDb2dPolyline
 66
     1
 10
0.0
 20
0.0
 30
0.0
  0
VERTEX
  5
85
330
84
100
AcDbEntity
  8
\U+30D5\U+30A9\U+30FC\U+30DE\U+30C3\U+30C8
370
     0
100
AcDbVertex
100
AcDb2dVertex
 10
57.22493081251669
 20
-24.07708332731406
 30
0.0
  0
VERTEX
  5
86
330
84
100
AcDbEntity
  8
\U+30D5\U+30A9\U+30FC\U+30DE\U+30C3\U+30C8
370
     0
100
AcDbVertex
100
AcDb2dVertex
 10
56.62169459304944
 20
-24.07708332731406
 30
0.0
  0
VERTEX
  5
87
330
84
100
AcDbEntity
  8
\U+30D5\U+30A9\U+30FC\U+30DE\U+30C3\U+30C8
370
     0
100
AcDbVertex
100
AcDb2dVertex
 10
56.62169459304944
 20
-24.30342610069498
 30
0.0
  0
VERTEX
  5
88
330
84
100
AcDbEntity
  8
\U+30D5\U+30A9\U+30FC\U+30DE\U+30C3\U+30C8
370
     0
100
AcDbVertex
100
AcDb2dVertex
 10
56.37037487740047
 20
-24.30342610069498
 30
0.0
  0
VERTEX
  5
89
330
84
100
AcDbEntity
  8
\U+30D5\U+30A9\U+30FC\U+30DE\U+30C3\U+30C8
370
     0
100
AcDbVertex
100
AcDb2dVertex
 10
56.37037487740047
 20
-22.97120767654886
 30
0.0
  0
VERTEX
  5
8A
330
84
100
AcDbEntity
  8
\U+30D5\U+30A9\U+30FC\U+30DE\U+30C3\U+30C8
370
     0
100
AcDbVertex
100
AcDb2dVertex
 10
57.47625052816566
 20
-22.97120767654886
 30
0.0
  0
VERTEX
  5
8B
330
84
100
AcDbEntity
  8
\U+30D5\U+30A9\U+30FC\U+30DE\U+30C3\U+30C8
370
     0
100
AcDbVertex
100
AcDb2dVertex
 10
57.47625052816566
 20
-24.26553005035723
 30
0.0
  0
VERTEX
  5
8C
330
84
100
AcDbEntity
  8
\U+30D5\U+30A9\U+30FC\U+30DE\U+30C3\U+30C8
370
     0
100
AcDbVertex
100
AcDb2dVertex
 10
57.22493081251669
 20
-24.26553005035723
 30
0.0
  0
VERTEX
  5
8D
330
84
100
AcDbEntity
  8
\U+30D5\U+30A9\U+30FC\U+30DE\U+30C3\U+30C8
370
     0
100
AcDbVertex
100
AcDb2dVertex
 10
57.22493081251669
 20
-24.07708332731406
 30
0.0
  0
SEQEND
  5
8E
330
84
100
AcDbEntity
  8
\U+30D5\U+30A9\U+30FC\U+30DE\U+30C3\U+30C8
370
     0
  0
POLYLINE
  5
8F
330
5C
100
AcDbEntity
  8
\U+30D5\U+30A9\U+30FC\U+30DE\U+30C3\U+30C8
370
     0
100
AcDb2dPolyline
 66
     1
 10
0.0
 20
0.0
 30
0.0
  0
VERTEX
  5
90
330
8F
100
AcDbEntity
  8
\U+30D5\U+30A9\U+30FC\U+30DE\U+30C3\U+30C8
370
     0
100
AcDbVertex
100
AcDb2dVertex
 10
56.62169459304944
 20
-23.20995279367668
 30
0.0
  0
VERTEX
  5
91
330
8F
100
AcDbEntity
  8
\U+30D5\U+30A9\U+30FC\U+30DE\U+30C3\U+30C8
370
     0
100
AcDbVertex
100
AcDb2dVertex
 10
56.62169459304944
 20
-23.83833821018625
 30
0.0
  0
VERTEX
  5
92
330
8F
100
AcDbEntity
  8
\U+30D5\U+30A9\U+30FC\U+30DE\U+30C3\U+30C8
370
     0
100
AcDbVertex
100
AcDb2dVertex
 10
57.22493081251669
 20
-23.83833821018625
 30
0.0
  0
VERTEX
  5
93
330
8F
100
AcDbEntity
  8
\U+30D5\U+30A9\U+30FC\U+30DE\U+30C3\U+30C8
370
     0
100
AcDbVertex
100
AcDb2dVertex
 10
57.22493081251669
 20
-23.20995279367668
 30
0.0
  0
VERTEX
  5
94
330
8F
100
AcDbEntity
  8
\U+30D5\U+30A9\U+30FC\U+30DE\U+30C3\U+30C8
370
     0
100
AcDbVertex
100
AcDb2dVertex
 10
56.62169459304944
 20
-23.20995279367668
 30
0.0
  0
SEQEND
  5
95
330
8F
100
AcDbEntity
  8
\U+30D5\U+30A9\U+30FC\U+30DE\U+30C3\U+30C8
370
     0
  0
HATCH
  5
96
330
5C
100
AcDbEntity
  8
\U+30D5\U+30A9\U+30FC\U+30DE\U+30C3\U+30C8
 62
     7
100
AcDbHatch
 10
0.0
 20
0.0
 30
0.0
210
0.0
220
0.0
230
1.0
  2
SOLID
 70
     1
 71
     0
 91
        6
 92
        1
 93
        8
 72
     1
 10
55.79228785497554
 20
-24.07708332731406
 11
55.18905163550829
 21
-24.07708332731406
 72
     1
 10
55.18905163550829
 20
-24.07708332731406
 11
55.18905163550829
 21
-24.30342610069498
 72
     1
 10
55.18905163550829
 20
-24.30342610069498
 11
54.93773191985932
 21
-24.30342610069498
 72
     1
 10
54.93773191985932
 20
-24.30342610069498
 11
54.93773191985932
 21
-22.97120767654886
 72
     1
 10
54.93773191985932
 20
-22.97120767654886
 11
56.04360757062452
 21
-22.97120767654886
 72
     1
 10
56.04360757062452
 20
-22.97120767654886
 11
56.04360757062452
 21
-24.26553005035723
 72
     1
 10
56.04360757062452
 20
-24.26553005035723
 11
55.79228785497554
 21
-24.26553005035723
 72
     1
 10
55.79228785497554
 20
-24.26553005035723
 11
55.79228785497554
 21
-24.07708332731406
 97
        0
 92
        1
 93
        4
 72
     1
 10
55.18905163550829
 20
-23.20995279367668
 11
55.18905163550829
 21
-23.83833821018625
 72
     1
 10
55.18905163550829
 20
-23.83833821018625
 11
55.79228785497554
 21
-23.83833821018625
 72
     1
 10
55.79228785497554
 20
-23.83833821018625
 11
55.79228785497554
 21
-23.20995279367668
 72
     1
 10
55.79228785497554
 20
-23.20995279367668
 11
55.18905163550829
 21
-23.20995279367668
 97
        0
 92
        1
 93
        8
 72
     1
 10
56.73486597973989
 20
-22.65701496829408
 11
55.62881807420044
 21
-22.65701496829408
 72
     1
 10
55.62881807420044
 20
-22.65701496829408
 11
55.62881807420044
 21
-22.74486490316795
 72
     1
 10
55.62881807420044
 20
-22.74486490316795
 11
55.37749835855146
 21
-22.74486490316795
 72
     1
 10
55.37749835855146
 20
-22.74486490316795
 11
55.37749835855146
 21
-21.57594400502268
 72
     1
 10
55.37749835855146
 20
-21.57594400502268
 11
56.98618569538888
 21
-21.57594400502268
 72
     1
 10
56.98618569538888
 20
-21.57594400502268
 11
56.98618569538888
 21
-22.71971570612563
 72
     1
 10
56.98618569538888
 20
-22.71971570612563
 11
56.73486597973989
 21
-22.71971570612563
 72
     1
 10
56.73486597973989
 20
-22.71971570612563
 11
56.73486597973989
 21
-22.65701496829408
 97
        0
 92
        1
 93
        4
 72
     1
 10
55.62881807420044
 20
-22.41826985116627
 11
56.73486597973989
 21
-22.41826985116627
 72
     1
 10
56.73486597973989
 20
-22.41826985116627
 11
56.73486597973989
 21
-21.81503363169902
 72
     1
 10
56.73486597973989
 20
-21.81503363169902
 11
55.62881807420044
 21
-21.81503363169902
 72
     1
 10
55.62881807420044
 20
-21.81503363169902
 11
55.62881807420044
 21
-22.41826985116627
 97
        0
 92
        1
 93
        8
 72
     1
 10
57.22493081251669
 20
-24.07708332731406
 11
56.62169459304944
 21
-24.07708332731406
 72
     1
 10
56.62169459304944
 20
-24.07708332731406
 11
56.62169459304944
 21
-24.30342610069498
 72
     1
 10
56.62169459304944
 20
-24.30342610069498
 11
56.37037487740047
 21
-24.30342610069498
 72
     1
 10
56.37037487740047
 20
-24.30342610069498
 11
56.37037487740047
 21
-22.97120767654886
 72
     1
 10
56.37037487740047
 20
-22.97120767654886
 11
57.47625052816566
 21
-22.97120767654886
 72
     1
 10
57.47625052816566
 20
-22.97120767654886
 11
57.47625052816566
 21
-24.26553005035723
 72
     1
 10
57.47625052816566
 20
-24.26553005035723
 11
57.22493081251669
 21
-24.26553005035723
 72
     1
 10
57.22493081251669
 20
-24.26553005035723
 11
57.22493081251669
 21
-24.07708332731406
 97
        0
 92
        1
 93
        4
 72
     1
 10
56.62169459304944
 20
-23.20995279367668
 11
56.62169459304944
 21
-23.83833821018625
 72
     1
 10
56.62169459304944
 20
-23.83833821018625
 11
57.22493081251669
 21
-23.83833821018625
 72
     1
 10
57.22493081251669
 20
-23.83833821018625
 11
57.22493081251669
 21
-23.20995279367668
 72
     1
 10
57.22493081251669
 20
-23.20995279367668
 11
56.62169459304944
 21
-23.20995279367668
 97
        0
 75
     2
 76
     1
 98
        0
  0
ENDBLK
  5
5F
330
5C
100
AcDbEntity
  8
0
100
AcDbBlockEnd
  0
BLOCK
  5
99
330
97
100
AcDbEntity
  8
0
100
AcDbBlockBegin
  2
block 7
 70
     0
 71
     0
 10
0.0
 20
0.0
 30
0.0
  3
block 7
  1

  0
INSERT
  5
9C
330
97
100
AcDbEntity
  8
\U+30D5\U+30A9\U+30FC\U+30DE\U+30C3\U+30C8
100
AcDbBlockReference
  2
block 8
 10
0.0
 20
0.0
 30
0.0
  0
ENDBLK
  5
9A
330
97
100
AcDbEntity
  8
0
100
AcDbBlockEnd
  0
BLOCK
  5
9D
330
9B
100
AcDbEntity
  8
0
100
AcDbBlockBegin
  2
block 8
 70
     0
 71
     0
 10
0.0
 20
0.0
 30
0.0
  3
block 8
  1

  0
INSERT
  5
A0
330
9B
100
AcDbEntity
  8
\U+30D5\U+30A9\U+30FC\U+30DE\U+30C3\U+30C8
100
AcDbBlockReference
  2
block 9
 10
0.0
 20
0.0
 30
0.0
  0
ENDBLK
  5
9E
330
9B
100
AcDbEntity
  8
0
100
AcDbBlockEnd
  0
BLOCK
  5
A1
330
9F
100
AcDbEntity
  8
0
100
AcDbBlockBegin
  2
block 9
 70
     0
 71
     0
 10
0.0
 20
0.0
 30
0.0
  3
block 9
  1

  0
INSERT
  5
A4
330
9F
100
AcDbEntity
  8
\U+30D5\U+30A9\U+30FC\U+30DE\U+30C3\U+30C8
100
AcDbBlockReference
  2
block 10
 10
0.0
 20
0.0
 30
0.0
  0
ENDBLK
  5
A2
330
9F
100
AcDbEntity
  8
0
100
AcDbBlockEnd
  0
BLOCK
  5
A5
330
A3
100
AcDbEntity
  8
0
100
AcDbBlockBegin
  2
block 10
 70
     0
 71
     0
 10
0.0
 20
0.0
 30
0.0
  3
block 10
  1

  0
SPLINE
  5
A7
330
A3
100
AcDbEntity
  8
\U+30D5\U+30A9\U+30FC\U+30DE\U+30C3\U+30C8
370
     0
100
AcDbSpline
210
0.0
220
0.0
230
1.0
 70
    11
 71
     3
 72
    77
 73
    73
 74
     0
 42
0.0000000001
 43
0.0000000001
 40
0.0
 40
0.0
 40
0.0
 40
0.0
 40
1.0
 40
1.0
 40
1.0
 40
2.0
 40
2.0
 40
2.0
 40
3.0
 40
3.0
 40
3.0
 40
4.0
 40
4.0
 40
4.0
 40
5.0
 40
5.0
 40
5.0
 40
6.0
 40
6.0
 40
6.0
 40
7.0
 40
7.0
 40
7.0
 40
8.0
 40
8.0
 40
8.0
 40
9.0
 40
9.0
 40
9.0
 40
10.0
 40
10.0
 40
10.0
 40
11.0
 40
11.0
 40
11.0
 40
12.0
 40
12.0
 40
12.0
 40
13.0
 40
13.0
 40
13.0
 40
14.0
 40
14.0
 40
14.0
 40
15.0
 40
15.0
 40
15.0
 40
16.0
 40
16.0
 40
16.0
 40
17.0
 40
17.0
 40
17.0
 40
18.0
 40
18.0
 40
18.0
 40
19.0
 40
19.0
 40
19.0
 40
20.0
 40
20.0
 40
20.0
 40
21.0
 40
21.0
 40
21.0
 40
22.0
 40
22.0
 40
22.0
 40
23.0
 40
23.0
 40
23.0
 40
24.0
 40
24.0
 40
24.0
 40
24.0
 10
57.10073512027343
 20
-30.28480088218575
 30
0.0
 10
56.81582572364327
 20
-30.69545626402753
 30
0.0
 10
56.48492430228502
 20
-31.04306639848923
 30
0.0
 10
56.10785860142443
 20
-31.3279757951194
 30
0.0
 10
56.10785860142443
 20
-31.3279757951194
 30
0.0
 10
57.27660724479544
 20
-31.3279757951194
 30
0.0
 10
57.27660724479544
 20
-31.3279757951194
 30
0.0
 10
57.27660724479544
 20
-31.3279757951194
 30
0.0
 10
57.27660724479544
 20
-32.63504502222318
 30
0.0
 10
57.27660724479544
 20
-32.63504502222318
 30
0.0
 10
57.27660724479544
 20
-32.63504502222318
 30
0.0
 10
57.02528752914646
 20
-32.63504502222318
 30
0.0
 10
57.02528752914646
 20
-32.63504502222318
 30
0.0
 10
57.02528752914646
 20
-32.63504502222318
 30
0.0
 10
57.02528752914646
 20
-32.52170138075846
 30
0.0
 10
57.02528752914646
 20
-32.52170138075846
 30
0.0
 10
57.02528752914646
 20
-32.52170138075846
 30
0.0
 10
55.88168808281777
 20
-32.52170138075846
 30
0.0
 10
55.88168808281777
 20
-32.52170138075846
 30
0.0
 10
55.88168808281777
 20
-32.52170138075846
 30
0.0
 10
55.88168808281777
 20
-32.67259656301241
 30
0.0
 10
55.88168808281777
 20
-32.67259656301241
 30
0.0
 10
55.88168808281777
 20
-32.67259656301241
 30
0.0
 10
55.6303683671688
 20
-32.67259656301241
 30
0.0
 10
55.6303683671688
 20
-32.67259656301241
 30
0.0
 10
55.6303683671688
 20
-32.67259656301241
 30
0.0
 10
55.6303683671688
 20
-31.65457084712108
 30
0.0
 10
55.6303683671688
 20
-31.65457084712108
 30
0.0
 10
55.37887639674556
 20
-31.79719780021042
 30
0.0
 10
55.14839950878235
 20
-31.90606281754432
 30
0.0
 10
54.93910995805342
 20
-31.98151040867129
 30
0.0
 10
54.93910995805342
 20
-31.98151040867129
 30
0.0
 10
54.83851316988412
 20
-31.69246689745883
 30
0.0
 10
54.83851316988412
 20
-31.69246689745883
 30
0.0
 10
55.23228758384818
 20
-31.58360188012493
 30
0.0
 10
55.61348739929107
 20
-31.38240830378635
 30
0.0
 10
55.98228487098707
 20
-31.08923067799158
 30
0.0
 10
55.9068372798601
 20
-31.00551485770001
 30
0.0
 10
55.76851669612732
 20
-30.89630533081759
 30
0.0
 10
55.56749537456299
 20
-30.76229111644137
 30
0.0
 10
55.39971922443132
 20
-30.92145452785991
 30
0.0
 10
55.21557887074472
 20
-31.05581325178466
 30
0.0
 10
55.01455754918039
 20
-31.16467826911855
 30
0.0
 10
55.01455754918039
 20
-31.16467826911855
 30
0.0
 10
54.85108776840529
 20
-30.96348469277996
 30
0.0
 10
54.85108776840529
 20
-30.96348469277996
 30
0.0
 10
55.31186928955745
 20
-30.72887369023445
 30
0.0
 10
55.6345024817511
 20
-30.35611435873042
 30
0.0
 10
55.81881509021196
 20
-29.84486218871934
 30
0.0
 10
55.81881509021196
 20
-29.84486218871934
 30
0.0
 10
56.09528400290326
 20
-29.90790743609941
 30
0.0
 10
56.09528400290326
 20
-29.90790743609941
 30
0.0
 10
56.12870142911019
 20
-29.94132486230634
 30
0.0
 10
56.11612683058902
 20
-29.96233994476636
 30
0.0
 10
56.05756020733978
 20
-29.97060817393096
 30
0.0
 10
56.05756020733978
 20
-29.97060817393096
 30
0.0
 10
56.00726181325513
 20
-30.08360730584716
 30
0.0
 10
56.00726181325513
 20
-30.08360730584716
 30
0.0
 10
56.00726181325513
 20
-30.08360730584716
 30
0.0
 10
56.84941540462445
 20
-30.08360730584716
 30
0.0
 10
56.84941540462445
 20
-30.08360730584716
 30
0.0
 10
56.84941540462445
 20
-30.08360730584716
 30
0.0
 10
56.87456460166678
 20
-30.03330891176251
 30
0.0
 10
56.87456460166678
 20
-30.03330891176251
 30
0.0
 10
56.87456460166678
 20
-30.03330891176251
 30
0.0
 10
57.13845891583691
 20
-30.2221001443542
 30
0.0
 10
57.13845891583691
 20
-30.2221001443542
 30
0.0
 10
57.17187634204384
 20
-30.25551757056112
 30
0.0
 10
57.15930174352268
 20
-30.27653265302115
 30
0.0
 10
57.10073512027343
 20
-30.28480088218575
 30
0.0
 10
57.10073512027343
 20
-30.28480088218575
 30
0.0
 10
57.10073512027343
 20
-30.28480088218575
 30
0.0
 10
57.10073512027343
 20
-30.28480088218575
 30
0.0
  0
SPLINE
  5
A8
330
A3
100
AcDbEntity
  8
\U+30D5\U+30A9\U+30FC\U+30DE\U+30C3\U+30C8
370
     0
100
AcDbSpline
210
0.0
220
0.0
230
1.0
 70
    11
 71
     3
 72
    20
 73
    16
 74
     0
 42
0.0000000001
 43
0.0000000001
 40
0.0
 40
0.0
 40
0.0
 40
0.0
 40
1.0
 40
1.0
 40
1.0
 40
2.0
 40
2.0
 40
2.0
 40
3.0
 40
3.0
 40
3.0
 40
4.0
 40
4.0
 40
4.0
 40
5.0
 40
5.0
 40
5.0
 40
5.0
 10
56.19588079107256
 20
-30.91318629869532
 30
0.0
 10
56.38002114475916
 20
-30.73714191939905
 30
0.0
 10
56.55606552405543
 20
-30.54042696719128
 30
0.0
 10
56.72366941941284
 20
-30.32235242297497
 30
0.0
 10
56.72366941941284
 20
-30.32235242297497
 30
0.0
 10
55.89426268133894
 20
-30.32235242297497
 30
0.0
 10
55.89426268133894
 20
-30.32235242297497
 30
0.0
 10
55.89426268133894
 20
-30.32235242297497
 30
0.0
 10
55.70564370352151
 20
-30.58624673714511
 30
0.0
 10
55.70564370352151
 20
-30.58624673714511
 30
0.0
 10
55.88995631198237
 20
-30.6868435253144
 30
0.0
 10
56.05325383798322
 20
-30.79605305219682
 30
0.0
 10
56.19588079107256
 20
-30.91318629869532
 30
0.0
 10
56.19588079107256
 20
-30.91318629869532
 30
0.0
 10
56.19588079107256
 20
-30.91318629869532
 30
0.0
 10
56.19588079107256
 20
-30.91318629869532
 30
0.0
  0
POLYLINE
  5
A9
330
A3
100
AcDbEntity
  8
\U+30D5\U+30A9\U+30FC\U+30DE\U+30C3\U+30C8
370
     0
100
AcDb2dPolyline
 66
     1
 10
0.0
 20
0.0
 30
0.0
  0
VERTEX
  5
AA
330
A9
100
AcDbEntity
  8
\U+30D5\U+30A9\U+30FC\U+30DE\U+30C3\U+30C8
370
     0
100
AcDbVertex
100
AcDb2dVertex
 10
57.02528752914646
 20
-31.56672091224721
 30
0.0
  0
VERTEX
  5
AB
330
A9
100
AcDbEntity
  8
\U+30D5\U+30A9\U+30FC\U+30DE\U+30C3\U+30C8
370
     0
100
AcDbVertex
100
AcDb2dVertex
 10
55.88168808281777
 20
-31.56672091224721
 30
0.0
  0
VERTEX
  5
AC
330
A9
100
AcDbEntity
  8
\U+30D5\U+30A9\U+30FC\U+30DE\U+30C3\U+30C8
370
     0
100
AcDbVertex
100
AcDb2dVertex
 10
55.88168808281777
 20
-32.28295626363065
 30
0.0
  0
VERTEX
  5
AD
330
A9
100
AcDbEntity
  8
\U+30D5\U+30A9\U+30FC\U+30DE\U+30C3\U+30C8
370
     0
100
AcDbVertex
100
AcDb2dVertex
 10
57.02528752914646
 20
-32.28295626363065
 30
0.0
  0
VERTEX
  5
AE
330
A9
100
AcDbEntity
  8
\U+30D5\U+30A9\U+30FC\U+30DE\U+30C3\U+30C8
370
     0
100
AcDbVertex
100
AcDb2dVertex
 10
57.02528752914646
 20
-31.56672091224721
 30
0.0
  0
SEQEND
  5
AF
330
A9
100
AcDbEntity
  8
\U+30D5\U+30A9\U+30FC\U+30DE\U+30C3\U+30C8
370
     0
  0
HATCH
  5
B0
330
A3
100
AcDbEntity
  8
\U+30D5\U+30A9\U+30FC\U+30DE\U+30C3\U+30C8
 62
     7
100
AcDbHatch
 10
0.0
 20
0.0
 30
0.0
210
0.0
220
0.0
230
1.0
  2
SOLID
 70
     1
 71
     0
 91
        3
 92
        1
 93
        1
 72
     4
 94
        3
 73
     0
 74
     1
 95
       77
 96
       73
 40
0.0
 40
0.0
 40
0.0
 40
0.0
 40
1.0
 40
1.0
 40
1.0
 40
2.0
 40
2.0
 40
2.0
 40
3.0
 40
3.0
 40
3.0
 40
4.0
 40
4.0
 40
4.0
 40
5.0
 40
5.0
 40
5.0
 40
6.0
 40
6.0
 40
6.0
 40
7.0
 40
7.0
 40
7.0
 40
8.0
 40
8.0
 40
8.0
 40
9.0
 40
9.0
 40
9.0
 40
10.0
 40
10.0
 40
10.0
 40
11.0
 40
11.0
 40
11.0
 40
12.0
 40
12.0
 40
12.0
 40
13.0
 40
13.0
 40
13.0
 40
14.0
 40
14.0
 40
14.0
 40
15.0
 40
15.0
 40
15.0
 40
16.0
 40
16.0
 40
16.0
 40
17.0
 40
17.0
 40
17.0
 40
18.0
 40
18.0
 40
18.0
 40
19.0
 40
19.0
 40
19.0
 40
20.0
 40
20.0
 40
20.0
 40
21.0
 40
21.0
 40
21.0
 40
22.0
 40
22.0
 40
22.0
 40
23.0
 40
23.0
 40
23.0
 40
24.0
 40
24.0
 40
24.0
 40
24.0
 10
57.10073512027343
 20
-30.28480088218575
 10
56.81582572364327
 20
-30.69545626402753
 10
56.48492430228502
 20
-31.04306639848923
 10
56.10785860142443
 20
-31.3279757951194
 10
56.10785860142443
 20
-31.3279757951194
 10
57.27660724479544
 20
-31.3279757951194
 10
57.27660724479544
 20
-31.3279757951194
 10
57.27660724479544
 20
-31.3279757951194
 10
57.27660724479544
 20
-32.63504502222318
 10
57.27660724479544
 20
-32.63504502222318
 10
57.27660724479544
 20
-32.63504502222318
 10
57.02528752914646
 20
-32.63504502222318
 10
57.02528752914646
 20
-32.63504502222318
 10
57.02528752914646
 20
-32.63504502222318
 10
57.02528752914646
 20
-32.52170138075846
 10
57.02528752914646
 20
-32.52170138075846
 10
57.02528752914646
 20
-32.52170138075846
 10
55.88168808281777
 20
-32.52170138075846
 10
55.88168808281777
 20
-32.52170138075846
 10
55.88168808281777
 20
-32.52170138075846
 10
55.88168808281777
 20
-32.67259656301241
 10
55.88168808281777
 20
-32.67259656301241
 10
55.88168808281777
 20
-32.67259656301241
 10
55.6303683671688
 20
-32.67259656301241
 10
55.6303683671688
 20
-32.67259656301241
 10
55.6303683671688
 20
-32.67259656301241
 10
55.6303683671688
 20
-31.65457084712108
 10
55.6303683671688
 20
-31.65457084712108
 10
55.37887639674556
 20
-31.79719780021042
 10
55.14839950878235
 20
-31.90606281754432
 10
54.93910995805342
 20
-31.98151040867129
 10
54.93910995805342
 20
-31.98151040867129
 10
54.83851316988412
 20
-31.69246689745883
 10
54.83851316988412
 20
-31.69246689745883
 10
55.23228758384818
 20
-31.58360188012493
 10
55.61348739929107
 20
-31.38240830378635
 10
55.98228487098707
 20
-31.08923067799158
 10
55.9068372798601
 20
-31.00551485770001
 10
55.76851669612732
 20
-30.89630533081759
 10
55.56749537456299
 20
-30.76229111644137
 10
55.39971922443132
 20
-30.92145452785991
 10
55.21557887074472
 20
-31.05581325178466
 10
55.01455754918039
 20
-31.16467826911855
 10
55.01455754918039
 20
-31.16467826911855
 10
54.85108776840529
 20
-30.96348469277996
 10
54.85108776840529
 20
-30.96348469277996
 10
55.31186928955745
 20
-30.72887369023445
 10
55.6345024817511
 20
-30.35611435873042
 10
55.81881509021196
 20
-29.84486218871934
 10
55.81881509021196
 20
-29.84486218871934
 10
56.09528400290326
 20
-29.90790743609941
 10
56.09528400290326
 20
-29.90790743609941
 10
56.12870142911019
 20
-29.94132486230634
 10
56.11612683058902
 20
-29.96233994476636
 10
56.05756020733978
 20
-29.97060817393096
 10
56.05756020733978
 20
-29.97060817393096
 10
56.00726181325513
 20
-30.08360730584716
 10
56.00726181325513
 20
-30.08360730584716
 10
56.00726181325513
 20
-30.08360730584716
 10
56.84941540462445
 20
-30.08360730584716
 10
56.84941540462445
 20
-30.08360730584716
 10
56.84941540462445
 20
-30.08360730584716
 10
56.87456460166678
 20
-30.03330891176251
 10
56.87456460166678
 20
-30.03330891176251
 10
56.87456460166678
 20
-30.03330891176251
 10
57.13845891583691
 20
-30.2221001443542
 10
57.13845891583691
 20
-30.2221001443542
 10
57.17187634204384
 20
-30.25551757056112
 10
57.15930174352268
 20
-30.27653265302115
 10
57.10073512027343
 20
-30.28480088218575
 10
57.10073512027343
 20
-30.28480088218575
 10
57.10073512027343
 20
-30.28480088218575
 10
57.10073512027343
 20
-30.28480088218575
 97
        0
 92
        1
 93
        1
 72
     4
 94
        3
 73
     0
 74
     1
 95
       20
 96
       16
 40
0.0
 40
0.0
 40
0.0
 40
0.0
 40
1.0
 40
1.0
 40
1.0
 40
2.0
 40
2.0
 40
2.0
 40
3.0
 40
3.0
 40
3.0
 40
4.0
 40
4.0
 40
4.0
 40
5.0
 40
5.0
 40
5.0
 40
5.0
 10
56.19588079107256
 20
-30.91318629869532
 10
56.38002114475916
 20
-30.73714191939905
 10
56.55606552405543
 20
-30.54042696719128
 10
56.72366941941284
 20
-30.32235242297497
 10
56.72366941941284
 20
-30.32235242297497
 10
55.89426268133894
 20
-30.32235242297497
 10
55.89426268133894
 20
-30.32235242297497
 10
55.89426268133894
 20
-30.32235242297497
 10
55.70564370352151
 20
-30.58624673714511
 10
55.70564370352151
 20
-30.58624673714511
 10
55.88995631198237
 20
-30.6868435253144
 10
56.05325383798322
 20
-30.79605305219682
 10
56.19588079107256
 20
-30.91318629869532
 10
56.19588079107256
 20
-30.91318629869532
 10
56.19588079107256
 20
-30.91318629869532
 10
56.19588079107256
 20
-30.91318629869532
 97
        0
 92
        1
 93
        4
 72
     1
 10
57.02528752914646
 20
-31.56672091224721
 11
55.88168808281777
 21
-31.56672091224721
 72
     1
 10
55.88168808281777
 20
-31.56672091224721
 11
55.88168808281777
 21
-32.28295626363065
 72
     1
 10
55.88168808281777
 20
-32.28295626363065
 11
57.02528752914646
 21
-32.28295626363065
 72
     1
 10
57.02528752914646
 20
-32.28295626363065
 11
57.02528752914646
 21
-31.56672091224721
 97
        0
 75
     2
 76
     1
 98
        0
  0
ENDBLK
  5
A6
330
A3
100
AcDbEntity
  8
0
100
AcDbBlockEnd
  0
BLOCK
  5
B3
330
B1
100
AcDbEntity
  8
0
100
AcDbBlockBegin
  2
block 11
 70
     0
 71
     0
 10
0.0
 20
0.0
 30
0.0
  3
block 11
  1

  0
INSERT
  5
B6
330
B1
100
AcDbEntity
  8
\U+30D5\U+30A9\U+30FC\U+30DE\U+30C3\U+30C8
100
AcDbBlockReference
  2
block 12
 10
0.0
 20
0.0
 30
0.0
  0
ENDBLK
  5
B4
330
B1
100
AcDbEntity
  8
0
100
AcDbBlockEnd
  0
BLOCK
  5
B7
330
B5
100
AcDbEntity
  8
0
100
AcDbBlockBegin
  2
block 12
 70
     0
 71
     0
 10
0.0
 20
0.0
 30
0.0
  3
block 12
  1

  0
INSERT
  5
BA
330
B5
100
AcDbEntity
  8
\U+30D5\U+30A9\U+30FC\U+30DE\U+30C3\U+30C8
100
AcDbBlockReference
  2
block 13
 10
0.0
 20
0.0
 30
0.0
  0
ENDBLK
  5
B8
330
B5
100
AcDbEntity
  8
0
100
AcDbBlockEnd
  0
BLOCK
  5
BB
330
B9
100
AcDbEntity
  8
0
100
AcDbBlockBegin
  2
block 13
 70
     0
 71
     0
 10
0.0
 20
0.0
 30
0.0
  3
block 13
  1

  0
INSERT
  5
BE
330
B9
100
AcDbEntity
  8
\U+30D5\U+30A9\U+30FC\U+30DE\U+30C3\U+30C8
100
AcDbBlockReference
  2
block 14
 10
0.0
 20
0.0
 30
0.0
  0
ENDBLK
  5
BC
330
B9
100
AcDbEntity
  8
0
100
AcDbBlockEnd
  0
BLOCK
  5
BF
330
BD
100
AcDbEntity
  8
0
100
AcDbBlockBegin
  2
block 14
 70
     0
 71
     0
 10
0.0
 20
0.0
 30
0.0
  3
block 14
  1

  0
POLYLINE
  5
C1
330
BD
100
AcDbEntity
  8
\U+30D5\U+30A9\U+30FC\U+30DE\U+30C3\U+30C8
370
     0
100
AcDb2dPolyline
 66
     1
 10
0.0
 20
0.0
 30
0.0
  0
VERTEX
  5
C2
330
C1
100
AcDbEntity
  8
\U+30D5\U+30A9\U+30FC\U+30DE\U+30C3\U+30C8
370
     0
100
AcDbVertex
100
AcDb2dVertex
 10
55.79366589316964
 20
-12.41474609064631
 30
0.0
  0
VERTEX
  5
C3
330
C1
100
AcDbEntity
  8
\U+30D5\U+30A9\U+30FC\U+30DE\U+30C3\U+30C8
370
     0
100
AcDbVertex
100
AcDb2dVertex
 10
55.1904296737024
 20
-12.41474609064631
 30
0.0
  0
VERTEX
  5
C4
330
C1
100
AcDbEntity
  8
\U+30D5\U+30A9\U+30FC\U+30DE\U+30C3\U+30C8
370
     0
100
AcDbVertex
100
AcDb2dVertex
 10
55.1904296737024
 20
-12.64108886402723
 30
0.0
  0
VERTEX
  5
C5
330
C1
100
AcDbEntity
  8
\U+30D5\U+30A9\U+30FC\U+30DE\U+30C3\U+30C8
370
     0
100
AcDbVertex
100
AcDb2dVertex
 10
54.93910995805342
 20
-12.64108886402723
 30
0.0
  0
VERTEX
  5
C6
330
C1
100
AcDbEntity
  8
\U+30D5\U+30A9\U+30FC\U+30DE\U+30C3\U+30C8
370
     0
100
AcDbVertex
100
AcDb2dVertex
 10
54.93910995805342
 20
-11.30887043988112
 30
0.0
  0
VERTEX
  5
C7
330
C1
100
AcDbEntity
  8
\U+30D5\U+30A9\U+30FC\U+30DE\U+30C3\U+30C8
370
     0
100
AcDbVertex
100
AcDb2dVertex
 10
56.04498560881861
 20
-11.30887043988112
 30
0.0
  0
VERTEX
  5
C8
330
C1
100
AcDbEntity
  8
\U+30D5\U+30A9\U+30FC\U+30DE\U+30C3\U+30C8
370
     0
100
AcDbVertex
100
AcDb2dVertex
 10
56.04498560881861
 20
-12.60319281368948
 30
0.0
  0
VERTEX
  5
C9
330
C1
100
AcDbEntity
  8
\U+30D5\U+30A9\U+30FC\U+30DE\U+30C3\U+30C8
370
     0
100
AcDbVertex
100
AcDb2dVertex
 10
55.79366589316964
 20
-12.60319281368948
 30
0.0
  0
VERTEX
  5
CA
330
C1
100
AcDbEntity
  8
\U+30D5\U+30A9\U+30FC\U+30DE\U+30C3\U+30C8
370
     0
100
AcDbVertex
100
AcDb2dVertex
 10
55.79366589316964
 20
-12.41474609064631
 30
0.0
  0
SEQEND
  5
CB
330
C1
100
AcDbEntity
  8
\U+30D5\U+30A9\U+30FC\U+30DE\U+30C3\U+30C8
370
     0
  0
POLYLINE
  5
CC
330
BD
100
AcDbEntity
  8
\U+30D5\U+30A9\U+30FC\U+30DE\U+30C3\U+30C8
370
     0
100
AcDb2dPolyline
 66
     1
 10
0.0
 20
0.0
 30
0.0
  0
VERTEX
  5
CD
330
CC
100
AcDbEntity
  8
\U+30D5\U+30A9\U+30FC\U+30DE\U+30C3\U+30C8
370
     0
100
AcDbVertex
100
AcDb2dVertex
 10
55.1904296737024
 20
-11.54761555700893
 30
0.0
  0
VERTEX
  5
CE
330
CC
100
AcDbEntity
  8
\U+30D5\U+30A9\U+30FC\U+30DE\U+30C3\U+30C8
370
     0
100
AcDbVertex
100
AcDb2dVertex
 10
55.1904296737024
 20
-12.1760009735185
 30
0.0
  0
VERTEX
  5
CF
330
CC
100
AcDbEntity
  8
\U+30D5\U+30A9\U+30FC\U+30DE\U+30C3\U+30C8
370
     0
100
AcDbVertex
100
AcDb2dVertex
 10
55.79366589316964
 20
-12.1760009735185
 30
0.0
  0
VERTEX
  5
D0
330
CC
100
AcDbEntity
  8
\U+30D5\U+30A9\U+30FC\U+30DE\U+30C3\U+30C8
370
     0
100
AcDbVertex
100
AcDb2dVertex
 10
55.79366589316964
 20
-11.54761555700893
 30
0.0
  0
VERTEX
  5
D1
330
CC
100
AcDbEntity
  8
\U+30D5\U+30A9\U+30FC\U+30DE\U+30C3\U+30C8
370
     0
100
AcDbVertex
100
AcDb2dVertex
 10
55.1904296737024
 20
-11.54761555700893
 30
0.0
  0
SEQEND
  5
D2
330
CC
100
AcDbEntity
  8
\U+30D5\U+30A9\U+30FC\U+30DE\U+30C3\U+30C8
370
     0
  0
POLYLINE
  5
D3
330
BD
100
AcDbEntity
  8
\U+30D5\U+30A9\U+30FC\U+30DE\U+30C3\U+30C8
370
     0
100
AcDb2dPolyline
 66
     1
 10
0.0
 20
0.0
 30
0.0
  0
VERTEX
  5
D4
330
D3
100
AcDbEntity
  8
\U+30D5\U+30A9\U+30FC\U+30DE\U+30C3\U+30C8
370
     0
100
AcDbVertex
100
AcDb2dVertex
 10
56.736244017934
 20
-10.99467773162633
 30
0.0
  0
VERTEX
  5
D5
330
D3
100
AcDbEntity
  8
\U+30D5\U+30A9\U+30FC\U+30DE\U+30C3\U+30C8
370
     0
100
AcDbVertex
100
AcDb2dVertex
 10
55.6303683671688
 20
-10.99467773162633
 30
0.0
  0
VERTEX
  5
D6
330
D3
100
AcDbEntity
  8
\U+30D5\U+30A9\U+30FC\U+30DE\U+30C3\U+30C8
370
     0
100
AcDbVertex
100
AcDb2dVertex
 10
55.6303683671688
 20
-11.0825276665002
 30
0.0
  0
VERTEX
  5
D7
330
D3
100
AcDbEntity
  8
\U+30D5\U+30A9\U+30FC\U+30DE\U+30C3\U+30C8
370
     0
100
AcDbVertex
100
AcDb2dVertex
 10
55.37887639674556
 20
-11.0825276665002
 30
0.0
  0
VERTEX
  5
D8
330
D3
100
AcDbEntity
  8
\U+30D5\U+30A9\U+30FC\U+30DE\U+30C3\U+30C8
370
     0
100
AcDbVertex
100
AcDb2dVertex
 10
55.37887639674556
 20
-9.913606768354931
 30
0.0
  0
VERTEX
  5
D9
330
D3
100
AcDbEntity
  8
\U+30D5\U+30A9\U+30FC\U+30DE\U+30C3\U+30C8
370
     0
100
AcDbVertex
100
AcDb2dVertex
 10
56.98756373358297
 20
-9.913606768354931
 30
0.0
  0
VERTEX
  5
DA
330
D3
100
AcDbEntity
  8
\U+30D5\U+30A9\U+30FC\U+30DE\U+30C3\U+30C8
370
     0
100
AcDbVertex
100
AcDb2dVertex
 10
56.98756373358297
 20
-11.05737846945788
 30
0.0
  0
VERTEX
  5
DB
330
D3
100
AcDbEntity
  8
\U+30D5\U+30A9\U+30FC\U+30DE\U+30C3\U+30C8
370
     0
100
AcDbVertex
100
AcDb2dVertex
 10
56.736244017934
 20
-11.05737846945788
 30
0.0
  0
VERTEX
  5
DC
330
D3
100
AcDbEntity
  8
\U+30D5\U+30A9\U+30FC\U+30DE\U+30C3\U+30C8
370
     0
100
AcDbVertex
100
AcDb2dVertex
 10
56.736244017934
 20
-10.99467773162633
 30
0.0
  0
SEQEND
  5
DD
330
D3
100
AcDbEntity
  8
\U+30D5\U+30A9\U+30FC\U+30DE\U+30C3\U+30C8
370
     0
  0
POLYLINE
  5
DE
330
BD
100
AcDbEntity
  8
\U+30D5\U+30A9\U+30FC\U+30DE\U+30C3\U+30C8
370
     0
100
AcDb2dPolyline
 66
     1
 10
0.0
 20
0.0
 30
0.0
  0
VERTEX
  5
DF
330
DE
100
AcDbEntity
  8
\U+30D5\U+30A9\U+30FC\U+30DE\U+30C3\U+30C8
370
     0
100
AcDbVertex
100
AcDb2dVertex
 10
55.6303683671688
 20
-10.75593261449852
 30
0.0
  0
VERTEX
  5
E0
330
DE
100
AcDbEntity
  8
\U+30D5\U+30A9\U+30FC\U+30DE\U+30C3\U+30C8
370
     0
100
AcDbVertex
100
AcDb2dVertex
 10
56.736244017934
 20
-10.75593261449852
 30
0.0
  0
VERTEX
  5
E1
330
DE
100
AcDbEntity
  8
\U+30D5\U+30A9\U+30FC\U+30DE\U+30C3\U+30C8
370
     0
100
AcDbVertex
100
AcDb2dVertex
 10
56.736244017934
 20
-10.15269639503127
 30
0.0
  0
VERTEX
  5
E2
330
DE
100
AcDbEntity
  8
\U+30D5\U+30A9\U+30FC\U+30DE\U+30C3\U+30C8
370
     0
100
AcDbVertex
100
AcDb2dVertex
 10
55.6303683671688
 20
-10.15269639503127
 30
0.0
  0
VERTEX
  5
E3
330
DE
100
AcDbEntity
  8
\U+30D5\U+30A9\U+30FC\U+30DE\U+30C3\U+30C8
370
     0
100
AcDbVertex
100
AcDb2dVertex
 10
55.6303683671688
 20
-10.75593261449852
 30
0.0
  0
SEQEND
  5
E4
330
DE
100
AcDbEntity
  8
\U+30D5\U+30A9\U+30FC\U+30DE\U+30C3\U+30C8
370
     0
  0
POLYLINE
  5
E5
330
BD
100
AcDbEntity
  8
\U+30D5\U+30A9\U+30FC\U+30DE\U+30C3\U+30C8
370
     0
100
AcDb2dPolyline
 66
     1
 10
0.0
 20
0.0
 30
0.0
  0
VERTEX
  5
E6
330
E5
100
AcDbEntity
  8
\U+30D5\U+30A9\U+30FC\U+30DE\U+30C3\U+30C8
370
     0
100
AcDbVertex
100
AcDb2dVertex
 10
57.22648110548505
 20
-12.41474609064631
 30
0.0
  0
VERTEX
  5
E7
330
E5
100
AcDbEntity
  8
\U+30D5\U+30A9\U+30FC\U+30DE\U+30C3\U+30C8
370
     0
100
AcDbVertex
100
AcDb2dVertex
 10
56.6232448860178
 20
-12.41474609064631
 30
0.0
  0
VERTEX
  5
E8
330
E5
100
AcDbEntity
  8
\U+30D5\U+30A9\U+30FC\U+30DE\U+30C3\U+30C8
370
     0
100
AcDbVertex
100
AcDb2dVertex
 10
56.6232448860178
 20
-12.64108886402723
 30
0.0
  0
VERTEX
  5
E9
330
E5
100
AcDbEntity
  8
\U+30D5\U+30A9\U+30FC\U+30DE\U+30C3\U+30C8
370
     0
100
AcDbVertex
100
AcDb2dVertex
 10
56.37175291559456
 20
-12.64108886402723
 30
0.0
  0
VERTEX
  5
EA
330
E5
100
AcDbEntity
  8
\U+30D5\U+30A9\U+30FC\U+30DE\U+30C3\U+30C8
370
     0
100
AcDbVertex
100
AcDb2dVertex
 10
56.37175291559456
 20
-11.30887043988112
 30
0.0
  0
VERTEX
  5
EB
330
E5
100
AcDbEntity
  8
\U+30D5\U+30A9\U+30FC\U+30DE\U+30C3\U+30C8
370
     0
100
AcDbVertex
100
AcDb2dVertex
 10
57.47780082113402
 20
-11.30887043988112
 30
0.0
  0
VERTEX
  5
EC
330
E5
100
AcDbEntity
  8
\U+30D5\U+30A9\U+30FC\U+30DE\U+30C3\U+30C8
370
     0
100
AcDbVertex
100
AcDb2dVertex
 10
57.47780082113402
 20
-12.60319281368948
 30
0.0
  0
VERTEX
  5
ED
330
E5
100
AcDbEntity
  8
\U+30D5\U+30A9\U+30FC\U+30DE\U+30C3\U+30C8
370
     0
100
AcDbVertex
100
AcDb2dVertex
 10
57.22648110548505
 20
-12.60319281368948
 30
0.0
  0
VERTEX
  5
EE
330
E5
100
AcDbEntity
  8
\U+30D5\U+30A9\U+30FC\U+30DE\U+30C3\U+30C8
370
     0
100
AcDbVertex
100
AcDb2dVertex
 10
57.22648110548505
 20
-12.41474609064631
 30
0.0
  0
SEQEND
  5
EF
330
E5
100
AcDbEntity
  8
\U+30D5\U+30A9\U+30FC\U+30DE\U+30C3\U+30C8
370
     0
  0
POLYLINE
  5
F0
330
BD
100
AcDbEntity
  8
\U+30D5\U+30A9\U+30FC\U+30DE\U+30C3\U+30C8
370
     0
100
AcDb2dPolyline
 66
     1
 10
0.0
 20
0.0
 30
0.0
  0
VERTEX
  5
F1
330
F0
100
AcDbEntity
  8
\U+30D5\U+30A9\U+30FC\U+30DE\U+30C3\U+30C8
370
     0
100
AcDbVertex
100
AcDb2dVertex
 10
56.6232448860178
 20
-11.54761555700893
 30
0.0
  0
VERTEX
  5
F2
330
F0
100
AcDbEntity
  8
\U+30D5\U+30A9\U+30FC\U+30DE\U+30C3\U+30C8
370
     0
100
AcDbVertex
100
AcDb2dVertex
 10
56.6232448860178
 20
-12.1760009735185
 30
0.0
  0
VERTEX
  5
F3
330
F0
100
AcDbEntity
  8
\U+30D5\U+30A9\U+30FC\U+30DE\U+30C3\U+30C8
370
     0
100
AcDbVertex
100
AcDb2dVertex
 10
57.22648110548505
 20
-12.1760009735185
 30
0.0
  0
VERTEX
  5
F4
330
F0
100
AcDbEntity
  8
\U+30D5\U+30A9\U+30FC\U+30DE\U+30C3\U+30C8
370
     0
100
AcDbVertex
100
AcDb2dVertex
 10
57.22648110548505
 20
-11.54761555700893
 30
0.0
  0
VERTEX
  5
F5
330
F0
100
AcDbEntity
  8
\U+30D5\U+30A9\U+30FC\U+30DE\U+30C3\U+30C8
370
     0
100
AcDbVertex
100
AcDb2dVertex
 10
56.6232448860178
 20
-11.54761555700893
 30
0.0
  0
SEQEND
  5
F6
330
F0
100
AcDbEntity
  8
\U+30D5\U+30A9\U+30FC\U+30DE\U+30C3\U+30C8
370
     0
  0
HATCH
  5
F7
330
BD
100
AcDbEntity
  8
\U+30D5\U+30A9\U+30FC\U+30DE\U+30C3\U+30C8
 62
     7
100
AcDbHatch
 10
0.0
 20
0.0
 30
0.0
210
0.0
220
0.0
230
1.0
  2
SOLID
 70
     1
 71
     0
 91
        6
 92
        1
 93
        8
 72
     1
 10
55.79366589316964
 20
-12.41474609064631
 11
55.1904296737024
 21
-12.41474609064631
 72
     1
 10
55.1904296737024
 20
-12.41474609064631
 11
55.1904296737024
 21
-12.64108886402723
 72
     1
 10
55.1904296737024
 20
-12.64108886402723
 11
54.93910995805342
 21
-12.64108886402723
 72
     1
 10
54.93910995805342
 20
-12.64108886402723
 11
54.93910995805342
 21
-11.30887043988112
 72
     1
 10
54.93910995805342
 20
-11.30887043988112
 11
56.04498560881861
 21
-11.30887043988112
 72
     1
 10
56.04498560881861
 20
-11.30887043988112
 11
56.04498560881861
 21
-12.60319281368948
 72
     1
 10
56.04498560881861
 20
-12.60319281368948
 11
55.79366589316964
 21
-12.60319281368948
 72
     1
 10
55.79366589316964
 20
-12.60319281368948
 11
55.79366589316964
 21
-12.41474609064631
 97
        0
 92
        1
 93
        4
 72
     1
 10
55.1904296737024
 20
-11.54761555700893
 11
55.1904296737024
 21
-12.1760009735185
 72
     1
 10
55.1904296737024
 20
-12.1760009735185
 11
55.79366589316964
 21
-12.1760009735185
 72
     1
 10
55.79366589316964
 20
-12.1760009735185
 11
55.79366589316964
 21
-11.54761555700893
 72
     1
 10
55.79366589316964
 20
-11.54761555700893
 11
55.1904296737024
 21
-11.54761555700893
 97
        0
 92
        1
 93
        8
 72
     1
 10
56.736244017934
 20
-10.99467773162633
 11
55.6303683671688
 21
-10.99467773162633
 72
     1
 10
55.6303683671688
 20
-10.99467773162633
 11
55.6303683671688
 21
-11.0825276665002
 72
     1
 10
55.6303683671688
 20
-11.0825276665002
 11
55.37887639674556
 21
-11.0825276665002
 72
     1
 10
55.37887639674556
 20
-11.0825276665002
 11
55.37887639674556
 21
-9.913606768354931
 72
     1
 10
55.37887639674556
 20
-9.913606768354931
 11
56.98756373358297
 21
-9.913606768354931
 72
     1
 10
56.98756373358297
 20
-9.913606768354931
 11
56.98756373358297
 21
-11.05737846945788
 72
     1
 10
56.98756373358297
 20
-11.05737846945788
 11
56.736244017934
 21
-11.05737846945788
 72
     1
 10
56.736244017934
 20
-11.05737846945788
 11
56.736244017934
 21
-10.99467773162633
 97
        0
 92
        1
 93
        4
 72
     1
 10
55.6303683671688
 20
-10.75593261449852
 11
56.736244017934
 21
-10.75593261449852
 72
     1
 10
56.736244017934
 20
-10.75593261449852
 11
56.736244017934
 21
-10.15269639503127
 72
     1
 10
56.736244017934
 20
-10.15269639503127
 11
55.6303683671688
 21
-10.15269639503127
 72
     1
 10
55.6303683671688
 20
-10.15269639503127
 11
55.6303683671688
 21
-10.75593261449852
 97
        0
 92
        1
 93
        8
 72
     1
 10
57.22648110548505
 20
-12.41474609064631
 11
56.6232448860178
 21
-12.41474609064631
 72
     1
 10
56.6232448860178
 20
-12.41474609064631
 11
56.6232448860178
 21
-12.64108886402723
 72
     1
 10
56.6232448860178
 20
-12.64108886402723
 11
56.37175291559456
 21
-12.64108886402723
 72
     1
 10
56.37175291559456
 20
-12.64108886402723
 11
56.37175291559456
 21
-11.30887043988112
 72
     1
 10
56.37175291559456
 20
-11.30887043988112
 11
57.47780082113402
 21
-11.30887043988112
 72
     1
 10
57.47780082113402
 20
-11.30887043988112
 11
57.47780082113402
 21
-12.60319281368948
 72
     1
 10
57.47780082113402
 20
-12.60319281368948
 11
57.22648110548505
 21
-12.60319281368948
 72
     1
 10
57.22648110548505
 20
-12.60319281368948
 11
57.22648110548505
 21
-12.41474609064631
 97
        0
 92
        1
 93
        4
 72
     1
 10
56.6232448860178
 20
-11.54761555700893
 11
56.6232448860178
 21
-12.1760009735185
 72
     1
 10
56.6232448860178
 20
-12.1760009735185
 11
57.22648110548505
 21
-12.1760009735185
 72
     1
 10
57.22648110548505
 20
-12.1760009735185
 11
57.22648110548505
 21
-11.54761555700893
 72
     1
 10
57.22648110548505
 20
-11.54761555700893
 11
56.6232448860178
 21
-11.54761555700893
 97
        0
 75
     2
 76
     1
 98
        0
  0
ENDBLK
  5
C0
330
BD
100
AcDbEntity
  8
0
100
AcDbBlockEnd
  0
BLOCK
  5
FA
330
F8
100
AcDbEntity
  8
0
100
AcDbBlockBegin
  2
block 15
 70
     0
 71
     0
 10
0.0
 20
0.0
 30
0.0
  3
block 15
  1

  0
INSERT
  5
FD
330
F8
100
AcDbEntity
  8
\U+30D5\U+30A9\U+30FC\U+30DE\U+30C3\U+30C8
100
AcDbBlockReference
  2
block 16
 10
0.0
 20
0.0
 30
0.0
  0
ENDBLK
  5
FB
330
F8
100
AcDbEntity
  8
0
100
AcDbBlockEnd
  0
BLOCK
  5
FE
330
FC
100
AcDbEntity
  8
0
100
AcDbBlockBegin
  2
block 16
 70
     0
 71
     0
 10
0.0
 20
0.0
 30
0.0
  3
block 16
  1

  0
INSERT
  5
101
330
FC
100
AcDbEntity
  8
\U+30D5\U+30A9\U+30FC\U+30DE\U+30C3\U+30C8
100
AcDbBlockReference
  2
block 17
 10
0.0
 20
0.0
 30
0.0
  0
ENDBLK
  5
FF
330
FC
100
AcDbEntity
  8
0
100
AcDbBlockEnd
  0
BLOCK
  5
102
330
100
100
AcDbEntity
  8
0
100
AcDbBlockBegin
  2
block 17
 70
     0
 71
     0
 10
0.0
 20
0.0
 30
0.0
  3
block 17
  1

  0
INSERT
  5
105
330
100
100
AcDbEntity
  8
\U+30D5\U+30A9\U+30FC\U+30DE\U+30C3\U+30C8
100
AcDbBlockReference
  2
block 18
 10
0.0
 20
0.0
 30
0.0
  0
ENDBLK
  5
103
330
100
100
AcDbEntity
  8
0
100
AcDbBlockEnd
  0
BLOCK
  5
106
330
104
100
AcDbEntity
  8
0
100
AcDbBlockBegin
  2
block 18
 70
     0
 71
     0
 10
0.0
 20
0.0
 30
0.0
  3
block 18
  1

  0
SPLINE
  5
108
330
104
100
AcDbEntity
  8
\U+30D5\U+30A9\U+30FC\U+30DE\U+30C3\U+30C8
370
     0
100
AcDbSpline
210
0.0
220
0.0
230
1.0
 70
    11
 71
     3
 72
   119
 73
   115
 74
     0
 42
0.0000000001
 43
0.0000000001
 40
0.0
 40
0.0
 40
0.0
 40
0.0
 40
1.0
 40
1.0
 40
1.0
 40
2.0
 40
2.0
 40
2.0
 40
3.0
 40
3.0
 40
3.0
 40
4.0
 40
4.0
 40
4.0
 40
5.0
 40
5.0
 40
5.0
 40
6.0
 40
6.0
 40
6.0
 40
7.0
 40
7.0
 40
7.0
 40
8.0
 40
8.0
 40
8.0
 40
9.0
 40
9.0
 40
9.0
 40
10.0
 40
10.0
 40
10.0
 40
11.0
 40
11.0
 40
11.0
 40
12.0
 40
12.0
 40
12.0
 40
13.0
 40
13.0
 40
13.0
 40
14.0
 40
14.0
 40
14.0
 40
15.0
 40
15.0
 40
15.0
 40
16.0
 40
16.0
 40
16.0
 40
17.0
 40
17.0
 40
17.0
 40
18.0
 40
18.0
 40
18.0
 40
19.0
 40
19.0
 40
19.0
 40
20.0
 40
20.0
 40
20.0
 40
21.0
 40
21.0
 40
21.0
 40
22.0
 40
22.0
 40
22.0
 40
23.0
 40
23.0
 40
23.0
 40
24.0
 40
24.0
 40
24.0
 40
25.0
 40
25.0
 40
25.0
 40
26.0
 40
26.0
 40
26.0
 40
27.0
 40
27.0
 40
27.0
 40
28.0
 40
28.0
 40
28.0
 40
29.0
 40
29.0
 40
29.0
 40
30.0
 40
30.0
 40
30.0
 40
31.0
 40
31.0
 40
31.0
 40
32.0
 40
32.0
 40
32.0
 40
33.0
 40
33.0
 40
33.0
 40
34.0
 40
34.0
 40
34.0
 40
35.0
 40
35.0
 40
35.0
 40
36.0
 40
36.0
 40
36.0
 40
37.0
 40
37.0
 40
37.0
 40
38.0
 40
38.0
 40
38.0
 40
38.0
 10
56.57311874670742
 20
-15.88154567745323
 30
0.0
 10
56.82443846235639
 20
-16.09927571212102
 30
0.0
 10
57.17635496617466
 20
-16.27532009141728
 30
0.0
 10
57.62869600338797
 20
-16.4093343057935
 30
0.0
 10
57.62869600338797
 20
-16.4093343057935
 30
0.0
 10
57.5408460685141
 20
-16.69837781700596
 30
0.0
 10
57.5408460685141
 20
-16.69837781700596
 30
0.0
 10
57.37306991838243
 20
-16.64807942292131
 30
0.0
 10
57.25576441710967
 20
-16.59778102883667
 30
0.0
 10
57.18892956469583
 20
-16.54748263475202
 30
0.0
 10
57.18892956469583
 20
-16.54748263475202
 30
0.0
 10
57.18892956469583
 20
-17.71640353289729
 30
0.0
 10
57.18892956469583
 20
-17.71640353289729
 30
0.0
 10
57.18892956469583
 20
-17.71640353289729
 30
0.0
 10
56.93760984904685
 20
-17.71640353289729
 30
0.0
 10
56.93760984904685
 20
-17.71640353289729
 30
0.0
 10
56.93760984904685
 20
-17.71640353289729
 30
0.0
 10
56.93760984904685
 20
-17.59065754768567
 30
0.0
 10
56.93760984904685
 20
-17.59065754768567
 30
0.0
 10
56.93760984904685
 20
-17.59065754768567
 30
0.0
 10
55.50479463673144
 20
-17.59065754768567
 30
0.0
 10
55.50479463673144
 20
-17.59065754768567
 30
0.0
 10
55.50479463673144
 20
-17.59065754768567
 30
0.0
 10
55.50479463673144
 20
-17.75395507368651
 30
0.0
 10
55.50479463673144
 20
-17.75395507368651
 30
0.0
 10
55.50479463673144
 20
-17.75395507368651
 30
0.0
 10
55.25347492108246
 20
-17.75395507368651
 30
0.0
 10
55.25347492108246
 20
-17.75395507368651
 30
0.0
 10
55.25347492108246
 20
-17.75395507368651
 30
0.0
 10
55.25347492108246
 20
-16.58503417554124
 30
0.0
 10
55.25347492108246
 20
-16.58503417554124
 30
0.0
 10
55.16958684601664
 20
-16.63533256962589
 30
0.0
 10
55.04401311557928
 20
-16.68563096371054
 30
0.0
 10
54.87640922022187
 20
-16.73592935779519
 30
0.0
 10
54.87640922022187
 20
-16.73592935779519
 30
0.0
 10
54.73826089126335
 20
-16.49718424066737
 30
0.0
 10
54.73826089126335
 20
-16.49718424066737
 30
0.0
 10
55.16545273143434
 20
-16.37143825545575
 30
0.0
 10
55.53821206293836
 20
-16.16645507408339
 30
0.0
 10
55.85671114054971
 20
-15.88154567745323
 30
0.0
 10
55.85671114054971
 20
-15.88154567745323
 30
0.0
 10
54.82611082613722
 20
-15.88154567745323
 30
0.0
 10
54.82611082613722
 20
-15.88154567745323
 30
0.0
 10
54.82611082613722
 20
-15.88154567745323
 30
0.0
 10
54.82611082613722
 20
-15.64245605077689
 30
0.0
 10
54.82611082613722
 20
-15.64245605077689
 30
0.0
 10
54.82611082613722
 20
-15.64245605077689
 30
0.0
 10
55.50479463673144
 20
-15.64245605077689
 30
0.0
 10
55.50479463673144
 20
-15.64245605077689
 30
0.0
 10
55.42934704560447
 20
-15.53393554299152
 30
0.0
 10
55.36664630777292
 20
-15.44987521315142
 30
0.0
 10
55.31634791368828
 20
-15.39130858990217
 30
0.0
 10
55.31634791368828
 20
-15.39130858990217
 30
0.0
 10
55.52994383377376
 20
-15.30311414547978
 30
0.0
 10
55.52994383377376
 20
-15.30311414547978
 30
0.0
 10
55.60539142490074
 20
-15.37029350744215
 30
0.0
 10
55.67636039189689
 20
-15.45848795186455
 30
0.0
 10
55.74353975385926
 20
-15.56735296919844
 30
0.0
 10
55.74353975385926
 20
-15.56735296919844
 30
0.0
 10
55.56766762933725
 20
-15.64245605077689
 30
0.0
 10
55.56766762933725
 20
-15.64245605077689
 30
0.0
 10
55.56766762933725
 20
-15.64245605077689
 30
0.0
 10
56.0703070606352
 20
-15.64245605077689
 30
0.0
 10
56.0703070606352
 20
-15.64245605077689
 30
0.0
 10
56.0703070606352
 20
-15.64245605077689
 30
0.0
 10
56.0703070606352
 20
-15.22801106390133
 30
0.0
 10
56.0703070606352
 20
-15.22801106390133
 30
0.0
 10
56.0703070606352
 20
-15.22801106390133
 30
0.0
 10
55.05245359951814
 20
-15.25316026094366
 30
0.0
 10
55.05245359951814
 20
-15.25316026094366
 30
0.0
 10
55.05245359951814
 20
-15.25316026094366
 30
0.0
 10
54.97700600839116
 20
-15.05196668460506
 30
0.0
 10
54.97700600839116
 20
-15.05196668460506
 30
0.0
 10
55.93215873167669
 20
-15.03508571672734
 30
0.0
 10
56.64839408306013
 20
-14.98478732264269
 30
0.0
 10
57.12605657209001
 20
-14.90107150235112
 30
0.0
 10
57.12605657209001
 20
-14.90107150235112
 30
0.0
 10
57.25180255730164
 20
-15.11466742243661
 30
0.0
 10
57.25180255730164
 20
-15.11466742243661
 30
0.0
 10
57.26833901563084
 20
-15.15669758735666
 30
0.0
 10
57.23922795878048
 20
-15.16496581652126
 30
0.0
 10
57.1637803676535
 20
-15.13981661947894
 30
0.0
 10
57.1637803676535
 20
-15.13981661947894
 30
0.0
 10
56.32179903105844
 20
-15.20286186685901
 30
0.0
 10
56.32179903105844
 20
-15.20286186685901
 30
0.0
 10
56.32179903105844
 20
-15.20286186685901
 30
0.0
 10
56.32179903105844
 20
-15.64245605077689
 30
0.0
 10
56.32179903105844
 20
-15.64245605077689
 30
0.0
 10
56.32179903105844
 20
-15.64245605077689
 30
0.0
 10
56.56054414818625
 20
-15.64245605077689
 30
0.0
 10
56.56054414818625
 20
-15.64245605077689
 30
0.0
 10
56.56054414818625
 20
-15.64245605077689
 30
0.0
 10
56.82443846235639
 20
-15.20286186685901
 30
0.0
 10
56.82443846235639
 20
-15.20286186685901
 30
0.0
 10
56.82443846235639
 20
-15.20286186685901
 30
0.0
 10
57.05060898096305
 20
-15.3282633425221
 30
0.0
 10
57.05060898096305
 20
-15.3282633425221
 30
0.0
 10
57.09246689110883
 20
-15.37029350744215
 30
0.0
 10
57.07989229258767
 20
-15.38717447531987
 30
0.0
 10
57.01288518539956
 20
-15.37856173660675
 30
0.0
 10
57.01288518539956
 20
-15.37856173660675
 30
0.0
 10
56.81186386383523
 20
-15.64245605077689
 30
0.0
 10
56.81186386383523
 20
-15.64245605077689
 30
0.0
 10
56.81186386383523
 20
-15.64245605077689
 30
0.0
 10
57.56599526555642
 20
-15.64245605077689
 30
0.0
 10
57.56599526555642
 20
-15.64245605077689
 30
0.0
 10
57.56599526555642
 20
-15.64245605077689
 30
0.0
 10
57.56599526555642
 20
-15.88154567745323
 30
0.0
 10
57.56599526555642
 20
-15.88154567745323
 30
0.0
 10
57.56599526555642
 20
-15.88154567745323
 30
0.0
 10
56.57311874670742
 20
-15.88154567745323
 30
0.0
 10
56.57311874670742
 20
-15.88154567745323
 30
0.0
 10
56.57311874670742
 20
-15.88154567745323
 30
0.0
 10
56.57311874670742
 20
-15.88154567745323
 30
0.0
 10
56.57311874670742
 20
-15.88154567745323
 30
0.0
  0
SPLINE
  5
109
330
104
100
AcDbEntity
  8
\U+30D5\U+30A9\U+30FC\U+30DE\U+30C3\U+30C8
370
     0
100
AcDbSpline
210
0.0
220
0.0
230
1.0
 70
    11
 71
     3
 72
    23
 73
    19
 74
     0
 42
0.0000000001
 43
0.0000000001
 40
0.0
 40
0.0
 40
0.0
 40
0.0
 40
1.0
 40
1.0
 40
1.0
 40
2.0
 40
2.0
 40
2.0
 40
3.0
 40
3.0
 40
3.0
 40
4.0
 40
4.0
 40
4.0
 40
5.0
 40
5.0
 40
5.0
 40
6.0
 40
6.0
 40
6.0
 40
6.0
 10
57.03803438244189
 20
-16.48478189692047
 30
0.0
 10
56.81186386383523
 20
-16.39245333791578
 30
0.0
 10
56.57311874670742
 20
-16.22915581191494
 30
0.0
 10
56.32179903105844
 20
-15.99454480936942
 30
0.0
 10
56.32179903105844
 20
-15.99454480936942
 30
0.0
 10
56.32179903105844
 20
-16.4217366495404
 30
0.0
 10
56.32179903105844
 20
-16.4217366495404
 30
0.0
 10
56.32179903105844
 20
-16.4217366495404
 30
0.0
 10
56.0703070606352
 20
-16.4217366495404
 30
0.0
 10
56.0703070606352
 20
-16.4217366495404
 30
0.0
 10
56.0703070606352
 20
-16.4217366495404
 30
0.0
 10
56.0703070606352
 20
-15.99454480936942
 30
0.0
 10
56.0703070606352
 20
-15.99454480936942
 30
0.0
 10
55.86928573907088
 20
-16.21261935358573
 30
0.0
 10
55.65138344962882
 20
-16.37591687958658
 30
0.0
 10
55.41677244708331
 20
-16.48478189692047
 30
0.0
 10
55.41677244708331
 20
-16.48478189692047
 30
0.0
 10
57.03803438244189
 20
-16.48478189692047
 30
0.0
 10
57.03803438244189
 20
-16.48478189692047
 30
0.0
  0
POLYLINE
  5
10A
330
104
100
AcDbEntity
  8
\U+30D5\U+30A9\U+30FC\U+30DE\U+30C3\U+30C8
370
     0
100
AcDb2dPolyline
 66
     1
 10
0.0
 20
0.0
 30
0.0
  0
VERTEX
  5
10B
330
10A
100
AcDbEntity
  8
\U+30D5\U+30A9\U+30FC\U+30DE\U+30C3\U+30C8
370
     0
100
AcDbVertex
100
AcDb2dVertex
 10
56.0703070606352
 20
-16.93712293413378
 30
0.0
  0
VERTEX
  5
10C
330
10A
100
AcDbEntity
  8
\U+30D5\U+30A9\U+30FC\U+30DE\U+30C3\U+30C8
370
     0
100
AcDbVertex
100
AcDb2dVertex
 10
56.0703070606352
 20
-16.68563096371054
 30
0.0
  0
VERTEX
  5
10D
330
10A
100
AcDbEntity
  8
\U+30D5\U+30A9\U+30FC\U+30DE\U+30C3\U+30C8
370
     0
100
AcDbVertex
100
AcDb2dVertex
 10
55.50479463673144
 20
-16.68563096371054
 30
0.0
  0
VERTEX
  5
10E
330
10A
100
AcDbEntity
  8
\U+30D5\U+30A9\U+30FC\U+30DE\U+30C3\U+30C8
370
     0
100
AcDbVertex
100
AcDb2dVertex
 10
55.50479463673144
 20
-16.93712293413378
 30
0.0
  0
VERTEX
  5
10F
330
10A
100
AcDbEntity
  8
\U+30D5\U+30A9\U+30FC\U+30DE\U+30C3\U+30C8
370
     0
100
AcDbVertex
100
AcDb2dVertex
 10
56.0703070606352
 20
-16.93712293413378
 30
0.0
  0
SEQEND
  5
110
330
10A
100
AcDbEntity
  8
\U+30D5\U+30A9\U+30FC\U+30DE\U+30C3\U+30C8
370
     0
  0
POLYLINE
  5
111
330
104
100
AcDbEntity
  8
\U+30D5\U+30A9\U+30FC\U+30DE\U+30C3\U+30C8
370
     0
100
AcDb2dPolyline
 66
     1
 10
0.0
 20
0.0
 30
0.0
  0
VERTEX
  5
112
330
111
100
AcDbEntity
  8
\U+30D5\U+30A9\U+30FC\U+30DE\U+30C3\U+30C8
370
     0
100
AcDbVertex
100
AcDb2dVertex
 10
56.0703070606352
 20
-17.13831651047236
 30
0.0
  0
VERTEX
  5
113
330
111
100
AcDbEntity
  8
\U+30D5\U+30A9\U+30FC\U+30DE\U+30C3\U+30C8
370
     0
100
AcDbVertex
100
AcDb2dVertex
 10
55.50479463673144
 20
-17.13831651047236
 30
0.0
  0
VERTEX
  5
114
330
111
100
AcDbEntity
  8
\U+30D5\U+30A9\U+30FC\U+30DE\U+30C3\U+30C8
370
     0
100
AcDbVertex
100
AcDb2dVertex
 10
55.50479463673144
 20
-17.38946397134708
 30
0.0
  0
VERTEX
  5
115
330
111
100
AcDbEntity
  8
\U+30D5\U+30A9\U+30FC\U+30DE\U+30C3\U+30C8
370
     0
100
AcDbVertex
100
AcDb2dVertex
 10
56.0703070606352
 20
-17.38946397134708
 30
0.0
  0
VERTEX
  5
116
330
111
100
AcDbEntity
  8
\U+30D5\U+30A9\U+30FC\U+30DE\U+30C3\U+30C8
370
     0
100
AcDbVertex
100
AcDb2dVertex
 10
56.0703070606352
 20
-17.13831651047236
 30
0.0
  0
SEQEND
  5
117
330
111
100
AcDbEntity
  8
\U+30D5\U+30A9\U+30FC\U+30DE\U+30C3\U+30C8
370
     0
  0
POLYLINE
  5
118
330
104
100
AcDbEntity
  8
\U+30D5\U+30A9\U+30FC\U+30DE\U+30C3\U+30C8
370
     0
100
AcDb2dPolyline
 66
     1
 10
0.0
 20
0.0
 30
0.0
  0
VERTEX
  5
119
330
118
100
AcDbEntity
  8
\U+30D5\U+30A9\U+30FC\U+30DE\U+30C3\U+30C8
370
     0
100
AcDbVertex
100
AcDb2dVertex
 10
56.93760984904685
 20
-16.93712293413378
 30
0.0
  0
VERTEX
  5
11A
330
118
100
AcDbEntity
  8
\U+30D5\U+30A9\U+30FC\U+30DE\U+30C3\U+30C8
370
     0
100
AcDbVertex
100
AcDb2dVertex
 10
56.93760984904685
 20
-16.68563096371054
 30
0.0
  0
VERTEX
  5
11B
330
118
100
AcDbEntity
  8
\U+30D5\U+30A9\U+30FC\U+30DE\U+30C3\U+30C8
370
     0
100
AcDbVertex
100
AcDb2dVertex
 10
56.32179903105844
 20
-16.68563096371054
 30
0.0
  0
VERTEX
  5
11C
330
118
100
AcDbEntity
  8
\U+30D5\U+30A9\U+30FC\U+30DE\U+30C3\U+30C8
370
     0
100
AcDbVertex
100
AcDb2dVertex
 10
56.32179903105844
 20
-16.93712293413378
 30
0.0
  0
VERTEX
  5
11D
330
118
100
AcDbEntity
  8
\U+30D5\U+30A9\U+30FC\U+30DE\U+30C3\U+30C8
370
     0
100
AcDbVertex
100
AcDb2dVertex
 10
56.93760984904685
 20
-16.93712293413378
 30
0.0
  0
SEQEND
  5
11E
330
118
100
AcDbEntity
  8
\U+30D5\U+30A9\U+30FC\U+30DE\U+30C3\U+30C8
370
     0
  0
POLYLINE
  5
11F
330
104
100
AcDbEntity
  8
\U+30D5\U+30A9\U+30FC\U+30DE\U+30C3\U+30C8
370
     0
100
AcDb2dPolyline
 66
     1
 10
0.0
 20
0.0
 30
0.0
  0
VERTEX
  5
120
330
11F
100
AcDbEntity
  8
\U+30D5\U+30A9\U+30FC\U+30DE\U+30C3\U+30C8
370
     0
100
AcDbVertex
100
AcDb2dVertex
 10
56.93760984904685
 20
-17.38946397134708
 30
0.0
  0
VERTEX
  5
121
330
11F
100
AcDbEntity
  8
\U+30D5\U+30A9\U+30FC\U+30DE\U+30C3\U+30C8
370
     0
100
AcDbVertex
100
AcDb2dVertex
 10
56.93760984904685
 20
-17.13831651047236
 30
0.0
  0
VERTEX
  5
122
330
11F
100
AcDbEntity
  8
\U+30D5\U+30A9\U+30FC\U+30DE\U+30C3\U+30C8
370
     0
100
AcDbVertex
100
AcDb2dVertex
 10
56.32179903105844
 20
-17.13831651047236
 30
0.0
  0
VERTEX
  5
123
330
11F
100
AcDbEntity
  8
\U+30D5\U+30A9\U+30FC\U+30DE\U+30C3\U+30C8
370
     0
100
AcDbVertex
100
AcDb2dVertex
 10
56.32179903105844
 20
-17.38946397134708
 30
0.0
  0
VERTEX
  5
124
330
11F
100
AcDbEntity
  8
\U+30D5\U+30A9\U+30FC\U+30DE\U+30C3\U+30C8
370
     0
100
AcDbVertex
100
AcDb2dVertex
 10
56.93760984904685
 20
-17.38946397134708
 30
0.0
  0
SEQEND
  5
125
330
11F
100
AcDbEntity
  8
\U+30D5\U+30A9\U+30FC\U+30DE\U+30C3\U+30C8
370
     0
  0
HATCH
  5
126
330
104
100
AcDbEntity
  8
\U+30D5\U+30A9\U+30FC\U+30DE\U+30C3\U+30C8
 62
     7
100
AcDbHatch
 10
0.0
 20
0.0
 30
0.0
210
0.0
220
0.0
230
1.0
  2
SOLID
 70
     1
 71
     0
 91
        6
 92
        1
 93
        1
 72
     4
 94
        3
 73
     0
 74
     1
 95
      119
 96
      115
 40
0.0
 40
0.0
 40
0.0
 40
0.0
 40
1.0
 40
1.0
 40
1.0
 40
2.0
 40
2.0
 40
2.0
 40
3.0
 40
3.0
 40
3.0
 40
4.0
 40
4.0
 40
4.0
 40
5.0
 40
5.0
 40
5.0
 40
6.0
 40
6.0
 40
6.0
 40
7.0
 40
7.0
 40
7.0
 40
8.0
 40
8.0
 40
8.0
 40
9.0
 40
9.0
 40
9.0
 40
10.0
 40
10.0
 40
10.0
 40
11.0
 40
11.0
 40
11.0
 40
12.0
 40
12.0
 40
12.0
 40
13.0
 40
13.0
 40
13.0
 40
14.0
 40
14.0
 40
14.0
 40
15.0
 40
15.0
 40
15.0
 40
16.0
 40
16.0
 40
16.0
 40
17.0
 40
17.0
 40
17.0
 40
18.0
 40
18.0
 40
18.0
 40
19.0
 40
19.0
 40
19.0
 40
20.0
 40
20.0
 40
20.0
 40
21.0
 40
21.0
 40
21.0
 40
22.0
 40
22.0
 40
22.0
 40
23.0
 40
23.0
 40
23.0
 40
24.0
 40
24.0
 40
24.0
 40
25.0
 40
25.0
 40
25.0
 40
26.0
 40
26.0
 40
26.0
 40
27.0
 40
27.0
 40
27.0
 40
28.0
 40
28.0
 40
28.0
 40
29.0
 40
29.0
 40
29.0
 40
30.0
 40
30.0
 40
30.0
 40
31.0
 40
31.0
 40
31.0
 40
32.0
 40
32.0
 40
32.0
 40
33.0
 40
33.0
 40
33.0
 40
34.0
 40
34.0
 40
34.0
 40
35.0
 40
35.0
 40
35.0
 40
36.0
 40
36.0
 40
36.0
 40
37.0
 40
37.0
 40
37.0
 40
38.0
 40
38.0
 40
38.0
 40
38.0
 10
56.57311874670742
 20
-15.88154567745323
 10
56.82443846235639
 20
-16.09927571212102
 10
57.17635496617466
 20
-16.27532009141728
 10
57.62869600338797
 20
-16.4093343057935
 10
57.62869600338797
 20
-16.4093343057935
 10
57.5408460685141
 20
-16.69837781700596
 10
57.5408460685141
 20
-16.69837781700596
 10
57.37306991838243
 20
-16.64807942292131
 10
57.25576441710967
 20
-16.59778102883667
 10
57.18892956469583
 20
-16.54748263475202
 10
57.18892956469583
 20
-16.54748263475202
 10
57.18892956469583
 20
-17.71640353289729
 10
57.18892956469583
 20
-17.71640353289729
 10
57.18892956469583
 20
-17.71640353289729
 10
56.93760984904685
 20
-17.71640353289729
 10
56.93760984904685
 20
-17.71640353289729
 10
56.93760984904685
 20
-17.71640353289729
 10
56.93760984904685
 20
-17.59065754768567
 10
56.93760984904685
 20
-17.59065754768567
 10
56.93760984904685
 20
-17.59065754768567
 10
55.50479463673144
 20
-17.59065754768567
 10
55.50479463673144
 20
-17.59065754768567
 10
55.50479463673144
 20
-17.59065754768567
 10
55.50479463673144
 20
-17.75395507368651
 10
55.50479463673144
 20
-17.75395507368651
 10
55.50479463673144
 20
-17.75395507368651
 10
55.25347492108246
 20
-17.75395507368651
 10
55.25347492108246
 20
-17.75395507368651
 10
55.25347492108246
 20
-17.75395507368651
 10
55.25347492108246
 20
-16.58503417554124
 10
55.25347492108246
 20
-16.58503417554124
 10
55.16958684601664
 20
-16.63533256962589
 10
55.04401311557928
 20
-16.68563096371054
 10
54.87640922022187
 20
-16.73592935779519
 10
54.87640922022187
 20
-16.73592935779519
 10
54.73826089126335
 20
-16.49718424066737
 10
54.73826089126335
 20
-16.49718424066737
 10
55.16545273143434
 20
-16.37143825545575
 10
55.53821206293836
 20
-16.16645507408339
 10
55.85671114054971
 20
-15.88154567745323
 10
55.85671114054971
 20
-15.88154567745323
 10
54.82611082613722
 20
-15.88154567745323
 10
54.82611082613722
 20
-15.88154567745323
 10
54.82611082613722
 20
-15.88154567745323
 10
54.82611082613722
 20
-15.64245605077689
 10
54.82611082613722
 20
-15.64245605077689
 10
54.82611082613722
 20
-15.64245605077689
 10
55.50479463673144
 20
-15.64245605077689
 10
55.50479463673144
 20
-15.64245605077689
 10
55.42934704560447
 20
-15.53393554299152
 10
55.36664630777292
 20
-15.44987521315142
 10
55.31634791368828
 20
-15.39130858990217
 10
55.31634791368828
 20
-15.39130858990217
 10
55.52994383377376
 20
-15.30311414547978
 10
55.52994383377376
 20
-15.30311414547978
 10
55.60539142490074
 20
-15.37029350744215
 10
55.67636039189689
 20
-15.45848795186455
 10
55.74353975385926
 20
-15.56735296919844
 10
55.74353975385926
 20
-15.56735296919844
 10
55.56766762933725
 20
-15.64245605077689
 10
55.56766762933725
 20
-15.64245605077689
 10
55.56766762933725
 20
-15.64245605077689
 10
56.0703070606352
 20
-15.64245605077689
 10
56.0703070606352
 20
-15.64245605077689
 10
56.0703070606352
 20
-15.64245605077689
 10
56.0703070606352
 20
-15.22801106390133
 10
56.0703070606352
 20
-15.22801106390133
 10
56.0703070606352
 20
-15.22801106390133
 10
55.05245359951814
 20
-15.25316026094366
 10
55.05245359951814
 20
-15.25316026094366
 10
55.05245359951814
 20
-15.25316026094366
 10
54.97700600839116
 20
-15.05196668460506
 10
54.97700600839116
 20
-15.05196668460506
 10
55.93215873167669
 20
-15.03508571672734
 10
56.64839408306013
 20
-14.98478732264269
 10
57.12605657209001
 20
-14.90107150235112
 10
57.12605657209001
 20
-14.90107150235112
 10
57.25180255730164
 20
-15.11466742243661
 10
57.25180255730164
 20
-15.11466742243661
 10
57.26833901563084
 20
-15.15669758735666
 10
57.23922795878048
 20
-15.16496581652126
 10
57.1637803676535
 20
-15.13981661947894
 10
57.1637803676535
 20
-15.13981661947894
 10
56.32179903105844
 20
-15.20286186685901
 10
56.32179903105844
 20
-15.20286186685901
 10
56.32179903105844
 20
-15.20286186685901
 10
56.32179903105844
 20
-15.64245605077689
 10
56.32179903105844
 20
-15.64245605077689
 10
56.32179903105844
 20
-15.64245605077689
 10
56.56054414818625
 20
-15.64245605077689
 10
56.56054414818625
 20
-15.64245605077689
 10
56.56054414818625
 20
-15.64245605077689
 10
56.82443846235639
 20
-15.20286186685901
 10
56.82443846235639
 20
-15.20286186685901
 10
56.82443846235639
 20
-15.20286186685901
 10
57.05060898096305
 20
-15.3282633425221
 10
57.05060898096305
 20
-15.3282633425221
 10
57.09246689110883
 20
-15.37029350744215
 10
57.07989229258767
 20
-15.38717447531987
 10
57.01288518539956
 20
-15.37856173660675
 10
57.01288518539956
 20
-15.37856173660675
 10
56.81186386383523
 20
-15.64245605077689
 10
56.81186386383523
 20
-15.64245605077689
 10
56.81186386383523
 20
-15.64245605077689
 10
57.56599526555642
 20
-15.64245605077689
 10
57.56599526555642
 20
-15.64245605077689
 10
57.56599526555642
 20
-15.64245605077689
 10
57.56599526555642
 20
-15.88154567745323
 10
57.56599526555642
 20
-15.88154567745323
 10
57.56599526555642
 20
-15.88154567745323
 10
56.57311874670742
 20
-15.88154567745323
 10
56.57311874670742
 20
-15.88154567745323
 10
56.57311874670742
 20
-15.88154567745323
 10
56.57311874670742
 20
-15.88154567745323
 10
56.57311874670742
 20
-15.88154567745323
 97
        0
 92
        1
 93
        1
 72
     4
 94
        3
 73
     0
 74
     1
 95
       23
 96
       19
 40
0.0
 40
0.0
 40
0.0
 40
0.0
 40
1.0
 40
1.0
 40
1.0
 40
2.0
 40
2.0
 40
2.0
 40
3.0
 40
3.0
 40
3.0
 40
4.0
 40
4.0
 40
4.0
 40
5.0
 40
5.0
 40
5.0
 40
6.0
 40
6.0
 40
6.0
 40
6.0
 10
57.03803438244189
 20
-16.48478189692047
 10
56.81186386383523
 20
-16.39245333791578
 10
56.57311874670742
 20
-16.22915581191494
 10
56.32179903105844
 20
-15.99454480936942
 10
56.32179903105844
 20
-15.99454480936942
 10
56.32179903105844
 20
-16.4217366495404
 10
56.32179903105844
 20
-16.4217366495404
 10
56.32179903105844
 20
-16.4217366495404
 10
56.0703070606352
 20
-16.4217366495404
 10
56.0703070606352
 20
-16.4217366495404
 10
56.0703070606352
 20
-16.4217366495404
 10
56.0703070606352
 20
-15.99454480936942
 10
56.0703070606352
 20
-15.99454480936942
 10
55.86928573907088
 20
-16.21261935358573
 10
55.65138344962882
 20
-16.37591687958658
 10
55.41677244708331
 20
-16.48478189692047
 10
55.41677244708331
 20
-16.48478189692047
 10
57.03803438244189
 20
-16.48478189692047
 10
57.03803438244189
 20
-16.48478189692047
 97
        0
 92
        1
 93
        4
 72
     1
 10
56.0703070606352
 20
-16.93712293413378
 11
56.0703070606352
 21
-16.68563096371054
 72
     1
 10
56.0703070606352
 20
-16.68563096371054
 11
55.50479463673144
 21
-16.68563096371054
 72
     1
 10
55.50479463673144
 20
-16.68563096371054
 11
55.50479463673144
 21
-16.93712293413378
 72
     1
 10
55.50479463673144
 20
-16.93712293413378
 11
56.0703070606352
 21
-16.93712293413378
 97
        0
 92
        1
 93
        4
 72
     1
 10
56.0703070606352
 20
-17.13831651047236
 11
55.50479463673144
 21
-17.13831651047236
 72
     1
 10
55.50479463673144
 20
-17.13831651047236
 11
55.50479463673144
 21
-17.38946397134708
 72
     1
 10
55.50479463673144
 20
-17.38946397134708
 11
56.0703070606352
 21
-17.38946397134708
 72
     1
 10
56.0703070606352
 20
-17.38946397134708
 11
56.0703070606352
 21
-17.13831651047236
 97
        0
 92
        1
 93
        4
 72
     1
 10
56.93760984904685
 20
-16.93712293413378
 11
56.93760984904685
 21
-16.68563096371054
 72
     1
 10
56.93760984904685
 20
-16.68563096371054
 11
56.32179903105844
 21
-16.68563096371054
 72
     1
 10
56.32179903105844
 20
-16.68563096371054
 11
56.32179903105844
 21
-16.93712293413378
 72
     1
 10
56.32179903105844
 20
-16.93712293413378
 11
56.93760984904685
 21
-16.93712293413378
 97
        0
 92
        1
 93
        4
 72
     1
 10
56.93760984904685
 20
-17.38946397134708
 11
56.93760984904685
 21
-17.13831651047236
 72
     1
 10
56.93760984904685
 20
-17.13831651047236
 11
56.32179903105844
 21
-17.13831651047236
 72
     1
 10
56.32179903105844
 20
-17.13831651047236
 11
56.32179903105844
 21
-17.38946397134708
 72
     1
 10
56.32179903105844
 20
-17.38946397134708
 11
56.93760984904685
 21
-17.38946397134708
 97
        0
 75
     2
 76
     1
 98
        0
  0
ENDBLK
  5
107
330
104
100
AcDbEntity
  8
0
100
AcDbBlockEnd
  0
BLOCK
  5
1AC
330
1AA
100
AcDbEntity
  8
0
100
AcDbBlockBegin
  2
block 19
 70
     0
 71
     0
 10
0.0
 20
0.0
 30
0.0
  3
block 19
  1

  0
SPLINE
  5
1AE
330
1AA
100
AcDbEntity
  8
\U+30EC\U+30A4\U+30E4\U+30FC 1
 62
     7
370
    35
100
AcDbSpline
210
0.0
220
0.0
230
1.0
 70
    11
 71
     3
 72
    23
 73
    19
 74
     0
 42
0.0000000001
 43
0.0000000001
 40
0.0
 40
0.0
 40
0.0
 40
0.0
 40
1.0
 40
1.0
 40
1.0
 40
2.0
 40
2.0
 40
2.0
 40
3.0
 40
3.0
 40
3.0
 40
4.0
 40
4.0
 40
4.0
 40
5.0
 40
5.0
 40
5.0
 40
6.0
 40
6.0
 40
6.0
 40
6.0
 10
332.3955592701997
 20
76.26166719013598
 30
0.0
 10
332.3955592701997
 20
76.26166719013598
 30
0.0
 10
330.9327717271627
 20
73.66062009877236
 30
0.0
 10
327.0318901092143
 20
76.26166719013598
 30
0.0
 10
323.1313530008144
 20
78.86099173375698
 30
0.0
 10
320.8555229232584
 20
76.26166719013598
 30
0.0
 10
320.8555229232584
 20
76.26166719013598
 30
0.0
 10
320.8555229232584
 20
76.26166719013598
 30
0.0
 10
320.8555229232584
 20
79.63441567019557
 30
0.0
 10
320.8555229232584
 20
79.63441567019557
 30
0.0
 10
320.8555229232584
 20
79.63441567019557
 30
0.0
 10
323.1313530008144
 20
82.23442923291361
 30
0.0
 10
327.0318901092143
 20
79.63441567019557
 30
0.0
 10
330.9327717271627
 20
77.03336857883194
 30
0.0
 10
332.3955592701997
 20
79.63441567019557
 30
0.0
 10
332.3955592701997
 20
79.63441567019557
 30
0.0
 10
332.3955592701997
 20
79.63441567019557
 30
0.0
 10
332.3955592701997
 20
76.26166719013598
 30
0.0
 10
332.3955592701997
 20
76.26166719013598
 30
0.0
  0
SPLINE
  5
1AF
330
1AA
100
AcDbEntity
  8
\U+30EC\U+30A4\U+30E4\U+30FC 1
 62
     7
370
    35
100
AcDbSpline
210
0.0
220
0.0
230
1.0
 70
     8
 71
     3
 72
    11
 73
     7
 74
     0
 42
0.0000000001
 43
0.0000000001
 40
0.0
 40
0.0
 40
0.0
 40
0.0
 40
1.0
 40
1.0
 40
1.0
 40
2.0
 40
2.0
 40
2.0
 40
2.0
 10
320.8555229232584
 20
79.63441567019557
 30
0.0
 10
320.8555229232584
 20
79.63441567019557
 30
0.0
 10
323.1313530008144
 20
82.23442923291361
 30
0.0
 10
327.0318901092143
 20
79.63441567019557
 30
0.0
 10
330.9327717271627
 20
77.03336857883194
 30
0.0
 10
332.3955592701997
 20
79.63441567019557
 30
0.0
 10
332.3955592701997
 20
79.63441567019557
 30
0.0
  0
SPLINE
  5
1B0
330
1AA
100
AcDbEntity
  8
\U+30EC\U+30A4\U+30E4\U+30FC 1
 62
     7
370
    35
100
AcDbSpline
210
0.0
220
0.0
230
1.0
 70
     8
 71
     3
 72
    11
 73
     7
 74
     0
 42
0.0000000001
 43
0.0000000001
 40
0.0
 40
0.0
 40
0.0
 40
0.0
 40
1.0
 40
1.0
 40
1.0
 40
2.0
 40
2.0
 40
2.0
 40
2.0
 10
320.8555229232584
 20
76.26166719013598
 30
0.0
 10
320.8555229232584
 20
76.26166719013598
 30
0.0
 10
323.1313530008144
 20
78.86099173375698
 30
0.0
 10
327.0318901092143
 20
76.26166719013598
 30
0.0
 10
330.9327717271627
 20
73.66062009877236
 30
0.0
 10
332.3955592701997
 20
76.26166719013598
 30
0.0
 10
332.3955592701997
 20
76.26166719013598
 30
0.0
  0
ENDBLK
  5
1AD
330
1AA
100
AcDbEntity
  8
0
100
AcDbBlockEnd
  0
ENDSEC
  0
SECTION
  2
ENTITIES
  0
INSERT
  5
3D
330
1F
100
AcDbEntity
  8
\U+30D5\U+30A9\U+30FC\U+30DE\U+30C3\U+30C8
100
AcDbBlockReference
  2
block 2
 10
0.0
 20
0.0
 30
0.0
  0
SPLINE
  5
137
330
1F
100
AcDbEntity
  8
\U+30D5\U+30A9\U+30FC\U+30DE\U+30C3\U+30C8
370
     0
100
AcDbSpline
210
0.0
220
0.0
230
1.0
 70
    11
 71
     3
 72
    68
 73
    64
 74
     0
 42
0.0000000001
 43
0.0000000001
 40
0.0
 40
0.0
 40
0.0
 40
0.0
 40
1.0
 40
1.0
 40
1.0
 40
2.0
 40
2.0
 40
2.0
 40
3.0
 40
3.0
 40
3.0
 40
4.0
 40
4.0
 40
4.0
 40
5.0
 40
5.0
 40
5.0
 40
6.0
 40
6.0
 40
6.0
 40
7.0
 40
7.0
 40
7.0
 40
8.0
 40
8.0
 40
8.0
 40
9.0
 40
9.0
 40
9.0
 40
10.0
 40
10.0
 40
10.0
 40
11.0
 40
11.0
 40
11.0
 40
12.0
 40
12.0
 40
12.0
 40
13.0
 40
13.0
 40
13.0
 40
14.0
 40
14.0
 40
14.0
 40
15.0
 40
15.0
 40
15.0
 40
16.0
 40
16.0
 40
16.0
 40
17.0
 40
17.0
 40
17.0
 40
18.0
 40
18.0
 40
18.0
 40
19.0
 40
19.0
 40
19.0
 40
20.0
 40
20.0
 40
20.0
 40
21.0
 40
21.0
 40
21.0
 40
21.0
 10
152.5112765460736
 20
-23.13174912616151
 30
0.0
 10
152.5112765460736
 20
-23.193760844896
 30
0.0
 10
152.462356190183
 20
-23.24164767214098
 30
0.0
 10
152.4031005478367
 20
-23.24164767214098
 30
0.0
 10
152.4031005478367
 20
-23.24164767214098
 30
0.0
 10
149.4031113992812
 20
-23.24164767214098
 30
0.0
 10
149.4031113992812
 20
-23.24164767214098
 30
0.0
 10
148.4777587519431
 20
-23.24164767214098
 30
0.0
 10
147.7267279361586
 20
-22.49130587545356
 30
0.0
 10
147.7267279361586
 20
-21.56526420901841
 30
0.0
 10
147.7267279361586
 20
-20.6399115616803
 30
0.0
 10
148.4777587519431
 20
-19.88922525544436
 30
0.0
 10
149.4031113992812
 20
-19.88922525544436
 30
0.0
 10
149.4031113992812
 20
-19.88922525544436
 30
0.0
 10
150.572376806975
 20
-19.88922525544436
 30
0.0
 10
150.572376806975
 20
-19.88922525544436
 30
0.0
 10
150.6336995066124
 20
-19.88922525544436
 30
0.0
 10
150.6819308434059
 20
-19.93814561133491
 30
0.0
 10
150.6819308434059
 20
-19.99946831097236
 30
0.0
 10
150.6819308434059
 20
-19.99946831097236
 30
0.0
 10
150.6819308434059
 20
-21.06365830636603
 30
0.0
 10
150.6819308434059
 20
-21.06365830636603
 30
0.0
 10
150.6819308434059
 20
-21.12360296780938
 30
0.0
 10
150.6336995066124
 20
-21.17252332369993
 30
0.0
 10
150.572376806975
 20
-21.17252332369993
 30
0.0
 10
150.572376806975
 20
-21.17252332369993
 30
0.0
 10
149.4878607482183
 20
-21.1735568523455
 30
0.0
 10
149.4878607482183
 20
-21.1735568523455
 30
0.0
 10
149.2735758090358
 20
-21.1735568523455
 30
0.0
 10
149.0985649583851
 20
-21.34822319344767
 30
0.0
 10
149.0985649583851
 20
-21.56285264217873
 30
0.0
 10
149.0985649583851
 20
-21.77851561955537
 30
0.0
 10
149.2735758090358
 20
-21.95421548930311
 30
0.0
 10
149.4878607482183
 20
-21.95421548930311
 30
0.0
 10
149.4878607482183
 20
-21.95421548930311
 30
0.0
 10
151.0064588381165
 20
-21.95214843201196
 30
0.0
 10
151.0064588381165
 20
-21.95214843201196
 30
0.0
 10
151.0064588381165
 20
-21.95214843201196
 30
0.0
 10
151.0064588381165
 20
-19.70422362788645
 30
0.0
 10
151.0064588381165
 20
-19.70422362788645
 30
0.0
 10
151.0064588381165
 20
-19.37521700904508
 30
0.0
 10
150.7404974666552
 20
-19.10891112803527
 30
0.0
 10
150.4097683000712
 20
-19.10891112803527
 30
0.0
 10
150.4097683000712
 20
-19.10891112803527
 30
0.0
 10
148.2765651756045
 20
-19.10891112803527
 30
0.0
 10
148.2765651756045
 20
-19.10891112803527
 30
0.0
 10
148.21455345687
 20
-19.10891112803527
 30
0.0
 10
148.1663221200765
 20
-19.06033528169325
 30
0.0
 10
148.1663221200765
 20
-18.99935709160433
 30
0.0
 10
148.1663221200765
 20
-18.99935709160433
 30
0.0
 10
148.1663221200765
 20
-17.93068847207983
 30
0.0
 10
148.1663221200765
 20
-17.93068847207983
 30
0.0
 10
148.1663221200765
 20
-17.87074381063648
 30
0.0
 10
148.21455345687
 20
-17.82078992610036
 30
0.0
 10
148.2765651756045
 20
-17.82078992610036
 30
0.0
 10
148.2765651756045
 20
-17.82078992610036
 30
0.0
 10
150.8307589683687
 20
-17.82078992610036
 30
0.0
 10
150.8307589683687
 20
-17.82078992610036
 30
0.0
 10
151.7623127875803
 20
-17.82078992610036
 30
0.0
 10
152.5112765460736
 20
-18.5742323087245
 30
0.0
 10
152.5112765460736
 20
-19.50544161838753
 30
0.0
 10
152.5112765460736
 20
-19.50544161838753
 30
0.0
 10
152.5112765460736
 20
-23.13174912616151
 30
0.0
 10
152.5112765460736
 20
-23.13174912616151
 30
0.0
  0
HATCH
  5
138
330
1F
100
AcDbEntity
  8
\U+30D5\U+30A9\U+30FC\U+30DE\U+30C3\U+30C8
 62
     7
100
AcDbHatch
 10
0.0
 20
0.0
 30
0.0
210
0.0
220
0.0
230
1.0
  2
SOLID
 70
     1
 71
     0
 91
        1
 92
        1
 93
        1
 72
     4
 94
        3
 73
     0
 74
     1
 95
       68
 96
       64
 40
0.0
 40
0.0
 40
0.0
 40
0.0
 40
1.0
 40
1.0
 40
1.0
 40
2.0
 40
2.0
 40
2.0
 40
3.0
 40
3.0
 40
3.0
 40
4.0
 40
4.0
 40
4.0
 40
5.0
 40
5.0
 40
5.0
 40
6.0
 40
6.0
 40
6.0
 40
7.0
 40
7.0
 40
7.0
 40
8.0
 40
8.0
 40
8.0
 40
9.0
 40
9.0
 40
9.0
 40
10.0
 40
10.0
 40
10.0
 40
11.0
 40
11.0
 40
11.0
 40
12.0
 40
12.0
 40
12.0
 40
13.0
 40
13.0
 40
13.0
 40
14.0
 40
14.0
 40
14.0
 40
15.0
 40
15.0
 40
15.0
 40
16.0
 40
16.0
 40
16.0
 40
17.0
 40
17.0
 40
17.0
 40
18.0
 40
18.0
 40
18.0
 40
19.0
 40
19.0
 40
19.0
 40
20.0
 40
20.0
 40
20.0
 40
21.0
 40
21.0
 40
21.0
 40
21.0
 10
152.5112765460736
 20
-23.13174912616151
 10
152.5112765460736
 20
-23.193760844896
 10
152.462356190183
 20
-23.24164767214098
 10
152.4031005478367
 20
-23.24164767214098
 10
152.4031005478367
 20
-23.24164767214098
 10
149.4031113992812
 20
-23.24164767214098
 10
149.4031113992812
 20
-23.24164767214098
 10
148.4777587519431
 20
-23.24164767214098
 10
147.7267279361586
 20
-22.49130587545356
 10
147.7267279361586
 20
-21.56526420901841
 10
147.7267279361586
 20
-20.6399115616803
 10
148.4777587519431
 20
-19.88922525544436
 10
149.4031113992812
 20
-19.88922525544436
 10
149.4031113992812
 20
-19.88922525544436
 10
150.572376806975
 20
-19.88922525544436
 10
150.572376806975
 20
-19.88922525544436
 10
150.6336995066124
 20
-19.88922525544436
 10
150.6819308434059
 20
-19.93814561133491
 10
150.6819308434059
 20
-19.99946831097236
 10
150.6819308434059
 20
-19.99946831097236
 10
150.6819308434059
 20
-21.06365830636603
 10
150.6819308434059
 20
-21.06365830636603
 10
150.6819308434059
 20
-21.12360296780938
 10
150.6336995066124
 20
-21.17252332369993
 10
150.572376806975
 20
-21.17252332369993
 10
150.572376806975
 20
-21.17252332369993
 10
149.4878607482183
 20
-21.1735568523455
 10
149.4878607482183
 20
-21.1735568523455
 10
149.2735758090358
 20
-21.1735568523455
 10
149.0985649583851
 20
-21.34822319344767
 10
149.0985649583851
 20
-21.56285264217873
 10
149.0985649583851
 20
-21.77851561955537
 10
149.2735758090358
 20
-21.95421548930311
 10
149.4878607482183
 20
-21.95421548930311
 10
149.4878607482183
 20
-21.95421548930311
 10
151.0064588381165
 20
-21.95214843201196
 10
151.0064588381165
 20
-21.95214843201196
 10
151.0064588381165
 20
-21.95214843201196
 10
151.0064588381165
 20
-19.70422362788645
 10
151.0064588381165
 20
-19.70422362788645
 10
151.0064588381165
 20
-19.37521700904508
 10
150.7404974666552
 20
-19.10891112803527
 10
150.4097683000712
 20
-19.10891112803527
 10
150.4097683000712
 20
-19.10891112803527
 10
148.2765651756045
 20
-19.10891112803527
 10
148.2765651756045
 20
-19.10891112803527
 10
148.21455345687
 20
-19.10891112803527
 10
148.1663221200765
 20
-19.06033528169325
 10
148.1663221200765
 20
-18.99935709160433
 10
148.1663221200765
 20
-18.99935709160433
 10
148.1663221200765
 20
-17.93068847207983
 10
148.1663221200765
 20
-17.93068847207983
 10
148.1663221200765
 20
-17.87074381063648
 10
148.21455345687
 20
-17.82078992610036
 10
148.2765651756045
 20
-17.82078992610036
 10
148.2765651756045
 20
-17.82078992610036
 10
150.8307589683687
 20
-17.82078992610036
 10
150.8307589683687
 20
-17.82078992610036
 10
151.7623127875803
 20
-17.82078992610036
 10
152.5112765460736
 20
-18.5742323087245
 10
152.5112765460736
 20
-19.50544161838753
 10
152.5112765460736
 20
-19.50544161838753
 10
152.5112765460736
 20
-23.13174912616151
 10
152.5112765460736
 20
-23.13174912616151
 97
        0
 75
     2
 76
     1
 98
        0
  0
SPLINE
  5
139
330
1F
100
AcDbEntity
  8
\U+30D5\U+30A9\U+30FC\U+30DE\U+30C3\U+30C8
370
     0
100
AcDbSpline
210
0.0
220
0.0
230
1.0
 70
    11
 71
     3
 72
    68
 73
    64
 74
     0
 42
0.0000000001
 43
0.0000000001
 40
0.0
 40
0.0
 40
0.0
 40
0.0
 40
1.0
 40
1.0
 40
1.0
 40
2.0
 40
2.0
 40
2.0
 40
3.0
 40
3.0
 40
3.0
 40
4.0
 40
4.0
 40
4.0
 40
5.0
 40
5.0
 40
5.0
 40
6.0
 40
6.0
 40
6.0
 40
7.0
 40
7.0
 40
7.0
 40
8.0
 40
8.0
 40
8.0
 40
9.0
 40
9.0
 40
9.0
 40
10.0
 40
10.0
 40
10.0
 40
11.0
 40
11.0
 40
11.0
 40
12.0
 40
12.0
 40
12.0
 40
13.0
 40
13.0
 40
13.0
 40
14.0
 40
14.0
 40
14.0
 40
15.0
 40
15.0
 40
15.0
 40
16.0
 40
16.0
 40
16.0
 40
17.0
 40
17.0
 40
17.0
 40
18.0
 40
18.0
 40
18.0
 40
19.0
 40
19.0
 40
19.0
 40
20.0
 40
20.0
 40
20.0
 40
21.0
 40
21.0
 40
21.0
 40
21.0
 10
162.6054063178556
 20
-23.13174912616151
 30
0.0
 10
162.6054063178556
 20
-23.193760844896
 30
0.0
 10
162.5564859619651
 20
-23.24164767214098
 30
0.0
 10
162.4951632623276
 20
-23.24164767214098
 30
0.0
 10
162.4951632623276
 20
-23.24164767214098
 30
0.0
 10
159.495174113772
 20
-23.24164767214098
 30
0.0
 10
159.495174113772
 20
-23.24164767214098
 30
0.0
 10
158.570510485531
 20
-23.24164767214098
 30
0.0
 10
157.8194796697465
 20
-22.49130587545356
 30
0.0
 10
157.8194796697465
 20
-21.56526420901841
 30
0.0
 10
157.8194796697465
 20
-20.6399115616803
 30
0.0
 10
158.570510485531
 20
-19.88922525544436
 30
0.0
 10
159.495174113772
 20
-19.88922525544436
 30
0.0
 10
159.495174113772
 20
-19.88922525544436
 30
0.0
 10
160.6644395214659
 20
-19.88922525544436
 30
0.0
 10
160.6644395214659
 20
-19.88922525544436
 30
0.0
 10
160.7250732020062
 20
-19.88922525544436
 30
0.0
 10
160.7746825769938
 20
-19.93814561133491
 30
0.0
 10
160.7746825769938
 20
-19.99946831097236
 30
0.0
 10
160.7746825769938
 20
-19.99946831097236
 30
0.0
 10
160.7746825769938
 20
-21.06365830636603
 30
0.0
 10
160.7746825769938
 20
-21.06365830636603
 30
0.0
 10
160.7746825769938
 20
-21.12360296780938
 30
0.0
 10
160.7250732020062
 20
-21.17252332369993
 30
0.0
 10
160.6644395214659
 20
-21.17252332369993
 30
0.0
 10
160.6644395214659
 20
-21.17252332369993
 30
0.0
 10
159.5806124818062
 20
-21.1735568523455
 30
0.0
 10
159.5806124818062
 20
-21.1735568523455
 30
0.0
 10
159.3656385235267
 20
-21.1735568523455
 30
0.0
 10
159.191316691973
 20
-21.34822319344767
 30
0.0
 10
159.191316691973
 20
-21.56285264217873
 30
0.0
 10
159.191316691973
 20
-21.77851561955537
 30
0.0
 10
159.3656385235267
 20
-21.95421548930311
 30
0.0
 10
159.5806124818062
 20
-21.95421548930311
 30
0.0
 10
159.5806124818062
 20
-21.95421548930311
 30
0.0
 10
161.0992105717044
 20
-21.95214843201196
 30
0.0
 10
161.0992105717044
 20
-21.95214843201196
 30
0.0
 10
161.0992105717044
 20
-21.95214843201196
 30
0.0
 10
161.0992105717044
 20
-19.70422362788645
 30
0.0
 10
161.0992105717044
 20
-19.70422362788645
 30
0.0
 10
161.0992105717044
 20
-19.37521700904508
 30
0.0
 10
160.832560181146
 20
-19.10891112803527
 30
0.0
 10
160.5032090527561
 20
-19.10891112803527
 30
0.0
 10
160.5032090527561
 20
-19.10891112803527
 30
0.0
 10
158.3672498519012
 20
-19.10891112803527
 30
0.0
 10
158.3672498519012
 20
-19.10891112803527
 30
0.0
 10
158.3073051904579
 20
-19.10891112803527
 30
0.0
 10
158.2583848345674
 20
-19.06033528169325
 30
0.0
 10
158.2583848345674
 20
-18.99935709160433
 30
0.0
 10
158.2583848345674
 20
-18.99935709160433
 30
0.0
 10
158.2583848345674
 20
-17.93068847207983
 30
0.0
 10
158.2583848345674
 20
-17.93068847207983
 30
0.0
 10
158.2583848345674
 20
-17.87074381063648
 30
0.0
 10
158.3073051904579
 20
-17.82078992610036
 30
0.0
 10
158.3672498519012
 20
-17.82078992610036
 30
0.0
 10
158.3672498519012
 20
-17.82078992610036
 30
0.0
 10
160.9228216828596
 20
-17.82078992610036
 30
0.0
 10
160.9228216828596
 20
-17.82078992610036
 30
0.0
 10
161.8536864829741
 20
-17.82078992610036
 30
0.0
 10
162.6054063178556
 20
-18.5742323087245
 30
0.0
 10
162.6054063178556
 20
-19.50544161838753
 30
0.0
 10
162.6054063178556
 20
-19.50544161838753
 30
0.0
 10
162.6054063178556
 20
-23.13174912616151
 30
0.0
 10
162.6054063178556
 20
-23.13174912616151
 30
0.0
  0
HATCH
  5
13A
330
1F
100
AcDbEntity
  8
\U+30D5\U+30A9\U+30FC\U+30DE\U+30C3\U+30C8
 62
     7
100
AcDbHatch
 10
0.0
 20
0.0
 30
0.0
210
0.0
220
0.0
230
1.0
  2
SOLID
 70
     1
 71
     0
 91
        1
 92
        1
 93
        1
 72
     4
 94
        3
 73
     0
 74
     1
 95
       68
 96
       64
 40
0.0
 40
0.0
 40
0.0
 40
0.0
 40
1.0
 40
1.0
 40
1.0
 40
2.0
 40
2.0
 40
2.0
 40
3.0
 40
3.0
 40
3.0
 40
4.0
 40
4.0
 40
4.0
 40
5.0
 40
5.0
 40
5.0
 40
6.0
 40
6.0
 40
6.0
 40
7.0
 40
7.0
 40
7.0
 40
8.0
 40
8.0
 40
8.0
 40
9.0
 40
9.0
 40
9.0
 40
10.0
 40
10.0
 40
10.0
 40
11.0
 40
11.0
 40
11.0
 40
12.0
 40
12.0
 40
12.0
 40
13.0
 40
13.0
 40
13.0
 40
14.0
 40
14.0
 40
14.0
 40
15.0
 40
15.0
 40
15.0
 40
16.0
 40
16.0
 40
16.0
 40
17.0
 40
17.0
 40
17.0
 40
18.0
 40
18.0
 40
18.0
 40
19.0
 40
19.0
 40
19.0
 40
20.0
 40
20.0
 40
20.0
 40
21.0
 40
21.0
 40
21.0
 40
21.0
 10
162.6054063178556
 20
-23.13174912616151
 10
162.6054063178556
 20
-23.193760844896
 10
162.5564859619651
 20
-23.24164767214098
 10
162.4951632623276
 20
-23.24164767214098
 10
162.4951632623276
 20
-23.24164767214098
 10
159.495174113772
 20
-23.24164767214098
 10
159.495174113772
 20
-23.24164767214098
 10
158.570510485531
 20
-23.24164767214098
 10
157.8194796697465
 20
-22.49130587545356
 10
157.8194796697465
 20
-21.56526420901841
 10
157.8194796697465
 20
-20.6399115616803
 10
158.570510485531
 20
-19.88922525544436
 10
159.495174113772
 20
-19.88922525544436
 10
159.495174113772
 20
-19.88922525544436
 10
160.6644395214659
 20
-19.88922525544436
 10
160.6644395214659
 20
-19.88922525544436
 10
160.7250732020062
 20
-19.88922525544436
 10
160.7746825769938
 20
-19.93814561133491
 10
160.7746825769938
 20
-19.99946831097236
 10
160.7746825769938
 20
-19.99946831097236
 10
160.7746825769938
 20
-21.06365830636603
 10
160.7746825769938
 20
-21.06365830636603
 10
160.7746825769938
 20
-21.12360296780938
 10
160.7250732020062
 20
-21.17252332369993
 10
160.6644395214659
 20
-21.17252332369993
 10
160.6644395214659
 20
-21.17252332369993
 10
159.5806124818062
 20
-21.1735568523455
 10
159.5806124818062
 20
-21.1735568523455
 10
159.3656385235267
 20
-21.1735568523455
 10
159.191316691973
 20
-21.34822319344767
 10
159.191316691973
 20
-21.56285264217873
 10
159.191316691973
 20
-21.77851561955537
 10
159.3656385235267
 20
-21.95421548930311
 10
159.5806124818062
 20
-21.95421548930311
 10
159.5806124818062
 20
-21.95421548930311
 10
161.0992105717044
 20
-21.95214843201196
 10
161.0992105717044
 20
-21.95214843201196
 10
161.0992105717044
 20
-21.95214843201196
 10
161.0992105717044
 20
-19.70422362788645
 10
161.0992105717044
 20
-19.70422362788645
 10
161.0992105717044
 20
-19.37521700904508
 10
160.832560181146
 20
-19.10891112803527
 10
160.5032090527561
 20
-19.10891112803527
 10
160.5032090527561
 20
-19.10891112803527
 10
158.3672498519012
 20
-19.10891112803527
 10
158.3672498519012
 20
-19.10891112803527
 10
158.3073051904579
 20
-19.10891112803527
 10
158.2583848345674
 20
-19.06033528169325
 10
158.2583848345674
 20
-18.99935709160433
 10
158.2583848345674
 20
-18.99935709160433
 10
158.2583848345674
 20
-17.93068847207983
 10
158.2583848345674
 20
-17.93068847207983
 10
158.2583848345674
 20
-17.87074381063648
 10
158.3073051904579
 20
-17.82078992610036
 10
158.3672498519012
 20
-17.82078992610036
 10
158.3672498519012
 20
-17.82078992610036
 10
160.9228216828596
 20
-17.82078992610036
 10
160.9228216828596
 20
-17.82078992610036
 10
161.8536864829741
 20
-17.82078992610036
 10
162.6054063178556
 20
-18.5742323087245
 10
162.6054063178556
 20
-19.50544161838753
 10
162.6054063178556
 20
-19.50544161838753
 10
162.6054063178556
 20
-23.13174912616151
 10
162.6054063178556
 20
-23.13174912616151
 97
        0
 75
     2
 76
     1
 98
        0
  0
SPLINE
  5
13B
330
1F
100
AcDbEntity
  8
\U+30D5\U+30A9\U+30FC\U+30DE\U+30C3\U+30C8
370
     0
100
AcDbSpline
210
0.0
220
0.0
230
1.0
 70
    11
 71
     3
 72
    65
 73
    61
 74
     0
 42
0.0000000001
 43
0.0000000001
 40
0.0
 40
0.0
 40
0.0
 40
0.0
 40
1.0
 40
1.0
 40
1.0
 40
2.0
 40
2.0
 40
2.0
 40
3.0
 40
3.0
 40
3.0
 40
4.0
 40
4.0
 40
4.0
 40
5.0
 40
5.0
 40
5.0
 40
6.0
 40
6.0
 40
6.0
 40
7.0
 40
7.0
 40
7.0
 40
8.0
 40
8.0
 40
8.0
 40
9.0
 40
9.0
 40
9.0
 40
10.0
 40
10.0
 40
10.0
 40
11.0
 40
11.0
 40
11.0
 40
12.0
 40
12.0
 40
12.0
 40
13.0
 40
13.0
 40
13.0
 40
14.0
 40
14.0
 40
14.0
 40
15.0
 40
15.0
 40
15.0
 40
16.0
 40
16.0
 40
16.0
 40
17.0
 40
17.0
 40
17.0
 40
18.0
 40
18.0
 40
18.0
 40
19.0
 40
19.0
 40
19.0
 40
20.0
 40
20.0
 40
20.0
 40
20.0
 10
163.2420599635298
 20
-23.24715982491738
 30
0.0
 10
163.1821153020864
 20
-23.24715982491738
 30
0.0
 10
163.1338839652929
 20
-23.19996201676945
 30
0.0
 10
163.1338839652929
 20
-23.14036186487463
 30
0.0
 10
163.1338839652929
 20
-23.14036186487463
 30
0.0
 10
163.1338839652929
 20
-22.06997069760751
 30
0.0
 10
163.1338839652929
 20
-22.06997069760751
 30
0.0
 10
163.1338839652929
 20
-22.01002603616416
 30
0.0
 10
163.1821153020864
 20
-21.95869411343394
 30
0.0
 10
163.2420599635298
 20
-21.95869411343394
 30
0.0
 10
163.2420599635298
 20
-21.95869411343394
 30
0.0
 10
165.7914306226147
 20
-21.95869411343394
 30
0.0
 10
165.7914306226147
 20
-21.95869411343394
 30
0.0
 10
166.0064045808942
 20
-21.95869411343394
 30
0.0
 10
166.1807264124479
 20
-21.78127169594357
 30
0.0
 10
166.1807264124479
 20
-21.56423068037283
 30
0.0
 10
166.1807264124479
 20
-21.35063476028734
 30
0.0
 10
166.0064045808942
 20
-21.1735568523455
 30
0.0
 10
165.7914306226147
 20
-21.1735568523455
 30
0.0
 10
165.7914306226147
 20
-21.1735568523455
 30
0.0
 10
164.6607502843557
 20
-21.14255099297825
 30
0.0
 10
164.6607502843557
 20
-21.14255099297825
 30
0.0
 10
163.7402207706969
 20
-21.14255099297825
 30
0.0
 10
162.9933240694947
 20
-20.40082193500396
 30
0.0
 10
162.9933240694947
 20
-19.48580457412161
 30
0.0
 10
162.9933240694947
 20
-18.57113172278777
 30
0.0
 10
163.7402207706969
 20
-17.82802462661938
 30
0.0
 10
164.6607502843557
 20
-17.82802462661938
 30
0.0
 10
164.6607502843557
 20
-17.82802462661938
 30
0.0
 10
167.2280354399638
 20
-17.82802462661938
 30
0.0
 10
167.2280354399638
 20
-17.82802462661938
 30
0.0
 10
167.2886691205042
 20
-17.82802462661938
 30
0.0
 10
167.3369004572977
 20
-17.87591145386436
 30
0.0
 10
167.3369004572977
 20
-17.93516709621065
 30
0.0
 10
167.3369004572977
 20
-17.93516709621065
 30
0.0
 10
167.3369004572977
 20
-18.9935004292794
 30
0.0
 10
167.3369004572977
 20
-18.9935004292794
 30
0.0
 10
167.3369004572977
 20
-19.05482312891685
 30
0.0
 10
167.2886691205042
 20
-19.10615505164707
 30
0.0
 10
167.2280354399638
 20
-19.10615505164707
 30
0.0
 10
167.2280354399638
 20
-19.10615505164707
 30
0.0
 10
164.8192246766772
 20
-19.10615505164707
 30
0.0
 10
164.8192246766772
 20
-19.10615505164707
 30
0.0
 10
164.6049397374946
 20
-19.10615505164707
 30
0.0
 10
164.4292398677469
 20
-19.28392197868596
 30
0.0
 10
164.4292398677469
 20
-19.4982069178685
 30
0.0
 10
164.4292398677469
 20
-19.71421440479367
 30
0.0
 10
164.6049397374946
 20
-19.88819172679879
 30
0.0
 10
164.8192246766772
 20
-19.88819172679879
 30
0.0
 10
164.8192246766772
 20
-19.88819172679879
 30
0.0
 10
165.9636853968771
 20
-19.92298719119981
 30
0.0
 10
165.9636853968771
 20
-19.92298719119981
 30
0.0
 10
166.8849039296329
 20
-19.92298719119981
 30
0.0
 10
167.6331786690292
 20
-20.66574977781967
 30
0.0
 10
167.6331786690292
 20
-21.58111164825056
 30
0.0
 10
167.6331786690292
 20
-22.49819606642406
 30
0.0
 10
166.8849039296329
 20
-23.24715982491738
 30
0.0
 10
165.9636853968771
 20
-23.24715982491738
 30
0.0
 10
165.9636853968771
 20
-23.24715982491738
 30
0.0
 10
163.2420599635298
 20
-23.24715982491738
 30
0.0
 10
163.2420599635298
 20
-23.24715982491738
 30
0.0
  0
HATCH
  5
13C
330
1F
100
AcDbEntity
  8
\U+30D5\U+30A9\U+30FC\U+30DE\U+30C3\U+30C8
 62
     7
100
AcDbHatch
 10
0.0
 20
0.0
 30
0.0
210
0.0
220
0.0
230
1.0
  2
SOLID
 70
     1
 71
     0
 91
        1
 92
        1
 93
        1
 72
     4
 94
        3
 73
     0
 74
     1
 95
       65
 96
       61
 40
0.0
 40
0.0
 40
0.0
 40
0.0
 40
1.0
 40
1.0
 40
1.0
 40
2.0
 40
2.0
 40
2.0
 40
3.0
 40
3.0
 40
3.0
 40
4.0
 40
4.0
 40
4.0
 40
5.0
 40
5.0
 40
5.0
 40
6.0
 40
6.0
 40
6.0
 40
7.0
 40
7.0
 40
7.0
 40
8.0
 40
8.0
 40
8.0
 40
9.0
 40
9.0
 40
9.0
 40
10.0
 40
10.0
 40
10.0
 40
11.0
 40
11.0
 40
11.0
 40
12.0
 40
12.0
 40
12.0
 40
13.0
 40
13.0
 40
13.0
 40
14.0
 40
14.0
 40
14.0
 40
15.0
 40
15.0
 40
15.0
 40
16.0
 40
16.0
 40
16.0
 40
17.0
 40
17.0
 40
17.0
 40
18.0
 40
18.0
 40
18.0
 40
19.0
 40
19.0
 40
19.0
 40
20.0
 40
20.0
 40
20.0
 40
20.0
 10
163.2420599635298
 20
-23.24715982491738
 10
163.1821153020864
 20
-23.24715982491738
 10
163.1338839652929
 20
-23.19996201676945
 10
163.1338839652929
 20
-23.14036186487463
 10
163.1338839652929
 20
-23.14036186487463
 10
163.1338839652929
 20
-22.06997069760751
 10
163.1338839652929
 20
-22.06997069760751
 10
163.1338839652929
 20
-22.01002603616416
 10
163.1821153020864
 20
-21.95869411343394
 10
163.2420599635298
 20
-21.95869411343394
 10
163.2420599635298
 20
-21.95869411343394
 10
165.7914306226147
 20
-21.95869411343394
 10
165.7914306226147
 20
-21.95869411343394
 10
166.0064045808942
 20
-21.95869411343394
 10
166.1807264124479
 20
-21.78127169594357
 10
166.1807264124479
 20
-21.56423068037283
 10
166.1807264124479
 20
-21.35063476028734
 10
166.0064045808942
 20
-21.1735568523455
 10
165.7914306226147
 20
-21.1735568523455
 10
165.7914306226147
 20
-21.1735568523455
 10
164.6607502843557
 20
-21.14255099297825
 10
164.6607502843557
 20
-21.14255099297825
 10
163.7402207706969
 20
-21.14255099297825
 10
162.9933240694947
 20
-20.40082193500396
 10
162.9933240694947
 20
-19.48580457412161
 10
162.9933240694947
 20
-18.57113172278777
 10
163.7402207706969
 20
-17.82802462661938
 10
164.6607502843557
 20
-17.82802462661938
 10
164.6607502843557
 20
-17.82802462661938
 10
167.2280354399638
 20
-17.82802462661938
 10
167.2280354399638
 20
-17.82802462661938
 10
167.2886691205042
 20
-17.82802462661938
 10
167.3369004572977
 20
-17.87591145386436
 10
167.3369004572977
 20
-17.93516709621065
 10
167.3369004572977
 20
-17.93516709621065
 10
167.3369004572977
 20
-18.9935004292794
 10
167.3369004572977
 20
-18.9935004292794
 10
167.3369004572977
 20
-19.05482312891685
 10
167.2886691205042
 20
-19.10615505164707
 10
167.2280354399638
 20
-19.10615505164707
 10
167.2280354399638
 20
-19.10615505164707
 10
164.8192246766772
 20
-19.10615505164707
 10
164.8192246766772
 20
-19.10615505164707
 10
164.6049397374946
 20
-19.10615505164707
 10
164.4292398677469
 20
-19.28392197868596
 10
164.4292398677469
 20
-19.4982069178685
 10
164.4292398677469
 20
-19.71421440479367
 10
164.6049397374946
 20
-19.88819172679879
 10
164.8192246766772
 20
-19.88819172679879
 10
164.8192246766772
 20
-19.88819172679879
 10
165.9636853968771
 20
-19.92298719119981
 10
165.9636853968771
 20
-19.92298719119981
 10
166.8849039296329
 20
-19.92298719119981
 10
167.6331786690292
 20
-20.66574977781967
 10
167.6331786690292
 20
-21.58111164825056
 10
167.6331786690292
 20
-22.49819606642406
 10
166.8849039296329
 20
-23.24715982491738
 10
165.9636853968771
 20
-23.24715982491738
 10
165.9636853968771
 20
-23.24715982491738
 10
163.2420599635298
 20
-23.24715982491738
 10
163.2420599635298
 20
-23.24715982491738
 97
        0
 75
     2
 76
     1
 98
        0
  0
SPLINE
  5
13D
330
1F
100
AcDbEntity
  8
\U+30D5\U+30A9\U+30FC\U+30DE\U+30C3\U+30C8
370
     0
100
AcDbSpline
210
0.0
220
0.0
230
1.0
 70
    11
 71
     3
 72
    65
 73
    61
 74
     0
 42
0.0000000001
 43
0.0000000001
 40
0.0
 40
0.0
 40
0.0
 40
0.0
 40
1.0
 40
1.0
 40
1.0
 40
2.0
 40
2.0
 40
2.0
 40
3.0
 40
3.0
 40
3.0
 40
4.0
 40
4.0
 40
4.0
 40
5.0
 40
5.0
 40
5.0
 40
6.0
 40
6.0
 40
6.0
 40
7.0
 40
7.0
 40
7.0
 40
8.0
 40
8.0
 40
8.0
 40
9.0
 40
9.0
 40
9.0
 40
10.0
 40
10.0
 40
10.0
 40
11.0
 40
11.0
 40
11.0
 40
12.0
 40
12.0
 40
12.0
 40
13.0
 40
13.0
 40
13.0
 40
14.0
 40
14.0
 40
14.0
 40
15.0
 40
15.0
 40
15.0
 40
16.0
 40
16.0
 40
16.0
 40
17.0
 40
17.0
 40
17.0
 40
18.0
 40
18.0
 40
18.0
 40
19.0
 40
19.0
 40
19.0
 40
20.0
 40
20.0
 40
20.0
 40
20.0
 10
172.3805202477035
 20
-17.82251247384298
 30
0.0
 10
172.3805202477035
 20
-17.82251247384298
 30
0.0
 10
171.1761148660601
 20
-17.82251247384298
 30
0.0
 10
171.1761148660601
 20
-17.82251247384298
 30
0.0
 10
171.1154811855197
 20
-17.82251247384298
 30
0.0
 10
170.9893906907596
 20
-17.87177733928206
 30
0.0
 10
170.9893906907596
 20
-17.93137749117688
 30
0.0
 10
170.9893906907596
 20
-17.93137749117688
 30
0.0
 10
170.9893906907596
 20
-19.88267957402239
 30
0.0
 10
170.9893906907596
 20
-19.88267957402239
 30
0.0
 10
170.9893906907596
 20
-19.88267957402239
 30
0.0
 10
169.4797498491231
 20
-19.88267957402239
 30
0.0
 10
169.4797498491231
 20
-19.88267957402239
 30
0.0
 10
169.4797498491231
 20
-19.88267957402239
 30
0.0
 10
169.4797498491231
 20
-17.93137749117688
 30
0.0
 10
169.4797498491231
 20
-17.93137749117688
 30
0.0
 10
169.4797498491231
 20
-17.87177733928206
 30
0.0
 10
169.4301404741355
 20
-17.82251247384298
 30
0.0
 10
169.3708848317892
 20
-17.82251247384298
 30
0.0
 10
169.3708848317892
 20
-17.82251247384298
 30
0.0
 10
168.0879312730822
 20
-17.82251247384298
 30
0.0
 10
168.0879312730822
 20
-17.82251247384298
 30
0.0
 10
168.0279866116389
 20
-17.82251247384298
 30
0.0
 10
167.9790662557483
 20
-17.87177733928206
 30
0.0
 10
167.9790662557483
 20
-17.93137749117688
 30
0.0
 10
167.9790662557483
 20
-17.93137749117688
 30
0.0
 10
167.9790662557483
 20
-23.13174912616151
 30
0.0
 10
167.9790662557483
 20
-23.13174912616151
 30
0.0
 10
167.9790662557483
 20
-23.193760844896
 30
0.0
 10
168.0279866116389
 20
-23.24164767214098
 30
0.0
 10
168.0879312730822
 20
-23.24164767214098
 30
0.0
 10
168.0879312730822
 20
-23.24164767214098
 30
0.0
 10
169.3708848317892
 20
-23.24164767214098
 30
0.0
 10
169.3708848317892
 20
-23.24164767214098
 30
0.0
 10
169.4301404741355
 20
-23.24164767214098
 30
0.0
 10
169.4797498491231
 20
-23.193760844896
 30
0.0
 10
169.4797498491231
 20
-23.13174912616151
 30
0.0
 10
169.4797498491231
 20
-23.13174912616151
 30
0.0
 10
169.4797498491231
 20
-21.1694227377632
 30
0.0
 10
169.4797498491231
 20
-21.1694227377632
 30
0.0
 10
169.4797498491231
 20
-21.1694227377632
 30
0.0
 10
170.9893906907596
 20
-21.1694227377632
 30
0.0
 10
170.9893906907596
 20
-21.1694227377632
 30
0.0
 10
170.9893906907596
 20
-21.1694227377632
 30
0.0
 10
170.9893906907596
 20
-23.13174912616151
 30
0.0
 10
170.9893906907596
 20
-23.13174912616151
 30
0.0
 10
170.9893906907596
 20
-23.193760844896
 30
0.0
 10
171.0383110466502
 20
-23.24164767214098
 30
0.0
 10
171.0982557080935
 20
-23.24164767214098
 30
0.0
 10
171.0982557080935
 20
-23.24164767214098
 30
0.0
 10
172.3805202477035
 20
-23.24164767214098
 30
0.0
 10
172.3805202477035
 20
-23.24164767214098
 30
0.0
 10
172.4404649091468
 20
-23.24164767214098
 30
0.0
 10
172.4893852650374
 20
-23.193760844896
 30
0.0
 10
172.4893852650374
 20
-23.13174912616151
 30
0.0
 10
172.4893852650374
 20
-23.13174912616151
 30
0.0
 10
172.4893852650374
 20
-17.93137749117688
 30
0.0
 10
172.4893852650374
 20
-17.93137749117688
 30
0.0
 10
172.4893852650374
 20
-17.87177733928206
 30
0.0
 10
172.4404649091468
 20
-17.82251247384298
 30
0.0
 10
172.3805202477035
 20
-17.82251247384298
 30
0.0
  0
HATCH
  5
13E
330
1F
100
AcDbEntity
  8
\U+30D5\U+30A9\U+30FC\U+30DE\U+30C3\U+30C8
 62
     7
100
AcDbHatch
 10
0.0
 20
0.0
 30
0.0
210
0.0
220
0.0
230
1.0
  2
SOLID
 70
     1
 71
     0
 91
        1
 92
        1
 93
        1
 72
     4
 94
        3
 73
     0
 74
     1
 95
       65
 96
       61
 40
0.0
 40
0.0
 40
0.0
 40
0.0
 40
1.0
 40
1.0
 40
1.0
 40
2.0
 40
2.0
 40
2.0
 40
3.0
 40
3.0
 40
3.0
 40
4.0
 40
4.0
 40
4.0
 40
5.0
 40
5.0
 40
5.0
 40
6.0
 40
6.0
 40
6.0
 40
7.0
 40
7.0
 40
7.0
 40
8.0
 40
8.0
 40
8.0
 40
9.0
 40
9.0
 40
9.0
 40
10.0
 40
10.0
 40
10.0
 40
11.0
 40
11.0
 40
11.0
 40
12.0
 40
12.0
 40
12.0
 40
13.0
 40
13.0
 40
13.0
 40
14.0
 40
14.0
 40
14.0
 40
15.0
 40
15.0
 40
15.0
 40
16.0
 40
16.0
 40
16.0
 40
17.0
 40
17.0
 40
17.0
 40
18.0
 40
18.0
 40
18.0
 40
19.0
 40
19.0
 40
19.0
 40
20.0
 40
20.0
 40
20.0
 40
20.0
 10
172.3805202477035
 20
-17.82251247384298
 10
172.3805202477035
 20
-17.82251247384298
 10
171.1761148660601
 20
-17.82251247384298
 10
171.1761148660601
 20
-17.82251247384298
 10
171.1154811855197
 20
-17.82251247384298
 10
170.9893906907596
 20
-17.87177733928206
 10
170.9893906907596
 20
-17.93137749117688
 10
170.9893906907596
 20
-17.93137749117688
 10
170.9893906907596
 20
-19.88267957402239
 10
170.9893906907596
 20
-19.88267957402239
 10
170.9893906907596
 20
-19.88267957402239
 10
169.4797498491231
 20
-19.88267957402239
 10
169.4797498491231
 20
-19.88267957402239
 10
169.4797498491231
 20
-19.88267957402239
 10
169.4797498491231
 20
-17.93137749117688
 10
169.4797498491231
 20
-17.93137749117688
 10
169.4797498491231
 20
-17.87177733928206
 10
169.4301404741355
 20
-17.82251247384298
 10
169.3708848317892
 20
-17.82251247384298
 10
169.3708848317892
 20
-17.82251247384298
 10
168.0879312730822
 20
-17.82251247384298
 10
168.0879312730822
 20
-17.82251247384298
 10
168.0279866116389
 20
-17.82251247384298
 10
167.9790662557483
 20
-17.87177733928206
 10
167.9790662557483
 20
-17.93137749117688
 10
167.9790662557483
 20
-17.93137749117688
 10
167.9790662557483
 20
-23.13174912616151
 10
167.9790662557483
 20
-23.13174912616151
 10
167.9790662557483
 20
-23.193760844896
 10
168.0279866116389
 20
-23.24164767214098
 10
168.0879312730822
 20
-23.24164767214098
 10
168.0879312730822
 20
-23.24164767214098
 10
169.3708848317892
 20
-23.24164767214098
 10
169.3708848317892
 20
-23.24164767214098
 10
169.4301404741355
 20
-23.24164767214098
 10
169.4797498491231
 20
-23.193760844896
 10
169.4797498491231
 20
-23.13174912616151
 10
169.4797498491231
 20
-23.13174912616151
 10
169.4797498491231
 20
-21.1694227377632
 10
169.4797498491231
 20
-21.1694227377632
 10
169.4797498491231
 20
-21.1694227377632
 10
170.9893906907596
 20
-21.1694227377632
 10
170.9893906907596
 20
-21.1694227377632
 10
170.9893906907596
 20
-21.1694227377632
 10
170.9893906907596
 20
-23.13174912616151
 10
170.9893906907596
 20
-23.13174912616151
 10
170.9893906907596
 20
-23.193760844896
 10
171.0383110466502
 20
-23.24164767214098
 10
171.0982557080935
 20
-23.24164767214098
 10
171.0982557080935
 20
-23.24164767214098
 10
172.3805202477035
 20
-23.24164767214098
 10
172.3805202477035
 20
-23.24164767214098
 10
172.4404649091468
 20
-23.24164767214098
 10
172.4893852650374
 20
-23.193760844896
 10
172.4893852650374
 20
-23.13174912616151
 10
172.4893852650374
 20
-23.13174912616151
 10
172.4893852650374
 20
-17.93137749117688
 10
172.4893852650374
 20
-17.93137749117688
 10
172.4893852650374
 20
-17.87177733928206
 10
172.4404649091468
 20
-17.82251247384298
 10
172.3805202477035
 20
-17.82251247384298
 97
        0
 75
     2
 76
     1
 98
        0
  0
SPLINE
  5
13F
330
1F
100
AcDbEntity
  8
\U+30D5\U+30A9\U+30FC\U+30DE\U+30C3\U+30C8
370
     0
100
AcDbSpline
210
0.0
220
0.0
230
1.0
 70
    11
 71
     3
 72
    29
 73
    25
 74
     0
 42
0.0000000001
 43
0.0000000001
 40
0.0
 40
0.0
 40
0.0
 40
0.0
 40
1.0
 40
1.0
 40
1.0
 40
2.0
 40
2.0
 40
2.0
 40
3.0
 40
3.0
 40
3.0
 40
4.0
 40
4.0
 40
4.0
 40
5.0
 40
5.0
 40
5.0
 40
6.0
 40
6.0
 40
6.0
 40
7.0
 40
7.0
 40
7.0
 40
8.0
 40
8.0
 40
8.0
 40
8.0
 10
176.4726046650833
 20
-17.82182345474594
 30
0.0
 10
176.4726046650833
 20
-17.82182345474594
 30
0.0
 10
174.4606689016973
 20
-17.82182345474594
 30
0.0
 10
174.4606689016973
 20
-17.82182345474594
 30
0.0
 10
173.6117973741318
 20
-17.82182345474594
 30
0.0
 10
172.9214002388877
 20
-18.5108425517959
 30
0.0
 10
172.9214002388877
 20
-19.36074760800703
 30
0.0
 10
172.9214002388877
 20
-19.36074760800703
 30
0.0
 10
172.9214002388877
 20
-21.69790038520053
 30
0.0
 10
172.9214002388877
 20
-21.69790038520053
 30
0.0
 10
172.9214002388877
 20
-22.54746093186314
 30
0.0
 10
173.6117973741318
 20
-23.23613551936458
 30
0.0
 10
174.4606689016973
 20
-23.23613551936458
 30
0.0
 10
174.4606689016973
 20
-23.23613551936458
 30
0.0
 10
176.4726046650833
 20
-23.23613551936458
 30
0.0
 10
176.4726046650833
 20
-23.23613551936458
 30
0.0
 10
177.3221652117459
 20
-23.23613551936458
 30
0.0
 10
178.0104952896988
 20
-22.54746093186314
 30
0.0
 10
178.0104952896988
 20
-21.69790038520053
 30
0.0
 10
178.0104952896988
 20
-21.69790038520053
 30
0.0
 10
178.0104952896988
 20
-19.36074760800703
 30
0.0
 10
178.0104952896988
 20
-19.36074760800703
 30
0.0
 10
178.0104952896988
 20
-18.5108425517959
 30
0.0
 10
177.3221652117459
 20
-17.82182345474594
 30
0.0
 10
176.4726046650833
 20
-17.82182345474594
 30
0.0
  0
SPLINE
  5
140
330
1F
100
AcDbEntity
  8
\U+30D5\U+30A9\U+30FC\U+30DE\U+30C3\U+30C8
370
     0
100
AcDbSpline
210
0.0
220
0.0
230
1.0
 70
    11
 71
     3
 72
    29
 73
    25
 74
     0
 42
0.0000000001
 43
0.0000000001
 40
0.0
 40
0.0
 40
0.0
 40
0.0
 40
1.0
 40
1.0
 40
1.0
 40
2.0
 40
2.0
 40
2.0
 40
3.0
 40
3.0
 40
3.0
 40
4.0
 40
4.0
 40
4.0
 40
5.0
 40
5.0
 40
5.0
 40
6.0
 40
6.0
 40
6.0
 40
7.0
 40
7.0
 40
7.0
 40
8.0
 40
8.0
 40
8.0
 40
8.0
 10
176.5077446390328
 20
-21.39507649204706
 30
0.0
 10
176.5077446390328
 20
-21.69790038520053
 30
0.0
 10
176.261764821386
 20
-21.94353569329884
 30
0.0
 10
175.959285437781
 20
-21.94353569329884
 30
0.0
 10
175.959285437781
 20
-21.94353569329884
 30
0.0
 10
174.9739881289996
 20
-21.94353569329884
 30
0.0
 10
174.9739881289996
 20
-21.94353569329884
 30
0.0
 10
174.6701307072005
 20
-21.94353569329884
 30
0.0
 10
174.4248399086507
 20
-21.69790038520053
 30
0.0
 10
174.4248399086507
 20
-21.39507649204706
 30
0.0
 10
174.4248399086507
 20
-21.39507649204706
 30
0.0
 10
174.4248399086507
 20
-19.66322699161197
 30
0.0
 10
174.4248399086507
 20
-19.66322699161197
 30
0.0
 10
174.4248399086507
 20
-19.36074760800703
 30
0.0
 10
174.6701307072005
 20
-19.11545680945725
 30
0.0
 10
174.9739881289996
 20
-19.11545680945725
 30
0.0
 10
174.9739881289996
 20
-19.11545680945725
 30
0.0
 10
175.959285437781
 20
-19.11545680945725
 30
0.0
 10
175.959285437781
 20
-19.11545680945725
 30
0.0
 10
176.261764821386
 20
-19.11545680945725
 30
0.0
 10
176.5077446390328
 20
-19.36074760800703
 30
0.0
 10
176.5077446390328
 20
-19.66322699161197
 30
0.0
 10
176.5077446390328
 20
-19.66322699161197
 30
0.0
 10
176.5077446390328
 20
-21.39507649204706
 30
0.0
 10
176.5077446390328
 20
-21.39507649204706
 30
0.0
  0
HATCH
  5
141
330
1F
100
AcDbEntity
  8
\U+30D5\U+30A9\U+30FC\U+30DE\U+30C3\U+30C8
 62
     7
100
AcDbHatch
 10
0.0
 20
0.0
 30
0.0
210
0.0
220
0.0
230
1.0
  2
SOLID
 70
     1
 71
     0
 91
        2
 92
        1
 93
        1
 72
     4
 94
        3
 73
     0
 74
     1
 95
       29
 96
       25
 40
0.0
 40
0.0
 40
0.0
 40
0.0
 40
1.0
 40
1.0
 40
1.0
 40
2.0
 40
2.0
 40
2.0
 40
3.0
 40
3.0
 40
3.0
 40
4.0
 40
4.0
 40
4.0
 40
5.0
 40
5.0
 40
5.0
 40
6.0
 40
6.0
 40
6.0
 40
7.0
 40
7.0
 40
7.0
 40
8.0
 40
8.0
 40
8.0
 40
8.0
 10
176.5077446390328
 20
-21.39507649204706
 10
176.5077446390328
 20
-21.69790038520053
 10
176.261764821386
 20
-21.94353569329884
 10
175.959285437781
 20
-21.94353569329884
 10
175.959285437781
 20
-21.94353569329884
 10
174.9739881289996
 20
-21.94353569329884
 10
174.9739881289996
 20
-21.94353569329884
 10
174.6701307072005
 20
-21.94353569329884
 10
174.4248399086507
 20
-21.69790038520053
 10
174.4248399086507
 20
-21.39507649204706
 10
174.4248399086507
 20
-21.39507649204706
 10
174.4248399086507
 20
-19.66322699161197
 10
174.4248399086507
 20
-19.66322699161197
 10
174.4248399086507
 20
-19.36074760800703
 10
174.6701307072005
 20
-19.11545680945725
 10
174.9739881289996
 20
-19.11545680945725
 10
174.9739881289996
 20
-19.11545680945725
 10
175.959285437781
 20
-19.11545680945725
 10
175.959285437781
 20
-19.11545680945725
 10
176.261764821386
 20
-19.11545680945725
 10
176.5077446390328
 20
-19.36074760800703
 10
176.5077446390328
 20
-19.66322699161197
 10
176.5077446390328
 20
-19.66322699161197
 10
176.5077446390328
 20
-21.39507649204706
 10
176.5077446390328
 20
-21.39507649204706
 97
        0
 92
        1
 93
        2
 72
     4
 94
        3
 73
     0
 74
     0
 95
       29
 96
       25
 40
0.0
 40
0.0
 40
0.0
 40
0.0
 40
0.3527777776895833
 40
0.3527777776895833
 40
0.3527777776895833
 40
0.7055555553791667
 40
0.7055555553791667
 40
0.7055555553791667
 40
1.05833333306875
 40
1.05833333306875
 40
1.05833333306875
 40
1.411111110758333
 40
1.411111110758333
 40
1.411111110758333
 40
1.763888888447917
 40
1.763888888447917
 40
1.763888888447917
 40
2.1166666661375
 40
2.1166666661375
 40
2.1166666661375
 40
2.469444443827083
 40
2.469444443827083
 40
2.469444443827083
 40
2.822222221516667
 40
2.822222221516667
 40
2.822222221516667
 40
2.822222221516667
 10
176.4726046650833
 20
-17.82182345474594
 10
176.4726046650833
 20
-17.82182345474594
 10
174.4606689016973
 20
-17.82182345474594
 10
174.4606689016973
 20
-17.82182345474594
 10
173.6117973741318
 20
-17.82182345474594
 10
172.9214002388877
 20
-18.5108425517959
 10
172.9214002388877
 20
-19.36074760800703
 10
172.9214002388877
 20
-19.36074760800703
 10
172.9214002388877
 20
-21.69790038520053
 10
172.9214002388877
 20
-21.69790038520053
 10
172.9214002388877
 20
-22.54746093186314
 10
173.6117973741318
 20
-23.23613551936458
 10
174.4606689016973
 20
-23.23613551936458
 10
174.4606689016973
 20
-23.23613551936458
 10
176.4726046650833
 20
-23.23613551936458
 10
176.4726046650833
 20
-23.23613551936458
 10
177.3221652117459
 20
-23.23613551936458
 10
178.0104952896988
 20
-22.54746093186314
 10
178.0104952896988
 20
-21.69790038520053
 10
178.0104952896988
 20
-21.69790038520053
 10
178.0104952896988
 20
-19.36074760800703
 10
178.0104952896988
 20
-19.36074760800703
 10
178.0104952896988
 20
-18.5108425517959
 10
177.3221652117459
 20
-17.82182345474594
 10
176.4726046650833
 20
-17.82182345474594
 72
     1
 10
176.4726046650833
 20
-17.82182345474594
 11
176.4726046650833
 21
-17.82182345474594
 97
        0
 75
     2
 76
     1
 98
        0
  0
SPLINE
  5
142
330
1F
100
AcDbEntity
  8
\U+30D5\U+30A9\U+30FC\U+30DE\U+30C3\U+30C8
370
     0
100
AcDbSpline
210
0.0
220
0.0
230
1.0
 70
    11
 71
     3
 72
    47
 73
    43
 74
     0
 42
0.0000000001
 43
0.0000000001
 40
0.0
 40
0.0
 40
0.0
 40
0.0
 40
1.0
 40
1.0
 40
1.0
 40
2.0
 40
2.0
 40
2.0
 40
3.0
 40
3.0
 40
3.0
 40
4.0
 40
4.0
 40
4.0
 40
5.0
 40
5.0
 40
5.0
 40
6.0
 40
6.0
 40
6.0
 40
7.0
 40
7.0
 40
7.0
 40
8.0
 40
8.0
 40
8.0
 40
9.0
 40
9.0
 40
9.0
 40
10.0
 40
10.0
 40
10.0
 40
11.0
 40
11.0
 40
11.0
 40
12.0
 40
12.0
 40
12.0
 40
13.0
 40
13.0
 40
13.0
 40
14.0
 40
14.0
 40
14.0
 40
14.0
 10
149.2012288038455
 20
-15.73512911933011
 30
0.0
 10
149.2012288038455
 20
-15.73512911933011
 30
0.0
 10
143.3369872688532
 20
-15.73512911933011
 30
0.0
 10
143.3369872688532
 20
-15.73512911933011
 30
0.0
 10
143.2832437792834
 20
-15.73512911933011
 30
0.0
 10
143.2391465570722
 20
-15.7792263415413
 30
0.0
 10
143.2391465570722
 20
-15.83365885020825
 30
0.0
 10
143.2391465570722
 20
-15.83365885020825
 30
0.0
 10
143.2391465570722
 20
-17.12901475266219
 30
0.0
 10
143.2391465570722
 20
-17.12901475266219
 30
0.0
 10
143.2391465570722
 20
-17.18379177087767
 30
0.0
 10
143.2832437792834
 20
-17.22788899308886
 30
0.0
 10
143.3369872688532
 20
-17.22788899308886
 30
0.0
 10
143.3369872688532
 20
-17.22788899308886
 30
0.0
 10
145.401288483615
 20
-17.22788899308886
 30
0.0
 10
145.401288483615
 20
-17.22788899308886
 30
0.0
 10
145.401288483615
 20
-17.22788899308886
 30
0.0
 10
145.401288483615
 20
-23.13174912616151
 30
0.0
 10
145.401288483615
 20
-23.13174912616151
 30
0.0
 10
145.401288483615
 20
-23.193760844896
 30
0.0
 10
145.4495198204085
 20
-23.24164767214098
 30
0.0
 10
145.5101535009489
 20
-23.24164767214098
 30
0.0
 10
145.5101535009489
 20
-23.24164767214098
 30
0.0
 10
147.0273735526529
 20
-23.24164767214098
 30
0.0
 10
147.0273735526529
 20
-23.24164767214098
 30
0.0
 10
147.0886962522903
 20
-23.24164767214098
 30
0.0
 10
147.1355495508897
 20
-23.193760844896
 30
0.0
 10
147.1355495508897
 20
-23.13174912616151
 30
0.0
 10
147.1355495508897
 20
-23.13174912616151
 30
0.0
 10
147.1355495508897
 20
-17.22788899308886
 30
0.0
 10
147.1355495508897
 20
-17.22788899308886
 30
0.0
 10
147.1355495508897
 20
-17.22788899308886
 30
0.0
 10
149.2012288038455
 20
-17.22788899308886
 30
0.0
 10
149.2012288038455
 20
-17.22788899308886
 30
0.0
 10
149.2556613125125
 20
-17.22788899308886
 30
0.0
 10
149.2983804965296
 20
-17.18379177087767
 30
0.0
 10
149.2983804965296
 20
-17.12901475266219
 30
0.0
 10
149.2983804965296
 20
-17.12901475266219
 30
0.0
 10
149.2983804965296
 20
-15.83365885020825
 30
0.0
 10
149.2983804965296
 20
-15.83365885020825
 30
0.0
 10
149.2983804965296
 20
-15.7792263415413
 30
0.0
 10
149.2556613125125
 20
-15.73512911933011
 30
0.0
 10
149.2012288038455
 20
-15.73512911933011
 30
0.0
  0
HATCH
  5
143
330
1F
100
AcDbEntity
  8
\U+30D5\U+30A9\U+30FC\U+30DE\U+30C3\U+30C8
 62
     7
100
AcDbHatch
 10
0.0
 20
0.0
 30
0.0
210
0.0
220
0.0
230
1.0
  2
SOLID
 70
     1
 71
     0
 91
        1
 92
        1
 93
        1
 72
     4
 94
        3
 73
     0
 74
     1
 95
       47
 96
       43
 40
0.0
 40
0.0
 40
0.0
 40
0.0
 40
1.0
 40
1.0
 40
1.0
 40
2.0
 40
2.0
 40
2.0
 40
3.0
 40
3.0
 40
3.0
 40
4.0
 40
4.0
 40
4.0
 40
5.0
 40
5.0
 40
5.0
 40
6.0
 40
6.0
 40
6.0
 40
7.0
 40
7.0
 40
7.0
 40
8.0
 40
8.0
 40
8.0
 40
9.0
 40
9.0
 40
9.0
 40
10.0
 40
10.0
 40
10.0
 40
11.0
 40
11.0
 40
11.0
 40
12.0
 40
12.0
 40
12.0
 40
13.0
 40
13.0
 40
13.0
 40
14.0
 40
14.0
 40
14.0
 40
14.0
 10
149.2012288038455
 20
-15.73512911933011
 10
149.2012288038455
 20
-15.73512911933011
 10
143.3369872688532
 20
-15.73512911933011
 10
143.3369872688532
 20
-15.73512911933011
 10
143.2832437792834
 20
-15.73512911933011
 10
143.2391465570722
 20
-15.7792263415413
 10
143.2391465570722
 20
-15.83365885020825
 10
143.2391465570722
 20
-15.83365885020825
 10
143.2391465570722
 20
-17.12901475266219
 10
143.2391465570722
 20
-17.12901475266219
 10
143.2391465570722
 20
-17.18379177087767
 10
143.2832437792834
 20
-17.22788899308886
 10
143.3369872688532
 20
-17.22788899308886
 10
143.3369872688532
 20
-17.22788899308886
 10
145.401288483615
 20
-17.22788899308886
 10
145.401288483615
 20
-17.22788899308886
 10
145.401288483615
 20
-17.22788899308886
 10
145.401288483615
 20
-23.13174912616151
 10
145.401288483615
 20
-23.13174912616151
 10
145.401288483615
 20
-23.193760844896
 10
145.4495198204085
 20
-23.24164767214098
 10
145.5101535009489
 20
-23.24164767214098
 10
145.5101535009489
 20
-23.24164767214098
 10
147.0273735526529
 20
-23.24164767214098
 10
147.0273735526529
 20
-23.24164767214098
 10
147.0886962522903
 20
-23.24164767214098
 10
147.1355495508897
 20
-23.193760844896
 10
147.1355495508897
 20
-23.13174912616151
 10
147.1355495508897
 20
-23.13174912616151
 10
147.1355495508897
 20
-17.22788899308886
 10
147.1355495508897
 20
-17.22788899308886
 10
147.1355495508897
 20
-17.22788899308886
 10
149.2012288038455
 20
-17.22788899308886
 10
149.2012288038455
 20
-17.22788899308886
 10
149.2556613125125
 20
-17.22788899308886
 10
149.2983804965296
 20
-17.18379177087767
 10
149.2983804965296
 20
-17.12901475266219
 10
149.2983804965296
 20
-17.12901475266219
 10
149.2983804965296
 20
-15.83365885020825
 10
149.2983804965296
 20
-15.83365885020825
 10
149.2983804965296
 20
-15.7792263415413
 10
149.2556613125125
 20
-15.73512911933011
 10
149.2012288038455
 20
-15.73512911933011
 97
        0
 75
     2
 76
     1
 98
        0
  0
SPLINE
  5
144
330
1F
100
AcDbEntity
  8
\U+30D5\U+30A9\U+30FC\U+30DE\U+30C3\U+30C8
370
     0
100
AcDbSpline
210
0.0
220
0.0
230
1.0
 70
    11
 71
     3
 72
    29
 73
    25
 74
     0
 42
0.0000000001
 43
0.0000000001
 40
0.0
 40
0.0
 40
0.0
 40
0.0
 40
1.0
 40
1.0
 40
1.0
 40
2.0
 40
2.0
 40
2.0
 40
3.0
 40
3.0
 40
3.0
 40
4.0
 40
4.0
 40
4.0
 40
5.0
 40
5.0
 40
5.0
 40
6.0
 40
6.0
 40
6.0
 40
7.0
 40
7.0
 40
7.0
 40
8.0
 40
8.0
 40
8.0
 40
8.0
 10
154.3585367452645
 20
-23.24164767214098
 30
0.0
 10
154.4184814067079
 20
-23.24164767214098
 30
0.0
 10
154.4687798007925
 20
-23.193760844896
 30
0.0
 10
154.4687798007925
 20
-23.13071559751593
 30
0.0
 10
154.4687798007925
 20
-23.13071559751593
 30
0.0
 10
154.4687798007925
 20
-17.9234537715608
 30
0.0
 10
154.4687798007925
 20
-17.9234537715608
 30
0.0
 10
154.4687798007925
 20
-17.86316460056893
 30
0.0
 10
154.4184814067079
 20
-17.81458875422691
 30
0.0
 10
154.3585367452645
 20
-17.81458875422691
 30
0.0
 10
154.3585367452645
 20
-17.81458875422691
 30
0.0
 10
153.0714490719752
 20
-17.81458875422691
 30
0.0
 10
153.0714490719752
 20
-17.81458875422691
 30
0.0
 10
153.0101263723378
 20
-17.81458875422691
 30
0.0
 10
152.9612060164472
 20
-17.86316460056893
 30
0.0
 10
152.9612060164472
 20
-17.9234537715608
 30
0.0
 10
152.9612060164472
 20
-17.9234537715608
 30
0.0
 10
152.9612060164472
 20
-23.13071559751593
 30
0.0
 10
152.9612060164472
 20
-23.13071559751593
 30
0.0
 10
152.9612060164472
 20
-23.193760844896
 30
0.0
 10
153.0101263723378
 20
-23.24164767214098
 30
0.0
 10
153.0714490719752
 20
-23.24164767214098
 30
0.0
 10
153.0714490719752
 20
-23.24164767214098
 30
0.0
 10
154.3585367452645
 20
-23.24164767214098
 30
0.0
 10
154.3585367452645
 20
-23.24164767214098
 30
0.0
  0
HATCH
  5
145
330
1F
100
AcDbEntity
  8
\U+30D5\U+30A9\U+30FC\U+30DE\U+30C3\U+30C8
 62
     7
100
AcDbHatch
 10
0.0
 20
0.0
 30
0.0
210
0.0
220
0.0
230
1.0
  2
SOLID
 70
     1
 71
     0
 91
        1
 92
        1
 93
        1
 72
     4
 94
        3
 73
     0
 74
     1
 95
       29
 96
       25
 40
0.0
 40
0.0
 40
0.0
 40
0.0
 40
1.0
 40
1.0
 40
1.0
 40
2.0
 40
2.0
 40
2.0
 40
3.0
 40
3.0
 40
3.0
 40
4.0
 40
4.0
 40
4.0
 40
5.0
 40
5.0
 40
5.0
 40
6.0
 40
6.0
 40
6.0
 40
7.0
 40
7.0
 40
7.0
 40
8.0
 40
8.0
 40
8.0
 40
8.0
 10
154.3585367452645
 20
-23.24164767214098
 10
154.4184814067079
 20
-23.24164767214098
 10
154.4687798007925
 20
-23.193760844896
 10
154.4687798007925
 20
-23.13071559751593
 10
154.4687798007925
 20
-23.13071559751593
 10
154.4687798007925
 20
-17.9234537715608
 10
154.4687798007925
 20
-17.9234537715608
 10
154.4687798007925
 20
-17.86316460056893
 10
154.4184814067079
 20
-17.81458875422691
 10
154.3585367452645
 20
-17.81458875422691
 10
154.3585367452645
 20
-17.81458875422691
 10
153.0714490719752
 20
-17.81458875422691
 10
153.0714490719752
 20
-17.81458875422691
 10
153.0101263723378
 20
-17.81458875422691
 10
152.9612060164472
 20
-17.86316460056893
 10
152.9612060164472
 20
-17.9234537715608
 10
152.9612060164472
 20
-17.9234537715608
 10
152.9612060164472
 20
-23.13071559751593
 10
152.9612060164472
 20
-23.13071559751593
 10
152.9612060164472
 20
-23.193760844896
 10
153.0101263723378
 20
-23.24164767214098
 10
153.0714490719752
 20
-23.24164767214098
 10
153.0714490719752
 20
-23.24164767214098
 10
154.3585367452645
 20
-23.24164767214098
 10
154.3585367452645
 20
-23.24164767214098
 97
        0
 75
     2
 76
     1
 98
        0
  0
SPLINE
  5
146
330
1F
100
AcDbEntity
  8
\U+30D5\U+30A9\U+30FC\U+30DE\U+30C3\U+30C8
370
     0
100
AcDbSpline
210
0.0
220
0.0
230
1.0
 70
    11
 71
     3
 72
    29
 73
    25
 74
     0
 42
0.0000000001
 43
0.0000000001
 40
0.0
 40
0.0
 40
0.0
 40
0.0
 40
1.0
 40
1.0
 40
1.0
 40
2.0
 40
2.0
 40
2.0
 40
3.0
 40
3.0
 40
3.0
 40
4.0
 40
4.0
 40
4.0
 40
5.0
 40
5.0
 40
5.0
 40
6.0
 40
6.0
 40
6.0
 40
7.0
 40
7.0
 40
7.0
 40
8.0
 40
8.0
 40
8.0
 40
8.0
 10
156.4827826214696
 20
-17.81803384971216
 30
0.0
 10
156.3801187760091
 20
-17.81803384971216
 30
0.0
 10
156.2884792361015
 20
-17.86936577244238
 30
0.0
 10
156.2333577083375
 20
-17.94756943995755
 30
0.0
 10
156.2333577083375
 20
-17.94756943995755
 30
0.0
 10
154.4687798007925
 20
-20.53173556344345
 30
0.0
 10
154.4687798007925
 20
-20.53173556344345
 30
0.0
 10
154.4687798007925
 20
-20.53173556344345
 30
0.0
 10
156.2216443836876
 20
-23.23613551936458
 30
0.0
 10
156.2216443836876
 20
-23.23613551936458
 30
0.0
 10
156.2216443836876
 20
-23.23613551936458
 30
0.0
 10
158.0654594873934
 20
-23.23613551936458
 30
0.0
 10
158.0654594873934
 20
-23.23613551936458
 30
0.0
 10
158.0654594873934
 20
-23.23613551936458
 30
0.0
 10
156.0583468576868
 20
-20.53173556344345
 30
0.0
 10
156.0583468576868
 20
-20.53173556344345
 30
0.0
 10
156.0583468576868
 20
-20.53173556344345
 30
0.0
 10
158.0640814491993
 20
-17.81975639745479
 30
0.0
 10
158.0640814491993
 20
-17.81975639745479
 30
0.0
 10
158.0640814491993
 20
-17.81975639745479
 30
0.0
 10
156.4820936023725
 20
-17.81975639745479
 30
0.0
 10
156.4820936023725
 20
-17.81975639745479
 30
0.0
 10
156.4820936023725
 20
-17.81975639745479
 30
0.0
 10
156.4827826214696
 20
-17.81803384971216
 30
0.0
 10
156.4827826214696
 20
-17.81803384971216
 30
0.0
  0
HATCH
  5
147
330
1F
100
AcDbEntity
  8
\U+30D5\U+30A9\U+30FC\U+30DE\U+30C3\U+30C8
 62
     7
100
AcDbHatch
 10
0.0
 20
0.0
 30
0.0
210
0.0
220
0.0
230
1.0
  2
SOLID
 70
     1
 71
     0
 91
        1
 92
        1
 93
        1
 72
     4
 94
        3
 73
     0
 74
     1
 95
       29
 96
       25
 40
0.0
 40
0.0
 40
0.0
 40
0.0
 40
1.0
 40
1.0
 40
1.0
 40
2.0
 40
2.0
 40
2.0
 40
3.0
 40
3.0
 40
3.0
 40
4.0
 40
4.0
 40
4.0
 40
5.0
 40
5.0
 40
5.0
 40
6.0
 40
6.0
 40
6.0
 40
7.0
 40
7.0
 40
7.0
 40
8.0
 40
8.0
 40
8.0
 40
8.0
 10
156.4827826214696
 20
-17.81803384971216
 10
156.3801187760091
 20
-17.81803384971216
 10
156.2884792361015
 20
-17.86936577244238
 10
156.2333577083375
 20
-17.94756943995755
 10
156.2333577083375
 20
-17.94756943995755
 10
154.4687798007925
 20
-20.53173556344345
 10
154.4687798007925
 20
-20.53173556344345
 10
154.4687798007925
 20
-20.53173556344345
 10
156.2216443836876
 20
-23.23613551936458
 10
156.2216443836876
 20
-23.23613551936458
 10
156.2216443836876
 20
-23.23613551936458
 10
158.0654594873934
 20
-23.23613551936458
 10
158.0654594873934
 20
-23.23613551936458
 10
158.0654594873934
 20
-23.23613551936458
 10
156.0583468576868
 20
-20.53173556344345
 10
156.0583468576868
 20
-20.53173556344345
 10
156.0583468576868
 20
-20.53173556344345
 10
158.0640814491993
 20
-17.81975639745479
 10
158.0640814491993
 20
-17.81975639745479
 10
158.0640814491993
 20
-17.81975639745479
 10
156.4820936023725
 20
-17.81975639745479
 10
156.4820936023725
 20
-17.81975639745479
 10
156.4820936023725
 20
-17.81975639745479
 10
156.4827826214696
 20
-17.81803384971216
 10
156.4827826214696
 20
-17.81803384971216
 97
        0
 75
     2
 76
     1
 98
        0
  0
SPLINE
  5
148
330
1F
100
AcDbEntity
  8
\U+30D5\U+30A9\U+30FC\U+30DE\U+30C3\U+30C8
370
     0
100
AcDbSpline
210
0.0
220
0.0
230
1.0
 70
    11
 71
     3
 72
    29
 73
    25
 74
     0
 42
0.0000000001
 43
0.0000000001
 40
0.0
 40
0.0
 40
0.0
 40
0.0
 40
1.0
 40
1.0
 40
1.0
 40
2.0
 40
2.0
 40
2.0
 40
3.0
 40
3.0
 40
3.0
 40
4.0
 40
4.0
 40
4.0
 40
5.0
 40
5.0
 40
5.0
 40
6.0
 40
6.0
 40
6.0
 40
7.0
 40
7.0
 40
7.0
 40
8.0
 40
8.0
 40
8.0
 40
8.0
 10
133.5026176966591
 20
-19.48546006457308
 30
0.0
 10
133.6404215160691
 20
-19.48546006457308
 30
0.0
 10
133.7513535906941
 20
-19.37314995175393
 30
0.0
 10
133.7513535906941
 20
-19.23603515144099
 30
0.0
 10
133.7513535906941
 20
-19.23603515144099
 30
0.0
 10
133.7513535906941
 20
-15.9873101088504
 30
0.0
 10
133.7513535906941
 20
-15.9873101088504
 30
0.0
 10
133.7513535906941
 20
-15.84881727034335
 30
0.0
 10
133.6404215160691
 20
-15.73788519571831
 30
0.0
 10
133.5026176966591
 20
-15.73788519571831
 30
0.0
 10
133.5026176966591
 20
-15.73788519571831
 30
0.0
 10
130.2538926540685
 20
-15.73788519571831
 30
0.0
 10
130.2538926540685
 20
-15.73788519571831
 30
0.0
 10
130.1147107964644
 20
-15.73788519571831
 30
0.0
 10
130.0037787218394
 20
-15.84881727034335
 30
0.0
 10
130.0037787218394
 20
-15.9873101088504
 30
0.0
 10
130.0037787218394
 20
-15.9873101088504
 30
0.0
 10
130.0037787218394
 20
-19.23603515144099
 30
0.0
 10
130.0037787218394
 20
-19.23603515144099
 30
0.0
 10
130.0037787218394
 20
-19.37314995175393
 30
0.0
 10
130.1147107964644
 20
-19.48546006457308
 30
0.0
 10
130.2538926540685
 20
-19.48546006457308
 30
0.0
 10
130.2538926540685
 20
-19.48546006457308
 30
0.0
 10
133.5026176966591
 20
-19.48546006457308
 30
0.0
 10
133.5026176966591
 20
-19.48546006457308
 30
0.0
  0
HATCH
  5
149
330
1F
100
AcDbEntity
  8
\U+30D5\U+30A9\U+30FC\U+30DE\U+30C3\U+30C8
 62
     7
100
AcDbHatch
 10
0.0
 20
0.0
 30
0.0
210
0.0
220
0.0
230
1.0
  2
SOLID
 70
     1
 71
     0
 91
        1
 92
        1
 93
        1
 72
     4
 94
        3
 73
     0
 74
     1
 95
       29
 96
       25
 40
0.0
 40
0.0
 40
0.0
 40
0.0
 40
1.0
 40
1.0
 40
1.0
 40
2.0
 40
2.0
 40
2.0
 40
3.0
 40
3.0
 40
3.0
 40
4.0
 40
4.0
 40
4.0
 40
5.0
 40
5.0
 40
5.0
 40
6.0
 40
6.0
 40
6.0
 40
7.0
 40
7.0
 40
7.0
 40
8.0
 40
8.0
 40
8.0
 40
8.0
 10
133.5026176966591
 20
-19.48546006457308
 10
133.6404215160691
 20
-19.48546006457308
 10
133.7513535906941
 20
-19.37314995175393
 10
133.7513535906941
 20
-19.23603515144099
 10
133.7513535906941
 20
-19.23603515144099
 10
133.7513535906941
 20
-15.9873101088504
 10
133.7513535906941
 20
-15.9873101088504
 10
133.7513535906941
 20
-15.84881727034335
 10
133.6404215160691
 20
-15.73788519571831
 10
133.5026176966591
 20
-15.73788519571831
 10
133.5026176966591
 20
-15.73788519571831
 10
130.2538926540685
 20
-15.73788519571831
 10
130.2538926540685
 20
-15.73788519571831
 10
130.1147107964644
 20
-15.73788519571831
 10
130.0037787218394
 20
-15.84881727034335
 10
130.0037787218394
 20
-15.9873101088504
 10
130.0037787218394
 20
-15.9873101088504
 10
130.0037787218394
 20
-19.23603515144099
 10
130.0037787218394
 20
-19.23603515144099
 10
130.0037787218394
 20
-19.37314995175393
 10
130.1147107964644
 20
-19.48546006457308
 10
130.2538926540685
 20
-19.48546006457308
 10
130.2538926540685
 20
-19.48546006457308
 10
133.5026176966591
 20
-19.48546006457308
 10
133.5026176966591
 20
-19.48546006457308
 97
        0
 75
     2
 76
     1
 98
        0
  0
SPLINE
  5
14A
330
1F
100
AcDbEntity
  8
\U+30D5\U+30A9\U+30FC\U+30DE\U+30C3\U+30C8
370
     0
100
AcDbSpline
210
0.0
220
0.0
230
1.0
 70
    11
 71
     3
 72
    29
 73
    25
 74
     0
 42
0.0000000001
 43
0.0000000001
 40
0.0
 40
0.0
 40
0.0
 40
0.0
 40
1.0
 40
1.0
 40
1.0
 40
2.0
 40
2.0
 40
2.0
 40
3.0
 40
3.0
 40
3.0
 40
4.0
 40
4.0
 40
4.0
 40
5.0
 40
5.0
 40
5.0
 40
6.0
 40
6.0
 40
6.0
 40
7.0
 40
7.0
 40
7.0
 40
8.0
 40
8.0
 40
8.0
 40
8.0
 10
137.252259622805
 20
-23.23475748117048
 30
0.0
 10
137.3893744231179
 20
-23.23475748117048
 30
0.0
 10
137.500306497743
 20
-23.12313638744838
 30
0.0
 10
137.500306497743
 20
-22.98429903939282
 30
0.0
 10
137.500306497743
 20
-22.98429903939282
 30
0.0
 10
137.500306497743
 20
-19.73660752544779
 30
0.0
 10
137.500306497743
 20
-19.73660752544779
 30
0.0
 10
137.500306497743
 20
-19.59914821558633
 30
0.0
 10
137.3893744231179
 20
-19.48787163141276
 30
0.0
 10
137.252259622805
 20
-19.48787163141276
 30
0.0
 10
137.252259622805
 20
-19.48787163141276
 30
0.0
 10
134.0035345802144
 20
-19.48787163141276
 30
0.0
 10
134.0035345802144
 20
-19.48787163141276
 30
0.0
 10
133.8657307608044
 20
-19.48787163141276
 30
0.0
 10
133.7520426097912
 20
-19.59914821558633
 30
0.0
 10
133.7520426097912
 20
-19.73660752544779
 30
0.0
 10
133.7520426097912
 20
-19.73660752544779
 30
0.0
 10
133.7520426097912
 20
-22.98429903939282
 30
0.0
 10
133.7520426097912
 20
-22.98429903939282
 30
0.0
 10
133.7520426097912
 20
-23.12313638744838
 30
0.0
 10
133.8657307608044
 20
-23.23475748117048
 30
0.0
 10
134.0035345802144
 20
-23.23475748117048
 30
0.0
 10
134.0035345802144
 20
-23.23475748117048
 30
0.0
 10
137.252259622805
 20
-23.23475748117048
 30
0.0
 10
137.252259622805
 20
-23.23475748117048
 30
0.0
  0
HATCH
  5
14B
330
1F
100
AcDbEntity
  8
\U+30D5\U+30A9\U+30FC\U+30DE\U+30C3\U+30C8
 62
     7
100
AcDbHatch
 10
0.0
 20
0.0
 30
0.0
210
0.0
220
0.0
230
1.0
  2
SOLID
 70
     1
 71
     0
 91
        1
 92
        1
 93
        1
 72
     4
 94
        3
 73
     0
 74
     1
 95
       29
 96
       25
 40
0.0
 40
0.0
 40
0.0
 40
0.0
 40
1.0
 40
1.0
 40
1.0
 40
2.0
 40
2.0
 40
2.0
 40
3.0
 40
3.0
 40
3.0
 40
4.0
 40
4.0
 40
4.0
 40
5.0
 40
5.0
 40
5.0
 40
6.0
 40
6.0
 40
6.0
 40
7.0
 40
7.0
 40
7.0
 40
8.0
 40
8.0
 40
8.0
 40
8.0
 10
137.252259622805
 20
-23.23475748117048
 10
137.3893744231179
 20
-23.23475748117048
 10
137.500306497743
 20
-23.12313638744838
 10
137.500306497743
 20
-22.98429903939282
 10
137.500306497743
 20
-22.98429903939282
 10
137.500306497743
 20
-19.73660752544779
 10
137.500306497743
 20
-19.73660752544779
 10
137.500306497743
 20
-19.59914821558633
 10
137.3893744231179
 20
-19.48787163141276
 10
137.252259622805
 20
-19.48787163141276
 10
137.252259622805
 20
-19.48787163141276
 10
134.0035345802144
 20
-19.48787163141276
 10
134.0035345802144
 20
-19.48787163141276
 10
133.8657307608044
 20
-19.48787163141276
 10
133.7520426097912
 20
-19.59914821558633
 10
133.7520426097912
 20
-19.73660752544779
 10
133.7520426097912
 20
-19.73660752544779
 10
133.7520426097912
 20
-22.98429903939282
 10
133.7520426097912
 20
-22.98429903939282
 10
133.7520426097912
 20
-23.12313638744838
 10
133.8657307608044
 20
-23.23475748117048
 10
134.0035345802144
 20
-23.23475748117048
 10
134.0035345802144
 20
-23.23475748117048
 10
137.252259622805
 20
-23.23475748117048
 10
137.252259622805
 20
-23.23475748117048
 97
        0
 75
     2
 76
     1
 98
        0
  0
SPLINE
  5
14C
330
1F
100
AcDbEntity
  8
\U+30D5\U+30A9\U+30FC\U+30DE\U+30C3\U+30C8
370
     0
100
AcDbSpline
210
0.0
220
0.0
230
1.0
 70
    11
 71
     3
 72
    29
 73
    25
 74
     0
 42
0.0000000001
 43
0.0000000001
 40
0.0
 40
0.0
 40
0.0
 40
0.0
 40
1.0
 40
1.0
 40
1.0
 40
2.0
 40
2.0
 40
2.0
 40
3.0
 40
3.0
 40
3.0
 40
4.0
 40
4.0
 40
4.0
 40
5.0
 40
5.0
 40
5.0
 40
6.0
 40
6.0
 40
6.0
 40
7.0
 40
7.0
 40
7.0
 40
8.0
 40
8.0
 40
8.0
 40
8.0
 10
141.0019015489509
 20
-19.48546006457308
 30
0.0
 10
141.1390163492639
 20
-19.48546006457308
 30
0.0
 10
141.251326462083
 20
-19.37314995175393
 30
0.0
 10
141.251326462083
 20
-19.23603515144099
 30
0.0
 10
141.251326462083
 20
-19.23603515144099
 30
0.0
 10
141.251326462083
 20
-15.9873101088504
 30
0.0
 10
141.251326462083
 20
-15.9873101088504
 30
0.0
 10
141.251326462083
 20
-15.84881727034335
 30
0.0
 10
141.1390163492639
 20
-15.73788519571831
 30
0.0
 10
141.0019015489509
 20
-15.73788519571831
 30
0.0
 10
141.0019015489509
 20
-15.73788519571831
 30
0.0
 10
137.7524874872633
 20
-15.73788519571831
 30
0.0
 10
137.7524874872633
 20
-15.73788519571831
 30
0.0
 10
137.6146836678533
 20
-15.73788519571831
 30
0.0
 10
137.5037515932282
 20
-15.84881727034335
 30
0.0
 10
137.5037515932282
 20
-15.9873101088504
 30
0.0
 10
137.5037515932282
 20
-15.9873101088504
 30
0.0
 10
137.5037515932282
 20
-19.23603515144099
 30
0.0
 10
137.5037515932282
 20
-19.23603515144099
 30
0.0
 10
137.5037515932282
 20
-19.37314995175393
 30
0.0
 10
137.6146836678533
 20
-19.48546006457308
 30
0.0
 10
137.7524874872633
 20
-19.48546006457308
 30
0.0
 10
137.7524874872633
 20
-19.48546006457308
 30
0.0
 10
141.0019015489509
 20
-19.48546006457308
 30
0.0
 10
141.0019015489509
 20
-19.48546006457308
 30
0.0
  0
HATCH
  5
14D
330
1F
100
AcDbEntity
  8
\U+30D5\U+30A9\U+30FC\U+30DE\U+30C3\U+30C8
 62
     7
100
AcDbHatch
 10
0.0
 20
0.0
 30
0.0
210
0.0
220
0.0
230
1.0
  2
SOLID
 70
     1
 71
     0
 91
        1
 92
        1
 93
        1
 72
     4
 94
        3
 73
     0
 74
     1
 95
       29
 96
       25
 40
0.0
 40
0.0
 40
0.0
 40
0.0
 40
1.0
 40
1.0
 40
1.0
 40
2.0
 40
2.0
 40
2.0
 40
3.0
 40
3.0
 40
3.0
 40
4.0
 40
4.0
 40
4.0
 40
5.0
 40
5.0
 40
5.0
 40
6.0
 40
6.0
 40
6.0
 40
7.0
 40
7.0
 40
7.0
 40
8.0
 40
8.0
 40
8.0
 40
8.0
 10
141.0019015489509
 20
-19.48546006457308
 10
141.1390163492639
 20
-19.48546006457308
 10
141.251326462083
 20
-19.37314995175393
 10
141.251326462083
 20
-19.23603515144099
 10
141.251326462083
 20
-19.23603515144099
 10
141.251326462083
 20
-15.9873101088504
 10
141.251326462083
 20
-15.9873101088504
 10
141.251326462083
 20
-15.84881727034335
 10
141.1390163492639
 20
-15.73788519571831
 10
141.0019015489509
 20
-15.73788519571831
 10
141.0019015489509
 20
-15.73788519571831
 10
137.7524874872633
 20
-15.73788519571831
 10
137.7524874872633
 20
-15.73788519571831
 10
137.6146836678533
 20
-15.73788519571831
 10
137.5037515932282
 20
-15.84881727034335
 10
137.5037515932282
 20
-15.9873101088504
 10
137.5037515932282
 20
-15.9873101088504
 10
137.5037515932282
 20
-19.23603515144099
 10
137.5037515932282
 20
-19.23603515144099
 10
137.5037515932282
 20
-19.37314995175393
 10
137.6146836678533
 20
-19.48546006457308
 10
137.7524874872633
 20
-19.48546006457308
 10
137.7524874872633
 20
-19.48546006457308
 10
141.0019015489509
 20
-19.48546006457308
 10
141.0019015489509
 20
-19.48546006457308
 97
        0
 75
     2
 76
     1
 98
        0
  0
SPLINE
  5
14E
330
1F
100
AcDbEntity
  8
\U+30D5\U+30A9\U+30FC\U+30DE\U+30C3\U+30C8
370
     0
100
AcDbSpline
210
0.0
220
0.0
230
1.0
 70
    11
 71
     3
 72
    29
 73
    25
 74
     0
 42
0.0000000001
 43
0.0000000001
 40
0.0
 40
0.0
 40
0.0
 40
0.0
 40
1.0
 40
1.0
 40
1.0
 40
2.0
 40
2.0
 40
2.0
 40
3.0
 40
3.0
 40
3.0
 40
4.0
 40
4.0
 40
4.0
 40
5.0
 40
5.0
 40
5.0
 40
6.0
 40
6.0
 40
6.0
 40
7.0
 40
7.0
 40
7.0
 40
8.0
 40
8.0
 40
8.0
 40
8.0
 10
133.5026176966591
 20
-26.98474391686493
 30
0.0
 10
133.6404215160691
 20
-26.98474391686493
 30
0.0
 10
133.7513535906941
 20
-26.87277831359431
 30
0.0
 10
133.7513535906941
 20
-26.73462998463579
 30
0.0
 10
133.7513535906941
 20
-26.73462998463579
 30
0.0
 10
133.7513535906941
 20
-23.48624945159372
 30
0.0
 10
133.7513535906941
 20
-23.48624945159372
 30
0.0
 10
133.7513535906941
 20
-23.34913465128077
 30
0.0
 10
133.6404215160691
 20
-23.23716904801015
 30
0.0
 10
133.5026176966591
 20
-23.23716904801015
 30
0.0
 10
133.5026176966591
 20
-23.23716904801015
 30
0.0
 10
130.2538926540685
 20
-23.23716904801015
 30
0.0
 10
130.2538926540685
 20
-23.23716904801015
 30
0.0
 10
130.1147107964644
 20
-23.23716904801015
 30
0.0
 10
130.0037787218394
 20
-23.34913465128077
 30
0.0
 10
130.0037787218394
 20
-23.48624945159372
 30
0.0
 10
130.0037787218394
 20
-23.48624945159372
 30
0.0
 10
130.0037787218394
 20
-26.73462998463579
 30
0.0
 10
130.0037787218394
 20
-26.73462998463579
 30
0.0
 10
130.0037787218394
 20
-26.87277831359431
 30
0.0
 10
130.1147107964644
 20
-26.98474391686493
 30
0.0
 10
130.2538926540685
 20
-26.98474391686493
 30
0.0
 10
130.2538926540685
 20
-26.98474391686493
 30
0.0
 10
133.5026176966591
 20
-26.98474391686493
 30
0.0
 10
133.5026176966591
 20
-26.98474391686493
 30
0.0
  0
HATCH
  5
14F
330
1F
100
AcDbEntity
  8
\U+30D5\U+30A9\U+30FC\U+30DE\U+30C3\U+30C8
 62
     7
100
AcDbHatch
 10
0.0
 20
0.0
 30
0.0
210
0.0
220
0.0
230
1.0
  2
SOLID
 70
     1
 71
     0
 91
        1
 92
        1
 93
        1
 72
     4
 94
        3
 73
     0
 74
     1
 95
       29
 96
       25
 40
0.0
 40
0.0
 40
0.0
 40
0.0
 40
1.0
 40
1.0
 40
1.0
 40
2.0
 40
2.0
 40
2.0
 40
3.0
 40
3.0
 40
3.0
 40
4.0
 40
4.0
 40
4.0
 40
5.0
 40
5.0
 40
5.0
 40
6.0
 40
6.0
 40
6.0
 40
7.0
 40
7.0
 40
7.0
 40
8.0
 40
8.0
 40
8.0
 40
8.0
 10
133.5026176966591
 20
-26.98474391686493
 10
133.6404215160691
 20
-26.98474391686493
 10
133.7513535906941
 20
-26.87277831359431
 10
133.7513535906941
 20
-26.73462998463579
 10
133.7513535906941
 20
-26.73462998463579
 10
133.7513535906941
 20
-23.48624945159372
 10
133.7513535906941
 20
-23.48624945159372
 10
133.7513535906941
 20
-23.34913465128077
 10
133.6404215160691
 20
-23.23716904801015
 10
133.5026176966591
 20
-23.23716904801015
 10
133.5026176966591
 20
-23.23716904801015
 10
130.2538926540685
 20
-23.23716904801015
 10
130.2538926540685
 20
-23.23716904801015
 10
130.1147107964644
 20
-23.23716904801015
 10
130.0037787218394
 20
-23.34913465128077
 10
130.0037787218394
 20
-23.48624945159372
 10
130.0037787218394
 20
-23.48624945159372
 10
130.0037787218394
 20
-26.73462998463579
 10
130.0037787218394
 20
-26.73462998463579
 10
130.0037787218394
 20
-26.87277831359431
 10
130.1147107964644
 20
-26.98474391686493
 10
130.2538926540685
 20
-26.98474391686493
 10
130.2538926540685
 20
-26.98474391686493
 10
133.5026176966591
 20
-26.98474391686493
 10
133.5026176966591
 20
-26.98474391686493
 97
        0
 75
     2
 76
     1
 98
        0
  0
MTEXT
  5
150
330
1F
100
AcDbEntity
  8
\U+30D5\U+30A9\U+30FC\U+30DE\U+30C3\U+30C8
 62
     7
100
AcDbMText
 10
186.3372910775476
 20
-21.27622069780595
 30
0.0
 40
2.604209742848704
 41
0.0
 71
     7
 72
     1
  1
\fHGPGothicE|b0|i0|c0|p34;\W1;和歌山県海南市南赤坂２０-１
 73
     1
 44
1.0
  0
MTEXT
  5
151
330
1F
100
AcDbEntity
  8
\U+30D5\U+30A9\U+30FC\U+30DE\U+30C3\U+30C8
 62
     7
100
AcDbMText
 10
186.8371744324574
 20
-25.81134439458883
 30
0.0
 40
2.604209742848704
 41
0.0
 71
     7
 72
     1
  1
\fHGPGothicE|b0|i0|c0|p34;\W1;ＴＥＬ.  
 73
     1
 44
1.0
  0
MTEXT
  5
152
330
1F
100
AcDbEntity
  8
\U+30D5\U+30A9\U+30FC\U+30DE\U+30C3\U+30C8
 62
     7
100
AcDbMText
 10
187.3370577873671
 20
-30.34646809137172
 30
0.0
 40
2.604209742848704
 41
0.0
 71
     7
 72
     1
  1
\fHGPGothicE|b0|i0|c0|p34;\W0.99;ＦＡＸ\W1;. 
 73
     1
 44
1.0
  0
MTEXT
  5
153
330
1F
100
AcDbEntity
  8
\U+30D5\U+30A9\U+30FC\U+30DE\U+30C3\U+30C8
 62
     7
100
AcDbMText
 10
198.9091335223213
 20
-26.28538953335921
 30
0.0
 40
2.604209742848704
 41
0.0
 71
     7
 72
     1
  1
\fHGPGothicE|b0|i0|c0|p34;\W1;０７３-４８２-４１２８
 73
     1
 44
1.0
  0
MTEXT
  5
154
330
1F
100
AcDbEntity
  8
\U+30D5\U+30A9\U+30FC\U+30DE\U+30C3\U+30C8
 62
     7
100
AcDbMText
 10
229.3682562360607
 20
-26.28538953335921
 30
0.0
 40
2.604209742848704
 41
0.0
 71
     7
 72
     1
  1
\fHGPGothicE|b0|i0|c0|p34;\W1;（代）
 73
     1
 44
1.0
  0
MTEXT
  5
155
330
1F
100
AcDbEntity
  8
\U+30D5\U+30A9\U+30FC\U+30DE\U+30C3\U+30C8
 62
     7
100
AcDbMText
 10
229.3682562360607
 20
-30.82051323014209
 30
0.0
 40
2.604209742848704
 41
0.0
 71
     7
 72
     1
  1
\fHGPGothicE|b0|i0|c0|p34;\W1;（代）
 73
     1
 44
1.0
  0
MTEXT
  5
156
330
1F
100
AcDbEntity
  8
\U+30D5\U+30A9\U+30FC\U+30DE\U+30C3\U+30C8
 62
     7
100
AcDbMText
 10
198.9091335223213
 20
-30.82051323014209
 30
0.0
 40
2.604209742848704
 41
0.0
 71
     7
 72
     1
  1
\fHGPGothicE|b0|i0|c0|p34;\W1;０７３-４８６-２５６０
 73
     1
 44
1.0
  0
SPLINE
  5
157
330
1F
100
AcDbEntity
  8
\U+30D5\U+30A9\U+30FC\U+30DE\U+30C3\U+30C8
370
     0
100
AcDbSpline
210
0.0
220
0.0
230
1.0
 70
    11
 71
     3
 72
    23
 73
    19
 74
     0
 42
0.0000000001
 43
0.0000000001
 40
0.0
 40
0.0
 40
0.0
 40
0.0
 40
1.0
 40
1.0
 40
1.0
 40
2.0
 40
2.0
 40
2.0
 40
3.0
 40
3.0
 40
3.0
 40
4.0
 40
4.0
 40
4.0
 40
5.0
 40
5.0
 40
5.0
 40
6.0
 40
6.0
 40
6.0
 40
6.0
 10
188.5573106082426
 20
-13.62156303912933
 30
0.0
 10
188.5573106082426
 20
-13.62156303912933
 30
0.0
 10
188.5573106082426
 20
-14.44700791739519
 30
0.0
 10
188.5573106082426
 20
-14.44700791739519
 30
0.0
 10
188.4567138200733
 20
-14.31678330805275
 30
0.0
 10
188.1473442454979
 20
-13.90681694530802
 30
0.0
 10
187.9930039677587
 20
-13.52716742283349
 30
0.0
 10
187.9930039677587
 20
-13.52716742283349
 30
0.0
 10
187.9930039677587
 20
-13.26602918505155
 30
0.0
 10
187.9930039677587
 20
-13.26602918505155
 30
0.0
 10
187.9930039677587
 20
-13.26602918505155
 30
0.0
 10
188.5387070926223
 20
-13.26602918505155
 30
0.0
 10
188.5387070926223
 20
-13.26602918505155
 30
0.0
 10
188.5387070926223
 20
-13.26602918505155
 30
0.0
 10
188.9962157730635
 20
-13.62156303912933
 30
0.0
 10
188.9962157730635
 20
-13.62156303912933
 30
0.0
 10
188.9962157730635
 20
-13.62156303912933
 30
0.0
 10
188.5573106082426
 20
-13.62156303912933
 30
0.0
 10
188.5573106082426
 20
-13.62156303912933
 30
0.0
  0
SPLINE
  5
158
330
1F
100
AcDbEntity
  8
\U+30D5\U+30A9\U+30FC\U+30DE\U+30C3\U+30C8
370
     0
100
AcDbSpline
210
0.0
220
0.0
230
1.0
 70
    11
 71
     3
 72
   128
 73
   124
 74
     0
 42
0.0000000001
 43
0.0000000001
 40
0.0
 40
0.0
 40
0.0
 40
0.0
 40
1.0
 40
1.0
 40
1.0
 40
2.0
 40
2.0
 40
2.0
 40
3.0
 40
3.0
 40
3.0
 40
4.0
 40
4.0
 40
4.0
 40
5.0
 40
5.0
 40
5.0
 40
6.0
 40
6.0
 40
6.0
 40
7.0
 40
7.0
 40
7.0
 40
8.0
 40
8.0
 40
8.0
 40
9.0
 40
9.0
 40
9.0
 40
10.0
 40
10.0
 40
10.0
 40
11.0
 40
11.0
 40
11.0
 40
12.0
 40
12.0
 40
12.0
 40
13.0
 40
13.0
 40
13.0
 40
14.0
 40
14.0
 40
14.0
 40
15.0
 40
15.0
 40
15.0
 40
16.0
 40
16.0
 40
16.0
 40
17.0
 40
17.0
 40
17.0
 40
18.0
 40
18.0
 40
18.0
 40
19.0
 40
19.0
 40
19.0
 40
20.0
 40
20.0
 40
20.0
 40
21.0
 40
21.0
 40
21.0
 40
22.0
 40
22.0
 40
22.0
 40
23.0
 40
23.0
 40
23.0
 40
24.0
 40
24.0
 40
24.0
 40
25.0
 40
25.0
 40
25.0
 40
26.0
 40
26.0
 40
26.0
 40
27.0
 40
27.0
 40
27.0
 40
28.0
 40
28.0
 40
28.0
 40
29.0
 40
29.0
 40
29.0
 40
30.0
 40
30.0
 40
30.0
 40
31.0
 40
31.0
 40
31.0
 40
32.0
 40
32.0
 40
32.0
 40
33.0
 40
33.0
 40
33.0
 40
34.0
 40
34.0
 40
34.0
 40
35.0
 40
35.0
 40
35.0
 40
36.0
 40
36.0
 40
36.0
 40
37.0
 40
37.0
 40
37.0
 40
38.0
 40
38.0
 40
38.0
 40
39.0
 40
39.0
 40
39.0
 40
40.0
 40
40.0
 40
40.0
 40
41.0
 40
41.0
 40
41.0
 40
41.0
 10
189.6190890367966
 20
-12.21527506205035
 30
0.0
 10
189.679722717337
 20
-11.94793565239496
 30
0.0
 10
189.7086615194131
 20
-11.80048556562627
 30
0.0
 10
189.7382893405863
 20
-11.65096842156643
 30
0.0
 10
189.7382893405863
 20
-11.65096842156643
 30
0.0
 10
188.9369601307172
 20
-11.57999945457028
 30
0.0
 10
188.9369601307172
 20
-11.57999945457028
 30
0.0
 10
188.8542778390712
 20
-12.19184841275065
 30
0.0
 10
188.6696207210618
 20
-12.60112575639833
 30
0.0
 10
188.5573106082426
 20
-12.81541069558087
 30
0.0
 10
188.5573106082426
 20
-12.81541069558087
 30
0.0
 10
188.5573106082426
 20
-12.44678547865914
 30
0.0
 10
188.5573106082426
 20
-12.44678547865914
 30
0.0
 10
188.5573106082426
 20
-12.44678547865914
 30
0.0
 10
187.9930039677587
 20
-12.44678547865914
 30
0.0
 10
187.9930039677587
 20
-12.44678547865914
 30
0.0
 10
187.9930039677587
 20
-12.44678547865914
 30
0.0
 10
187.9930039677587
 20
-11.46768934175113
 30
0.0
 10
187.9930039677587
 20
-11.46768934175113
 30
0.0
 10
187.9930039677587
 20
-11.46768934175113
 30
0.0
 10
187.1744492804633
 20
-11.46768934175113
 30
0.0
 10
187.1744492804633
 20
-11.46768934175113
 30
0.0
 10
187.1744492804633
 20
-11.46768934175113
 30
0.0
 10
187.1744492804633
 20
-12.44678547865914
 30
0.0
 10
187.1744492804633
 20
-12.44678547865914
 30
0.0
 10
187.1744492804633
 20
-12.44678547865914
 30
0.0
 10
186.4496011903668
 20
-12.44678547865914
 30
0.0
 10
186.4496011903668
 20
-12.44678547865914
 30
0.0
 10
186.4496011903668
 20
-12.44678547865914
 30
0.0
 10
186.4496011903668
 20
-13.26602918505155
 30
0.0
 10
186.4496011903668
 20
-13.26602918505155
 30
0.0
 10
186.4496011903668
 20
-13.26602918505155
 30
0.0
 10
187.1089924662436
 20
-13.26602918505155
 30
0.0
 10
187.1089924662436
 20
-13.26602918505155
 30
0.0
 10
186.8416530565882
 20
-14.19758300426311
 30
0.0
 10
186.5805148188063
 20
-14.58894585138749
 30
0.0
 10
186.3372910775476
 20
-14.89211425408947
 30
0.0
 10
186.3372910775476
 20
-14.89211425408947
 30
0.0
 10
186.6163438118529
 20
-16.06069064268622
 30
0.0
 10
186.6163438118529
 20
-16.06069064268622
 30
0.0
 10
186.7589707649422
 20
-15.85398491357123
 30
0.0
 10
186.9780788378041
 20
-15.51567653691969
 30
0.0
 10
187.1744492804633
 20
-14.83905978361662
 30
0.0
 10
187.1744492804633
 20
-14.83905978361662
 30
0.0
 10
187.1744492804633
 20
-17.08870713548477
 30
0.0
 10
187.1744492804633
 20
-17.08870713548477
 30
0.0
 10
187.1744492804633
 20
-17.08870713548477
 30
0.0
 10
187.9930039677587
 20
-17.08870713548477
 30
0.0
 10
187.9930039677587
 20
-17.08870713548477
 30
0.0
 10
187.9930039677587
 20
-17.08870713548477
 30
0.0
 10
187.9930039677587
 20
-14.61306151978424
 30
0.0
 10
187.9930039677587
 20
-14.61306151978424
 30
0.0
 10
188.052259610105
 20
-14.85559624194582
 30
0.0
 10
188.0825764503752
 20
-14.98099771760892
 30
0.0
 10
188.3313123444102
 20
-15.4440185508265
 30
0.0
 10
188.3313123444102
 20
-15.4440185508265
 30
0.0
 10
188.8425645144213
 20
-14.76740179752343
 30
0.0
 10
188.8425645144213
 20
-14.76740179752343
 30
0.0
 10
188.7529920318048
 20
-14.68471950587743
 30
0.0
 10
188.6882242366821
 20
-14.61857367256063
 30
0.0
 10
188.5690239328925
 20
-14.47112358579194
 30
0.0
 10
188.5690239328925
 20
-14.47112358579194
 30
0.0
 10
189.6190890367966
 20
-14.47112358579194
 30
0.0
 10
189.6190890367966
 20
-14.47112358579194
 30
0.0
 10
189.1333305733764
 20
-15.3558241064041
 30
0.0
 10
188.5276827870695
 20
-15.76510145005178
 30
0.0
 10
188.2837700267138
 20
-15.91944172779097
 30
0.0
 10
188.2837700267138
 20
-15.91944172779097
 30
0.0
 10
188.8060465022777
 20
-16.75591091160964
 30
0.0
 10
188.8060465022777
 20
-16.75591091160964
 30
0.0
 10
189.2807806601451
 20
-16.32251789956521
 30
0.0
 10
189.6556070489403
 20
-15.81815592052463
 30
0.0
 10
189.927769592275
 20
-15.23042263074101
 30
0.0
 10
189.927769592275
 20
-15.23042263074101
 30
0.0
 10
189.927769592275
 20
-17.08870713548477
 30
0.0
 10
189.927769592275
 20
-17.08870713548477
 30
0.0
 10
189.927769592275
 20
-17.08870713548477
 30
0.0
 10
190.7766411198406
 20
-17.08870713548477
 30
0.0
 10
190.7766411198406
 20
-17.08870713548477
 30
0.0
 10
190.7766411198406
 20
-17.08870713548477
 30
0.0
 10
190.7766411198406
 20
-15.36615939285985
 30
0.0
 10
190.7766411198406
 20
-15.36615939285985
 30
0.0
 10
191.0260660329727
 20
-15.89463704029717
 30
0.0
 10
191.3650634287212
 20
-16.38246256100855
 30
0.0
 10
191.8280842619388
 20
-16.74488660605683
 30
0.0
 10
191.8280842619388
 20
-16.74488660605683
 30
0.0
 10
192.1774169441431
 20
-15.74098578165503
 30
0.0
 10
192.1774169441431
 20
-15.74098578165503
 30
0.0
 10
191.9162787063612
 20
-15.56321885461614
 30
0.0
 10
191.4532578731436
 20
-15.23042263074101
 30
0.0
 10
191.0205538801962
 20
-14.47112358579194
 30
0.0
 10
191.0205538801962
 20
-14.47112358579194
 30
0.0
 10
192.0706189841004
 20
-14.47112358579194
 30
0.0
 10
192.0706189841004
 20
-14.47112358579194
 30
0.0
 10
192.0706189841004
 20
-14.47112358579194
 30
0.0
 10
192.0706189841004
 20
-13.62156303912933
 30
0.0
 10
192.0706189841004
 20
-13.62156303912933
 30
0.0
 10
192.0706189841004
 20
-13.62156303912933
 30
0.0
 10
190.7766411198406
 20
-13.62156303912933
 30
0.0
 10
190.7766411198406
 20
-13.62156303912933
 30
0.0
 10
190.7766411198406
 20
-13.62156303912933
 30
0.0
 10
190.7766411198406
 20
-13.05794541774246
 30
0.0
 10
190.7766411198406
 20
-13.05794541774246
 30
0.0
 10
190.7766411198406
 20
-13.05794541774246
 30
0.0
 10
191.981735520581
 20
-13.05794541774246
 30
0.0
 10
191.981735520581
 20
-13.05794541774246
 30
0.0
 10
191.981735520581
 20
-13.05794541774246
 30
0.0
 10
191.981735520581
 20
-12.21527506205035
 30
0.0
 10
191.981735520581
 20
-12.21527506205035
 30
0.0
 10
191.981735520581
 20
-12.21527506205035
 30
0.0
 10
190.7766411198406
 20
-12.21527506205035
 30
0.0
 10
190.7766411198406
 20
-12.21527506205035
 30
0.0
 10
190.7766411198406
 20
-12.21527506205035
 30
0.0
 10
190.7766411198406
 20
-11.46768934175113
 30
0.0
 10
190.7766411198406
 20
-11.46768934175113
 30
0.0
 10
190.7766411198406
 20
-11.46768934175113
 30
0.0
 10
189.927769592275
 20
-11.46768934175113
 30
0.0
 10
189.927769592275
 20
-11.46768934175113
 30
0.0
 10
189.927769592275
 20
-11.46768934175113
 30
0.0
 10
189.927769592275
 20
-12.21527506205035
 30
0.0
 10
189.927769592275
 20
-12.21527506205035
 30
0.0
 10
189.927769592275
 20
-12.21527506205035
 30
0.0
 10
189.6190890367966
 20
-12.21527506205035
 30
0.0
 10
189.6190890367966
 20
-12.21527506205035
 30
0.0
  0
SPLINE
  5
159
330
1F
100
AcDbEntity
  8
\U+30D5\U+30A9\U+30FC\U+30DE\U+30C3\U+30C8
370
     0
100
AcDbSpline
210
0.0
220
0.0
230
1.0
 70
    11
 71
     3
 72
    17
 73
    13
 74
     0
 42
0.0000000001
 43
0.0000000001
 40
0.0
 40
0.0
 40
0.0
 40
0.0
 40
1.0
 40
1.0
 40
1.0
 40
2.0
 40
2.0
 40
2.0
 40
3.0
 40
3.0
 40
3.0
 40
4.0
 40
4.0
 40
4.0
 40
4.0
 10
189.0671847400596
 20
-13.62156303912933
 30
0.0
 10
189.1567572226761
 20
-13.49133842978689
 30
0.0
 10
189.2635551827188
 20
-13.3011691590011
 30
0.0
 10
189.3648409899852
 20
-13.05794541774246
 30
0.0
 10
189.3648409899852
 20
-13.05794541774246
 30
0.0
 10
189.927769592275
 20
-13.05794541774246
 30
0.0
 10
189.927769592275
 20
-13.05794541774246
 30
0.0
 10
189.927769592275
 20
-13.05794541774246
 30
0.0
 10
189.927769592275
 20
-13.62156303912933
 30
0.0
 10
189.927769592275
 20
-13.62156303912933
 30
0.0
 10
189.927769592275
 20
-13.62156303912933
 30
0.0
 10
189.0671847400596
 20
-13.62156303912933
 30
0.0
 10
189.0671847400596
 20
-13.62156303912933
 30
0.0
  0
HATCH
  5
15A
330
1F
100
AcDbEntity
  8
\U+30D5\U+30A9\U+30FC\U+30DE\U+30C3\U+30C8
 62
     7
100
AcDbHatch
 10
0.0
 20
0.0
 30
0.0
210
0.0
220
0.0
230
1.0
  2
SOLID
 70
     1
 71
     0
 91
        3
 92
        1
 93
        1
 72
     4
 94
        3
 73
     0
 74
     1
 95
       17
 96
       13
 40
0.0
 40
0.0
 40
0.0
 40
0.0
 40
1.0
 40
1.0
 40
1.0
 40
2.0
 40
2.0
 40
2.0
 40
3.0
 40
3.0
 40
3.0
 40
4.0
 40
4.0
 40
4.0
 40
4.0
 10
189.0671847400596
 20
-13.62156303912933
 10
189.1567572226761
 20
-13.49133842978689
 10
189.2635551827188
 20
-13.3011691590011
 10
189.3648409899852
 20
-13.05794541774246
 10
189.3648409899852
 20
-13.05794541774246
 10
189.927769592275
 20
-13.05794541774246
 10
189.927769592275
 20
-13.05794541774246
 10
189.927769592275
 20
-13.05794541774246
 10
189.927769592275
 20
-13.62156303912933
 10
189.927769592275
 20
-13.62156303912933
 10
189.927769592275
 20
-13.62156303912933
 10
189.0671847400596
 20
-13.62156303912933
 10
189.0671847400596
 20
-13.62156303912933
 97
        0
 92
        1
 93
        2
 72
     4
 94
        3
 73
     0
 74
     0
 95
       23
 96
       19
 40
0.0
 40
0.0
 40
0.0
 40
0.0
 40
0.3527777776895833
 40
0.3527777776895833
 40
0.3527777776895833
 40
0.7055555553791667
 40
0.7055555553791667
 40
0.7055555553791667
 40
1.05833333306875
 40
1.05833333306875
 40
1.05833333306875
 40
1.411111110758333
 40
1.411111110758333
 40
1.411111110758333
 40
1.763888888447917
 40
1.763888888447917
 40
1.763888888447917
 40
2.1166666661375
 40
2.1166666661375
 40
2.1166666661375
 40
2.1166666661375
 10
188.5573106082426
 20
-13.62156303912933
 10
188.5573106082426
 20
-13.62156303912933
 10
188.5573106082426
 20
-14.44700791739519
 10
188.5573106082426
 20
-14.44700791739519
 10
188.4567138200733
 20
-14.31678330805275
 10
188.1473442454979
 20
-13.90681694530802
 10
187.9930039677587
 20
-13.52716742283349
 10
187.9930039677587
 20
-13.52716742283349
 10
187.9930039677587
 20
-13.26602918505155
 10
187.9930039677587
 20
-13.26602918505155
 10
187.9930039677587
 20
-13.26602918505155
 10
188.5387070926223
 20
-13.26602918505155
 10
188.5387070926223
 20
-13.26602918505155
 10
188.5387070926223
 20
-13.26602918505155
 10
188.9962157730635
 20
-13.62156303912933
 10
188.9962157730635
 20
-13.62156303912933
 10
188.9962157730635
 20
-13.62156303912933
 10
188.5573106082426
 20
-13.62156303912933
 10
188.5573106082426
 20
-13.62156303912933
 72
     1
 10
188.5573106082426
 20
-13.62156303912933
 11
188.5573106082426
 21
-13.62156303912933
 97
        0
 92
        1
 93
        2
 72
     4
 94
        3
 73
     0
 74
     0
 95
      128
 96
      124
 40
0.0
 40
0.0
 40
0.0
 40
0.0
 40
0.3527777776895833
 40
0.3527777776895833
 40
0.3527777776895833
 40
0.7055555553791667
 40
0.7055555553791667
 40
0.7055555553791667
 40
1.05833333306875
 40
1.05833333306875
 40
1.05833333306875
 40
1.411111110758333
 40
1.411111110758333
 40
1.411111110758333
 40
1.763888888447917
 40
1.763888888447917
 40
1.763888888447917
 40
2.1166666661375
 40
2.1166666661375
 40
2.1166666661375
 40
2.469444443827083
 40
2.469444443827083
 40
2.469444443827083
 40
2.822222221516667
 40
2.822222221516667
 40
2.822222221516667
 40
3.17499999920625
 40
3.17499999920625
 40
3.17499999920625
 40
3.527777776895833
 40
3.527777776895833
 40
3.527777776895833
 40
3.880555554585417
 40
3.880555554585417
 40
3.880555554585417
 40
4.233333332275
 40
4.233333332275
 40
4.233333332275
 40
4.586111109964584
 40
4.586111109964584
 40
4.586111109964584
 40
4.938888887654167
 40
4.938888887654167
 40
4.938888887654167
 40
5.29166666534375
 40
5.29166666534375
 40
5.29166666534375
 40
5.644444443033334
 40
5.644444443033334
 40
5.644444443033334
 40
5.997222220722917
 40
5.997222220722917
 40
5.997222220722917
 40
6.349999998412501
 40
6.349999998412501
 40
6.349999998412501
 40
6.702777776102083
 40
6.702777776102083
 40
6.702777776102083
 40
7.055555553791667
 40
7.055555553791667
 40
7.055555553791667
 40
7.40833333148125
 40
7.40833333148125
 40
7.40833333148125
 40
7.761111109170834
 40
7.761111109170834
 40
7.761111109170834
 40
8.113888886860417
 40
8.113888886860417
 40
8.113888886860417
 40
8.46666666455
 40
8.46666666455
 40
8.46666666455
 40
8.819444442239584
 40
8.819444442239584
 40
8.819444442239584
 40
9.172222219929168
 40
9.172222219929168
 40
9.172222219929168
 40
9.52499999761875
 40
9.52499999761875
 40
9.52499999761875
 40
9.877777775308333
 40
9.877777775308333
 40
9.877777775308333
 40
10.23055555299792
 40
10.23055555299792
 40
10.23055555299792
 40
10.5833333306875
 40
10.5833333306875
 40
10.5833333306875
 40
10.93611110837708
 40
10.93611110837708
 40
10.93611110837708
 40
11.28888888606667
 40
11.28888888606667
 40
11.28888888606667
 40
11.64166666375625
 40
11.64166666375625
 40
11.64166666375625
 40
11.99444444144583
 40
11.99444444144583
 40
11.99444444144583
 40
12.34722221913542
 40
12.34722221913542
 40
12.34722221913542
 40
12.699999996825
 40
12.699999996825
 40
12.699999996825
 40
13.05277777451458
 40
13.05277777451458
 40
13.05277777451458
 40
13.40555555220417
 40
13.40555555220417
 40
13.40555555220417
 40
13.75833332989375
 40
13.75833332989375
 40
13.75833332989375
 40
14.11111110758333
 40
14.11111110758333
 40
14.11111110758333
 40
14.46388888527292
 40
14.46388888527292
 40
14.46388888527292
 40
14.46388888527292
 10
189.6190890367966
 20
-12.21527506205035
 10
189.679722717337
 20
-11.94793565239496
 10
189.7086615194131
 20
-11.80048556562627
 10
189.7382893405863
 20
-11.65096842156643
 10
189.7382893405863
 20
-11.65096842156643
 10
188.9369601307172
 20
-11.57999945457028
 10
188.9369601307172
 20
-11.57999945457028
 10
188.8542778390712
 20
-12.19184841275065
 10
188.6696207210618
 20
-12.60112575639833
 10
188.5573106082426
 20
-12.81541069558087
 10
188.5573106082426
 20
-12.81541069558087
 10
188.5573106082426
 20
-12.44678547865914
 10
188.5573106082426
 20
-12.44678547865914
 10
188.5573106082426
 20
-12.44678547865914
 10
187.9930039677587
 20
-12.44678547865914
 10
187.9930039677587
 20
-12.44678547865914
 10
187.9930039677587
 20
-12.44678547865914
 10
187.9930039677587
 20
-11.46768934175113
 10
187.9930039677587
 20
-11.46768934175113
 10
187.9930039677587
 20
-11.46768934175113
 10
187.1744492804633
 20
-11.46768934175113
 10
187.1744492804633
 20
-11.46768934175113
 10
187.1744492804633
 20
-11.46768934175113
 10
187.1744492804633
 20
-12.44678547865914
 10
187.1744492804633
 20
-12.44678547865914
 10
187.1744492804633
 20
-12.44678547865914
 10
186.4496011903668
 20
-12.44678547865914
 10
186.4496011903668
 20
-12.44678547865914
 10
186.4496011903668
 20
-12.44678547865914
 10
186.4496011903668
 20
-13.26602918505155
 10
186.4496011903668
 20
-13.26602918505155
 10
186.4496011903668
 20
-13.26602918505155
 10
187.1089924662436
 20
-13.26602918505155
 10
187.1089924662436
 20
-13.26602918505155
 10
186.8416530565882
 20
-14.19758300426311
 10
186.5805148188063
 20
-14.58894585138749
 10
186.3372910775476
 20
-14.89211425408947
 10
186.3372910775476
 20
-14.89211425408947
 10
186.6163438118529
 20
-16.06069064268622
 10
186.6163438118529
 20
-16.06069064268622
 10
186.7589707649422
 20
-15.85398491357123
 10
186.9780788378041
 20
-15.51567653691969
 10
187.1744492804633
 20
-14.83905978361662
 10
187.1744492804633
 20
-14.83905978361662
 10
187.1744492804633
 20
-17.08870713548477
 10
187.1744492804633
 20
-17.08870713548477
 10
187.1744492804633
 20
-17.08870713548477
 10
187.9930039677587
 20
-17.08870713548477
 10
187.9930039677587
 20
-17.08870713548477
 10
187.9930039677587
 20
-17.08870713548477
 10
187.9930039677587
 20
-14.61306151978424
 10
187.9930039677587
 20
-14.61306151978424
 10
188.052259610105
 20
-14.85559624194582
 10
188.0825764503752
 20
-14.98099771760892
 10
188.3313123444102
 20
-15.4440185508265
 10
188.3313123444102
 20
-15.4440185508265
 10
188.8425645144213
 20
-14.76740179752343
 10
188.8425645144213
 20
-14.76740179752343
 10
188.7529920318048
 20
-14.68471950587743
 10
188.6882242366821
 20
-14.61857367256063
 10
188.5690239328925
 20
-14.47112358579194
 10
188.5690239328925
 20
-14.47112358579194
 10
189.6190890367966
 20
-14.47112358579194
 10
189.6190890367966
 20
-14.47112358579194
 10
189.1333305733764
 20
-15.3558241064041
 10
188.5276827870695
 20
-15.76510145005178
 10
188.2837700267138
 20
-15.91944172779097
 10
188.2837700267138
 20
-15.91944172779097
 10
188.8060465022777
 20
-16.75591091160964
 10
188.8060465022777
 20
-16.75591091160964
 10
189.2807806601451
 20
-16.32251789956521
 10
189.6556070489403
 20
-15.81815592052463
 10
189.927769592275
 20
-15.23042263074101
 10
189.927769592275
 20
-15.23042263074101
 10
189.927769592275
 20
-17.08870713548477
 10
189.927769592275
 20
-17.08870713548477
 10
189.927769592275
 20
-17.08870713548477
 10
190.7766411198406
 20
-17.08870713548477
 10
190.7766411198406
 20
-17.08870713548477
 10
190.7766411198406
 20
-17.08870713548477
 10
190.7766411198406
 20
-15.36615939285985
 10
190.7766411198406
 20
-15.36615939285985
 10
191.0260660329727
 20
-15.89463704029717
 10
191.3650634287212
 20
-16.38246256100855
 10
191.8280842619388
 20
-16.74488660605683
 10
191.8280842619388
 20
-16.74488660605683
 10
192.1774169441431
 20
-15.74098578165503
 10
192.1774169441431
 20
-15.74098578165503
 10
191.9162787063612
 20
-15.56321885461614
 10
191.4532578731436
 20
-15.23042263074101
 10
191.0205538801962
 20
-14.47112358579194
 10
191.0205538801962
 20
-14.47112358579194
 10
192.0706189841004
 20
-14.47112358579194
 10
192.0706189841004
 20
-14.47112358579194
 10
192.0706189841004
 20
-14.47112358579194
 10
192.0706189841004
 20
-13.62156303912933
 10
192.0706189841004
 20
-13.62156303912933
 10
192.0706189841004
 20
-13.62156303912933
 10
190.7766411198406
 20
-13.62156303912933
 10
190.7766411198406
 20
-13.62156303912933
 10
190.7766411198406
 20
-13.62156303912933
 10
190.7766411198406
 20
-13.05794541774246
 10
190.7766411198406
 20
-13.05794541774246
 10
190.7766411198406
 20
-13.05794541774246
 10
191.981735520581
 20
-13.05794541774246
 10
191.981735520581
 20
-13.05794541774246
 10
191.981735520581
 20
-13.05794541774246
 10
191.981735520581
 20
-12.21527506205035
 10
191.981735520581
 20
-12.21527506205035
 10
191.981735520581
 20
-12.21527506205035
 10
190.7766411198406
 20
-12.21527506205035
 10
190.7766411198406
 20
-12.21527506205035
 10
190.7766411198406
 20
-12.21527506205035
 10
190.7766411198406
 20
-11.46768934175113
 10
190.7766411198406
 20
-11.46768934175113
 10
190.7766411198406
 20
-11.46768934175113
 10
189.927769592275
 20
-11.46768934175113
 10
189.927769592275
 20
-11.46768934175113
 10
189.927769592275
 20
-11.46768934175113
 10
189.927769592275
 20
-12.21527506205035
 10
189.927769592275
 20
-12.21527506205035
 10
189.927769592275
 20
-12.21527506205035
 10
189.6190890367966
 20
-12.21527506205035
 10
189.6190890367966
 20
-12.21527506205035
 72
     1
 10
189.6190890367966
 20
-12.21527506205035
 11
189.6190890367966
 21
-12.21527506205035
 97
        0
 75
     2
 76
     1
 98
        0
  0
SPLINE
  5
15B
330
1F
100
AcDbEntity
  8
\U+30D5\U+30A9\U+30FC\U+30DE\U+30C3\U+30C8
370
     0
100
AcDbSpline
210
0.0
220
0.0
230
1.0
 70
    11
 71
     3
 72
    71
 73
    67
 74
     0
 42
0.0000000001
 43
0.0000000001
 40
0.0
 40
0.0
 40
0.0
 40
0.0
 40
1.0
 40
1.0
 40
1.0
 40
2.0
 40
2.0
 40
2.0
 40
3.0
 40
3.0
 40
3.0
 40
4.0
 40
4.0
 40
4.0
 40
5.0
 40
5.0
 40
5.0
 40
6.0
 40
6.0
 40
6.0
 40
7.0
 40
7.0
 40
7.0
 40
8.0
 40
8.0
 40
8.0
 40
9.0
 40
9.0
 40
9.0
 40
10.0
 40
10.0
 40
10.0
 40
11.0
 40
11.0
 40
11.0
 40
12.0
 40
12.0
 40
12.0
 40
13.0
 40
13.0
 40
13.0
 40
14.0
 40
14.0
 40
14.0
 40
15.0
 40
15.0
 40
15.0
 40
16.0
 40
16.0
 40
16.0
 40
17.0
 40
17.0
 40
17.0
 40
18.0
 40
18.0
 40
18.0
 40
19.0
 40
19.0
 40
19.0
 40
20.0
 40
20.0
 40
20.0
 40
21.0
 40
21.0
 40
21.0
 40
22.0
 40
22.0
 40
22.0
 40
22.0
 10
197.442900883799
 20
-12.28004285717305
 30
0.0
 10
197.442900883799
 20
-12.28004285717305
 30
0.0
 10
198.0003173333124
 20
-12.28004285717305
 30
0.0
 10
198.0003173333124
 20
-12.28004285717305
 30
0.0
 10
198.0003173333124
 20
-12.28004285717305
 30
0.0
 10
198.0003173333124
 20
-13.1413167284855
 30
0.0
 10
198.0003173333124
 20
-13.1413167284855
 30
0.0
 10
198.0003173333124
 20
-13.1413167284855
 30
0.0
 10
196.3501165958778
 20
-13.1413167284855
 30
0.0
 10
196.3501165958778
 20
-13.1413167284855
 30
0.0
 10
196.3866346080214
 20
-13.88959146788177
 30
0.0
 10
196.4693168996674
 20
-14.63717718818098
 30
0.0
 10
196.7063394690526
 20
-15.3489339154336
 30
0.0
 10
196.7662841304959
 20
-15.52670084247249
 30
0.0
 10
196.9254475419145
 20
-15.94838052986707
 30
0.0
 10
197.098391335274
 20
-15.94838052986707
 30
0.0
 10
197.2644449376631
 20
-15.94838052986707
 30
0.0
 10
197.5841497986943
 20
-15.53910318621939
 30
0.0
 10
197.7219536181042
 20
-15.14153916722156
 30
0.0
 10
197.7219536181042
 20
-15.14153916722156
 30
0.0
 10
198.1016031405788
 20
-16.09100748295641
 30
0.0
 10
198.1016031405788
 20
-16.09100748295641
 30
0.0
 10
197.9768906840127
 20
-16.4355170314814
 30
0.0
 10
197.6737222813107
 20
-17.09973144103757
 30
0.0
 10
197.1225070036708
 20
-17.09973144103757
 30
0.0
 10
196.8434542693655
 20
-17.09973144103757
 30
0.0
 10
196.5582003631868
 20
-16.94608018239542
 30
0.0
 10
196.3976589135742
 20
-16.76693521716243
 30
0.0
 10
195.5370740613588
 20
-15.81815592052463
 30
0.0
 10
195.4778184190125
 20
-14.09629719699676
 30
0.0
 10
195.4426784450629
 20
-13.1413167284855
 30
0.0
 10
195.4426784450629
 20
-13.1413167284855
 30
0.0
 10
192.4034152079755
 20
-13.1413167284855
 30
0.0
 10
192.4034152079755
 20
-13.1413167284855
 30
0.0
 10
192.4034152079755
 20
-13.1413167284855
 30
0.0
 10
192.4034152079755
 20
-12.28004285717305
 30
0.0
 10
192.4034152079755
 20
-12.28004285717305
 30
0.0
 10
192.4034152079755
 20
-12.28004285717305
 30
0.0
 10
195.4130506238898
 20
-12.28004285717305
 30
0.0
 10
195.4130506238898
 20
-12.28004285717305
 30
0.0
 10
195.4068494520164
 20
-12.19184841275065
 30
0.0
 10
195.3951361273665
 20
-11.75776638160917
 30
0.0
 10
195.3889349554931
 20
-11.66337076531332
 30
0.0
 10
195.3889349554931
 20
-11.60962727574343
 30
0.0
 10
195.3889349554931
 20
-11.56277397714403
 30
0.0
 10
195.3827337836196
 20
-11.45597601710128
 30
0.0
 10
195.3827337836196
 20
-11.45597601710128
 30
0.0
 10
196.3328911184515
 20
-11.45597601710128
 30
0.0
 10
196.3328911184515
 20
-11.45597601710128
 30
0.0
 10
196.3266899465781
 20
-11.92381998399821
 30
0.0
 10
196.3266899465781
 20
-12.06093478431116
 30
0.0
 10
196.3328911184515
 20
-12.28004285717305
 30
0.0
 10
196.3328911184515
 20
-12.28004285717305
 30
0.0
 10
196.9144232363617
 20
-12.28004285717305
 30
0.0
 10
196.9144232363617
 20
-12.28004285717305
 30
0.0
 10
196.7600829586225
 20
-12.05473361243771
 30
0.0
 10
196.629169330183
 20
-11.86456434165192
 30
0.0
 10
196.4810302243172
 20
-11.72882757953307
 30
0.0
 10
196.4810302243172
 20
-11.72882757953307
 30
0.0
 10
197.2472194602368
 20
-11.41945800495764
 30
0.0
 10
197.2472194602368
 20
-11.41945800495764
 30
0.0
 10
197.3354139046592
 20
-11.48560383827443
 30
0.0
 10
197.4125840435288
 20
-11.53934732784433
 30
0.0
 10
197.8232394253706
 20
-12.113989254784
 30
0.0
 10
197.8232394253706
 20
-12.113989254784
 30
0.0
 10
197.442900883799
 20
-12.28004285717305
 30
0.0
 10
197.442900883799
 20
-12.28004285717305
 30
0.0
  0
SPLINE
  5
15C
330
1F
100
AcDbEntity
  8
\U+30D5\U+30A9\U+30FC\U+30DE\U+30C3\U+30C8
370
     0
100
AcDbSpline
210
0.0
220
0.0
230
1.0
 70
    11
 71
     3
 72
    44
 73
    40
 74
     0
 42
0.0000000001
 43
0.0000000001
 40
0.0
 40
0.0
 40
0.0
 40
0.0
 40
1.0
 40
1.0
 40
1.0
 40
2.0
 40
2.0
 40
2.0
 40
3.0
 40
3.0
 40
3.0
 40
4.0
 40
4.0
 40
4.0
 40
5.0
 40
5.0
 40
5.0
 40
6.0
 40
6.0
 40
6.0
 40
7.0
 40
7.0
 40
7.0
 40
8.0
 40
8.0
 40
8.0
 40
9.0
 40
9.0
 40
9.0
 40
10.0
 40
10.0
 40
10.0
 40
11.0
 40
11.0
 40
11.0
 40
12.0
 40
12.0
 40
12.0
 40
13.0
 40
13.0
 40
13.0
 40
13.0
 10
192.3503607375027
 20
-16.02623968783372
 30
0.0
 10
192.4626708503218
 20
-16.02003851596027
 30
0.0
 10
192.5219264926681
 20
-16.02003851596027
 30
0.0
 10
192.5990966315377
 20
-16.01383734408682
 30
0.0
 10
192.7238090881038
 20
-16.00763617221337
 30
0.0
 10
193.3232557025372
 20
-15.95458170174052
 30
0.0
 10
193.4603705028502
 20
-15.94838052986707
 30
0.0
 10
193.4603705028502
 20
-15.94838052986707
 30
0.0
 10
193.4603705028502
 20
-14.51866590348839
 30
0.0
 10
193.4603705028502
 20
-14.51866590348839
 30
0.0
 10
193.4603705028502
 20
-14.51866590348839
 30
0.0
 10
192.5157253207947
 20
-14.51866590348839
 30
0.0
 10
192.5157253207947
 20
-14.51866590348839
 30
0.0
 10
192.5157253207947
 20
-14.51866590348839
 30
0.0
 10
192.5157253207947
 20
-13.65808105127298
 30
0.0
 10
192.5157253207947
 20
-13.65808105127298
 30
0.0
 10
192.5157253207947
 20
-13.65808105127298
 30
0.0
 10
195.2938503201001
 20
-13.65808105127298
 30
0.0
 10
195.2938503201001
 20
-13.65808105127298
 30
0.0
 10
195.2938503201001
 20
-13.65808105127298
 30
0.0
 10
195.2938503201001
 20
-14.51866590348839
 30
0.0
 10
195.2938503201001
 20
-14.51866590348839
 30
0.0
 10
195.2938503201001
 20
-14.51866590348839
 30
0.0
 10
194.367808653665
 20
-14.51866590348839
 30
0.0
 10
194.367808653665
 20
-14.51866590348839
 30
0.0
 10
194.367808653665
 20
-14.51866590348839
 30
0.0
 10
194.367808653665
 20
-15.87121039099748
 30
0.0
 10
194.367808653665
 20
-15.87121039099748
 30
0.0
 10
195.0382242350946
 20
-15.80644259587478
 30
0.0
 10
195.2821369954503
 20
-15.75890027817833
 30
0.0
 10
195.5019340874092
 20
-15.71755913235533
 30
0.0
 10
195.5019340874092
 20
-15.71755913235533
 30
0.0
 10
195.512958392962
 20
-16.56022948804744
 30
0.0
 10
195.512958392962
 20
-16.56022948804744
 30
0.0
 10
194.837030658756
 20
-16.70285644113679
 30
0.0
 10
194.4628932890579
 20
-16.74488660605683
 30
0.0
 10
192.450957525672
 20
-16.95779350704527
 30
0.0
 10
192.450957525672
 20
-16.95779350704527
 30
0.0
 10
192.3503607375027
 20
-16.02623968783372
 30
0.0
 10
192.3503607375027
 20
-16.02623968783372
 30
0.0
  0
HATCH
  5
15D
330
1F
100
AcDbEntity
  8
\U+30D5\U+30A9\U+30FC\U+30DE\U+30C3\U+30C8
 62
     7
100
AcDbHatch
 10
0.0
 20
0.0
 30
0.0
210
0.0
220
0.0
230
1.0
  2
SOLID
 70
     1
 71
     0
 91
        2
 92
        1
 93
        1
 72
     4
 94
        3
 73
     0
 74
     1
 95
       44
 96
       40
 40
0.0
 40
0.0
 40
0.0
 40
0.0
 40
1.0
 40
1.0
 40
1.0
 40
2.0
 40
2.0
 40
2.0
 40
3.0
 40
3.0
 40
3.0
 40
4.0
 40
4.0
 40
4.0
 40
5.0
 40
5.0
 40
5.0
 40
6.0
 40
6.0
 40
6.0
 40
7.0
 40
7.0
 40
7.0
 40
8.0
 40
8.0
 40
8.0
 40
9.0
 40
9.0
 40
9.0
 40
10.0
 40
10.0
 40
10.0
 40
11.0
 40
11.0
 40
11.0
 40
12.0
 40
12.0
 40
12.0
 40
13.0
 40
13.0
 40
13.0
 40
13.0
 10
192.3503607375027
 20
-16.02623968783372
 10
192.4626708503218
 20
-16.02003851596027
 10
192.5219264926681
 20
-16.02003851596027
 10
192.5990966315377
 20
-16.01383734408682
 10
192.7238090881038
 20
-16.00763617221337
 10
193.3232557025372
 20
-15.95458170174052
 10
193.4603705028502
 20
-15.94838052986707
 10
193.4603705028502
 20
-15.94838052986707
 10
193.4603705028502
 20
-14.51866590348839
 10
193.4603705028502
 20
-14.51866590348839
 10
193.4603705028502
 20
-14.51866590348839
 10
192.5157253207947
 20
-14.51866590348839
 10
192.5157253207947
 20
-14.51866590348839
 10
192.5157253207947
 20
-14.51866590348839
 10
192.5157253207947
 20
-13.65808105127298
 10
192.5157253207947
 20
-13.65808105127298
 10
192.5157253207947
 20
-13.65808105127298
 10
195.2938503201001
 20
-13.65808105127298
 10
195.2938503201001
 20
-13.65808105127298
 10
195.2938503201001
 20
-13.65808105127298
 10
195.2938503201001
 20
-14.51866590348839
 10
195.2938503201001
 20
-14.51866590348839
 10
195.2938503201001
 20
-14.51866590348839
 10
194.367808653665
 20
-14.51866590348839
 10
194.367808653665
 20
-14.51866590348839
 10
194.367808653665
 20
-14.51866590348839
 10
194.367808653665
 20
-15.87121039099748
 10
194.367808653665
 20
-15.87121039099748
 10
195.0382242350946
 20
-15.80644259587478
 10
195.2821369954503
 20
-15.75890027817833
 10
195.5019340874092
 20
-15.71755913235533
 10
195.5019340874092
 20
-15.71755913235533
 10
195.512958392962
 20
-16.56022948804744
 10
195.512958392962
 20
-16.56022948804744
 10
194.837030658756
 20
-16.70285644113679
 10
194.4628932890579
 20
-16.74488660605683
 10
192.450957525672
 20
-16.95779350704527
 10
192.450957525672
 20
-16.95779350704527
 10
192.3503607375027
 20
-16.02623968783372
 10
192.3503607375027
 20
-16.02623968783372
 97
        0
 92
        1
 93
        2
 72
     4
 94
        3
 73
     0
 74
     0
 95
       71
 96
       67
 40
0.0
 40
0.0
 40
0.0
 40
0.0
 40
0.3527777776895833
 40
0.3527777776895833
 40
0.3527777776895833
 40
0.7055555553791667
 40
0.7055555553791667
 40
0.7055555553791667
 40
1.05833333306875
 40
1.05833333306875
 40
1.05833333306875
 40
1.411111110758333
 40
1.411111110758333
 40
1.411111110758333
 40
1.763888888447917
 40
1.763888888447917
 40
1.763888888447917
 40
2.1166666661375
 40
2.1166666661375
 40
2.1166666661375
 40
2.469444443827083
 40
2.469444443827083
 40
2.469444443827083
 40
2.822222221516667
 40
2.822222221516667
 40
2.822222221516667
 40
3.17499999920625
 40
3.17499999920625
 40
3.17499999920625
 40
3.527777776895833
 40
3.527777776895833
 40
3.527777776895833
 40
3.880555554585417
 40
3.880555554585417
 40
3.880555554585417
 40
4.233333332275
 40
4.233333332275
 40
4.233333332275
 40
4.586111109964584
 40
4.586111109964584
 40
4.586111109964584
 40
4.938888887654167
 40
4.938888887654167
 40
4.938888887654167
 40
5.29166666534375
 40
5.29166666534375
 40
5.29166666534375
 40
5.644444443033334
 40
5.644444443033334
 40
5.644444443033334
 40
5.997222220722917
 40
5.997222220722917
 40
5.997222220722917
 40
6.349999998412501
 40
6.349999998412501
 40
6.349999998412501
 40
6.702777776102083
 40
6.702777776102083
 40
6.702777776102083
 40
7.055555553791667
 40
7.055555553791667
 40
7.055555553791667
 40
7.40833333148125
 40
7.40833333148125
 40
7.40833333148125
 40
7.761111109170834
 40
7.761111109170834
 40
7.761111109170834
 40
7.761111109170834
 10
197.442900883799
 20
-12.28004285717305
 10
197.442900883799
 20
-12.28004285717305
 10
198.0003173333124
 20
-12.28004285717305
 10
198.0003173333124
 20
-12.28004285717305
 10
198.0003173333124
 20
-12.28004285717305
 10
198.0003173333124
 20
-13.1413167284855
 10
198.0003173333124
 20
-13.1413167284855
 10
198.0003173333124
 20
-13.1413167284855
 10
196.3501165958778
 20
-13.1413167284855
 10
196.3501165958778
 20
-13.1413167284855
 10
196.3866346080214
 20
-13.88959146788177
 10
196.4693168996674
 20
-14.63717718818098
 10
196.7063394690526
 20
-15.3489339154336
 10
196.7662841304959
 20
-15.52670084247249
 10
196.9254475419145
 20
-15.94838052986707
 10
197.098391335274
 20
-15.94838052986707
 10
197.2644449376631
 20
-15.94838052986707
 10
197.5841497986943
 20
-15.53910318621939
 10
197.7219536181042
 20
-15.14153916722156
 10
197.7219536181042
 20
-15.14153916722156
 10
198.1016031405788
 20
-16.09100748295641
 10
198.1016031405788
 20
-16.09100748295641
 10
197.9768906840127
 20
-16.4355170314814
 10
197.6737222813107
 20
-17.09973144103757
 10
197.1225070036708
 20
-17.09973144103757
 10
196.8434542693655
 20
-17.09973144103757
 10
196.5582003631868
 20
-16.94608018239542
 10
196.3976589135742
 20
-16.76693521716243
 10
195.5370740613588
 20
-15.81815592052463
 10
195.4778184190125
 20
-14.09629719699676
 10
195.4426784450629
 20
-13.1413167284855
 10
195.4426784450629
 20
-13.1413167284855
 10
192.4034152079755
 20
-13.1413167284855
 10
192.4034152079755
 20
-13.1413167284855
 10
192.4034152079755
 20
-13.1413167284855
 10
192.4034152079755
 20
-12.28004285717305
 10
192.4034152079755
 20
-12.28004285717305
 10
192.4034152079755
 20
-12.28004285717305
 10
195.4130506238898
 20
-12.28004285717305
 10
195.4130506238898
 20
-12.28004285717305
 10
195.4068494520164
 20
-12.19184841275065
 10
195.3951361273665
 20
-11.75776638160917
 10
195.3889349554931
 20
-11.66337076531332
 10
195.3889349554931
 20
-11.60962727574343
 10
195.3889349554931
 20
-11.56277397714403
 10
195.3827337836196
 20
-11.45597601710128
 10
195.3827337836196
 20
-11.45597601710128
 10
196.3328911184515
 20
-11.45597601710128
 10
196.3328911184515
 20
-11.45597601710128
 10
196.3266899465781
 20
-11.92381998399821
 10
196.3266899465781
 20
-12.06093478431116
 10
196.3328911184515
 20
-12.28004285717305
 10
196.3328911184515
 20
-12.28004285717305
 10
196.9144232363617
 20
-12.28004285717305
 10
196.9144232363617
 20
-12.28004285717305
 10
196.7600829586225
 20
-12.05473361243771
 10
196.629169330183
 20
-11.86456434165192
 10
196.4810302243172
 20
-11.72882757953307
 10
196.4810302243172
 20
-11.72882757953307
 10
197.2472194602368
 20
-11.41945800495764
 10
197.2472194602368
 20
-11.41945800495764
 10
197.3354139046592
 20
-11.48560383827443
 10
197.4125840435288
 20
-11.53934732784433
 10
197.8232394253706
 20
-12.113989254784
 10
197.8232394253706
 20
-12.113989254784
 10
197.442900883799
 20
-12.28004285717305
 10
197.442900883799
 20
-12.28004285717305
 72
     1
 10
197.442900883799
 20
-12.28004285717305
 11
197.442900883799
 21
-12.28004285717305
 97
        0
 75
     2
 76
     1
 98
        0
  0
SPLINE
  5
15E
330
1F
100
AcDbEntity
  8
\U+30D5\U+30A9\U+30FC\U+30DE\U+30C3\U+30C8
370
     0
100
AcDbSpline
210
0.0
220
0.0
230
1.0
 70
    11
 71
     3
 72
    23
 73
    19
 74
     0
 42
0.0000000001
 43
0.0000000001
 40
0.0
 40
0.0
 40
0.0
 40
0.0
 40
1.0
 40
1.0
 40
1.0
 40
2.0
 40
2.0
 40
2.0
 40
3.0
 40
3.0
 40
3.0
 40
4.0
 40
4.0
 40
4.0
 40
5.0
 40
5.0
 40
5.0
 40
6.0
 40
6.0
 40
6.0
 40
6.0
 10
201.7396239730026
 20
-15.3723605647333
 30
0.0
 10
201.882250926092
 20
-15.54530435809284
 30
0.0
 10
201.9897379052317
 20
-15.67552896743529
 30
0.0
 10
202.2267604746169
 20
-15.99041069478712
 30
0.0
 10
202.0359021847341
 20
-15.99592284756352
 30
0.0
 10
201.0995252318432
 20
-16.03795301248357
 30
0.0
 10
200.890752445437
 20
-16.04966633713342
 30
0.0
 10
200.7846435044914
 20
-16.05517848990982
 30
0.0
 10
200.7371011867949
 20
-16.05517848990982
 30
0.0
 10
200.3092203275269
 20
-16.05517848990982
 30
0.0
 10
200.4869872545658
 20
-15.69964463583203
 30
0.0
 10
200.6061875583554
 20
-15.4316162070796
 30
0.0
 10
200.7722411607444
 20
-15.04094237905226
 30
0.0
 10
200.7722411607444
 20
-15.04094237905226
 30
0.0
 10
202.4403563947024
 20
-15.04094237905226
 30
0.0
 10
202.4403563947024
 20
-15.04094237905226
 30
0.0
 10
202.4403563947024
 20
-15.04094237905226
 30
0.0
 10
201.7396239730026
 20
-15.3723605647333
 30
0.0
 10
201.7396239730026
 20
-15.3723605647333
 30
0.0
  0
SPLINE
  5
15F
330
1F
100
AcDbEntity
  8
\U+30D5\U+30A9\U+30FC\U+30DE\U+30C3\U+30C8
370
     0
100
AcDbSpline
210
0.0
220
0.0
230
1.0
 70
    11
 71
     3
 72
    44
 73
    40
 74
     0
 42
0.0000000001
 43
0.0000000001
 40
0.0
 40
0.0
 40
0.0
 40
0.0
 40
1.0
 40
1.0
 40
1.0
 40
2.0
 40
2.0
 40
2.0
 40
3.0
 40
3.0
 40
3.0
 40
4.0
 40
4.0
 40
4.0
 40
5.0
 40
5.0
 40
5.0
 40
6.0
 40
6.0
 40
6.0
 40
7.0
 40
7.0
 40
7.0
 40
8.0
 40
8.0
 40
8.0
 40
9.0
 40
9.0
 40
9.0
 40
10.0
 40
10.0
 40
10.0
 40
11.0
 40
11.0
 40
11.0
 40
12.0
 40
12.0
 40
12.0
 40
13.0
 40
13.0
 40
13.0
 40
13.0
 10
203.8294188943551
 20
-16.69114311648694
 30
0.0
 10
203.4731960211803
 20
-16.12683647600301
 30
0.0
 10
203.0990586514822
 20
-15.59835882856569
 30
0.0
 10
202.5822943286947
 20
-15.04094237905226
 30
0.0
 10
202.5822943286947
 20
-15.04094237905226
 30
0.0
 10
203.8108153787348
 20
-15.04094237905226
 30
0.0
 10
203.8108153787348
 20
-15.04094237905226
 30
0.0
 10
203.8108153787348
 20
-15.04094237905226
 30
0.0
 10
203.8108153787348
 20
-14.18586967961325
 30
0.0
 10
203.8108153787348
 20
-14.18586967961325
 30
0.0
 10
203.8108153787348
 20
-14.18586967961325
 30
0.0
 10
198.4578260137536
 20
-14.18586967961325
 30
0.0
 10
198.4578260137536
 20
-14.18586967961325
 30
0.0
 10
198.4578260137536
 20
-14.18586967961325
 30
0.0
 10
198.4578260137536
 20
-15.04094237905226
 30
0.0
 10
198.4578260137536
 20
-15.04094237905226
 30
0.0
 10
198.4578260137536
 20
-15.04094237905226
 30
0.0
 10
199.7807426800896
 20
-15.04094237905226
 30
0.0
 10
199.7807426800896
 20
-15.04094237905226
 30
0.0
 10
199.6567192426205
 20
-15.4261040543032
 30
0.0
 10
199.5196044423076
 20
-15.74649793443143
 30
0.0
 10
199.3721543555389
 20
-16.06069064268622
 30
0.0
 10
199.2653563954962
 20
-16.06069064268622
 30
0.0
 10
198.8016465431815
 20
-16.06758083365672
 30
0.0
 10
198.7065619077887
 20
-16.06758083365672
 30
0.0
 10
198.6597086091892
 20
-16.06758083365672
 30
0.0
 10
198.6176784442692
 20
-16.06758083365672
 30
0.0
 10
198.4984781404796
 20
-16.06069064268622
 30
0.0
 10
198.4984781404796
 20
-16.06069064268622
 30
0.0
 10
198.641794112666
 20
-16.98122015634497
 30
0.0
 10
198.641794112666
 20
-16.98122015634497
 30
0.0
 10
199.9888264473986
 20
-16.93987901052197
 30
0.0
 10
200.1969102147077
 20
-16.92196451399868
 30
0.0
 10
202.7311224536575
 20
-16.72008191856304
 30
0.0
 10
202.8434325664767
 20
-16.90473903657243
 30
0.0
 10
202.8971760560466
 20
-16.99362250009187
 30
0.0
 10
202.9743461949161
 20
-17.14176160595762
 30
0.0
 10
202.9743461949161
 20
-17.14176160595762
 30
0.0
 10
203.8294188943551
 20
-16.69114311648694
 30
0.0
 10
203.8294188943551
 20
-16.69114311648694
 30
0.0
  0
SPLINE
  5
160
330
1F
100
AcDbEntity
  8
\U+30D5\U+30A9\U+30FC\U+30DE\U+30C3\U+30C8
370
     0
100
AcDbSpline
210
0.0
220
0.0
230
1.0
 70
    11
 71
     3
 72
    35
 73
    31
 74
     0
 42
0.0000000001
 43
0.0000000001
 40
0.0
 40
0.0
 40
0.0
 40
0.0
 40
1.0
 40
1.0
 40
1.0
 40
2.0
 40
2.0
 40
2.0
 40
3.0
 40
3.0
 40
3.0
 40
4.0
 40
4.0
 40
4.0
 40
5.0
 40
5.0
 40
5.0
 40
6.0
 40
6.0
 40
6.0
 40
7.0
 40
7.0
 40
7.0
 40
8.0
 40
8.0
 40
8.0
 40
9.0
 40
9.0
 40
9.0
 40
10.0
 40
10.0
 40
10.0
 40
10.0
 10
199.5616346072277
 20
-13.76970214499507
 30
0.0
 10
199.5616346072277
 20
-13.76970214499507
 30
0.0
 10
202.7194091290077
 20
-13.76970214499507
 30
0.0
 10
202.7194091290077
 20
-13.76970214499507
 30
0.0
 10
202.7194091290077
 20
-13.76970214499507
 30
0.0
 10
202.7194091290077
 20
-13.40796711904384
 30
0.0
 10
202.7194091290077
 20
-13.40796711904384
 30
0.0
 10
203.1410888164022
 20
-13.66290418495233
 30
0.0
 10
203.3960258823107
 20
-13.77590331686853
 30
0.0
 10
203.6034206305228
 20
-13.86616481858207
 30
0.0
 10
203.6034206305228
 20
-13.86616481858207
 30
0.0
 10
204.0671304828374
 20
-12.96906195422301
 30
0.0
 10
204.0671304828374
 20
-12.96906195422301
 30
0.0
 10
203.165204484799
 20
-12.63006455847443
 30
0.0
 10
202.31013178536
 20
-12.15050726692765
 30
0.0
 10
201.6810573497534
 20
-11.41945800495764
 30
0.0
 10
201.6810573497534
 20
-11.41945800495764
 30
0.0
 10
200.6241020548787
 20
-11.41945800495764
 30
0.0
 10
200.6241020548787
 20
-11.41945800495764
 30
0.0
 10
200.2444525324042
 20
-11.95482584336546
 30
0.0
 10
199.5857502756244
 20
-12.44058430678569
 30
0.0
 10
198.2084011006215
 20
-12.98146429796991
 30
0.0
 10
198.2084011006215
 20
-12.98146429796991
 30
0.0
 10
198.6597086091892
 20
-13.88270127691127
 30
0.0
 10
198.6597086091892
 20
-13.88270127691127
 30
0.0
 10
198.8374755362281
 20
-13.81242132901217
 30
0.0
 10
199.097924754913
 20
-13.71113552174583
 30
0.0
 10
199.5616346072277
 20
-13.43208278744059
 30
0.0
 10
199.5616346072277
 20
-13.43208278744059
 30
0.0
 10
199.5616346072277
 20
-13.76970214499507
 30
0.0
 10
199.5616346072277
 20
-13.76970214499507
 30
0.0
  0
SPLINE
  5
161
330
1F
100
AcDbEntity
  8
\U+30D5\U+30A9\U+30FC\U+30DE\U+30C3\U+30C8
370
     0
100
AcDbSpline
210
0.0
220
0.0
230
1.0
 70
    11
 71
     3
 72
    14
 73
    10
 74
     0
 42
0.0000000001
 43
0.0000000001
 40
0.0
 40
0.0
 40
0.0
 40
0.0
 40
1.0
 40
1.0
 40
1.0
 40
2.0
 40
2.0
 40
2.0
 40
3.0
 40
3.0
 40
3.0
 40
3.0
 10
200.2320501886573
 20
-12.97526312609646
 30
0.0
 10
200.7956678100441
 20
-12.54738226682843
 30
0.0
 10
200.9982394245768
 20
-12.32207302209309
 30
0.0
 10
201.1470675495396
 20
-12.1387939422778
 30
0.0
 10
201.3241454574815
 20
-12.33378634674294
 30
0.0
 10
201.5556558740903
 20
-12.58321125987503
 30
0.0
 10
202.0724201968777
 20
-12.97526312609646
 30
0.0
 10
202.0724201968777
 20
-12.97526312609646
 30
0.0
 10
200.2320501886573
 20
-12.97526312609646
 30
0.0
 10
200.2320501886573
 20
-12.97526312609646
 30
0.0
  0
HATCH
  5
162
330
1F
100
AcDbEntity
  8
\U+30D5\U+30A9\U+30FC\U+30DE\U+30C3\U+30C8
 62
     7
100
AcDbHatch
 10
0.0
 20
0.0
 30
0.0
210
0.0
220
0.0
230
1.0
  2
SOLID
 70
     1
 71
     0
 91
        4
 92
        1
 93
        1
 72
     4
 94
        3
 73
     0
 74
     1
 95
       14
 96
       10
 40
0.0
 40
0.0
 40
0.0
 40
0.0
 40
1.0
 40
1.0
 40
1.0
 40
2.0
 40
2.0
 40
2.0
 40
3.0
 40
3.0
 40
3.0
 40
3.0
 10
200.2320501886573
 20
-12.97526312609646
 10
200.7956678100441
 20
-12.54738226682843
 10
200.9982394245768
 20
-12.32207302209309
 10
201.1470675495396
 20
-12.1387939422778
 10
201.3241454574815
 20
-12.33378634674294
 10
201.5556558740903
 20
-12.58321125987503
 10
202.0724201968777
 20
-12.97526312609646
 10
202.0724201968777
 20
-12.97526312609646
 10
200.2320501886573
 20
-12.97526312609646
 10
200.2320501886573
 20
-12.97526312609646
 97
        0
 92
        1
 93
        2
 72
     4
 94
        3
 73
     0
 74
     0
 95
       23
 96
       19
 40
0.0
 40
0.0
 40
0.0
 40
0.0
 40
0.3527777776895833
 40
0.3527777776895833
 40
0.3527777776895833
 40
0.7055555553791667
 40
0.7055555553791667
 40
0.7055555553791667
 40
1.05833333306875
 40
1.05833333306875
 40
1.05833333306875
 40
1.411111110758333
 40
1.411111110758333
 40
1.411111110758333
 40
1.763888888447917
 40
1.763888888447917
 40
1.763888888447917
 40
2.1166666661375
 40
2.1166666661375
 40
2.1166666661375
 40
2.1166666661375
 10
201.7396239730026
 20
-15.3723605647333
 10
201.882250926092
 20
-15.54530435809284
 10
201.9897379052317
 20
-15.67552896743529
 10
202.2267604746169
 20
-15.99041069478712
 10
202.0359021847341
 20
-15.99592284756352
 10
201.0995252318432
 20
-16.03795301248357
 10
200.890752445437
 20
-16.04966633713342
 10
200.7846435044914
 20
-16.05517848990982
 10
200.7371011867949
 20
-16.05517848990982
 10
200.3092203275269
 20
-16.05517848990982
 10
200.4869872545658
 20
-15.69964463583203
 10
200.6061875583554
 20
-15.4316162070796
 10
200.7722411607444
 20
-15.04094237905226
 10
200.7722411607444
 20
-15.04094237905226
 10
202.4403563947024
 20
-15.04094237905226
 10
202.4403563947024
 20
-15.04094237905226
 10
202.4403563947024
 20
-15.04094237905226
 10
201.7396239730026
 20
-15.3723605647333
 10
201.7396239730026
 20
-15.3723605647333
 72
     1
 10
201.7396239730026
 20
-15.3723605647333
 11
201.7396239730026
 21
-15.3723605647333
 97
        0
 92
        1
 93
        2
 72
     4
 94
        3
 73
     0
 74
     0
 95
       44
 96
       40
 40
0.0
 40
0.0
 40
0.0
 40
0.0
 40
0.3527777776895833
 40
0.3527777776895833
 40
0.3527777776895833
 40
0.7055555553791667
 40
0.7055555553791667
 40
0.7055555553791667
 40
1.05833333306875
 40
1.05833333306875
 40
1.05833333306875
 40
1.411111110758333
 40
1.411111110758333
 40
1.411111110758333
 40
1.763888888447917
 40
1.763888888447917
 40
1.763888888447917
 40
2.1166666661375
 40
2.1166666661375
 40
2.1166666661375
 40
2.469444443827083
 40
2.469444443827083
 40
2.469444443827083
 40
2.822222221516667
 40
2.822222221516667
 40
2.822222221516667
 40
3.17499999920625
 40
3.17499999920625
 40
3.17499999920625
 40
3.527777776895833
 40
3.527777776895833
 40
3.527777776895833
 40
3.880555554585417
 40
3.880555554585417
 40
3.880555554585417
 40
4.233333332275
 40
4.233333332275
 40
4.233333332275
 40
4.586111109964584
 40
4.586111109964584
 40
4.586111109964584
 40
4.586111109964584
 10
203.8294188943551
 20
-16.69114311648694
 10
203.4731960211803
 20
-16.12683647600301
 10
203.0990586514822
 20
-15.59835882856569
 10
202.5822943286947
 20
-15.04094237905226
 10
202.5822943286947
 20
-15.04094237905226
 10
203.8108153787348
 20
-15.04094237905226
 10
203.8108153787348
 20
-15.04094237905226
 10
203.8108153787348
 20
-15.04094237905226
 10
203.8108153787348
 20
-14.18586967961325
 10
203.8108153787348
 20
-14.18586967961325
 10
203.8108153787348
 20
-14.18586967961325
 10
198.4578260137536
 20
-14.18586967961325
 10
198.4578260137536
 20
-14.18586967961325
 10
198.4578260137536
 20
-14.18586967961325
 10
198.4578260137536
 20
-15.04094237905226
 10
198.4578260137536
 20
-15.04094237905226
 10
198.4578260137536
 20
-15.04094237905226
 10
199.7807426800896
 20
-15.04094237905226
 10
199.7807426800896
 20
-15.04094237905226
 10
199.6567192426205
 20
-15.4261040543032
 10
199.5196044423076
 20
-15.74649793443143
 10
199.3721543555389
 20
-16.06069064268622
 10
199.2653563954962
 20
-16.06069064268622
 10
198.8016465431815
 20
-16.06758083365672
 10
198.7065619077887
 20
-16.06758083365672
 10
198.6597086091892
 20
-16.06758083365672
 10
198.6176784442692
 20
-16.06758083365672
 10
198.4984781404796
 20
-16.06069064268622
 10
198.4984781404796
 20
-16.06069064268622
 10
198.641794112666
 20
-16.98122015634497
 10
198.641794112666
 20
-16.98122015634497
 10
199.9888264473986
 20
-16.93987901052197
 10
200.1969102147077
 20
-16.92196451399868
 10
202.7311224536575
 20
-16.72008191856304
 10
202.8434325664767
 20
-16.90473903657243
 10
202.8971760560466
 20
-16.99362250009187
 10
202.9743461949161
 20
-17.14176160595762
 10
202.9743461949161
 20
-17.14176160595762
 10
203.8294188943551
 20
-16.69114311648694
 10
203.8294188943551
 20
-16.69114311648694
 72
     1
 10
203.8294188943551
 20
-16.69114311648694
 11
203.8294188943551
 21
-16.69114311648694
 97
        0
 92
        1
 93
        2
 72
     4
 94
        3
 73
     0
 74
     0
 95
       35
 96
       31
 40
0.0
 40
0.0
 40
0.0
 40
0.0
 40
0.3527777776895833
 40
0.3527777776895833
 40
0.3527777776895833
 40
0.7055555553791667
 40
0.7055555553791667
 40
0.7055555553791667
 40
1.05833333306875
 40
1.05833333306875
 40
1.05833333306875
 40
1.411111110758333
 40
1.411111110758333
 40
1.411111110758333
 40
1.763888888447917
 40
1.763888888447917
 40
1.763888888447917
 40
2.1166666661375
 40
2.1166666661375
 40
2.1166666661375
 40
2.469444443827083
 40
2.469444443827083
 40
2.469444443827083
 40
2.822222221516667
 40
2.822222221516667
 40
2.822222221516667
 40
3.17499999920625
 40
3.17499999920625
 40
3.17499999920625
 40
3.527777776895833
 40
3.527777776895833
 40
3.527777776895833
 40
3.527777776895833
 10
199.5616346072277
 20
-13.76970214499507
 10
199.5616346072277
 20
-13.76970214499507
 10
202.7194091290077
 20
-13.76970214499507
 10
202.7194091290077
 20
-13.76970214499507
 10
202.7194091290077
 20
-13.76970214499507
 10
202.7194091290077
 20
-13.40796711904384
 10
202.7194091290077
 20
-13.40796711904384
 10
203.1410888164022
 20
-13.66290418495233
 10
203.3960258823107
 20
-13.77590331686853
 10
203.6034206305228
 20
-13.86616481858207
 10
203.6034206305228
 20
-13.86616481858207
 10
204.0671304828374
 20
-12.96906195422301
 10
204.0671304828374
 20
-12.96906195422301
 10
203.165204484799
 20
-12.63006455847443
 10
202.31013178536
 20
-12.15050726692765
 10
201.6810573497534
 20
-11.41945800495764
 10
201.6810573497534
 20
-11.41945800495764
 10
200.6241020548787
 20
-11.41945800495764
 10
200.6241020548787
 20
-11.41945800495764
 10
200.2444525324042
 20
-11.95482584336546
 10
199.5857502756244
 20
-12.44058430678569
 10
198.2084011006215
 20
-12.98146429796991
 10
198.2084011006215
 20
-12.98146429796991
 10
198.6597086091892
 20
-13.88270127691127
 10
198.6597086091892
 20
-13.88270127691127
 10
198.8374755362281
 20
-13.81242132901217
 10
199.097924754913
 20
-13.71113552174583
 10
199.5616346072277
 20
-13.43208278744059
 10
199.5616346072277
 20
-13.43208278744059
 10
199.5616346072277
 20
-13.76970214499507
 10
199.5616346072277
 20
-13.76970214499507
 72
     1
 10
199.5616346072277
 20
-13.76970214499507
 11
199.5616346072277
 21
-13.76970214499507
 97
        0
 75
     2
 76
     1
 98
        0
  0
SPLINE
  5
163
330
1F
100
AcDbEntity
  8
\U+30D5\U+30A9\U+30FC\U+30DE\U+30C3\U+30C8
370
     0
100
AcDbSpline
210
0.0
220
0.0
230
1.0
 70
    11
 71
     3
 72
    59
 73
    55
 74
     0
 42
0.0000000001
 43
0.0000000001
 40
0.0
 40
0.0
 40
0.0
 40
0.0
 40
1.0
 40
1.0
 40
1.0
 40
2.0
 40
2.0
 40
2.0
 40
3.0
 40
3.0
 40
3.0
 40
4.0
 40
4.0
 40
4.0
 40
5.0
 40
5.0
 40
5.0
 40
6.0
 40
6.0
 40
6.0
 40
7.0
 40
7.0
 40
7.0
 40
8.0
 40
8.0
 40
8.0
 40
9.0
 40
9.0
 40
9.0
 40
10.0
 40
10.0
 40
10.0
 40
11.0
 40
11.0
 40
11.0
 40
12.0
 40
12.0
 40
12.0
 40
13.0
 40
13.0
 40
13.0
 40
14.0
 40
14.0
 40
14.0
 40
15.0
 40
15.0
 40
15.0
 40
16.0
 40
16.0
 40
16.0
 40
17.0
 40
17.0
 40
17.0
 40
18.0
 40
18.0
 40
18.0
 40
18.0
 10
205.924036949387
 20
-17.09421928826117
 30
0.0
 10
205.924036949387
 20
-17.09421928826117
 30
0.0
 10
205.0227999704457
 20
-17.09421928826117
 30
0.0
 10
205.0227999704457
 20
-17.09421928826117
 30
0.0
 10
205.0227999704457
 20
-17.09421928826117
 30
0.0
 10
205.0227999704457
 20
-15.11122232695136
 30
0.0
 10
205.0227999704457
 20
-15.11122232695136
 30
0.0
 10
204.77888721009
 20
-15.31930609426045
 30
0.0
 10
204.612833607701
 20
-15.4385063980501
 30
0.0
 10
204.392347496645
 20
-15.58595648481879
 30
0.0
 10
204.392347496645
 20
-15.58595648481879
 30
0.0
 10
204.1677272710067
 20
-14.53589138091464
 30
0.0
 10
204.1677272710067
 20
-14.53589138091464
 30
0.0
 10
204.8319416805629
 20
-14.13832736191681
 30
0.0
 10
205.3783338245235
 20
-13.50374077353379
 30
0.0
 10
205.5740152480857
 20
-13.11168890731236
 30
0.0
 10
205.5740152480857
 20
-13.11168890731236
 30
0.0
 10
204.2745252310494
 20
-13.11168890731236
 30
0.0
 10
204.2745252310494
 20
-13.11168890731236
 30
0.0
 10
204.2745252310494
 20
-13.11168890731236
 30
0.0
 10
204.2745252310494
 20
-12.28004285717305
 30
0.0
 10
204.2745252310494
 20
-12.28004285717305
 30
0.0
 10
204.2745252310494
 20
-12.28004285717305
 30
0.0
 10
205.0227999704457
 20
-12.28004285717305
 30
0.0
 10
205.0227999704457
 20
-12.28004285717305
 30
0.0
 10
205.0227999704457
 20
-12.28004285717305
 30
0.0
 10
205.0227999704457
 20
-11.46148816987768
 30
0.0
 10
205.0227999704457
 20
-11.46148816987768
 30
0.0
 10
205.0227999704457
 20
-11.46148816987768
 30
0.0
 10
205.924036949387
 20
-11.46148816987768
 30
0.0
 10
205.924036949387
 20
-11.46148816987768
 30
0.0
 10
205.924036949387
 20
-11.46148816987768
 30
0.0
 10
205.924036949387
 20
-12.28004285717305
 30
0.0
 10
205.924036949387
 20
-12.28004285717305
 30
0.0
 10
205.924036949387
 20
-12.28004285717305
 30
0.0
 10
206.529684735694
 20
-12.28004285717305
 30
0.0
 10
206.529684735694
 20
-12.28004285717305
 30
0.0
 10
206.529684735694
 20
-12.28004285717305
 30
0.0
 10
206.529684735694
 20
-13.11720106008876
 30
0.0
 10
206.529684735694
 20
-13.11720106008876
 30
0.0
 10
206.4414902912716
 20
-13.33079698017425
 30
0.0
 10
206.3278021402583
 20
-13.58642306517978
 30
0.0
 10
206.0611517497
 20
-13.97227375952777
 30
0.0
 10
206.3877468017017
 20
-14.334008785479
 30
0.0
 10
206.6785128606568
 20
-14.50626355974149
 30
0.0
 10
206.8679931123455
 20
-14.61306151978424
 30
0.0
 10
206.8679931123455
 20
-14.61306151978424
 30
0.0
 10
206.4228867756512
 20
-15.45573187547635
 30
0.0
 10
206.4228867756512
 20
-15.45573187547635
 30
0.0
 10
206.2506320013887
 20
-15.29587944496075
 30
0.0
 10
206.1142062201729
 20
-15.15325249187141
 30
0.0
 10
205.924036949387
 20
-14.88660210131307
 30
0.0
 10
205.924036949387
 20
-14.88660210131307
 30
0.0
 10
205.924036949387
 20
-17.09421928826117
 30
0.0
 10
205.924036949387
 20
-17.09421928826117
 30
0.0
  0
POLYLINE
  5
164
330
1F
100
AcDbEntity
  8
\U+30D5\U+30A9\U+30FC\U+30DE\U+30C3\U+30C8
370
     0
100
AcDb2dPolyline
 66
     1
 10
0.0
 20
0.0
 30
0.0
  0
VERTEX
  5
165
330
164
100
AcDbEntity
  8
\U+30D5\U+30A9\U+30FC\U+30DE\U+30C3\U+30C8
370
     0
100
AcDbVertex
100
AcDb2dVertex
 10
207.6872368187379
 20
-11.46768934175113
 30
0.0
  0
VERTEX
  5
166
330
164
100
AcDbEntity
  8
\U+30D5\U+30A9\U+30FC\U+30DE\U+30C3\U+30C8
370
     0
100
AcDbVertex
100
AcDb2dVertex
 10
208.6139675042701
 20
-11.46768934175113
 30
0.0
  0
VERTEX
  5
167
330
164
100
AcDbEntity
  8
\U+30D5\U+30A9\U+30FC\U+30DE\U+30C3\U+30C8
370
     0
100
AcDbVertex
100
AcDb2dVertex
 10
208.6139675042701
 20
-12.93874511395281
 30
0.0
  0
VERTEX
  5
168
330
164
100
AcDbEntity
  8
\U+30D5\U+30A9\U+30FC\U+30DE\U+30C3\U+30C8
370
     0
100
AcDbVertex
100
AcDb2dVertex
 10
209.7646293963436
 20
-12.93874511395281
 30
0.0
  0
VERTEX
  5
169
330
164
100
AcDbEntity
  8
\U+30D5\U+30A9\U+30FC\U+30DE\U+30C3\U+30C8
370
     0
100
AcDbVertex
100
AcDb2dVertex
 10
209.7646293963436
 20
-13.85376247483517
 30
0.0
  0
VERTEX
  5
16A
330
164
100
AcDbEntity
  8
\U+30D5\U+30A9\U+30FC\U+30DE\U+30C3\U+30C8
370
     0
100
AcDbVertex
100
AcDb2dVertex
 10
208.6139675042701
 20
-13.85376247483517
 30
0.0
  0
VERTEX
  5
16B
330
164
100
AcDbEntity
  8
\U+30D5\U+30A9\U+30FC\U+30DE\U+30C3\U+30C8
370
     0
100
AcDbVertex
100
AcDb2dVertex
 10
208.6139675042701
 20
-16.02623968783372
 30
0.0
  0
VERTEX
  5
16C
330
164
100
AcDbEntity
  8
\U+30D5\U+30A9\U+30FC\U+30DE\U+30C3\U+30C8
370
     0
100
AcDbVertex
100
AcDb2dVertex
 10
209.853512859863
 20
-16.02623968783372
 30
0.0
  0
VERTEX
  5
16D
330
164
100
AcDbEntity
  8
\U+30D5\U+30A9\U+30FC\U+30DE\U+30C3\U+30C8
370
     0
100
AcDbVertex
100
AcDb2dVertex
 10
209.853512859863
 20
-16.92816568587213
 30
0.0
  0
VERTEX
  5
16E
330
164
100
AcDbEntity
  8
\U+30D5\U+30A9\U+30FC\U+30DE\U+30C3\U+30C8
370
     0
100
AcDbVertex
100
AcDb2dVertex
 10
206.3278021402583
 20
-16.92816568587213
 30
0.0
  0
VERTEX
  5
16F
330
164
100
AcDbEntity
  8
\U+30D5\U+30A9\U+30FC\U+30DE\U+30C3\U+30C8
370
     0
100
AcDbVertex
100
AcDb2dVertex
 10
206.3278021402583
 20
-16.02623968783372
 30
0.0
  0
VERTEX
  5
170
330
164
100
AcDbEntity
  8
\U+30D5\U+30A9\U+30FC\U+30DE\U+30C3\U+30C8
370
     0
100
AcDbVertex
100
AcDb2dVertex
 10
207.6872368187379
 20
-16.02623968783372
 30
0.0
  0
VERTEX
  5
171
330
164
100
AcDbEntity
  8
\U+30D5\U+30A9\U+30FC\U+30DE\U+30C3\U+30C8
370
     0
100
AcDbVertex
100
AcDb2dVertex
 10
207.6872368187379
 20
-13.85376247483517
 30
0.0
  0
VERTEX
  5
172
330
164
100
AcDbEntity
  8
\U+30D5\U+30A9\U+30FC\U+30DE\U+30C3\U+30C8
370
     0
100
AcDbVertex
100
AcDb2dVertex
 10
206.6178791801164
 20
-13.85376247483517
 30
0.0
  0
VERTEX
  5
173
330
164
100
AcDbEntity
  8
\U+30D5\U+30A9\U+30FC\U+30DE\U+30C3\U+30C8
370
     0
100
AcDbVertex
100
AcDb2dVertex
 10
206.6178791801164
 20
-12.93874511395281
 30
0.0
  0
VERTEX
  5
174
330
164
100
AcDbEntity
  8
\U+30D5\U+30A9\U+30FC\U+30DE\U+30C3\U+30C8
370
     0
100
AcDbVertex
100
AcDb2dVertex
 10
207.6872368187379
 20
-12.93874511395281
 30
0.0
  0
VERTEX
  5
175
330
164
100
AcDbEntity
  8
\U+30D5\U+30A9\U+30FC\U+30DE\U+30C3\U+30C8
370
     0
100
AcDbVertex
100
AcDb2dVertex
 10
207.6872368187379
 20
-11.46768934175113
 30
0.0
  0
SEQEND
  5
176
330
164
100
AcDbEntity
  8
\U+30D5\U+30A9\U+30FC\U+30DE\U+30C3\U+30C8
370
     0
  0
HATCH
  5
177
330
1F
100
AcDbEntity
  8
\U+30D5\U+30A9\U+30FC\U+30DE\U+30C3\U+30C8
 62
     7
100
AcDbHatch
 10
0.0
 20
0.0
 30
0.0
210
0.0
220
0.0
230
1.0
  2
SOLID
 70
     1
 71
     0
 91
        2
 92
        1
 93
       16
 72
     1
 10
207.6872368187379
 20
-11.46768934175113
 11
208.6139675042701
 21
-11.46768934175113
 72
     1
 10
208.6139675042701
 20
-11.46768934175113
 11
208.6139675042701
 21
-12.93874511395281
 72
     1
 10
208.6139675042701
 20
-12.93874511395281
 11
209.7646293963436
 21
-12.93874511395281
 72
     1
 10
209.7646293963436
 20
-12.93874511395281
 11
209.7646293963436
 21
-13.85376247483517
 72
     1
 10
209.7646293963436
 20
-13.85376247483517
 11
208.6139675042701
 21
-13.85376247483517
 72
     1
 10
208.6139675042701
 20
-13.85376247483517
 11
208.6139675042701
 21
-16.02623968783372
 72
     1
 10
208.6139675042701
 20
-16.02623968783372
 11
209.853512859863
 21
-16.02623968783372
 72
     1
 10
209.853512859863
 20
-16.02623968783372
 11
209.853512859863
 21
-16.92816568587213
 72
     1
 10
209.853512859863
 20
-16.92816568587213
 11
206.3278021402583
 21
-16.92816568587213
 72
     1
 10
206.3278021402583
 20
-16.92816568587213
 11
206.3278021402583
 21
-16.02623968783372
 72
     1
 10
206.3278021402583
 20
-16.02623968783372
 11
207.6872368187379
 21
-16.02623968783372
 72
     1
 10
207.6872368187379
 20
-16.02623968783372
 11
207.6872368187379
 21
-13.85376247483517
 72
     1
 10
207.6872368187379
 20
-13.85376247483517
 11
206.6178791801164
 21
-13.85376247483517
 72
     1
 10
206.6178791801164
 20
-13.85376247483517
 11
206.6178791801164
 21
-12.93874511395281
 72
     1
 10
206.6178791801164
 20
-12.93874511395281
 11
207.6872368187379
 21
-12.93874511395281
 72
     1
 10
207.6872368187379
 20
-12.93874511395281
 11
207.6872368187379
 21
-11.46768934175113
 97
        0
 92
        1
 93
        2
 72
     4
 94
        3
 73
     0
 74
     0
 95
       59
 96
       55
 40
0.0
 40
0.0
 40
0.0
 40
0.0
 40
0.3527777776895833
 40
0.3527777776895833
 40
0.3527777776895833
 40
0.7055555553791667
 40
0.7055555553791667
 40
0.7055555553791667
 40
1.05833333306875
 40
1.05833333306875
 40
1.05833333306875
 40
1.411111110758333
 40
1.411111110758333
 40
1.411111110758333
 40
1.763888888447917
 40
1.763888888447917
 40
1.763888888447917
 40
2.1166666661375
 40
2.1166666661375
 40
2.1166666661375
 40
2.469444443827083
 40
2.469444443827083
 40
2.469444443827083
 40
2.822222221516667
 40
2.822222221516667
 40
2.822222221516667
 40
3.17499999920625
 40
3.17499999920625
 40
3.17499999920625
 40
3.527777776895833
 40
3.527777776895833
 40
3.527777776895833
 40
3.880555554585417
 40
3.880555554585417
 40
3.880555554585417
 40
4.233333332275
 40
4.233333332275
 40
4.233333332275
 40
4.586111109964584
 40
4.586111109964584
 40
4.586111109964584
 40
4.938888887654167
 40
4.938888887654167
 40
4.938888887654167
 40
5.29166666534375
 40
5.29166666534375
 40
5.29166666534375
 40
5.644444443033334
 40
5.644444443033334
 40
5.644444443033334
 40
5.997222220722917
 40
5.997222220722917
 40
5.997222220722917
 40
6.349999998412501
 40
6.349999998412501
 40
6.349999998412501
 40
6.349999998412501
 10
205.924036949387
 20
-17.09421928826117
 10
205.924036949387
 20
-17.09421928826117
 10
205.0227999704457
 20
-17.09421928826117
 10
205.0227999704457
 20
-17.09421928826117
 10
205.0227999704457
 20
-17.09421928826117
 10
205.0227999704457
 20
-15.11122232695136
 10
205.0227999704457
 20
-15.11122232695136
 10
204.77888721009
 20
-15.31930609426045
 10
204.612833607701
 20
-15.4385063980501
 10
204.392347496645
 20
-15.58595648481879
 10
204.392347496645
 20
-15.58595648481879
 10
204.1677272710067
 20
-14.53589138091464
 10
204.1677272710067
 20
-14.53589138091464
 10
204.8319416805629
 20
-14.13832736191681
 10
205.3783338245235
 20
-13.50374077353379
 10
205.5740152480857
 20
-13.11168890731236
 10
205.5740152480857
 20
-13.11168890731236
 10
204.2745252310494
 20
-13.11168890731236
 10
204.2745252310494
 20
-13.11168890731236
 10
204.2745252310494
 20
-13.11168890731236
 10
204.2745252310494
 20
-12.28004285717305
 10
204.2745252310494
 20
-12.28004285717305
 10
204.2745252310494
 20
-12.28004285717305
 10
205.0227999704457
 20
-12.28004285717305
 10
205.0227999704457
 20
-12.28004285717305
 10
205.0227999704457
 20
-12.28004285717305
 10
205.0227999704457
 20
-11.46148816987768
 10
205.0227999704457
 20
-11.46148816987768
 10
205.0227999704457
 20
-11.46148816987768
 10
205.924036949387
 20
-11.46148816987768
 10
205.924036949387
 20
-11.46148816987768
 10
205.924036949387
 20
-11.46148816987768
 10
205.924036949387
 20
-12.28004285717305
 10
205.924036949387
 20
-12.28004285717305
 10
205.924036949387
 20
-12.28004285717305
 10
206.529684735694
 20
-12.28004285717305
 10
206.529684735694
 20
-12.28004285717305
 10
206.529684735694
 20
-12.28004285717305
 10
206.529684735694
 20
-13.11720106008876
 10
206.529684735694
 20
-13.11720106008876
 10
206.4414902912716
 20
-13.33079698017425
 10
206.3278021402583
 20
-13.58642306517978
 10
206.0611517497
 20
-13.97227375952777
 10
206.3877468017017
 20
-14.334008785479
 10
206.6785128606568
 20
-14.50626355974149
 10
206.8679931123455
 20
-14.61306151978424
 10
206.8679931123455
 20
-14.61306151978424
 10
206.4228867756512
 20
-15.45573187547635
 10
206.4228867756512
 20
-15.45573187547635
 10
206.2506320013887
 20
-15.29587944496075
 10
206.1142062201729
 20
-15.15325249187141
 10
205.924036949387
 20
-14.88660210131307
 10
205.924036949387
 20
-14.88660210131307
 10
205.924036949387
 20
-17.09421928826117
 10
205.924036949387
 20
-17.09421928826117
 72
     1
 10
205.924036949387
 20
-17.09421928826117
 11
205.924036949387
 21
-17.09421928826117
 97
        0
 75
     2
 76
     1
 98
        0
  0
SPLINE
  5
178
330
1F
100
AcDbEntity
  8
\U+30D5\U+30A9\U+30FC\U+30DE\U+30C3\U+30C8
370
     0
100
AcDbSpline
210
0.0
220
0.0
230
1.0
 70
    11
 71
     3
 72
    47
 73
    43
 74
     0
 42
0.0000000001
 43
0.0000000001
 40
0.0
 40
0.0
 40
0.0
 40
0.0
 40
1.0
 40
1.0
 40
1.0
 40
2.0
 40
2.0
 40
2.0
 40
3.0
 40
3.0
 40
3.0
 40
4.0
 40
4.0
 40
4.0
 40
5.0
 40
5.0
 40
5.0
 40
6.0
 40
6.0
 40
6.0
 40
7.0
 40
7.0
 40
7.0
 40
8.0
 40
8.0
 40
8.0
 40
9.0
 40
9.0
 40
9.0
 40
10.0
 40
10.0
 40
10.0
 40
11.0
 40
11.0
 40
11.0
 40
12.0
 40
12.0
 40
12.0
 40
13.0
 40
13.0
 40
13.0
 40
14.0
 40
14.0
 40
14.0
 40
14.0
 10
212.3642984495131
 20
-13.68150770057268
 30
0.0
 10
212.8280083018277
 20
-13.87098795226142
 30
0.0
 10
213.1718288312557
 20
-14.04324272652391
 30
0.0
 10
213.5983316523296
 20
-14.3643256257492
 30
0.0
 10
213.8484455845587
 20
-14.01361490535076
 30
0.0
 10
214.0089870341714
 20
-13.67530652869923
 30
0.0
 10
214.1564371209401
 20
-13.15303005313536
 30
0.0
 10
214.1564371209401
 20
-13.15303005313536
 30
0.0
 10
212.4414685883827
 20
-13.15303005313536
 30
0.0
 10
212.4414685883827
 20
-13.15303005313536
 30
0.0
 10
211.9674234496123
 20
-13.75247666756883
 30
0.0
 10
211.4499701077278
 20
-14.20378417613655
 30
0.0
 10
210.8394991877415
 20
-14.55380587743794
 30
0.0
 10
210.8394991877415
 20
-14.55380587743794
 30
0.0
 10
210.2338514014346
 20
-13.86616481858207
 30
0.0
 10
210.2338514014346
 20
-13.86616481858207
 30
0.0
 10
211.3321478421323
 20
-13.2777425097014
 30
0.0
 10
211.8606254895696
 20
-12.55427245779893
 30
0.0
 10
212.2457871648205
 20
-11.56277397714403
 30
0.0
 10
212.2457871648205
 20
-11.56277397714403
 30
0.0
 10
213.2607122947751
 20
-11.69368760558352
 30
0.0
 10
213.2607122947751
 20
-11.69368760558352
 30
0.0
 10
213.1890543086819
 20
-11.90659450657196
 30
0.0
 10
213.1422010100825
 20
-12.01959363848816
 30
0.0
 10
213.011287381643
 20
-12.28624402904649
 30
0.0
 10
213.011287381643
 20
-12.28624402904649
 30
0.0
 10
215.3263915477309
 20
-12.28624402904649
 30
0.0
 10
215.3263915477309
 20
-12.28624402904649
 30
0.0
 10
214.9226263568596
 20
-14.84526095549007
 30
0.0
 10
213.5811061749033
 20
-16.32871907143866
 30
0.0
 10
211.1061495782999
 20
-16.91094020844588
 30
0.0
 10
211.1061495782999
 20
-16.91094020844588
 30
0.0
 10
210.6017875992593
 20
-16.06069064268622
 30
0.0
 10
210.6017875992593
 20
-16.06069064268622
 30
0.0
 10
210.9814371217338
 20
-15.99592284756352
 30
0.0
 10
211.9136799600424
 20
-15.84158256982433
 30
0.0
 10
212.9106905934737
 20
-15.07057020022541
 30
0.0
 10
212.3939262706863
 20
-14.65440266560723
 30
0.0
 10
211.9784477551651
 20
-14.44700791739519
 30
0.0
 10
211.7352240139065
 20
-14.3229844799262
 30
0.0
 10
211.7352240139065
 20
-14.3229844799262
 30
0.0
 10
212.3642984495131
 20
-13.68150770057268
 30
0.0
 10
212.3642984495131
 20
-13.68150770057268
 30
0.0
  0
HATCH
  5
179
330
1F
100
AcDbEntity
  8
\U+30D5\U+30A9\U+30FC\U+30DE\U+30C3\U+30C8
 62
     7
100
AcDbHatch
 10
0.0
 20
0.0
 30
0.0
210
0.0
220
0.0
230
1.0
  2
SOLID
 70
     1
 71
     0
 91
        1
 92
        1
 93
        1
 72
     4
 94
        3
 73
     0
 74
     1
 95
       47
 96
       43
 40
0.0
 40
0.0
 40
0.0
 40
0.0
 40
1.0
 40
1.0
 40
1.0
 40
2.0
 40
2.0
 40
2.0
 40
3.0
 40
3.0
 40
3.0
 40
4.0
 40
4.0
 40
4.0
 40
5.0
 40
5.0
 40
5.0
 40
6.0
 40
6.0
 40
6.0
 40
7.0
 40
7.0
 40
7.0
 40
8.0
 40
8.0
 40
8.0
 40
9.0
 40
9.0
 40
9.0
 40
10.0
 40
10.0
 40
10.0
 40
11.0
 40
11.0
 40
11.0
 40
12.0
 40
12.0
 40
12.0
 40
13.0
 40
13.0
 40
13.0
 40
14.0
 40
14.0
 40
14.0
 40
14.0
 10
212.3642984495131
 20
-13.68150770057268
 10
212.8280083018277
 20
-13.87098795226142
 10
213.1718288312557
 20
-14.04324272652391
 10
213.5983316523296
 20
-14.3643256257492
 10
213.8484455845587
 20
-14.01361490535076
 10
214.0089870341714
 20
-13.67530652869923
 10
214.1564371209401
 20
-13.15303005313536
 10
214.1564371209401
 20
-13.15303005313536
 10
212.4414685883827
 20
-13.15303005313536
 10
212.4414685883827
 20
-13.15303005313536
 10
211.9674234496123
 20
-13.75247666756883
 10
211.4499701077278
 20
-14.20378417613655
 10
210.8394991877415
 20
-14.55380587743794
 10
210.8394991877415
 20
-14.55380587743794
 10
210.2338514014346
 20
-13.86616481858207
 10
210.2338514014346
 20
-13.86616481858207
 10
211.3321478421323
 20
-13.2777425097014
 10
211.8606254895696
 20
-12.55427245779893
 10
212.2457871648205
 20
-11.56277397714403
 10
212.2457871648205
 20
-11.56277397714403
 10
213.2607122947751
 20
-11.69368760558352
 10
213.2607122947751
 20
-11.69368760558352
 10
213.1890543086819
 20
-11.90659450657196
 10
213.1422010100825
 20
-12.01959363848816
 10
213.011287381643
 20
-12.28624402904649
 10
213.011287381643
 20
-12.28624402904649
 10
215.3263915477309
 20
-12.28624402904649
 10
215.3263915477309
 20
-12.28624402904649
 10
214.9226263568596
 20
-14.84526095549007
 10
213.5811061749033
 20
-16.32871907143866
 10
211.1061495782999
 20
-16.91094020844588
 10
211.1061495782999
 20
-16.91094020844588
 10
210.6017875992593
 20
-16.06069064268622
 10
210.6017875992593
 20
-16.06069064268622
 10
210.9814371217338
 20
-15.99592284756352
 10
211.9136799600424
 20
-15.84158256982433
 10
212.9106905934737
 20
-15.07057020022541
 10
212.3939262706863
 20
-14.65440266560723
 10
211.9784477551651
 20
-14.44700791739519
 10
211.7352240139065
 20
-14.3229844799262
 10
211.7352240139065
 20
-14.3229844799262
 10
212.3642984495131
 20
-13.68150770057268
 10
212.3642984495131
 20
-13.68150770057268
 97
        0
 75
     2
 76
     1
 98
        0
  0
SPLINE
  5
17A
330
1F
100
AcDbEntity
  8
\U+30D5\U+30A9\U+30FC\U+30DE\U+30C3\U+30C8
370
     0
100
AcDbSpline
210
0.0
220
0.0
230
1.0
 70
    11
 71
     3
 72
    68
 73
    64
 74
     0
 42
0.0000000001
 43
0.0000000001
 40
0.0
 40
0.0
 40
0.0
 40
0.0
 40
1.0
 40
1.0
 40
1.0
 40
2.0
 40
2.0
 40
2.0
 40
3.0
 40
3.0
 40
3.0
 40
4.0
 40
4.0
 40
4.0
 40
5.0
 40
5.0
 40
5.0
 40
6.0
 40
6.0
 40
6.0
 40
7.0
 40
7.0
 40
7.0
 40
8.0
 40
8.0
 40
8.0
 40
9.0
 40
9.0
 40
9.0
 40
10.0
 40
10.0
 40
10.0
 40
11.0
 40
11.0
 40
11.0
 40
12.0
 40
12.0
 40
12.0
 40
13.0
 40
13.0
 40
13.0
 40
14.0
 40
14.0
 40
14.0
 40
15.0
 40
15.0
 40
15.0
 40
16.0
 40
16.0
 40
16.0
 40
17.0
 40
17.0
 40
17.0
 40
18.0
 40
18.0
 40
18.0
 40
19.0
 40
19.0
 40
19.0
 40
20.0
 40
20.0
 40
20.0
 40
21.0
 40
21.0
 40
21.0
 40
21.0
 10
220.8647270498186
 20
-12.67760687617088
 30
0.0
 10
220.8647270498186
 20
-12.67760687617088
 30
0.0
 10
220.8647270498186
 20
-13.58642306517978
 30
0.0
 10
220.8647270498186
 20
-13.58642306517978
 30
0.0
 10
220.8647270498186
 20
-14.2154975007864
 30
0.0
 10
220.8109835602486
 20
-15.4261040543032
 30
0.0
 10
220.7034965811089
 20
-15.90083821217062
 30
0.0
 10
220.5085041766437
 20
-16.76142306438603
 30
0.0
 10
220.0096543503795
 20
-16.83859320325563
 30
0.0
 10
219.4811767029422
 20
-16.83859320325563
 30
0.0
 10
218.899644585032
 20
-16.83859320325563
 30
0.0
 10
218.6081895069799
 20
-16.77382540813293
 30
0.0
 10
218.4545382483378
 20
-16.73799641508634
 30
0.0
 10
218.4545382483378
 20
-16.73799641508634
 30
0.0
 10
218.4014837778649
 20
-15.80644259587478
 30
0.0
 10
218.4014837778649
 20
-15.80644259587478
 30
0.0
 10
218.6205918507268
 20
-15.84709472260073
 30
0.0
 10
218.9533880746019
 20
-15.90703938404407
 30
0.0
 10
219.3089219286797
 20
-15.90703938404407
 30
0.0
 10
219.5934868157614
 20
-15.90703938404407
 30
0.0
 10
219.7064859476775
 20
-15.84158256982433
 30
0.0
 10
219.7664306091209
 20
-15.68173013930874
 30
0.0
 10
219.8663383781931
 20
-15.3613362591805
 30
0.0
 10
219.9138806958896
 20
-14.02050509632126
 30
0.0
 10
219.9138806958896
 20
-13.87718912413487
 30
0.0
 10
219.9138806958896
 20
-13.87718912413487
 30
0.0
 10
219.9138806958896
 20
-13.56781954955943
 30
0.0
 10
219.9138806958896
 20
-13.56781954955943
 30
0.0
 10
219.9138806958896
 20
-13.56781954955943
 30
0.0
 10
218.6205918507268
 20
-13.56781954955943
 30
0.0
 10
218.6205918507268
 20
-13.56781954955943
 30
0.0
 10
218.4958793941608
 20
-14.292667639656
 30
0.0
 10
218.3001979705986
 20
-14.81494411521988
 30
0.0
 10
218.0741997067662
 20
-15.23042263074101
 30
0.0
 10
217.5284965819026
 20
-16.23983560791921
 30
0.0
 10
216.8043375109031
 20
-16.69114311648694
 30
0.0
 10
216.5073702800746
 20
-16.87511121539928
 30
0.0
 10
216.5073702800746
 20
-16.87511121539928
 30
0.0
 10
215.8541801760712
 20
-16.15646429717616
 30
0.0
 10
215.8541801760712
 20
-16.15646429717616
 30
0.0
 10
217.0537624240352
 20
-15.49224988761999
 30
0.0
 10
217.4210096027628
 20
-14.74328612912668
 30
0.0
 10
217.6346055228483
 20
-13.56781954955943
 30
0.0
 10
217.6346055228483
 20
-13.56781954955943
 30
0.0
 10
216.1332329103764
 20
-13.56781954955943
 30
0.0
 10
216.1332329103764
 20
-13.56781954955943
 30
0.0
 10
216.1332329103764
 20
-13.56781954955943
 30
0.0
 10
216.1332329103764
 20
-12.67760687617088
 30
0.0
 10
216.1332329103764
 20
-12.67760687617088
 30
0.0
 10
216.1332329103764
 20
-12.67760687617088
 30
0.0
 10
217.7420925019881
 20
-12.67760687617088
 30
0.0
 10
217.7420925019881
 20
-12.67760687617088
 30
0.0
 10
217.7710313040642
 20
-12.28004285717305
 30
0.0
 10
217.7779214950347
 20
-12.03130696313801
 30
0.0
 10
217.7779214950347
 20
-11.65096842156643
 30
0.0
 10
217.7779214950347
 20
-11.65096842156643
 30
0.0
 10
218.7804442812424
 20
-11.66337076531332
 30
0.0
 10
218.7804442812424
 20
-11.66337076531332
 30
0.0
 10
218.7625297847191
 20
-12.17393391622735
 30
0.0
 10
218.7453043072929
 20
-12.38132866443939
 30
0.0
 10
218.7218776579932
 20
-12.67760687617088
 30
0.0
 10
218.7218776579932
 20
-12.67760687617088
 30
0.0
 10
220.8647270498186
 20
-12.67760687617088
 30
0.0
 10
220.8647270498186
 20
-12.67760687617088
 30
0.0
  0
HATCH
  5
17B
330
1F
100
AcDbEntity
  8
\U+30D5\U+30A9\U+30FC\U+30DE\U+30C3\U+30C8
 62
     7
100
AcDbHatch
 10
0.0
 20
0.0
 30
0.0
210
0.0
220
0.0
230
1.0
  2
SOLID
 70
     1
 71
     0
 91
        1
 92
        1
 93
        1
 72
     4
 94
        3
 73
     0
 74
     1
 95
       68
 96
       64
 40
0.0
 40
0.0
 40
0.0
 40
0.0
 40
1.0
 40
1.0
 40
1.0
 40
2.0
 40
2.0
 40
2.0
 40
3.0
 40
3.0
 40
3.0
 40
4.0
 40
4.0
 40
4.0
 40
5.0
 40
5.0
 40
5.0
 40
6.0
 40
6.0
 40
6.0
 40
7.0
 40
7.0
 40
7.0
 40
8.0
 40
8.0
 40
8.0
 40
9.0
 40
9.0
 40
9.0
 40
10.0
 40
10.0
 40
10.0
 40
11.0
 40
11.0
 40
11.0
 40
12.0
 40
12.0
 40
12.0
 40
13.0
 40
13.0
 40
13.0
 40
14.0
 40
14.0
 40
14.0
 40
15.0
 40
15.0
 40
15.0
 40
16.0
 40
16.0
 40
16.0
 40
17.0
 40
17.0
 40
17.0
 40
18.0
 40
18.0
 40
18.0
 40
19.0
 40
19.0
 40
19.0
 40
20.0
 40
20.0
 40
20.0
 40
21.0
 40
21.0
 40
21.0
 40
21.0
 10
220.8647270498186
 20
-12.67760687617088
 10
220.8647270498186
 20
-12.67760687617088
 10
220.8647270498186
 20
-13.58642306517978
 10
220.8647270498186
 20
-13.58642306517978
 10
220.8647270498186
 20
-14.2154975007864
 10
220.8109835602486
 20
-15.4261040543032
 10
220.7034965811089
 20
-15.90083821217062
 10
220.5085041766437
 20
-16.76142306438603
 10
220.0096543503795
 20
-16.83859320325563
 10
219.4811767029422
 20
-16.83859320325563
 10
218.899644585032
 20
-16.83859320325563
 10
218.6081895069799
 20
-16.77382540813293
 10
218.4545382483378
 20
-16.73799641508634
 10
218.4545382483378
 20
-16.73799641508634
 10
218.4014837778649
 20
-15.80644259587478
 10
218.4014837778649
 20
-15.80644259587478
 10
218.6205918507268
 20
-15.84709472260073
 10
218.9533880746019
 20
-15.90703938404407
 10
219.3089219286797
 20
-15.90703938404407
 10
219.5934868157614
 20
-15.90703938404407
 10
219.7064859476775
 20
-15.84158256982433
 10
219.7664306091209
 20
-15.68173013930874
 10
219.8663383781931
 20
-15.3613362591805
 10
219.9138806958896
 20
-14.02050509632126
 10
219.9138806958896
 20
-13.87718912413487
 10
219.9138806958896
 20
-13.87718912413487
 10
219.9138806958896
 20
-13.56781954955943
 10
219.9138806958896
 20
-13.56781954955943
 10
219.9138806958896
 20
-13.56781954955943
 10
218.6205918507268
 20
-13.56781954955943
 10
218.6205918507268
 20
-13.56781954955943
 10
218.4958793941608
 20
-14.292667639656
 10
218.3001979705986
 20
-14.81494411521988
 10
218.0741997067662
 20
-15.23042263074101
 10
217.5284965819026
 20
-16.23983560791921
 10
216.8043375109031
 20
-16.69114311648694
 10
216.5073702800746
 20
-16.87511121539928
 10
216.5073702800746
 20
-16.87511121539928
 10
215.8541801760712
 20
-16.15646429717616
 10
215.8541801760712
 20
-16.15646429717616
 10
217.0537624240352
 20
-15.49224988761999
 10
217.4210096027628
 20
-14.74328612912668
 10
217.6346055228483
 20
-13.56781954955943
 10
217.6346055228483
 20
-13.56781954955943
 10
216.1332329103764
 20
-13.56781954955943
 10
216.1332329103764
 20
-13.56781954955943
 10
216.1332329103764
 20
-13.56781954955943
 10
216.1332329103764
 20
-12.67760687617088
 10
216.1332329103764
 20
-12.67760687617088
 10
216.1332329103764
 20
-12.67760687617088
 10
217.7420925019881
 20
-12.67760687617088
 10
217.7420925019881
 20
-12.67760687617088
 10
217.7710313040642
 20
-12.28004285717305
 10
217.7779214950347
 20
-12.03130696313801
 10
217.7779214950347
 20
-11.65096842156643
 10
217.7779214950347
 20
-11.65096842156643
 10
218.7804442812424
 20
-11.66337076531332
 10
218.7804442812424
 20
-11.66337076531332
 10
218.7625297847191
 20
-12.17393391622735
 10
218.7453043072929
 20
-12.38132866443939
 10
218.7218776579932
 20
-12.67760687617088
 10
218.7218776579932
 20
-12.67760687617088
 10
220.8647270498186
 20
-12.67760687617088
 10
220.8647270498186
 20
-12.67760687617088
 97
        0
 75
     2
 76
     1
 98
        0
  0
SPLINE
  5
17C
330
1F
100
AcDbEntity
  8
\U+30D5\U+30A9\U+30FC\U+30DE\U+30C3\U+30C8
370
     0
100
AcDbSpline
210
0.0
220
0.0
230
1.0
 70
    11
 71
     3
 72
    17
 73
    13
 74
     0
 42
0.0000000001
 43
0.0000000001
 40
0.0
 40
0.0
 40
0.0
 40
0.0
 40
1.0
 40
1.0
 40
1.0
 40
2.0
 40
2.0
 40
2.0
 40
3.0
 40
3.0
 40
3.0
 40
4.0
 40
4.0
 40
4.0
 40
4.0
 10
223.9446424136319
 20
-13.24260253575185
 30
0.0
 10
223.3686224484981
 20
-12.94494628582626
 30
0.0
 10
222.7519503566384
 20
-12.74375270948767
 30
0.0
 10
222.1283880738082
 20
-12.58941243174848
 30
0.0
 10
222.1283880738082
 20
-12.58941243174848
 30
0.0
 10
222.4666964504597
 20
-11.80048556562627
 30
0.0
 10
222.4666964504597
 20
-11.80048556562627
 30
0.0
 10
223.0303140718466
 20
-11.90659450657196
 30
0.0
 10
223.7427598181963
 20
-12.12019042665745
 30
0.0
 10
224.31877978333
 20
-12.39924316096269
 30
0.0
 10
224.31877978333
 20
-12.39924316096269
 30
0.0
 10
223.9446424136319
 20
-13.24260253575185
 30
0.0
 10
223.9446424136319
 20
-13.24260253575185
 30
0.0
  0
SPLINE
  5
17D
330
1F
100
AcDbEntity
  8
\U+30D5\U+30A9\U+30FC\U+30DE\U+30C3\U+30C8
370
     0
100
AcDbSpline
210
0.0
220
0.0
230
1.0
 70
    11
 71
     3
 72
    17
 73
    13
 74
     0
 42
0.0000000001
 43
0.0000000001
 40
0.0
 40
0.0
 40
0.0
 40
0.0
 40
1.0
 40
1.0
 40
1.0
 40
2.0
 40
2.0
 40
2.0
 40
3.0
 40
3.0
 40
3.0
 40
4.0
 40
4.0
 40
4.0
 40
4.0
 10
223.422365938068
 20
-14.67231716213053
 30
0.0
 10
222.911802787154
 20
-14.3877522750489
 30
0.0
 10
222.2999538289736
 20
-14.15072970566371
 30
0.0
 10
221.6715684124641
 20
-13.97778591230417
 30
0.0
 10
221.6715684124641
 20
-13.97778591230417
 30
0.0
 10
222.0036756172422
 20
-13.18334689340555
 30
0.0
 10
222.0036756172422
 20
-13.18334689340555
 30
0.0
 10
222.4666964504597
 20
-13.2777425097014
 30
0.0
 10
223.2204833426324
 20
-13.51476507908659
 30
0.0
 10
223.7847899831163
 20
-13.82344563456497
 30
0.0
 10
223.7847899831163
 20
-13.82344563456497
 30
0.0
 10
223.422365938068
 20
-14.67231716213053
 30
0.0
 10
223.422365938068
 20
-14.67231716213053
 30
0.0
  0
SPLINE
  5
17E
330
1F
100
AcDbEntity
  8
\U+30D5\U+30A9\U+30FC\U+30DE\U+30C3\U+30C8
370
     0
100
AcDbSpline
210
0.0
220
0.0
230
1.0
 70
    11
 71
     3
 72
    17
 73
    13
 74
     0
 42
0.0000000001
 43
0.0000000001
 40
0.0
 40
0.0
 40
0.0
 40
0.0
 40
1.0
 40
1.0
 40
1.0
 40
2.0
 40
2.0
 40
2.0
 40
3.0
 40
3.0
 40
3.0
 40
4.0
 40
4.0
 40
4.0
 40
4.0
 10
221.9857611207188
 20
-15.80093044309838
 30
0.0
 10
223.8550699310154
 20
-15.63349880251524
 30
0.0
 10
225.1614501390222
 20
-15.29036729218435
 30
0.0
 10
225.9689805207647
 20
-12.58321125987503
 30
0.0
 10
225.9689805207647
 20
-12.58321125987503
 30
0.0
 10
226.8647053469297
 20
-13.01040310004601
 30
0.0
 10
226.8647053469297
 20
-13.01040310004601
 30
0.0
 10
225.903523706545
 20
-15.86569823822108
 30
0.0
 10
224.442803220799
 20
-16.55402831617399
 30
0.0
 10
222.2462103394037
 20
-16.82136772582938
 30
0.0
 10
222.2462103394037
 20
-16.82136772582938
 30
0.0
 10
221.9857611207188
 20
-15.80093044309838
 30
0.0
 10
221.9857611207188
 20
-15.80093044309838
 30
0.0
  0
HATCH
  5
17F
330
1F
100
AcDbEntity
  8
\U+30D5\U+30A9\U+30FC\U+30DE\U+30C3\U+30C8
 62
     7
100
AcDbHatch
 10
0.0
 20
0.0
 30
0.0
210
0.0
220
0.0
230
1.0
  2
SOLID
 70
     1
 71
     0
 91
        3
 92
        1
 93
        1
 72
     4
 94
        3
 73
     0
 74
     1
 95
       17
 96
       13
 40
0.0
 40
0.0
 40
0.0
 40
0.0
 40
1.0
 40
1.0
 40
1.0
 40
2.0
 40
2.0
 40
2.0
 40
3.0
 40
3.0
 40
3.0
 40
4.0
 40
4.0
 40
4.0
 40
4.0
 10
221.9857611207188
 20
-15.80093044309838
 10
223.8550699310154
 20
-15.63349880251524
 10
225.1614501390222
 20
-15.29036729218435
 10
225.9689805207647
 20
-12.58321125987503
 10
225.9689805207647
 20
-12.58321125987503
 10
226.8647053469297
 20
-13.01040310004601
 10
226.8647053469297
 20
-13.01040310004601
 10
225.903523706545
 20
-15.86569823822108
 10
224.442803220799
 20
-16.55402831617399
 10
222.2462103394037
 20
-16.82136772582938
 10
222.2462103394037
 20
-16.82136772582938
 10
221.9857611207188
 20
-15.80093044309838
 10
221.9857611207188
 20
-15.80093044309838
 97
        0
 92
        1
 93
        2
 72
     4
 94
        3
 73
     0
 74
     0
 95
       17
 96
       13
 40
0.0
 40
0.0
 40
0.0
 40
0.0
 40
0.3527777776895833
 40
0.3527777776895833
 40
0.3527777776895833
 40
0.7055555553791667
 40
0.7055555553791667
 40
0.7055555553791667
 40
1.05833333306875
 40
1.05833333306875
 40
1.05833333306875
 40
1.411111110758333
 40
1.411111110758333
 40
1.411111110758333
 40
1.411111110758333
 10
223.9446424136319
 20
-13.24260253575185
 10
223.3686224484981
 20
-12.94494628582626
 10
222.7519503566384
 20
-12.74375270948767
 10
222.1283880738082
 20
-12.58941243174848
 10
222.1283880738082
 20
-12.58941243174848
 10
222.4666964504597
 20
-11.80048556562627
 10
222.4666964504597
 20
-11.80048556562627
 10
223.0303140718466
 20
-11.90659450657196
 10
223.7427598181963
 20
-12.12019042665745
 10
224.31877978333
 20
-12.39924316096269
 10
224.31877978333
 20
-12.39924316096269
 10
223.9446424136319
 20
-13.24260253575185
 10
223.9446424136319
 20
-13.24260253575185
 72
     1
 10
223.9446424136319
 20
-13.24260253575185
 11
223.9446424136319
 21
-13.24260253575185
 97
        0
 92
        1
 93
        2
 72
     4
 94
        3
 73
     0
 74
     0
 95
       17
 96
       13
 40
0.0
 40
0.0
 40
0.0
 40
0.0
 40
0.3527777776895833
 40
0.3527777776895833
 40
0.3527777776895833
 40
0.7055555553791667
 40
0.7055555553791667
 40
0.7055555553791667
 40
1.05833333306875
 40
1.05833333306875
 40
1.05833333306875
 40
1.411111110758333
 40
1.411111110758333
 40
1.411111110758333
 40
1.411111110758333
 10
223.422365938068
 20
-14.67231716213053
 10
222.911802787154
 20
-14.3877522750489
 10
222.2999538289736
 20
-14.15072970566371
 10
221.6715684124641
 20
-13.97778591230417
 10
221.6715684124641
 20
-13.97778591230417
 10
222.0036756172422
 20
-13.18334689340555
 10
222.0036756172422
 20
-13.18334689340555
 10
222.4666964504597
 20
-13.2777425097014
 10
223.2204833426324
 20
-13.51476507908659
 10
223.7847899831163
 20
-13.82344563456497
 10
223.7847899831163
 20
-13.82344563456497
 10
223.422365938068
 20
-14.67231716213053
 10
223.422365938068
 20
-14.67231716213053
 72
     1
 10
223.422365938068
 20
-14.67231716213053
 11
223.422365938068
 21
-14.67231716213053
 97
        0
 75
     2
 76
     1
 98
        0
  0
POLYLINE
  5
180
330
1F
100
AcDbEntity
  8
\U+30D5\U+30A9\U+30FC\U+30DE\U+30C3\U+30C8
370
     0
100
AcDb2dPolyline
 66
     1
 10
0.0
 20
0.0
 30
0.0
  0
VERTEX
  5
181
330
180
100
AcDbEntity
  8
\U+30D5\U+30A9\U+30FC\U+30DE\U+30C3\U+30C8
370
     0
100
AcDbVertex
100
AcDb2dVertex
 10
231.1035508319811
 20
-12.86226399418027
 30
0.0
  0
VERTEX
  5
182
330
180
100
AcDbEntity
  8
\U+30D5\U+30A9\U+30FC\U+30DE\U+30C3\U+30C8
370
     0
100
AcDbVertex
100
AcDb2dVertex
 10
231.1035508319811
 20
-16.72008191856304
 30
0.0
  0
VERTEX
  5
183
330
180
100
AcDbEntity
  8
\U+30D5\U+30A9\U+30FC\U+30DE\U+30C3\U+30C8
370
     0
100
AcDbVertex
100
AcDb2dVertex
 10
227.4703531332366
 20
-16.72008191856304
 30
0.0
  0
VERTEX
  5
184
330
180
100
AcDbEntity
  8
\U+30D5\U+30A9\U+30FC\U+30DE\U+30C3\U+30C8
370
     0
100
AcDbVertex
100
AcDb2dVertex
 10
227.4703531332366
 20
-15.90083821217062
 30
0.0
  0
VERTEX
  5
185
330
180
100
AcDbEntity
  8
\U+30D5\U+30A9\U+30FC\U+30DE\U+30C3\U+30C8
370
     0
100
AcDbVertex
100
AcDb2dVertex
 10
230.2002467957486
 20
-15.90083821217062
 30
0.0
  0
VERTEX
  5
186
330
180
100
AcDbEntity
  8
\U+30D5\U+30A9\U+30FC\U+30DE\U+30C3\U+30C8
370
     0
100
AcDbVertex
100
AcDb2dVertex
 10
230.2002467957486
 20
-15.15325249187141
 30
0.0
  0
VERTEX
  5
187
330
180
100
AcDbEntity
  8
\U+30D5\U+30A9\U+30FC\U+30DE\U+30C3\U+30C8
370
     0
100
AcDbVertex
100
AcDb2dVertex
 10
227.6246934109758
 20
-15.15325249187141
 30
0.0
  0
VERTEX
  5
188
330
180
100
AcDbEntity
  8
\U+30D5\U+30A9\U+30FC\U+30DE\U+30C3\U+30C8
370
     0
100
AcDbVertex
100
AcDb2dVertex
 10
227.6246934109758
 20
-14.3698377785256
 30
0.0
  0
VERTEX
  5
189
330
180
100
AcDbEntity
  8
\U+30D5\U+30A9\U+30FC\U+30DE\U+30C3\U+30C8
370
     0
100
AcDbVertex
100
AcDb2dVertex
 10
230.2002467957486
 20
-14.3698377785256
 30
0.0
  0
VERTEX
  5
18A
330
180
100
AcDbEntity
  8
\U+30D5\U+30A9\U+30FC\U+30DE\U+30C3\U+30C8
370
     0
100
AcDbVertex
100
AcDb2dVertex
 10
230.2002467957486
 20
-13.66290418495233
 30
0.0
  0
VERTEX
  5
18B
330
180
100
AcDbEntity
  8
\U+30D5\U+30A9\U+30FC\U+30DE\U+30C3\U+30C8
370
     0
100
AcDbVertex
100
AcDb2dVertex
 10
227.5296087755829
 20
-13.66290418495233
 30
0.0
  0
VERTEX
  5
18C
330
180
100
AcDbEntity
  8
\U+30D5\U+30A9\U+30FC\U+30DE\U+30C3\U+30C8
370
     0
100
AcDbVertex
100
AcDb2dVertex
 10
227.5296087755829
 20
-12.86226399418027
 30
0.0
  0
VERTEX
  5
18D
330
180
100
AcDbEntity
  8
\U+30D5\U+30A9\U+30FC\U+30DE\U+30C3\U+30C8
370
     0
100
AcDbVertex
100
AcDb2dVertex
 10
231.1035508319811
 20
-12.86226399418027
 30
0.0
  0
SEQEND
  5
18E
330
180
100
AcDbEntity
  8
\U+30D5\U+30A9\U+30FC\U+30DE\U+30C3\U+30C8
370
     0
  0
HATCH
  5
18F
330
1F
100
AcDbEntity
  8
\U+30D5\U+30A9\U+30FC\U+30DE\U+30C3\U+30C8
 62
     7
100
AcDbHatch
 10
0.0
 20
0.0
 30
0.0
210
0.0
220
0.0
230
1.0
  2
SOLID
 70
     1
 71
     0
 91
        1
 92
        1
 93
       12
 72
     1
 10
231.1035508319811
 20
-12.86226399418027
 11
231.1035508319811
 21
-16.72008191856304
 72
     1
 10
231.1035508319811
 20
-16.72008191856304
 11
227.4703531332366
 21
-16.72008191856304
 72
     1
 10
227.4703531332366
 20
-16.72008191856304
 11
227.4703531332366
 21
-15.90083821217062
 72
     1
 10
227.4703531332366
 20
-15.90083821217062
 11
230.2002467957486
 21
-15.90083821217062
 72
     1
 10
230.2002467957486
 20
-15.90083821217062
 11
230.2002467957486
 21
-15.15325249187141
 72
     1
 10
230.2002467957486
 20
-15.15325249187141
 11
227.6246934109758
 21
-15.15325249187141
 72
     1
 10
227.6246934109758
 20
-15.15325249187141
 11
227.6246934109758
 21
-14.3698377785256
 72
     1
 10
227.6246934109758
 20
-14.3698377785256
 11
230.2002467957486
 21
-14.3698377785256
 72
     1
 10
230.2002467957486
 20
-14.3698377785256
 11
230.2002467957486
 21
-13.66290418495233
 72
     1
 10
230.2002467957486
 20
-13.66290418495233
 11
227.5296087755829
 21
-13.66290418495233
 72
     1
 10
227.5296087755829
 20
-13.66290418495233
 11
227.5296087755829
 21
-12.86226399418027
 72
     1
 10
227.5296087755829
 20
-12.86226399418027
 11
231.1035508319811
 21
-12.86226399418027
 97
        0
 75
     2
 76
     1
 98
        0
  0
POLYLINE
  5
190
330
1F
100
AcDbEntity
  8
\U+30D5\U+30A9\U+30FC\U+30DE\U+30C3\U+30C8
370
     0
100
AcDb2dPolyline
 66
     1
 10
0.0
 20
0.0
 30
0.0
  0
VERTEX
  5
191
330
190
100
AcDbEntity
  8
\U+30D5\U+30A9\U+30FC\U+30DE\U+30C3\U+30C8
370
     0
100
AcDbVertex
100
AcDb2dVertex
 10
236.3552543896959
 20
-13.89510362065817
 30
0.0
  0
VERTEX
  5
192
330
190
100
AcDbEntity
  8
\U+30D5\U+30A9\U+30FC\U+30DE\U+30C3\U+30C8
370
     0
100
AcDbVertex
100
AcDb2dVertex
 10
236.3552543896959
 20
-14.64268934095738
 30
0.0
  0
VERTEX
  5
193
330
190
100
AcDbEntity
  8
\U+30D5\U+30A9\U+30FC\U+30DE\U+30C3\U+30C8
370
     0
100
AcDbVertex
100
AcDb2dVertex
 10
231.9510443213525
 20
-14.64268934095738
 30
0.0
  0
VERTEX
  5
194
330
190
100
AcDbEntity
  8
\U+30D5\U+30A9\U+30FC\U+30DE\U+30C3\U+30C8
370
     0
100
AcDbVertex
100
AcDb2dVertex
 10
231.9510443213525
 20
-13.89510362065817
 30
0.0
  0
VERTEX
  5
195
330
190
100
AcDbEntity
  8
\U+30D5\U+30A9\U+30FC\U+30DE\U+30C3\U+30C8
370
     0
100
AcDbVertex
100
AcDb2dVertex
 10
236.3552543896959
 20
-13.89510362065817
 30
0.0
  0
SEQEND
  5
196
330
190
100
AcDbEntity
  8
\U+30D5\U+30A9\U+30FC\U+30DE\U+30C3\U+30C8
370
     0
  0
HATCH
  5
197
330
1F
100
AcDbEntity
  8
\U+30D5\U+30A9\U+30FC\U+30DE\U+30C3\U+30C8
 62
     7
100
AcDbHatch
 10
0.0
 20
0.0
 30
0.0
210
0.0
220
0.0
230
1.0
  2
SOLID
 70
     1
 71
     0
 91
        1
 92
        1
 93
        4
 72
     1
 10
236.3552543896959
 20
-13.89510362065817
 11
236.3552543896959
 21
-14.64268934095738
 72
     1
 10
236.3552543896959
 20
-14.64268934095738
 11
231.9510443213525
 21
-14.64268934095738
 72
     1
 10
231.9510443213525
 20
-14.64268934095738
 11
231.9510443213525
 21
-13.89510362065817
 72
     1
 10
231.9510443213525
 20
-13.89510362065817
 11
236.3552543896959
 21
-13.89510362065817
 97
        0
 75
     2
 76
     1
 98
        0
  0
MTEXT
  5
199
330
1F
100
AcDbEntity
  8
\U+30EC\U+30A4\U+30E4\U+30FC 1
 62
     7
100
AcDbMText
 10
63.28726533791082
 20
-25.48784992852387
 30
0.0
 40
2.187786638666616
 41
0.0
 71
     7
 72
     1
  1
\fMS Gothic|b0|i0|c0|p34;\W1;粋 ﾎﾟｰﾙﾗｲﾄ 3型 100V（ほのあかり）
 73
     1
 44
1.0
  0
MTEXT
  5
19A
330
1F
100
AcDbEntity
  8
\U+30EC\U+30A4\U+30E4\U+30FC 1
 62
     7
100
AcDbMText
 10
80.98248153357383
 20
-29.34876843884336
 30
0.0
 40
2.187786638666616
 41
0.0
 71
     7
 72
     1
  1
\fMS Gothic|b0|i0|c0|p34;\W1;銀ねず/墨色
 73
     1
 44
1.0
  0
MTEXT
  5
19B
330
1F
100
AcDbEntity
  8
\U+30EC\U+30A4\U+30E4\U+30FC 1
 62
     7
100
AcDbMText
 10
81.78691132937966
 20
-15.37615016976707
 30
0.0
 40
2.187786638666616
 41
0.0
 71
     7
 72
     1
  1
\fMS Gothic|b0|i0|c0|p34;\W1;HGD-H14N/B
 73
     1
 44
1.0
  0
POLYLINE
  5
19C
330
1F
100
AcDbEntity
  8
\U+30EC\U+30A4\U+30E4\U+30FC 1
370
     0
100
AcDb2dPolyline
 66
     1
 10
0.0
 20
0.0
 30
0.0
  0
VERTEX
  5
19D
330
19C
100
AcDbEntity
  8
\U+30EC\U+30A4\U+30E4\U+30FC 1
370
     0
100
AcDbVertex
100
AcDb2dVertex
 10
377.1080755350633
 20
1.738395181857068
 30
0.0
  0
VERTEX
  5
19E
330
19C
100
AcDbEntity
  8
\U+30EC\U+30A4\U+30E4\U+30FC 1
370
     0
100
AcDbVertex
100
AcDb2dVertex
 10
370.4159775549655
 20
1.738395181857068
 30
0.0
  0
VERTEX
  5
19F
330
19C
100
AcDbEntity
  8
\U+30EC\U+30A4\U+30E4\U+30FC 1
370
     0
100
AcDbVertex
100
AcDb2dVertex
 10
370.4159775549655
 20
18.19871690083227
 30
0.0
  0
VERTEX
  5
1A0
330
19C
100
AcDbEntity
  8
\U+30EC\U+30A4\U+30E4\U+30FC 1
370
     0
100
AcDbVertex
100
AcDb2dVertex
 10
377.1080755350633
 20
18.19871690083227
 30
0.0
  0
VERTEX
  5
1A1
330
19C
100
AcDbEntity
  8
\U+30EC\U+30A4\U+30E4\U+30FC 1
370
     0
100
AcDbVertex
100
AcDb2dVertex
 10
377.1080755350633
 20
1.738395181857068
 30
0.0
  0
SEQEND
  5
1A2
330
19C
100
AcDbEntity
  8
\U+30EC\U+30A4\U+30E4\U+30FC 1
370
     0
  0
POLYLINE
  5
1A3
330
1F
100
AcDbEntity
  8
\U+30EC\U+30A4\U+30E4\U+30FC 1
 62
     7
370
     9
100
AcDb2dPolyline
 66
     1
 10
0.0
 20
0.0
 30
0.0
  0
VERTEX
  5
1A4
330
1A3
100
AcDbEntity
  8
\U+30EC\U+30A4\U+30E4\U+30FC 1
 62
     7
370
     9
100
AcDbVertex
100
AcDb2dVertex
 10
377.1080755350633
 20
1.738395181857068
 30
0.0
  0
VERTEX
  5
1A5
330
1A3
100
AcDbEntity
  8
\U+30EC\U+30A4\U+30E4\U+30FC 1
 62
     7
370
     9
100
AcDbVertex
100
AcDb2dVertex
 10
370.4159775549655
 20
1.738395181857068
 30
0.0
  0
VERTEX
  5
1A6
330
1A3
100
AcDbEntity
  8
\U+30EC\U+30A4\U+30E4\U+30FC 1
 62
     7
370
     9
100
AcDbVertex
100
AcDb2dVertex
 10
370.4159775549655
 20
18.20009493902636
 30
0.0
  0
VERTEX
  5
1A7
330
1A3
100
AcDbEntity
  8
\U+30EC\U+30A4\U+30E4\U+30FC 1
 62
     7
370
     9
100
AcDbVertex
100
AcDb2dVertex
 10
377.1080755350633
 20
18.20009493902636
 30
0.0
  0
VERTEX
  5
1A8
330
1A3
100
AcDbEntity
  8
\U+30EC\U+30A4\U+30E4\U+30FC 1
 62
     7
370
     9
100
AcDbVertex
100
AcDb2dVertex
 10
377.1080755350633
 20
1.738395181857068
 30
0.0
  0
SEQEND
  5
1A9
330
1A3
100
AcDbEntity
  8
\U+30EC\U+30A4\U+30E4\U+30FC 1
370
     9
  0
INSERT
  5
1AB
330
1F
100
AcDbEntity
  8
\U+30EC\U+30A4\U+30E4\U+30FC 1
100
AcDbBlockReference
  2
block 19
 10
0.0
 20
0.0
 30
0.0
  0
POLYLINE
  5
1B1
330
1F
100
AcDbEntity
  8
\U+30EC\U+30A4\U+30E4\U+30FC 1
 62
     7
370
    25
100
AcDb2dPolyline
 66
     1
 10
0.0
 20
0.0
 30
0.0
  0
VERTEX
  5
1B2
330
1B1
100
AcDbEntity
  8
\U+30EC\U+30A4\U+30E4\U+30FC 1
 62
     7
370
    25
100
AcDbVertex
100
AcDb2dVertex
 10
146.1754014391506
 20
216.3049709203161
 30
0.0
  0
VERTEX
  5
1B3
330
1B1
100
AcDbEntity
  8
\U+30EC\U+30A4\U+30E4\U+30FC 1
 62
     7
370
    25
100
AcDbVertex
100
AcDb2dVertex
 10
160.9304008929271
 20
214.0904635423975
 30
0.0
  0
SEQEND
  5
1B4
330
1B1
100
AcDbEntity
  8
\U+30EC\U+30A4\U+30E4\U+30FC 1
370
    25
  0
POLYLINE
  5
1B5
330
1F
100
AcDbEntity
  8
\U+30EC\U+30A4\U+30E4\U+30FC 1
 62
     7
370
    25
100
AcDb2dPolyline
 66
     1
 10
0.0
 20
0.0
 30
0.0
  0
VERTEX
  5
1B6
330
1B5
100
AcDbEntity
  8
\U+30EC\U+30A4\U+30E4\U+30FC 1
 62
     7
370
    25
100
AcDbVertex
100
AcDb2dVertex
 10
137.666360100132
 20
212.4774698362036
 30
0.0
  0
VERTEX
  5
1B7
330
1B5
100
AcDbEntity
  8
\U+30EC\U+30A4\U+30E4\U+30FC 1
 62
     7
370
    25
100
AcDbVertex
100
AcDb2dVertex
 10
146.1754014391506
 20
216.3049709203161
 30
0.0
  0
SEQEND
  5
1B8
330
1B5
100
AcDbEntity
  8
\U+30EC\U+30A4\U+30E4\U+30FC 1
370
    25
  0
POLYLINE
  5
1B9
330
1F
100
AcDbEntity
  8
\U+30EC\U+30A4\U+30E4\U+30FC 1
 62
     7
370
    25
100
AcDb2dPolyline
 66
     1
 10
0.0
 20
0.0
 30
0.0
  0
VERTEX
  5
1BA
330
1B9
100
AcDbEntity
  8
\U+30EC\U+30A4\U+30E4\U+30FC 1
 62
     7
370
    25
100
AcDbVertex
100
AcDb2dVertex
 10
137.666360100132
 20
212.4774698362036
 30
0.0
  0
VERTEX
  5
1BB
330
1B9
100
AcDbEntity
  8
\U+30EC\U+30A4\U+30E4\U+30FC 1
 62
     7
370
    25
100
AcDbVertex
100
AcDb2dVertex
 10
152.4041340764823
 20
210.2827717573252
 30
0.0
  0
SEQEND
  5
1BC
330
1B9
100
AcDbEntity
  8
\U+30EC\U+30A4\U+30E4\U+30FC 1
370
    25
  0
POLYLINE
  5
1BD
330
1F
100
AcDbEntity
  8
\U+30EC\U+30A4\U+30E4\U+30FC 1
 62
     7
370
    25
100
AcDb2dPolyline
 66
     1
 10
0.0
 20
0.0
 30
0.0
  0
VERTEX
  5
1BE
330
1BD
100
AcDbEntity
  8
\U+30EC\U+30A4\U+30E4\U+30FC 1
 62
     7
370
    25
100
AcDbVertex
100
AcDb2dVertex
 10
137.666360100132
 20
196.0429863333677
 30
0.0
  0
VERTEX
  5
1BF
330
1BD
100
AcDbEntity
  8
\U+30EC\U+30A4\U+30E4\U+30FC 1
 62
     7
370
    25
100
AcDbVertex
100
AcDb2dVertex
 10
137.666360100132
 20
212.4774698362036
 30
0.0
  0
SEQEND
  5
1C0
330
1BD
100
AcDbEntity
  8
\U+30EC\U+30A4\U+30E4\U+30FC 1
370
    25
  0
POLYLINE
  5
1C1
330
1F
100
AcDbEntity
  8
\U+30EC\U+30A4\U+30E4\U+30FC 1
 62
     7
370
    25
100
AcDb2dPolyline
 66
     1
 10
0.0
 20
0.0
 30
0.0
  0
VERTEX
  5
1C2
330
1C1
100
AcDbEntity
  8
\U+30EC\U+30A4\U+30E4\U+30FC 1
 62
     7
370
    25
100
AcDbVertex
100
AcDb2dVertex
 10
137.666360100132
 20
196.0429863333677
 30
0.0
  0
VERTEX
  5
1C3
330
1C1
100
AcDbEntity
  8
\U+30EC\U+30A4\U+30E4\U+30FC 1
 62
     7
370
    25
100
AcDbVertex
100
AcDb2dVertex
 10
152.4041340764823
 20
193.8460489424239
 30
0.0
  0
SEQEND
  5
1C4
330
1C1
100
AcDbEntity
  8
\U+30EC\U+30A4\U+30E4\U+30FC 1
370
    25
  0
POLYLINE
  5
1C5
330
1F
100
AcDbEntity
  8
\U+30EC\U+30A4\U+30E4\U+30FC 1
 62
     7
370
    25
100
AcDb2dPolyline
 66
     1
 10
0.0
 20
0.0
 30
0.0
  0
VERTEX
  5
1C6
330
1C5
100
AcDbEntity
  8
\U+30EC\U+30A4\U+30E4\U+30FC 1
 62
     7
370
    25
100
AcDbVertex
100
AcDb2dVertex
 10
160.9304008929271
 20
214.0904635423975
 30
0.0
  0
VERTEX
  5
1C7
330
1C5
100
AcDbEntity
  8
\U+30EC\U+30A4\U+30E4\U+30FC 1
 62
     7
370
    25
100
AcDbVertex
100
AcDb2dVertex
 10
160.9304008929271
 20
197.6552910204647
 30
0.0
  0
SEQEND
  5
1C8
330
1C5
100
AcDbEntity
  8
\U+30EC\U+30A4\U+30E4\U+30FC 1
370
    25
  0
POLYLINE
  5
1C9
330
1F
100
AcDbEntity
  8
\U+30EC\U+30A4\U+30E4\U+30FC 1
 62
     7
370
    25
100
AcDb2dPolyline
 66
     1
 10
0.0
 20
0.0
 30
0.0
  0
VERTEX
  5
1CA
330
1C9
100
AcDbEntity
  8
\U+30EC\U+30A4\U+30E4\U+30FC 1
 62
     7
370
    25
100
AcDbVertex
100
AcDb2dVertex
 10
152.4041340764823
 20
210.2827717573252
 30
0.0
  0
VERTEX
  5
1CB
330
1C9
100
AcDbEntity
  8
\U+30EC\U+30A4\U+30E4\U+30FC 1
 62
     7
370
    25
100
AcDbVertex
100
AcDb2dVertex
 10
160.9304008929271
 20
214.0904635423975
 30
0.0
  0
SEQEND
  5
1CC
330
1C9
100
AcDbEntity
  8
\U+30EC\U+30A4\U+30E4\U+30FC 1
370
    25
  0
POLYLINE
  5
1CD
330
1F
100
AcDbEntity
  8
\U+30EC\U+30A4\U+30E4\U+30FC 1
 62
     7
370
    25
100
AcDb2dPolyline
 66
     1
 10
0.0
 20
0.0
 30
0.0
  0
VERTEX
  5
1CE
330
1CD
100
AcDbEntity
  8
\U+30EC\U+30A4\U+30E4\U+30FC 1
 62
     7
370
    25
100
AcDbVertex
100
AcDb2dVertex
 10
152.4041340764823
 20
193.8460489424239
 30
0.0
  0
VERTEX
  5
1CF
330
1CD
100
AcDbEntity
  8
\U+30EC\U+30A4\U+30E4\U+30FC 1
 62
     7
370
    25
100
AcDbVertex
100
AcDb2dVertex
 10
152.4041340764823
 20
210.2827717573252
 30
0.0
  0
SEQEND
  5
1D0
330
1CD
100
AcDbEntity
  8
\U+30EC\U+30A4\U+30E4\U+30FC 1
370
    25
  0
POLYLINE
  5
1D1
330
1F
100
AcDbEntity
  8
\U+30EC\U+30A4\U+30E4\U+30FC 1
 62
     7
370
    25
100
AcDb2dPolyline
 66
     1
 10
0.0
 20
0.0
 30
0.0
  0
VERTEX
  5
1D2
330
1D1
100
AcDbEntity
  8
\U+30EC\U+30A4\U+30E4\U+30FC 1
 62
     7
370
    25
100
AcDbVertex
100
AcDb2dVertex
 10
160.9304008929271
 20
197.6552910204647
 30
0.0
  0
VERTEX
  5
1D3
330
1D1
100
AcDbEntity
  8
\U+30EC\U+30A4\U+30E4\U+30FC 1
 62
     7
370
    25
100
AcDbVertex
100
AcDb2dVertex
 10
152.4041340764823
 20
193.8460489424239
 30
0.0
  0
SEQEND
  5
1D4
330
1D1
100
AcDbEntity
  8
\U+30EC\U+30A4\U+30E4\U+30FC 1
370
    25
  0
POLYLINE
  5
1D5
330
1F
100
AcDbEntity
  8
\U+30EC\U+30A4\U+30E4\U+30FC 1
 62
     7
370
    25
100
AcDb2dPolyline
 66
     1
 10
0.0
 20
0.0
 30
0.0
  0
VERTEX
  5
1D6
330
1D5
100
AcDbEntity
  8
\U+30EC\U+30A4\U+30E4\U+30FC 1
 62
     7
370
    25
100
AcDbVertex
100
AcDb2dVertex
 10
152.4041340764823
 20
193.3659748865543
 30
0.0
  0
VERTEX
  5
1D7
330
1D5
100
AcDbEntity
  8
\U+30EC\U+30A4\U+30E4\U+30FC 1
 62
     7
370
    25
100
AcDbVertex
100
AcDb2dVertex
 10
160.9304008929271
 20
197.1922701872471
 30
0.0
  0
SEQEND
  5
1D8
330
1D5
100
AcDbEntity
  8
\U+30EC\U+30A4\U+30E4\U+30FC 1
370
    25
  0
POLYLINE
  5
1D9
330
1F
100
AcDbEntity
  8
\U+30EC\U+30A4\U+30E4\U+30FC 1
 62
     7
370
    25
100
AcDb2dPolyline
 66
     1
 10
0.0
 20
0.0
 30
0.0
  0
VERTEX
  5
1DA
330
1D9
100
AcDbEntity
  8
\U+30EC\U+30A4\U+30E4\U+30FC 1
 62
     7
370
    25
100
AcDbVertex
100
AcDb2dVertex
 10
160.9304008929271
 20
197.6552910204647
 30
0.0
  0
VERTEX
  5
1DB
330
1D9
100
AcDbEntity
  8
\U+30EC\U+30A4\U+30E4\U+30FC 1
 62
     7
370
    25
100
AcDbVertex
100
AcDb2dVertex
 10
160.9304008929271
 20
197.1922701872471
 30
0.0
  0
SEQEND
  5
1DC
330
1D9
100
AcDbEntity
  8
\U+30EC\U+30A4\U+30E4\U+30FC 1
370
    25
  0
POLYLINE
  5
1DD
330
1F
100
AcDbEntity
  8
\U+30EC\U+30A4\U+30E4\U+30FC 1
 62
     7
370
    25
100
AcDb2dPolyline
 66
     1
 10
0.0
 20
0.0
 30
0.0
  0
VERTEX
  5
1DE
330
1DD
100
AcDbEntity
  8
\U+30EC\U+30A4\U+30E4\U+30FC 1
 62
     7
370
    25
100
AcDbVertex
100
AcDb2dVertex
 10
152.4041340764823
 20
193.8460489424239
 30
0.0
  0
VERTEX
  5
1DF
330
1DD
100
AcDbEntity
  8
\U+30EC\U+30A4\U+30E4\U+30FC 1
 62
     7
370
    25
100
AcDbVertex
100
AcDb2dVertex
 10
160.9304008929271
 20
197.6552910204647
 30
0.0
  0
SEQEND
  5
1E0
330
1DD
100
AcDbEntity
  8
\U+30EC\U+30A4\U+30E4\U+30FC 1
370
    25
  0
POLYLINE
  5
1E1
330
1F
100
AcDbEntity
  8
\U+30EC\U+30A4\U+30E4\U+30FC 1
 62
     7
370
    25
100
AcDb2dPolyline
 66
     1
 10
0.0
 20
0.0
 30
0.0
  0
VERTEX
  5
1E2
330
1E1
100
AcDbEntity
  8
\U+30EC\U+30A4\U+30E4\U+30FC 1
 62
     7
370
    25
100
AcDbVertex
100
AcDb2dVertex
 10
137.666360100132
 20
195.5792764810531
 30
0.0
  0
VERTEX
  5
1E3
330
1E1
100
AcDbEntity
  8
\U+30EC\U+30A4\U+30E4\U+30FC 1
 62
     7
370
    25
100
AcDbVertex
100
AcDb2dVertex
 10
152.4041340764823
 20
193.3659748865543
 30
0.0
  0
SEQEND
  5
1E4
330
1E1
100
AcDbEntity
  8
\U+30EC\U+30A4\U+30E4\U+30FC 1
370
    25
  0
POLYLINE
  5
1E5
330
1F
100
AcDbEntity
  8
\U+30EC\U+30A4\U+30E4\U+30FC 1
 62
     7
370
    25
100
AcDb2dPolyline
 66
     1
 10
0.0
 20
0.0
 30
0.0
  0
VERTEX
  5
1E6
330
1E5
100
AcDbEntity
  8
\U+30EC\U+30A4\U+30E4\U+30FC 1
 62
     7
370
    25
100
AcDbVertex
100
AcDb2dVertex
 10
152.4041340764823
 20
193.8460489424239
 30
0.0
  0
VERTEX
  5
1E7
330
1E5
100
AcDbEntity
  8
\U+30EC\U+30A4\U+30E4\U+30FC 1
 62
     7
370
    25
100
AcDbVertex
100
AcDb2dVertex
 10
152.4041340764823
 20
193.3659748865543
 30
0.0
  0
SEQEND
  5
1E8
330
1E5
100
AcDbEntity
  8
\U+30EC\U+30A4\U+30E4\U+30FC 1
370
    25
  0
POLYLINE
  5
1E9
330
1F
100
AcDbEntity
  8
\U+30EC\U+30A4\U+30E4\U+30FC 1
 62
     7
370
    25
100
AcDb2dPolyline
 66
     1
 10
0.0
 20
0.0
 30
0.0
  0
VERTEX
  5
1EA
330
1E9
100
AcDbEntity
  8
\U+30EC\U+30A4\U+30E4\U+30FC 1
 62
     7
370
    25
100
AcDbVertex
100
AcDb2dVertex
 10
137.666360100132
 20
196.0429863333677
 30
0.0
  0
VERTEX
  5
1EB
330
1E9
100
AcDbEntity
  8
\U+30EC\U+30A4\U+30E4\U+30FC 1
 62
     7
370
    25
100
AcDbVertex
100
AcDb2dVertex
 10
152.4041340764823
 20
193.8460489424239
 30
0.0
  0
SEQEND
  5
1EC
330
1E9
100
AcDbEntity
  8
\U+30EC\U+30A4\U+30E4\U+30FC 1
370
    25
  0
POLYLINE
  5
1ED
330
1F
100
AcDbEntity
  8
\U+30EC\U+30A4\U+30E4\U+30FC 1
 62
     7
370
    25
100
AcDb2dPolyline
 66
     1
 10
0.0
 20
0.0
 30
0.0
  0
VERTEX
  5
1EE
330
1ED
100
AcDbEntity
  8
\U+30EC\U+30A4\U+30E4\U+30FC 1
 62
     7
370
    25
100
AcDbVertex
100
AcDb2dVertex
 10
137.666360100132
 20
196.0429863333677
 30
0.0
  0
VERTEX
  5
1EF
330
1ED
100
AcDbEntity
  8
\U+30EC\U+30A4\U+30E4\U+30FC 1
 62
     7
370
    25
100
AcDbVertex
100
AcDb2dVertex
 10
137.666360100132
 20
195.5792764810531
 30
0.0
  0
SEQEND
  5
1F0
330
1ED
100
AcDbEntity
  8
\U+30EC\U+30A4\U+30E4\U+30FC 1
370
    25
  0
POLYLINE
  5
1F1
330
1F
100
AcDbEntity
  8
\U+30EC\U+30A4\U+30E4\U+30FC 1
 62
     7
370
    18
100
AcDb2dPolyline
 66
     1
 10
0.0
 20
0.0
 30
0.0
  0
VERTEX
  5
1F2
330
1F1
100
AcDbEntity
  8
\U+30EC\U+30A4\U+30E4\U+30FC 1
 62
     7
370
    18
100
AcDbVertex
100
AcDb2dVertex
 10
156.6588270007659
 20
193.2119791183637
 30
0.0
  0
VERTEX
  5
1F3
330
1F1
100
AcDbEntity
  8
\U+30EC\U+30A4\U+30E4\U+30FC 1
 62
     7
370
    18
100
AcDbVertex
100
AcDb2dVertex
 10
156.9003281942819
 20
193.1771836539627
 30
0.0
  0
SEQEND
  5
1F4
330
1F1
100
AcDbEntity
  8
\U+30EC\U+30A4\U+30E4\U+30FC 1
370
    18
  0
POLYLINE
  5
1F5
330
1F
100
AcDbEntity
  8
\U+30EC\U+30A4\U+30E4\U+30FC 1
 62
     7
370
    18
100
AcDb2dPolyline
 66
     1
 10
0.0
 20
0.0
 30
0.0
  0
VERTEX
  5
1F6
330
1F5
100
AcDbEntity
  8
\U+30EC\U+30A4\U+30E4\U+30FC 1
 62
     7
370
    18
100
AcDbVertex
100
AcDb2dVertex
 10
156.7284179295679
 20
193.485864209441
 30
0.0
  0
VERTEX
  5
1F7
330
1F5
100
AcDbEntity
  8
\U+30EC\U+30A4\U+30E4\U+30FC 1
 62
     7
370
    18
100
AcDbVertex
100
AcDb2dVertex
 10
156.9003281942819
 20
193.4517577641371
 30
0.0
  0
SEQEND
  5
1F8
330
1F5
100
AcDbEntity
  8
\U+30EC\U+30A4\U+30E4\U+30FC 1
370
    18
  0
POLYLINE
  5
1F9
330
1F
100
AcDbEntity
  8
\U+30EC\U+30A4\U+30E4\U+30FC 1
 62
     7
370
    18
100
AcDb2dPolyline
 66
     1
 10
0.0
 20
0.0
 30
0.0
  0
VERTEX
  5
1FA
330
1F9
100
AcDbEntity
  8
\U+30EC\U+30A4\U+30E4\U+30FC 1
 62
     7
370
    18
100
AcDbVertex
100
AcDb2dVertex
 10
156.6588270007659
 20
193.0734862798566
 30
0.0
  0
VERTEX
  5
1FB
330
1F9
100
AcDbEntity
  8
\U+30EC\U+30A4\U+30E4\U+30FC 1
 62
     7
370
    18
100
AcDbVertex
100
AcDb2dVertex
 10
156.7807833809437
 20
192.9889091856938
 30
0.0
  0
SEQEND
  5
1FC
330
1F9
100
AcDbEntity
  8
\U+30EC\U+30A4\U+30E4\U+30FC 1
370
    18
  0
POLYLINE
  5
1FD
330
1F
100
AcDbEntity
  8
\U+30EC\U+30A4\U+30E4\U+30FC 1
 62
     7
370
    18
100
AcDb2dPolyline
 66
     1
 10
0.0
 20
0.0
 30
0.0
  0
VERTEX
  5
1FE
330
1FD
100
AcDbEntity
  8
\U+30EC\U+30A4\U+30E4\U+30FC 1
 62
     7
370
    18
100
AcDbVertex
100
AcDb2dVertex
 10
156.6588270007659
 20
193.3489216639024
 30
0.0
  0
VERTEX
  5
1FF
330
1FD
100
AcDbEntity
  8
\U+30EC\U+30A4\U+30E4\U+30FC 1
 62
     7
370
    18
100
AcDbVertex
100
AcDb2dVertex
 10
156.6588270007659
 20
193.0734862798566
 30
0.0
  0
SEQEND
  5
200
330
1FD
100
AcDbEntity
  8
\U+30EC\U+30A4\U+30E4\U+30FC 1
370
    18
  0
POLYLINE
  5
201
330
1F
100
AcDbEntity
  8
\U+30EC\U+30A4\U+30E4\U+30FC 1
 62
     7
370
    18
100
AcDb2dPolyline
 66
     1
 10
0.0
 20
0.0
 30
0.0
  0
VERTEX
  5
202
330
201
100
AcDbEntity
  8
\U+30EC\U+30A4\U+30E4\U+30FC 1
 62
     7
370
    18
100
AcDbVertex
100
AcDb2dVertex
 10
156.7807833809437
 20
193.5365071130742
 30
0.0
  0
VERTEX
  5
203
330
201
100
AcDbEntity
  8
\U+30EC\U+30A4\U+30E4\U+30FC 1
 62
     7
370
    18
100
AcDbVertex
100
AcDb2dVertex
 10
156.6588270007659
 20
193.3489216639024
 30
0.0
  0
SEQEND
  5
204
330
201
100
AcDbEntity
  8
\U+30EC\U+30A4\U+30E4\U+30FC 1
370
    18
  0
POLYLINE
  5
205
330
1F
100
AcDbEntity
  8
\U+30EC\U+30A4\U+30E4\U+30FC 1
 62
     7
370
    18
100
AcDb2dPolyline
 66
     1
 10
0.0
 20
0.0
 30
0.0
  0
VERTEX
  5
206
330
205
100
AcDbEntity
  8
\U+30EC\U+30A4\U+30E4\U+30FC 1
 62
     7
370
    18
100
AcDbVertex
100
AcDb2dVertex
 10
156.9003281942819
 20
193.4517577641371
 30
0.0
  0
VERTEX
  5
207
330
205
100
AcDbEntity
  8
\U+30EC\U+30A4\U+30E4\U+30FC 1
 62
     7
370
    18
100
AcDbVertex
100
AcDb2dVertex
 10
156.7807833809437
 20
193.5365071130742
 30
0.0
  0
SEQEND
  5
208
330
205
100
AcDbEntity
  8
\U+30EC\U+30A4\U+30E4\U+30FC 1
370
    18
  0
POLYLINE
  5
209
330
1F
100
AcDbEntity
  8
\U+30EC\U+30A4\U+30E4\U+30FC 1
 62
     7
370
    18
100
AcDb2dPolyline
 66
     1
 10
0.0
 20
0.0
 30
0.0
  0
VERTEX
  5
20A
330
209
100
AcDbEntity
  8
\U+30EC\U+30A4\U+30E4\U+30FC 1
 62
     7
370
    18
100
AcDbVertex
100
AcDb2dVertex
 10
156.9003281942819
 20
193.1771836539627
 30
0.0
  0
VERTEX
  5
20B
330
209
100
AcDbEntity
  8
\U+30EC\U+30A4\U+30E4\U+30FC 1
 62
     7
370
    18
100
AcDbVertex
100
AcDb2dVertex
 10
156.9003281942819
 20
193.4517577641371
 30
0.0
  0
SEQEND
  5
20C
330
209
100
AcDbEntity
  8
\U+30EC\U+30A4\U+30E4\U+30FC 1
370
    18
  0
POLYLINE
  5
20D
330
1F
100
AcDbEntity
  8
\U+30EC\U+30A4\U+30E4\U+30FC 1
 62
     7
370
    18
100
AcDb2dPolyline
 66
     1
 10
0.0
 20
0.0
 30
0.0
  0
VERTEX
  5
20E
330
20D
100
AcDbEntity
  8
\U+30EC\U+30A4\U+30E4\U+30FC 1
 62
     7
370
    18
100
AcDbVertex
100
AcDb2dVertex
 10
156.7807833809437
 20
192.9889091856938
 30
0.0
  0
VERTEX
  5
20F
330
20D
100
AcDbEntity
  8
\U+30EC\U+30A4\U+30E4\U+30FC 1
 62
     7
370
    18
100
AcDbVertex
100
AcDb2dVertex
 10
156.9003281942819
 20
193.1771836539627
 30
0.0
  0
SEQEND
  5
210
330
20D
100
AcDbEntity
  8
\U+30EC\U+30A4\U+30E4\U+30FC 1
370
    18
  0
POLYLINE
  5
211
330
1F
100
AcDbEntity
  8
\U+30EC\U+30A4\U+30E4\U+30FC 1
 62
     7
370
    18
100
AcDb2dPolyline
 66
     1
 10
0.0
 20
0.0
 30
0.0
  0
VERTEX
  5
212
330
211
100
AcDbEntity
  8
\U+30EC\U+30A4\U+30E4\U+30FC 1
 62
     7
370
    18
100
AcDbVertex
100
AcDb2dVertex
 10
156.7625243748719
 20
192.8507608567352
 30
0.0
  0
VERTEX
  5
213
330
211
100
AcDbEntity
  8
\U+30EC\U+30A4\U+30E4\U+30FC 1
 62
     7
370
    18
100
AcDbVertex
100
AcDb2dVertex
 10
156.6946559938125
 20
192.7996011887793
 30
0.0
  0
VERTEX
  5
214
330
211
100
AcDbEntity
  8
\U+30EC\U+30A4\U+30E4\U+30FC 1
 62
     7
370
    18
100
AcDbVertex
100
AcDb2dVertex
 10
156.5899250910608
 20
192.7996011887793
 30
0.0
  0
VERTEX
  5
215
330
211
100
AcDbEntity
  8
\U+30EC\U+30A4\U+30E4\U+30FC 1
 62
     7
370
    18
100
AcDbVertex
100
AcDb2dVertex
 10
156.5217122004529
 20
192.8693643723556
 30
0.0
  0
VERTEX
  5
216
330
211
100
AcDbEntity
  8
\U+30EC\U+30A4\U+30E4\U+30FC 1
 62
     7
370
    18
100
AcDbVertex
100
AcDb2dVertex
 10
156.4696912586256
 20
192.9889091856938
 30
0.0
  0
VERTEX
  5
217
330
211
100
AcDbEntity
  8
\U+30EC\U+30A4\U+30E4\U+30FC 1
 62
     7
370
    18
100
AcDbVertex
100
AcDb2dVertex
 10
156.4531548002964
 20
193.1597859217621
 30
0.0
  0
VERTEX
  5
218
330
211
100
AcDbEntity
  8
\U+30EC\U+30A4\U+30E4\U+30FC 1
 62
     7
370
    18
100
AcDbVertex
100
AcDb2dVertex
 10
156.4696912586256
 20
193.3489216639024
 30
0.0
  0
VERTEX
  5
219
330
211
100
AcDbEntity
  8
\U+30EC\U+30A4\U+30E4\U+30FC 1
 62
     7
370
    18
100
AcDbVertex
100
AcDb2dVertex
 10
156.5217122004529
 20
193.5365071130742
 30
0.0
  0
VERTEX
  5
21A
330
211
100
AcDbEntity
  8
\U+30EC\U+30A4\U+30E4\U+30FC 1
 62
     7
370
    18
100
AcDbVertex
100
AcDb2dVertex
 10
156.5899250910608
 20
193.6749999515813
 30
0.0
  0
VERTEX
  5
21B
330
211
100
AcDbEntity
  8
\U+30EC\U+30A4\U+30E4\U+30FC 1
 62
     7
370
    18
100
AcDbVertex
100
AcDb2dVertex
 10
156.6946559938125
 20
193.7426960778664
 30
0.0
  0
VERTEX
  5
21C
330
211
100
AcDbEntity
  8
\U+30EC\U+30A4\U+30E4\U+30FC 1
 62
     7
370
    18
100
AcDbVertex
100
AcDb2dVertex
 10
156.7807833809437
 20
193.7612995934868
 30
0.0
  0
VERTEX
  5
21D
330
211
100
AcDbEntity
  8
\U+30EC\U+30A4\U+30E4\U+30FC 1
 62
     7
370
    18
100
AcDbVertex
100
AcDb2dVertex
 10
156.8655327298808
 20
193.6917086646847
 30
0.0
  0
VERTEX
  5
21E
330
211
100
AcDbEntity
  8
\U+30EC\U+30A4\U+30E4\U+30FC 1
 62
     7
370
    18
100
AcDbVertex
100
AcDb2dVertex
 10
156.88206918821
 20
193.6576022193807
 30
0.0
  0
SEQEND
  5
21F
330
211
100
AcDbEntity
  8
\U+30EC\U+30A4\U+30E4\U+30FC 1
370
    18
  0
POLYLINE
  5
220
330
1F
100
AcDbEntity
  8
\U+30EC\U+30A4\U+30E4\U+30FC 1
 62
     7
370
    18
100
AcDb2dPolyline
 66
     1
 10
0.0
 20
0.0
 30
0.0
  0
VERTEX
  5
221
330
220
100
AcDbEntity
  8
\U+30EC\U+30A4\U+30E4\U+30FC 1
 62
     7
370
    18
100
AcDbVertex
100
AcDb2dVertex
 10
156.9681965753413
 20
193.3489216639024
 30
0.0
  0
VERTEX
  5
222
330
220
100
AcDbEntity
  8
\U+30EC\U+30A4\U+30E4\U+30FC 1
 62
     7
370
    18
100
AcDbVertex
100
AcDb2dVertex
 10
156.9516601170121
 20
193.485864209441
 30
0.0
  0
VERTEX
  5
223
330
220
100
AcDbEntity
  8
\U+30EC\U+30A4\U+30E4\U+30FC 1
 62
     7
370
    18
100
AcDbVertex
100
AcDb2dVertex
 10
156.916175633514
 20
193.5887003096757
 30
0.0
  0
VERTEX
  5
224
330
220
100
AcDbEntity
  8
\U+30EC\U+30A4\U+30E4\U+30FC 1
 62
     7
370
    18
100
AcDbVertex
100
AcDb2dVertex
 10
156.847273723809
 20
193.6410657610515
 30
0.0
  0
VERTEX
  5
225
330
220
100
AcDbEntity
  8
\U+30EC\U+30A4\U+30E4\U+30FC 1
 62
     7
370
    18
100
AcDbVertex
100
AcDb2dVertex
 10
156.7807833809437
 20
193.6410657610515
 30
0.0
  0
VERTEX
  5
226
330
220
100
AcDbEntity
  8
\U+30EC\U+30A4\U+30E4\U+30FC 1
 62
     7
370
    18
100
AcDbVertex
100
AcDb2dVertex
 10
156.6946559938125
 20
193.5706135583782
 30
0.0
  0
VERTEX
  5
227
330
220
100
AcDbEntity
  8
\U+30EC\U+30A4\U+30E4\U+30FC 1
 62
     7
370
    18
100
AcDbVertex
100
AcDb2dVertex
 10
156.6422905424367
 20
193.4688109867891
 30
0.0
  0
VERTEX
  5
228
330
220
100
AcDbEntity
  8
\U+30EC\U+30A4\U+30E4\U+30FC 1
 62
     7
370
    18
100
AcDbVertex
100
AcDb2dVertex
 10
156.5899250910608
 20
193.3308349126048
 30
0.0
  0
VERTEX
  5
229
330
220
100
AcDbEntity
  8
\U+30EC\U+30A4\U+30E4\U+30FC 1
 62
     7
370
    18
100
AcDbVertex
100
AcDb2dVertex
 10
156.5733886327316
 20
193.1771836539627
 30
0.0
  0
VERTEX
  5
22A
330
220
100
AcDbEntity
  8
\U+30EC\U+30A4\U+30E4\U+30FC 1
 62
     7
370
    18
100
AcDbVertex
100
AcDb2dVertex
 10
156.5899250910608
 20
193.0398965988755
 30
0.0
  0
VERTEX
  5
22B
330
220
100
AcDbEntity
  8
\U+30EC\U+30A4\U+30E4\U+30FC 1
 62
     7
370
    18
100
AcDbVertex
100
AcDb2dVertex
 10
156.6422905424367
 20
192.936543734318
 30
0.0
  0
VERTEX
  5
22C
330
220
100
AcDbEntity
  8
\U+30EC\U+30A4\U+30E4\U+30FC 1
 62
     7
370
    18
100
AcDbVertex
100
AcDb2dVertex
 10
156.6946559938125
 20
192.8843505377164
 30
0.0
  0
VERTEX
  5
22D
330
220
100
AcDbEntity
  8
\U+30EC\U+30A4\U+30E4\U+30FC 1
 62
     7
370
    18
100
AcDbVertex
100
AcDb2dVertex
 10
156.7807833809437
 20
192.8843505377164
 30
0.0
  0
VERTEX
  5
22E
330
220
100
AcDbEntity
  8
\U+30EC\U+30A4\U+30E4\U+30FC 1
 62
     7
370
    18
100
AcDbVertex
100
AcDb2dVertex
 10
156.847273723809
 20
192.9539414665185
 30
0.0
  0
VERTEX
  5
22F
330
220
100
AcDbEntity
  8
\U+30EC\U+30A4\U+30E4\U+30FC 1
 62
     7
370
    18
100
AcDbVertex
100
AcDb2dVertex
 10
156.916175633514
 20
193.0569498215274
 30
0.0
  0
VERTEX
  5
230
330
220
100
AcDbEntity
  8
\U+30EC\U+30A4\U+30E4\U+30FC 1
 62
     7
370
    18
100
AcDbVertex
100
AcDb2dVertex
 10
156.9516601170121
 20
193.1954426600345
 30
0.0
  0
VERTEX
  5
231
330
220
100
AcDbEntity
  8
\U+30EC\U+30A4\U+30E4\U+30FC 1
 62
     7
370
    18
100
AcDbVertex
100
AcDb2dVertex
 10
156.9681965753413
 20
193.3489216639024
 30
0.0
  0
SEQEND
  5
232
330
220
100
AcDbEntity
  8
\U+30EC\U+30A4\U+30E4\U+30FC 1
370
    18
  0
POLYLINE
  5
233
330
1F
100
AcDbEntity
  8
\U+30EC\U+30A4\U+30E4\U+30FC 1
 62
     7
370
    18
100
AcDb2dPolyline
 66
     1
 10
0.0
 20
0.0
 30
0.0
  0
VERTEX
  5
234
330
233
100
AcDbEntity
  8
\U+30EC\U+30A4\U+30E4\U+30FC 1
 62
     7
370
    18
100
AcDbVertex
100
AcDb2dVertex
 10
143.6711615309225
 20
51.75498045581126
 30
0.0
  0
VERTEX
  5
235
330
233
100
AcDbEntity
  8
\U+30EC\U+30A4\U+30E4\U+30FC 1
 62
     7
370
    18
100
AcDbVertex
100
AcDb2dVertex
 10
143.6711615309225
 20
51.75498045581126
 30
0.0
  0
VERTEX
  5
236
330
233
100
AcDbEntity
  8
\U+30EC\U+30A4\U+30E4\U+30FC 1
 62
     7
370
    18
100
AcDbVertex
100
AcDb2dVertex
 10
143.2761813335386
 20
51.49694280396604
 30
0.0
  0
VERTEX
  5
237
330
233
100
AcDbEntity
  8
\U+30EC\U+30A4\U+30E4\U+30FC 1
 62
     7
370
    18
100
AcDbVertex
100
AcDb2dVertex
 10
142.9335665875305
 20
51.18964028668176
 30
0.0
  0
VERTEX
  5
238
330
233
100
AcDbEntity
  8
\U+30EC\U+30A4\U+30E4\U+30FC 1
 62
     7
370
    18
100
AcDbVertex
100
AcDb2dVertex
 10
142.6240247581808
 20
50.79414332497507
 30
0.0
  0
VERTEX
  5
239
330
233
100
AcDbEntity
  8
\U+30EC\U+30A4\U+30E4\U+30FC 1
 62
     7
370
    18
100
AcDbVertex
100
AcDb2dVertex
 10
142.4016438446079
 20
50.34834796918375
 30
0.0
  0
VERTEX
  5
23A
330
233
100
AcDbEntity
  8
\U+30EC\U+30A4\U+30E4\U+30FC 1
 62
     7
370
    18
100
AcDbVertex
100
AcDb2dVertex
 10
142.2307671085395
 20
49.86741263944287
 30
0.0
  0
VERTEX
  5
23B
330
233
100
AcDbEntity
  8
\U+30EC\U+30A4\U+30E4\U+30FC 1
 62
     7
370
    18
100
AcDbVertex
100
AcDb2dVertex
 10
142.144467466634
 20
49.35374890259212
 30
0.0
  0
VERTEX
  5
23C
330
233
100
AcDbEntity
  8
\U+30EC\U+30A4\U+30E4\U+30FC 1
 62
     7
370
    18
100
AcDbVertex
100
AcDb2dVertex
 10
142.1279310083048
 20
48.82182615966955
 30
0.0
  0
VERTEX
  5
23D
330
233
100
AcDbEntity
  8
\U+30EC\U+30A4\U+30E4\U+30FC 1
 62
     7
370
    18
100
AcDbVertex
100
AcDb2dVertex
 10
142.178573911938
 20
48.2723334297722
 30
0.0
  0
VERTEX
  5
23E
330
233
100
AcDbEntity
  8
\U+30EC\U+30A4\U+30E4\U+30FC 1
 62
     7
370
    18
100
AcDbVertex
100
AcDb2dVertex
 10
142.3153442027024
 20
47.74075519639815
 30
0.0
  0
VERTEX
  5
23F
330
233
100
AcDbEntity
  8
\U+30EC\U+30A4\U+30E4\U+30FC 1
 62
     7
370
    18
100
AcDbVertex
100
AcDb2dVertex
 10
142.5046521996169
 20
47.20952147257263
 30
0.0
  0
VERTEX
  5
240
330
233
100
AcDbEntity
  8
\U+30EC\U+30A4\U+30E4\U+30FC 1
 62
     7
370
    18
100
AcDbVertex
100
AcDb2dVertex
 10
142.7792263097913
 20
46.72686359508912
 30
0.0
  0
VERTEX
  5
241
330
233
100
AcDbEntity
  8
\U+30EC\U+30A4\U+30E4\U+30FC 1
 62
     7
370
    18
100
AcDbVertex
100
AcDb2dVertex
 10
143.0870455913984
 20
46.26384276187154
 30
0.0
  0
VERTEX
  5
242
330
233
100
AcDbEntity
  8
\U+30EC\U+30A4\U+30E4\U+30FC 1
 62
     7
370
    18
100
AcDbVertex
100
AcDb2dVertex
 10
143.4637667827105
 20
45.86972383835896
 30
0.0
  0
VERTEX
  5
243
330
233
100
AcDbEntity
  8
\U+30EC\U+30A4\U+30E4\U+30FC 1
 62
     7
370
    18
100
AcDbVertex
100
AcDb2dVertex
 10
143.8792452982316
 20
45.5434732959058
 30
0.0
  0
VERTEX
  5
244
330
233
100
AcDbEntity
  8
\U+30EC\U+30A4\U+30E4\U+30FC 1
 62
     7
370
    18
100
AcDbVertex
100
AcDb2dVertex
 10
144.322456832409
 20
45.26958820482844
 30
0.0
  0
VERTEX
  5
245
330
233
100
AcDbEntity
  8
\U+30EC\U+30A4\U+30E4\U+30FC 1
 62
     7
370
    18
100
AcDbVertex
100
AcDb2dVertex
 10
144.8037366716984
 20
45.0814859913338
 30
0.0
  0
VERTEX
  5
246
330
233
100
AcDbEntity
  8
\U+30EC\U+30A4\U+30E4\U+30FC 1
 62
     7
370
    18
100
AcDbVertex
100
AcDb2dVertex
 10
145.2832939632451
 20
44.95952961115595
 30
0.0
  0
SEQEND
  5
247
330
233
100
AcDbEntity
  8
\U+30EC\U+30A4\U+30E4\U+30FC 1
370
    18
  0
POLYLINE
  5
248
330
1F
100
AcDbEntity
  8
\U+30EC\U+30A4\U+30E4\U+30FC 1
 62
     7
370
    18
100
AcDb2dPolyline
 66
     1
 10
0.0
 20
0.0
 30
0.0
  0
VERTEX
  5
249
330
248
100
AcDbEntity
  8
\U+30EC\U+30A4\U+30E4\U+30FC 1
 62
     7
370
    18
100
AcDbVertex
100
AcDb2dVertex
 10
145.2832939632451
 20
44.95952961115595
 30
0.0
  0
VERTEX
  5
24A
330
248
100
AcDbEntity
  8
\U+30EC\U+30A4\U+30E4\U+30FC 1
 62
     7
370
    18
100
AcDbVertex
100
AcDb2dVertex
 10
145.7661240955029
 20
44.92611218494903
 30
0.0
  0
VERTEX
  5
24B
330
248
100
AcDbEntity
  8
\U+30EC\U+30A4\U+30E4\U+30FC 1
 62
     7
370
    18
100
AcDbVertex
100
AcDb2dVertex
 10
146.2434420749843
 20
44.9767550885822
 30
0.0
  0
VERTEX
  5
24C
330
248
100
AcDbEntity
  8
\U+30EC\U+30A4\U+30E4\U+30FC 1
 62
     7
370
    18
100
AcDbVertex
100
AcDb2dVertex
 10
146.6565090236657
 20
45.09871146876004
 30
0.0
  0
SEQEND
  5
24D
330
248
100
AcDbEntity
  8
\U+30EC\U+30A4\U+30E4\U+30FC 1
370
    18
  0
SPLINE
  5
24E
330
1F
100
AcDbEntity
  8
\U+30EC\U+30A4\U+30E4\U+30FC 1
 62
     7
370
    18
100
AcDbSpline
210
0.0
220
0.0
230
1.0
 70
    11
 71
     3
 72
    71
 73
    67
 74
     0
 42
0.0000000001
 43
0.0000000001
 40
0.0
 40
0.0
 40
0.0
 40
0.0
 40
1.0
 40
1.0
 40
1.0
 40
2.0
 40
2.0
 40
2.0
 40
3.0
 40
3.0
 40
3.0
 40
4.0
 40
4.0
 40
4.0
 40
5.0
 40
5.0
 40
5.0
 40
6.0
 40
6.0
 40
6.0
 40
7.0
 40
7.0
 40
7.0
 40
8.0
 40
8.0
 40
8.0
 40
9.0
 40
9.0
 40
9.0
 40
10.0
 40
10.0
 40
10.0
 40
11.0
 40
11.0
 40
11.0
 40
12.0
 40
12.0
 40
12.0
 40
13.0
 40
13.0
 40
13.0
 40
14.0
 40
14.0
 40
14.0
 40
15.0
 40
15.0
 40
15.0
 40
16.0
 40
16.0
 40
16.0
 40
17.0
 40
17.0
 40
17.0
 40
18.0
 40
18.0
 40
18.0
 40
19.0
 40
19.0
 40
19.0
 40
20.0
 40
20.0
 40
20.0
 40
21.0
 40
21.0
 40
21.0
 40
22.0
 40
22.0
 40
22.0
 40
22.0
 10
145.0435153174718
 20
26.41423610450755
 30
0.0
 10
145.0435153174718
 20
26.41423610450755
 30
0.0
 10
145.3515068538531
 20
26.32879773647336
 30
0.0
 10
145.3515068538531
 20
26.32879773647336
 30
0.0
 10
145.3515068538531
 20
26.32879773647336
 30
0.0
 10
145.6632879952682
 20
26.15792100040496
 30
0.0
 10
145.6632879952682
 20
26.15792100040496
 30
0.0
 10
145.6632879952682
 20
26.15792100040496
 30
0.0
 10
145.9196030993708
 20
25.917108825986
 30
0.0
 10
145.9196030993708
 20
25.917108825986
 30
0.0
 10
145.9196030993708
 20
25.917108825986
 30
0.0
 10
146.1412949938466
 20
25.64184569671454
 30
0.0
 10
146.1412949938466
 20
25.64184569671454
 30
0.0
 10
146.1412949938466
 20
25.64184569671454
 30
0.0
 10
146.2956352715858
 20
25.29974771502923
 30
0.0
 10
146.2956352715858
 20
25.29974771502923
 30
0.0
 10
146.2956352715858
 20
25.29974771502923
 30
0.0
 10
146.38107363962
 20
24.95627169514982
 30
0.0
 10
146.38107363962
 20
24.95627169514982
 30
0.0
 10
146.38107363962
 20
24.95627169514982
 30
0.0
 10
146.3984713718205
 20
24.59625921694121
 30
0.0
 10
146.3984713718205
 20
24.59625921694121
 30
0.0
 10
146.3984713718205
 20
24.59625921694121
 30
0.0
 10
146.3478284681873
 20
24.25209417796475
 30
0.0
 10
146.3478284681873
 20
24.25209417796475
 30
0.0
 10
146.3478284681873
 20
24.25209417796475
 30
0.0
 10
146.2260443427838
 20
23.94479166068047
 30
0.0
 10
146.2260443427838
 20
23.94479166068047
 30
0.0
 10
146.2260443427838
 20
23.94479166068047
 30
0.0
 10
146.0384588936119
 20
23.68675400883526
 30
0.0
 10
146.0384588936119
 20
23.68675400883526
 30
0.0
 10
146.0384588936119
 20
23.68675400883526
 30
0.0
 10
145.7986802478385
 20
23.49865179534062
 30
0.0
 10
145.7986802478385
 20
23.49865179534062
 30
0.0
 10
145.7986802478385
 20
23.49865179534062
 30
0.0
 10
145.5080864436577
 20
23.37807345335687
 30
0.0
 10
145.5080864436577
 20
23.37807345335687
 30
0.0
 10
145.5080864436577
 20
23.37807345335687
 30
0.0
 10
145.1971665761139
 20
23.34327798895585
 30
0.0
 10
145.1971665761139
 20
23.34327798895585
 30
0.0
 10
145.1971665761139
 20
23.34327798895585
 30
0.0
 10
144.8900363136039
 20
23.39564344033165
 30
0.0
 10
144.8900363136039
 20
23.39564344033165
 30
0.0
 10
144.8900363136039
 20
23.39564344033165
 30
0.0
 10
144.7696302263944
 20
23.42871635699004
 30
0.0
 10
144.7696302263944
 20
23.42871635699004
 30
0.0
 10
143.9102511575988
 20
23.70742458174676
 30
0.0
 10
143.6110446147049
 20
24.8360378627146
 30
0.0
 10
143.7757201788998
 20
25.66079372188342
 30
0.0
 10
143.7757201788998
 20
25.66079372188342
 30
0.0
 10
143.7931179111003
 20
25.67733018021261
 30
0.0
 10
143.7931179111003
 20
25.67733018021261
 30
0.0
 10
143.7931179111003
 20
25.67733018021261
 30
0.0
 10
143.9481472079366
 20
25.96775172961917
 30
0.0
 10
143.9481472079366
 20
25.96775172961917
 30
0.0
 10
143.9481472079366
 20
25.96775172961917
 30
0.0
 10
144.1665662617014
 20
26.19099391706336
 30
0.0
 10
144.1665662617014
 20
26.19099391706336
 30
0.0
 10
144.1665662617014
 20
26.19099391706336
 30
0.0
 10
144.425465187418
 20
26.34602321389961
 30
0.0
 10
144.425465187418
 20
26.34602321389961
 30
0.0
 10
144.425465187418
 20
26.34602321389961
 30
0.0
 10
144.7174370297929
 20
26.41423610450755
 30
0.0
 10
144.7174370297929
 20
26.41423610450755
 30
0.0
 10
144.7174370297929
 20
26.41423610450755
 30
0.0
 10
145.0435153174718
 20
26.41423610450755
 30
0.0
 10
145.0435153174718
 20
26.41423610450755
 30
0.0
  0
POLYLINE
  5
24F
330
1F
100
AcDbEntity
  8
\U+30EC\U+30A4\U+30E4\U+30FC 1
 62
     7
370
    18
100
AcDb2dPolyline
 66
     1
 10
0.0
 20
0.0
 30
0.0
  0
VERTEX
  5
250
330
24F
100
AcDbEntity
  8
\U+30EC\U+30A4\U+30E4\U+30FC 1
 62
     7
370
    18
100
AcDbVertex
100
AcDb2dVertex
 10
145.0435153174718
 20
51.89243976567273
 30
0.0
  0
VERTEX
  5
251
330
24F
100
AcDbEntity
  8
\U+30EC\U+30A4\U+30E4\U+30FC 1
 62
     7
370
    18
100
AcDbVertex
100
AcDb2dVertex
 10
145.5232448637928
 20
51.78977592021228
 30
0.0
  0
VERTEX
  5
252
330
24F
100
AcDbEntity
  8
\U+30EC\U+30A4\U+30E4\U+30FC 1
 62
     7
370
    18
100
AcDbVertex
100
AcDb2dVertex
 10
145.9878159899787
 20
51.58375921019434
 30
0.0
  0
VERTEX
  5
253
330
24F
100
AcDbEntity
  8
\U+30EC\U+30A4\U+30E4\U+30FC 1
 62
     7
370
    18
100
AcDbVertex
100
AcDb2dVertex
 10
146.4508368231963
 20
51.32606606789765
 30
0.0
  0
VERTEX
  5
254
330
24F
100
AcDbEntity
  8
\U+30EC\U+30A4\U+30E4\U+30FC 1
 62
     7
370
    18
100
AcDbVertex
100
AcDb2dVertex
 10
146.8623534789094
 20
50.98224553846972
 30
0.0
  0
VERTEX
  5
255
330
24F
100
AcDbEntity
  8
\U+30EC\U+30A4\U+30E4\U+30FC 1
 62
     7
370
    18
100
AcDbVertex
100
AcDb2dVertex
 10
147.2382133963502
 20
50.58812661495714
 30
0.0
  0
VERTEX
  5
256
330
24F
100
AcDbEntity
  8
\U+30EC\U+30A4\U+30E4\U+30FC 1
 62
     7
370
    18
100
AcDbVertex
100
AcDb2dVertex
 10
147.5499945377653
 20
50.14026420187466
 30
0.0
  0
VERTEX
  5
257
330
24F
100
AcDbEntity
  8
\U+30EC\U+30A4\U+30E4\U+30FC 1
 62
     7
370
    18
100
AcDbVertex
100
AcDb2dVertex
 10
147.8238796288427
 20
49.64485947109574
 30
0.0
  0
VERTEX
  5
258
330
24F
100
AcDbEntity
  8
\U+30EC\U+30A4\U+30E4\U+30FC 1
 62
     7
370
    18
100
AcDbVertex
100
AcDb2dVertex
 10
148.0114650780145
 20
49.13050671514793
 30
0.0
  0
VERTEX
  5
259
330
24F
100
AcDbEntity
  8
\U+30EC\U+30A4\U+30E4\U+30FC 1
 62
     7
370
    18
100
AcDbVertex
100
AcDb2dVertex
 10
148.1484076235532
 20
48.58101398525059
 30
0.0
  0
VERTEX
  5
25A
330
24F
100
AcDbEntity
  8
\U+30EC\U+30A4\U+30E4\U+30FC 1
 62
     7
370
    18
100
AcDbVertex
100
AcDb2dVertex
 10
148.1990505271864
 20
48.03117674580471
 30
0.0
  0
VERTEX
  5
25B
330
24F
100
AcDbEntity
  8
\U+30EC\U+30A4\U+30E4\U+30FC 1
 62
     7
370
    18
100
AcDbVertex
100
AcDb2dVertex
 10
148.1825140688572
 20
47.49994302197918
 30
0.0
  0
VERTEX
  5
25C
330
24F
100
AcDbEntity
  8
\U+30EC\U+30A4\U+30E4\U+30FC 1
 62
     7
370
    18
100
AcDbVertex
100
AcDb2dVertex
 10
148.0810560068165
 20
46.98559026603138
 30
0.0
  0
VERTEX
  5
25D
330
24F
100
AcDbEntity
  8
\U+30EC\U+30A4\U+30E4\U+30FC 1
 62
     7
370
    18
100
AcDbVertex
100
AcDb2dVertex
 10
147.925165436109
 20
46.50431042674198
 30
0.0
  0
VERTEX
  5
25E
330
24F
100
AcDbEntity
  8
\U+30EC\U+30A4\U+30E4\U+30FC 1
 62
     7
370
    18
100
AcDbVertex
100
AcDb2dVertex
 10
147.6853867903356
 20
46.0578260518536
 30
0.0
  0
VERTEX
  5
25F
330
24F
100
AcDbEntity
  8
\U+30EC\U+30A4\U+30E4\U+30FC 1
 62
     7
370
    18
100
AcDbVertex
100
AcDb2dVertex
 10
147.3949652409291
 20
45.68127711531579
 30
0.0
  0
VERTEX
  5
260
330
24F
100
AcDbEntity
  8
\U+30EC\U+30A4\U+30E4\U+30FC 1
 62
     7
370
    18
100
AcDbVertex
100
AcDb2dVertex
 10
147.0521782401467
 20
45.35502657286263
 30
0.0
  0
VERTEX
  5
261
330
24F
100
AcDbEntity
  8
\U+30EC\U+30A4\U+30E4\U+30FC 1
 62
     7
370
    18
100
AcDbVertex
100
AcDb2dVertex
 10
146.6565090236657
 20
45.09871146876004
 30
0.0
  0
VERTEX
  5
262
330
24F
100
AcDbEntity
  8
\U+30EC\U+30A4\U+30E4\U+30FC 1
 62
     7
370
    18
100
AcDbVertex
100
AcDb2dVertex
 10
146.2260443427838
 20
44.92611218494903
 30
0.0
  0
VERTEX
  5
263
330
24F
100
AcDbEntity
  8
\U+30EC\U+30A4\U+30E4\U+30FC 1
 62
     7
370
    18
100
AcDbVertex
100
AcDb2dVertex
 10
145.7661240955029
 20
44.84067381691484
 30
0.0
  0
VERTEX
  5
264
330
24F
100
AcDbEntity
  8
\U+30EC\U+30A4\U+30E4\U+30FC 1
 62
     7
370
    18
100
AcDbVertex
100
AcDb2dVertex
 10
145.2832939632451
 20
44.82344833948859
 30
0.0
  0
VERTEX
  5
265
330
24F
100
AcDbEntity
  8
\U+30EC\U+30A4\U+30E4\U+30FC 1
 62
     7
370
    18
100
AcDbVertex
100
AcDb2dVertex
 10
144.8037366716984
 20
44.89131672054801
 30
0.0
  0
VERTEX
  5
266
330
24F
100
AcDbEntity
  8
\U+30EC\U+30A4\U+30E4\U+30FC 1
 62
     7
370
    18
100
AcDbVertex
100
AcDb2dVertex
 10
144.322456832409
 20
45.04737954602982
 30
0.0
  0
VERTEX
  5
267
330
24F
100
AcDbEntity
  8
\U+30EC\U+30A4\U+30E4\U+30FC 1
 62
     7
370
    18
100
AcDbVertex
100
AcDb2dVertex
 10
143.8618475660311
 20
45.28715819180321
 30
0.0
  0
VERTEX
  5
268
330
24F
100
AcDbEntity
  8
\U+30EC\U+30A4\U+30E4\U+30FC 1
 62
     7
370
    18
100
AcDbVertex
100
AcDb2dVertex
 10
143.4313828851491
 20
45.59514972818454
 30
0.0
  0
VERTEX
  5
269
330
24F
100
AcDbEntity
  8
\U+30EC\U+30A4\U+30E4\U+30FC 1
 62
     7
370
    18
100
AcDbVertex
100
AcDb2dVertex
 10
143.0364026877652
 20
45.95654024458726
 30
0.0
  0
VERTEX
  5
26A
330
24F
100
AcDbEntity
  8
\U+30EC\U+30A4\U+30E4\U+30FC 1
 62
     7
370
    18
100
AcDbVertex
100
AcDb2dVertex
 10
142.6763902095566
 20
46.38579914204939
 30
0.0
  0
VERTEX
  5
26B
330
24F
100
AcDbEntity
  8
\U+30EC\U+30A4\U+30E4\U+30FC 1
 62
     7
370
    18
100
AcDbVertex
100
AcDb2dVertex
 10
142.3842461124074
 20
46.84778644662139
 30
0.0
  0
VERTEX
  5
26C
330
24F
100
AcDbEntity
  8
\U+30EC\U+30A4\U+30E4\U+30FC 1
 62
     7
370
    18
100
AcDbVertex
100
AcDb2dVertex
 10
142.1627264727059
 20
47.36213920256919
 30
0.0
  0
VERTEX
  5
26D
330
24F
100
AcDbEntity
  8
\U+30EC\U+30A4\U+30E4\U+30FC 1
 62
     7
370
    18
100
AcDbVertex
100
AcDb2dVertex
 10
141.9916774818632
 20
47.89578449323439
 30
0.0
  0
VERTEX
  5
26E
330
24F
100
AcDbEntity
  8
\U+30EC\U+30A4\U+30E4\U+30FC 1
 62
     7
370
    18
100
AcDbVertex
100
AcDb2dVertex
 10
141.906239113829
 20
48.44355467538912
 30
0.0
  0
VERTEX
  5
26F
330
24F
100
AcDbEntity
  8
\U+30EC\U+30A4\U+30E4\U+30FC 1
 62
     7
370
    18
100
AcDbVertex
100
AcDb2dVertex
 10
141.8888413816285
 20
48.97685545650579
 30
0.0
  0
VERTEX
  5
270
330
24F
100
AcDbEntity
  8
\U+30EC\U+30A4\U+30E4\U+30FC 1
 62
     7
370
    18
100
AcDbVertex
100
AcDb2dVertex
 10
141.9386230113903
 20
49.50705565168574
 30
0.0
  0
VERTEX
  5
271
330
24F
100
AcDbEntity
  8
\U+30EC\U+30A4\U+30E4\U+30FC 1
 62
     7
370
    18
100
AcDbVertex
100
AcDb2dVertex
 10
142.0764268308004
 20
50.00418293020729
 30
0.0
  0
VERTEX
  5
272
330
24F
100
AcDbEntity
  8
\U+30EC\U+30A4\U+30E4\U+30FC 1
 62
     7
370
    18
100
AcDbVertex
100
AcDb2dVertex
 10
142.2655625729406
 20
50.46651474432782
 30
0.0
  0
VERTEX
  5
273
330
24F
100
AcDbEntity
  8
\U+30EC\U+30A4\U+30E4\U+30FC 1
 62
     7
370
    18
100
AcDbVertex
100
AcDb2dVertex
 10
142.5227389509145
 20
50.87958169300927
 30
0.0
  0
VERTEX
  5
274
330
24F
100
AcDbEntity
  8
\U+30EC\U+30A4\U+30E4\U+30FC 1
 62
     7
370
    18
100
AcDbVertex
100
AcDb2dVertex
 10
142.8488172385934
 20
51.24028319031493
 30
0.0
  0
VERTEX
  5
275
330
24F
100
AcDbEntity
  8
\U+30EC\U+30A4\U+30E4\U+30FC 1
 62
     7
370
    18
100
AcDbVertex
100
AcDb2dVertex
 10
143.2239881369371
 20
51.53173826836706
 30
0.0
  0
VERTEX
  5
276
330
24F
100
AcDbEntity
  8
\U+30EC\U+30A4\U+30E4\U+30FC 1
 62
     7
370
    18
100
AcDbVertex
100
AcDb2dVertex
 10
143.6363660665215
 20
51.73741046883648
 30
0.0
  0
VERTEX
  5
277
330
24F
100
AcDbEntity
  8
\U+30EC\U+30A4\U+30E4\U+30FC 1
 62
     7
370
    18
100
AcDbVertex
100
AcDb2dVertex
 10
144.0835394605069
 20
51.87521428824648
 30
0.0
  0
VERTEX
  5
278
330
24F
100
AcDbEntity
  8
\U+30EC\U+30A4\U+30E4\U+30FC 1
 62
     7
370
    18
100
AcDbVertex
100
AcDb2dVertex
 10
144.563958025925
 20
51.92585719187965
 30
0.0
  0
VERTEX
  5
279
330
24F
100
AcDbEntity
  8
\U+30EC\U+30A4\U+30E4\U+30FC 1
 62
     7
370
    18
100
AcDbVertex
100
AcDb2dVertex
 10
145.0435153174718
 20
51.89243976567273
 30
0.0
  0
SEQEND
  5
27A
330
24F
100
AcDbEntity
  8
\U+30EC\U+30A4\U+30E4\U+30FC 1
370
    18
  0
POLYLINE
  5
27B
330
1F
100
AcDbEntity
  8
\U+30EC\U+30A4\U+30E4\U+30FC 1
 62
     7
370
    25
100
AcDb2dPolyline
 66
     1
 10
0.0
 20
0.0
 30
0.0
  0
VERTEX
  5
27C
330
27B
100
AcDbEntity
  8
\U+30EC\U+30A4\U+30E4\U+30FC 1
 62
     7
370
    25
100
AcDbVertex
100
AcDb2dVertex
 10
137.666360100132
 20
195.5792764810531
 30
0.0
  0
VERTEX
  5
27D
330
27B
100
AcDbEntity
  8
\U+30EC\U+30A4\U+30E4\U+30FC 1
 62
     7
370
    25
100
AcDbVertex
100
AcDb2dVertex
 10
152.4041340764823
 20
193.3659748865543
 30
0.0
  0
SEQEND
  5
27E
330
27B
100
AcDbEntity
  8
\U+30EC\U+30A4\U+30E4\U+30FC 1
370
    25
  0
POLYLINE
  5
27F
330
1F
100
AcDbEntity
  8
\U+30EC\U+30A4\U+30E4\U+30FC 1
 62
     7
370
    25
100
AcDb2dPolyline
 66
     1
 10
0.0
 20
0.0
 30
0.0
  0
VERTEX
  5
280
330
27F
100
AcDbEntity
  8
\U+30EC\U+30A4\U+30E4\U+30FC 1
 62
     7
370
    25
100
AcDbVertex
100
AcDb2dVertex
 10
137.666360100132
 20
14.251326493833
 30
0.0
  0
VERTEX
  5
281
330
27F
100
AcDbEntity
  8
\U+30EC\U+30A4\U+30E4\U+30FC 1
 62
     7
370
    25
100
AcDbVertex
100
AcDb2dVertex
 10
137.666360100132
 20
20.2550943959779
 30
0.0
  0
VERTEX
  5
282
330
27F
100
AcDbEntity
  8
\U+30EC\U+30A4\U+30E4\U+30FC 1
 62
     7
370
    25
100
AcDbVertex
100
AcDb2dVertex
 10
137.666360100132
 20
22.91436360104224
 30
0.0
  0
VERTEX
  5
283
330
27F
100
AcDbEntity
  8
\U+30EC\U+30A4\U+30E4\U+30FC 1
 62
     7
370
    25
100
AcDbVertex
100
AcDb2dVertex
 10
137.666360100132
 20
195.5792764810531
 30
0.0
  0
SEQEND
  5
284
330
27F
100
AcDbEntity
  8
\U+30EC\U+30A4\U+30E4\U+30FC 1
370
    25
  0
POLYLINE
  5
285
330
1F
100
AcDbEntity
  8
\U+30EC\U+30A4\U+30E4\U+30FC 1
 62
     7
370
    25
100
AcDb2dPolyline
 66
     1
 10
0.0
 20
0.0
 30
0.0
  0
VERTEX
  5
286
330
285
100
AcDbEntity
  8
\U+30EC\U+30A4\U+30E4\U+30FC 1
 62
     7
370
    25
100
AcDbVertex
100
AcDb2dVertex
 10
137.666360100132
 20
14.251326493833
 30
0.0
  0
VERTEX
  5
287
330
285
100
AcDbEntity
  8
\U+30EC\U+30A4\U+30E4\U+30FC 1
 62
     7
370
    25
100
AcDbVertex
100
AcDb2dVertex
 10
152.4041340764823
 20
12.03681911591441
 30
0.0
  0
SEQEND
  5
288
330
285
100
AcDbEntity
  8
\U+30EC\U+30A4\U+30E4\U+30FC 1
370
    25
  0
POLYLINE
  5
289
330
1F
100
AcDbEntity
  8
\U+30EC\U+30A4\U+30E4\U+30FC 1
 62
     7
370
    25
100
AcDb2dPolyline
 66
     1
 10
0.0
 20
0.0
 30
0.0
  0
VERTEX
  5
28A
330
289
100
AcDbEntity
  8
\U+30EC\U+30A4\U+30E4\U+30FC 1
 62
     7
370
    25
100
AcDbVertex
100
AcDb2dVertex
 10
160.9304008929271
 20
15.86259765228435
 30
0.0
  0
VERTEX
  5
28B
330
289
100
AcDbEntity
  8
\U+30EC\U+30A4\U+30E4\U+30FC 1
 62
     7
370
    25
100
AcDbVertex
100
AcDb2dVertex
 10
160.9304008929271
 20
197.1922701872471
 30
0.0
  0
SEQEND
  5
28C
330
289
100
AcDbEntity
  8
\U+30EC\U+30A4\U+30E4\U+30FC 1
370
    25
  0
POLYLINE
  5
28D
330
1F
100
AcDbEntity
  8
\U+30EC\U+30A4\U+30E4\U+30FC 1
 62
     7
370
    25
100
AcDb2dPolyline
 66
     1
 10
0.0
 20
0.0
 30
0.0
  0
VERTEX
  5
28E
330
28D
100
AcDbEntity
  8
\U+30EC\U+30A4\U+30E4\U+30FC 1
 62
     7
370
    25
100
AcDbVertex
100
AcDb2dVertex
 10
152.4041340764823
 20
193.3659748865543
 30
0.0
  0
VERTEX
  5
28F
330
28D
100
AcDbEntity
  8
\U+30EC\U+30A4\U+30E4\U+30FC 1
 62
     7
370
    25
100
AcDbVertex
100
AcDb2dVertex
 10
160.9304008929271
 20
197.1922701872471
 30
0.0
  0
SEQEND
  5
290
330
28D
100
AcDbEntity
  8
\U+30EC\U+30A4\U+30E4\U+30FC 1
370
    25
  0
POLYLINE
  5
291
330
1F
100
AcDbEntity
  8
\U+30EC\U+30A4\U+30E4\U+30FC 1
 62
     7
370
    25
100
AcDb2dPolyline
 66
     1
 10
0.0
 20
0.0
 30
0.0
  0
VERTEX
  5
292
330
291
100
AcDbEntity
  8
\U+30EC\U+30A4\U+30E4\U+30FC 1
 62
     7
370
    25
100
AcDbVertex
100
AcDb2dVertex
 10
152.4041340764823
 20
12.03681911591441
 30
0.0
  0
VERTEX
  5
293
330
291
100
AcDbEntity
  8
\U+30EC\U+30A4\U+30E4\U+30FC 1
 62
     7
370
    25
100
AcDbVertex
100
AcDb2dVertex
 10
152.4041340764823
 20
193.3659748865543
 30
0.0
  0
SEQEND
  5
294
330
291
100
AcDbEntity
  8
\U+30EC\U+30A4\U+30E4\U+30FC 1
370
    25
  0
POLYLINE
  5
295
330
1F
100
AcDbEntity
  8
\U+30EC\U+30A4\U+30E4\U+30FC 1
 62
     7
370
    25
100
AcDb2dPolyline
 66
     1
 10
0.0
 20
0.0
 30
0.0
  0
VERTEX
  5
296
330
295
100
AcDbEntity
  8
\U+30EC\U+30A4\U+30E4\U+30FC 1
 62
     7
370
    25
100
AcDbVertex
100
AcDb2dVertex
 10
152.4041340764823
 20
12.03681911591441
 30
0.0
  0
VERTEX
  5
297
330
295
100
AcDbEntity
  8
\U+30EC\U+30A4\U+30E4\U+30FC 1
 62
     7
370
    25
100
AcDbVertex
100
AcDb2dVertex
 10
160.9304008929271
 20
15.86259765228435
 30
0.0
  0
SEQEND
  5
298
330
295
100
AcDbEntity
  8
\U+30EC\U+30A4\U+30E4\U+30FC 1
370
    25
  0
POLYLINE
  5
299
330
1F
100
AcDbEntity
  8
\U+30EC\U+30A4\U+30E4\U+30FC 1
 62
     7
370
    18
100
AcDb2dPolyline
 66
     1
 10
0.0
 20
0.0
 30
0.0
  0
VERTEX
  5
29A
330
299
100
AcDbEntity
  8
\U+30EC\U+30A4\U+30E4\U+30FC 1
 62
     7
370
    18
100
AcDbVertex
100
AcDb2dVertex
 10
156.5899250910608
 20
192.7996011887793
 30
0.0
  0
VERTEX
  5
29B
330
299
100
AcDbEntity
  8
\U+30EC\U+30A4\U+30E4\U+30FC 1
 62
     7
370
    18
100
AcDbVertex
100
AcDb2dVertex
 10
156.6257540841075
 20
192.7996011887793
 30
0.0
  0
SEQEND
  5
29C
330
299
100
AcDbEntity
  8
\U+30EC\U+30A4\U+30E4\U+30FC 1
370
    18
  0
POLYLINE
  5
29D
330
1F
100
AcDbEntity
  8
\U+30EC\U+30A4\U+30E4\U+30FC 1
 62
     7
370
    18
100
AcDb2dPolyline
 66
     1
 10
0.0
 20
0.0
 30
0.0
  0
VERTEX
  5
29E
330
29D
100
AcDbEntity
  8
\U+30EC\U+30A4\U+30E4\U+30FC 1
 62
     7
370
    18
100
AcDbVertex
100
AcDb2dVertex
 10
156.7625243748719
 20
193.7612995934868
 30
0.0
  0
VERTEX
  5
29F
330
29D
100
AcDbEntity
  8
\U+30EC\U+30A4\U+30E4\U+30FC 1
 62
     7
370
    18
100
AcDbVertex
100
AcDb2dVertex
 10
156.743576349703
 20
193.7612995934868
 30
0.0
  0
SEQEND
  5
2A0
330
29D
100
AcDbEntity
  8
\U+30EC\U+30A4\U+30E4\U+30FC 1
370
    18
  0
POLYLINE
  5
2A1
330
1F
100
AcDbEntity
  8
\U+30EC\U+30A4\U+30E4\U+30FC 1
 62
     7
370
    18
100
AcDb2dPolyline
 66
     1
 10
0.0
 20
0.0
 30
0.0
  0
VERTEX
  5
2A2
330
2A1
100
AcDbEntity
  8
\U+30EC\U+30A4\U+30E4\U+30FC 1
 62
     7
370
    18
100
AcDbVertex
100
AcDb2dVertex
 10
156.916175633514
 20
193.5706135583782
 30
0.0
  0
VERTEX
  5
2A3
330
2A1
100
AcDbEntity
  8
\U+30EC\U+30A4\U+30E4\U+30FC 1
 62
     7
370
    18
100
AcDbVertex
100
AcDb2dVertex
 10
156.88206918821
 20
193.6576022193807
 30
0.0
  0
SEQEND
  5
2A4
330
2A1
100
AcDbEntity
  8
\U+30EC\U+30A4\U+30E4\U+30FC 1
370
    18
  0
POLYLINE
  5
2A5
330
1F
100
AcDbEntity
  8
\U+30EC\U+30A4\U+30E4\U+30FC 1
 62
     7
370
    18
100
AcDb2dPolyline
 66
     1
 10
0.0
 20
0.0
 30
0.0
  0
VERTEX
  5
2A6
330
2A5
100
AcDbEntity
  8
\U+30EC\U+30A4\U+30E4\U+30FC 1
 62
     7
370
    18
100
AcDbVertex
100
AcDb2dVertex
 10
156.7625243748719
 20
192.8507608567352
 30
0.0
  0
VERTEX
  5
2A7
330
2A5
100
AcDbEntity
  8
\U+30EC\U+30A4\U+30E4\U+30FC 1
 62
     7
370
    18
100
AcDbVertex
100
AcDb2dVertex
 10
156.8297037368343
 20
192.9200072759888
 30
0.0
  0
SEQEND
  5
2A8
330
2A5
100
AcDbEntity
  8
\U+30EC\U+30A4\U+30E4\U+30FC 1
370
    18
  0
ENDSEC
  0
SECTION
  2
OBJECTS
  0
DICTIONARY
  5
C
330
0
100
AcDbDictionary
281
     1
  3
ACAD_GROUP
350
D
  3
ACAD_LAYOUT
350
1A
  3
ACAD_MLINESTYLE
350
17
  3
ACAD_PLOTSETTINGS
350
19
  3
ACAD_PLOTSTYLENAME
350
E
  3
ACAD_TABLESTYLE
350
2A9
  3
ACAD_VISUALSTYLE
350
2A
  0
DICTIONARY
  5
D
102
{ACAD_REACTORS
330
C
102
}
330
C
100
AcDbDictionary
281
     1
  0
DICTIONARY
  5
1A
102
{ACAD_REACTORS
330
C
102
}
330
C
100
AcDbDictionary
281
     1
  3
Layout1
350
1E
  3
Layout2
350
26
  3
Model
350
22
  0
DICTIONARY
  5
17
102
{ACAD_REACTORS
330
C
102
}
330
C
100
AcDbDictionary
281
     1
  3
Standard
350
18
  0
DICTIONARY
  5
19
102
{ACAD_REACTORS
330
C
102
}
330
C
100
AcDbDictionary
281
     1
  0
ACDBDICTIONARYWDFLT
  5
E
102
{ACAD_REACTORS
330
C
102
}
330
C
100
AcDbDictionary
281
     1
  3
Normal
350
F
100
AcDbDictionaryWithDefault
340
F
  0
DICTIONARY
  5
2A9
102
{ACAD_REACTORS
330
C
102
}
330
C
100
AcDbDictionary
281
     1
  0
DICTIONARY
  5
2A
102
{ACAD_REACTORS
330
C
102
}
330
C
100
AcDbDictionary
281
     1
  3
2dWireframe
350
2F
  3
3D Hidden
350
31
  3
3dWireframe
350
30
  3
Basic
350
32
  3
Brighten
350
36
  3
ColorChange
350
3A
  3
Conceptual
350
34
  3
Dim
350
35
  3
Facepattern
350
39
  3
Flat
350
2B
  3
FlatWithEdges
350
2C
  3
Gouraud
350
2D
  3
GouraudWithEdges
350
2E
  3
Linepattern
350
38
  3
Realistic
350
33
  3
Thicken
350
37
  0
LAYOUT
  5
1E
102
{ACAD_REACTORS
330
1A
102
}
330
1A
100
AcDbPlotSettings
  1

  2
none_device
  4

  6

 40
0.0
 41
0.0
 42
0.0
 43
0.0
 44
0.0
 45
0.0
 46
0.0
 47
0.0
 48
0.0
 49
0.0
140
0.0
141
0.0
142
1.0
143
1.0
 70
   688
 72
     0
 73
     0
 74
     5
  7

 75
    16
147
1.0
148
0.0
149
0.0
100
AcDbLayout
  1
Layout1
 70
     1
 71
     1
 10
0.0
 20
0.0
 11
12.0
 21
9.0
 12
0.0
 22
0.0
 32
0.0
 14
1.000000000000000E+20
 24
1.000000000000000E+20
 34
1.000000000000000E+20
 15
-1.000000000000000E+20
 25
-1.000000000000000E+20
 35
-1.000000000000000E+20
146
0.0
 13
0.0
 23
0.0
 33
0.0
 16
1.0
 26
0.0
 36
0.0
 17
0.0
 27
1.0
 37
0.0
 76
     0
330
1B
  0
LAYOUT
  5
26
102
{ACAD_REACTORS
330
1A
102
}
330
1A
100
AcDbPlotSettings
  1

  2
none_device
  4

  6

 40
0.0
 41
0.0
 42
0.0
 43
0.0
 44
0.0
 45
0.0
 46
0.0
 47
0.0
 48
0.0
 49
0.0
140
0.0
141
0.0
142
1.0
143
1.0
 70
   688
 72
     0
 73
     0
 74
     5
  7

 75
    16
147
1.0
148
0.0
149
0.0
100
AcDbLayout
  1
Layout2
 70
     1
 71
     2
 10
0.0
 20
0.0
 11
0.0
 21
0.0
 12
0.0
 22
0.0
 32
0.0
 14
0.0
 24
0.0
 34
0.0
 15
0.0
 25
0.0
 35
0.0
146
0.0
 13
0.0
 23
0.0
 33
0.0
 16
1.0
 26
0.0
 36
0.0
 17
0.0
 27
1.0
 37
0.0
 76
     0
330
23
  0
LAYOUT
  5
22
102
{ACAD_REACTORS
330
1A
102
}
330
1A
100
AcDbPlotSettings
  1

  2
none_device
  4

  6

 40
0.0
 41
0.0
 42
0.0
 43
0.0
 44
0.0
 45
0.0
 46
0.0
 47
0.0
 48
0.0
 49
0.0
140
0.0
141
0.0
142
1.0
143
1.0
 70
  1712
 72
     0
 73
     0
 74
     0
  7

 75
     0
147
1.0
148
0.0
149
0.0
100
AcDbLayout
  1
Model
 70
     1
 71
     0
 10
0.0
 20
0.0
 11
12.0
 21
9.0
 12
0.0
 22
0.0
 32
0.0
 14
1.000000000000000E+20
 24
1.000000000000000E+20
 34
1.000000000000000E+20
 15
-1.000000000000000E+20
 25
-1.000000000000000E+20
 35
-1.000000000000000E+20
146
0.0
 13
0.0
 23
0.0
 33
0.0
 16
1.0
 26
0.0
 36
0.0
 17
0.0
 27
1.0
 37
0.0
 76
     0
330
1F
331
29
  0
MLINESTYLE
  5
18
102
{ACAD_REACTORS
330
17
102
}
330
17
100
AcDbMlineStyle
  2
Standard
 70
     0
  3

 62
   256
 51
90.0
 52
90.0
 71
     2
 49
0.5
 62
   256
  6
BYLAYER
 49
-0.5
 62
   256
  6
BYLAYER
  0
ACDBPLACEHOLDER
  5
F
102
{ACAD_REACTORS
330
E
102
}
330
E
  0
VISUALSTYLE
  5
2F
102
{ACAD_REACTORS
330
2A
102
}
330
2A
100
AcDbVisualStyle
  2
2dWireframe
 70
     4
 71
     0
 72
     2
 73
     0
 90
        0
 40
-0.6
 41
-30.0
 62
     5
 63
     7
 74
     1
 91
        4
 64
     7
 65
   257
 75
     1
175
     1
 42
1.0
 92
        0
 66
   257
 43
1.0
 76
     1
 77
     6
 78
     2
 67
     7
 79
     5
170
     0
171
     0
290
     0
174
     0
 93
        1
 44
0.0
173
     0
291
     0
 45
0.0
1001
ACAD
1000
AcDbSavedByObjectVersion
1070
     0
  0
VISUALSTYLE
  5
31
102
{ACAD_REACTORS
330
2A
102
}
330
2A
100
AcDbVisualStyle
  2
3D Hidden
 70
     6
 71
     1
 72
     2
 73
     2
 90
        0
 40
-0.6
 41
-30.0
 62
     5
 63
     7
 74
     2
 91
        2
 64
     7
 65
   257
 75
     2
175
     1
 42
40.0
 92
        0
 66
   257
 43
1.0
 76
     1
 77
     6
 78
     2
 67
     7
 79
     3
170
     0
171
     0
290
     0
174
     0
 93
        1
 44
0.0
173
     0
291
     0
 45
0.0
1001
ACAD
1000
AcDbSavedByObjectVersion
1070
     0
  0
VISUALSTYLE
  5
30
102
{ACAD_REACTORS
330
2A
102
}
330
2A
100
AcDbVisualStyle
  2
3dWireframe
 70
     5
 71
     0
 72
     2
 73
     0
 90
        0
 40
-0.6
 41
-30.0
 62
     5
 63
     7
 74
     1
 91
        4
 64
     7
 65
   257
 75
     1
175
     1
 42
1.0
 92
        0
 66
   257
 43
1.0
 76
     1
 77
     6
 78
     2
 67
     7
 79
     5
170
     0
171
     0
290
     0
174
     0
 93
        1
 44
0.0
173
     0
291
     0
 45
0.0
1001
ACAD
1000
AcDbSavedByObjectVersion
1070
     0
  0
VISUALSTYLE
  5
32
102
{ACAD_REACTORS
330
2A
102
}
330
2A
100
AcDbVisualStyle
  2
Basic
 70
     7
 71
     1
 72
     0
 73
     1
 90
        0
 40
-0.6
 41
-30.0
 62
     5
 63
     7
 74
     0
 91
        4
 64
     7
 65
   257
 75
     1
175
     1
 42
1.0
 92
        8
 66
     7
 43
1.0
 76
     1
 77
     6
 78
     2
 67
     7
 79
     5
170
     0
171
     0
290
     0
174
     0
 93
        1
 44
0.0
173
     0
291
     1
 45
0.0
1001
ACAD
1000
AcDbSavedByObjectVersion
1070
     0
  0
VISUALSTYLE
  5
36
102
{ACAD_REACTORS
330
2A
102
}
330
2A
100
AcDbVisualStyle
  2
Brighten
 70
    12
 71
     2
 72
     2
 73
     0
 90
        0
 40
-0.6
 41
-30.0
 62
     5
 63
     7
 74
     1
 91
        4
 64
     7
 65
   257
 75
     1
175
     1
 42
1.0
 92
        8
 66
     7
 43
1.0
 76
     1
 77
     6
 78
     2
 67
     7
 79
     5
170
     0
171
     0
290
     0
174
     0
 93
        1
 44
50.0
173
     0
291
     1
 45
0.0
1001
ACAD
1000
AcDbSavedByObjectVersion
1070
     0
  0
VISUALSTYLE
  5
3A
102
{ACAD_REACTORS
330
2A
102
}
330
2A
100
AcDbVisualStyle
  2
ColorChange
 70
    16
 71
     2
 72
     2
 73
     3
 90
        0
 40
-0.6
 41
-30.0
 62
     5
 63
     8
 74
     1
 91
        4
 64
     7
 65
   257
 75
     1
175
     1
 42
1.0
 92
        8
 66
     8
 43
1.0
 76
     1
 77
     6
 78
     2
 67
     7
 79
     5
170
     0
171
     0
290
     0
174
     0
 93
        1
 44
0.0
173
     0
291
     1
 45
0.0
1001
ACAD
1000
AcDbSavedByObjectVersion
1070
     0
  0
VISUALSTYLE
  5
34
102
{ACAD_REACTORS
330
2A
102
}
330
2A
100
AcDbVisualStyle
  2
Conceptual
 70
     9
 71
     3
 72
     2
 73
     0
 90
        0
 40
-0.6
 41
-30.0
 62
     5
 63
     7
 74
     2
 91
        2
 64
     7
 65
   257
 75
     1
175
     1
 42
40.0
 92
        8
 66
     7
 43
1.0
 76
     1
 77
     6
 78
     2
 67
     7
 79
     3
170
     0
171
     0
290
     0
174
     0
 93
        1
 44
0.0
173
     0
291
     0
 45
0.0
1001
ACAD
1000
AcDbSavedByObjectVersion
1070
     0
  0
VISUALSTYLE
  5
35
102
{ACAD_REACTORS
330
2A
102
}
330
2A
100
AcDbVisualStyle
  2
Dim
 70
    11
 71
     2
 72
     2
 73
     0
 90
        0
 40
-0.6
 41
-30.0
 62
     5
 63
     7
 74
     1
 91
        4
 64
     7
 65
   257
 75
     1
175
     1
 42
1.0
 92
        8
 66
     7
 43
1.0
 76
     1
 77
     6
 78
     2
 67
     7
 79
     5
170
     0
171
     0
290
     0
174
     0
 93
        1
 44
-50.0
173
     0
291
     1
 45
0.0
1001
ACAD
1000
AcDbSavedByObjectVersion
1070
     0
  0
VISUALSTYLE
  5
39
102
{ACAD_REACTORS
330
2A
102
}
330
2A
100
AcDbVisualStyle
  2
Facepattern
 70
    15
 71
     2
 72
     2
 73
     0
 90
        0
 40
-0.6
 41
-30.0
 62
     5
 63
     7
 74
     1
 91
        4
 64
     7
 65
   257
 75
     1
175
     1
 42
1.0
 92
        8
 66
     7
 43
1.0
 76
     1
 77
     6
 78
     2
 67
     7
 79
     5
170
     0
171
     0
290
     0
174
     0
 93
        1
 44
0.0
173
     0
291
     1
 45
0.0
1001
ACAD
1000
AcDbSavedByObjectVersion
1070
     0
  0
VISUALSTYLE
  5
2B
102
{ACAD_REACTORS
330
2A
102
}
330
2A
100
AcDbVisualStyle
  2
Flat
 70
     0
 71
     2
 72
     1
 73
     1
 90
        2
 40
-0.6
 41
30.0
 62
     5
 63
     7
 74
     0
 91
        4
 64
     7
 65
   257
 75
     1
175
     1
 42
1.0
 92
        8
 66
     7
 43
1.0
 76
     1
 77
     6
 78
     2
 67
     7
 79
     5
170
     0
171
     0
290
     0
174
     0
 93
       13
 44
0.0
173
     0
291
     1
 45
0.0
1001
ACAD
1000
AcDbSavedByObjectVersion
1070
     0
  0
VISUALSTYLE
  5
2C
102
{ACAD_REACTORS
330
2A
102
}
330
2A
100
AcDbVisualStyle
  2
FlatWithEdges
 70
     1
 71
     2
 72
     1
 73
     1
 90
        2
 40
-0.6
 41
30.0
 62
     5
 63
     7
 74
     1
 91
        4
 64
     7
 65
   257
 75
     1
175
     1
 42
1.0
 92
        0
 66
   257
 43
1.0
 76
     1
 77
     6
 78
     2
 67
     7
 79
     5
170
     0
171
     0
290
     0
174
     0
 93
       13
 44
0.0
173
     0
291
     1
 45
0.0
1001
ACAD
1000
AcDbSavedByObjectVersion
1070
     0
  0
VISUALSTYLE
  5
2D
102
{ACAD_REACTORS
330
2A
102
}
330
2A
100
AcDbVisualStyle
  2
Gouraud
 70
     2
 71
     2
 72
     2
 73
     1
 90
        2
 40
-0.6
 41
30.0
 62
     5
 63
     7
 74
     0
 91
        4
 64
     7
 65
   257
 75
     1
175
     1
 42
1.0
 92
        0
 66
     7
 43
1.0
 76
     1
 77
     6
 78
     2
 67
     7
 79
     5
170
     0
171
     0
290
     0
174
     0
 93
       13
 44
0.0
173
     0
291
     1
 45
0.0
1001
ACAD
1000
AcDbSavedByObjectVersion
1070
     0
  0
VISUALSTYLE
  5
2E
102
{ACAD_REACTORS
330
2A
102
}
330
2A
100
AcDbVisualStyle
  2
GouraudWithEdges
 70
     3
 71
     2
 72
     2
 73
     1
 90
        2
 40
-0.6
 41
30.0
 62
     5
 63
     7
 74
     1
 91
        4
 64
     7
 65
   257
 75
     1
175
     1
 42
1.0
 92
        0
 66
   257
 43
1.0
 76
     1
 77
     6
 78
     2
 67
     7
 79
     5
170
     0
171
     0
290
     0
174
     0
 93
       13
 44
0.0
173
     0
291
     1
 45
0.0
1001
ACAD
1000
AcDbSavedByObjectVersion
1070
     0
  0
VISUALSTYLE
  5
38
102
{ACAD_REACTORS
330
2A
102
}
330
2A
100
AcDbVisualStyle
  2
Linepattern
 70
    14
 71
     2
 72
     2
 73
     0
 90
        0
 40
-0.6
 41
-30.0
 62
     5
 63
     7
 74
     1
 91
        4
 64
     7
 65
   257
 75
     7
175
     7
 42
1.0
 92
        8
 66
     7
 43
1.0
 76
     1
 77
     6
 78
     2
 67
     7
 79
     5
170
     0
171
     0
290
     0
174
     0
 93
        1
 44
0.0
173
     0
291
     1
 45
0.0
1001
ACAD
1000
AcDbSavedByObjectVersion
1070
     0
  0
VISUALSTYLE
  5
33
102
{ACAD_REACTORS
330
2A
102
}
330
2A
100
AcDbVisualStyle
  2
Realistic
 70
     8
 71
     2
 72
     2
 73
     0
 90
        0
 40
-0.6
 41
-30.0
 62
     5
 63
     7
 74
     1
 91
        0
 64
     7
 65
   257
 75
     1
175
     1
 42
1.0
 92
        8
 66
     8
 43
1.0
 76
     1
 77
     6
 78
     2
 67
     7
 79
     5
170
     0
171
     0
290
     0
174
     0
 93
       13
 44
0.0
173
     0
291
     0
 45
0.0
1001
ACAD
1000
AcDbSavedByObjectVersion
1070
     0
  0
VISUALSTYLE
  5
37
102
{ACAD_REACTORS
330
2A
102
}
330
2A
100
AcDbVisualStyle
  2
Thicken
 70
    13
 71
     2
 72
     2
 73
     0
 90
        0
 40
-0.6
 41
-30.0
 62
     5
 63
     7
 74
     1
 91
        4
 64
     7
 65
   257
 75
     1
175
     1
 42
1.0
 92
       12
 66
     7
 43
1.0
 76
     1
 77
     6
 78
     2
 67
     7
 79
     5
170
     0
171
     0
290
     0
174
     0
 93
        1
 44
0.0
173
     0
291
     1
 45
0.0
1001
ACAD
1000
AcDbSavedByObjectVersion
1070
     0
  0
ENDSEC
  0
EOF
