  0
SECTION
  2
HEADER
  9
$ACADVER
  1
AC1014
  9
$ACADMAINTVER
 70
               0
  9
$DWGCODEPAGE
  3
ANSI_932
  9
$INSBASE
 10
0.0
 20
0.0
 30
0.0
  9
$EXTMIN
 10
263.95854811567261
 20
70.533333333333331
 30
0.0
  9
$EXTMAX
 10
297.11965922678371
 20
79.0
 30
0.0
  9
$LIMMIN
 10
0.0
 20
0.0
  9
$LIMMAX
 10
0.0
 20
0.0
  9
$ORTHOMODE
 70
               0
  9
$REGENMODE
 70
               1
  9
$FILLMODE
 70
               1
  9
$QTEXTMODE
 70
               0
  9
$MIRRTEXT
 70
               1
  9
$DRAGMODE
 70
               2
  9
$LTSCALE
 40
12.699999999999999
  9
$OSMODE
 70
               0
  9
$ATTMODE
 70
               1
  9
$TEXTSIZE
 40
0.2
  9
$TRACEWID
 40
1.0
  9
$TEXTSTYLE
  7
STANDARD
  9
$CLAYER
  8
0
  9
$CELTYPE
  6
CONTINUOUS
  9
$CECOLOR
 62
             256
  9
$CELTSCALE
 40
1.0
  9
$DELOBJ
 70
               1
  9
$DISPSILH
 70
               0
  9
$DIMSCALE
 40
1.0
  9
$DIMASZ
 40
0.18
  9
$DIMEXO
 40
0.0625
  9
$DIMDLI
 40
0.38
  9
$DIMRND
 40
0.0
  9
$DIMDLE
 40
0.0
  9
$DIMEXE
 40
0.18
  9
$DIMTP
 40
0.0
  9
$DIMTM
 40
0.0
  9
$DIMTXT
 40
0.18
  9
$DIMCEN
 40
0.09
  9
$DIMTSZ
 40
0.0
  9
$DIMTOL
 70
               0
  9
$DIMLIM
 70
               0
  9
$DIMTIH
 70
               1
  9
$DIMTOH
 70
               1
  9
$DIMSE1
 70
               0
  9
$DIMSE2
 70
               0
  9
$DIMTAD
 70
               0
  9
$DIMZIN
 70
               0
  9
$DIMBLK
  1

  9
$DIMASO
 70
               1
  9
$DIMSHO
 70
               1
  9
$DIMPOST
  1

  9
$DIMAPOST
  1

  9
$DIMALT
 70
               0
  9
$DIMALTD
 70
               2
  9
$DIMALTF
 40
25.399999999999999
  9
$DIMLFAC
 40
1.0
  9
$DIMTOFL
 70
               0
  9
$DIMTVP
 40
0.0
  9
$DIMTIX
 70
               0
  9
$DIMSOXD
 70
               0
  9
$DIMSAH
 70
               0
  9
$DIMBLK1
  1

  9
$DIMBLK2
  1

  9
$DIMSTYLE
  2
STANDARD
  9
$DIMCLRD
 70
               0
  9
$DIMCLRE
 70
               0
  9
$DIMCLRT
 70
               0
  9
$DIMTFAC
 40
1.0
  9
$DIMGAP
 40
0.09
  9
$DIMJUST
 70
               0
  9
$DIMSD1
 70
               0
  9
$DIMSD2
 70
               0
  9
$DIMTOLJ
 70
               1
  9
$DIMTZIN
 70
               0
  9
$DIMALTZ
 70
               0
  9
$DIMALTTZ
 70
               0
  9
$DIMFIT
 70
               3
  9
$DIMUPT
 70
               0
  9
$DIMUNIT
 70
               2
  9
$DIMDEC
 70
               4
  9
$DIMTDEC
 70
               4
  9
$DIMALTU
 70
               2
  9
$DIMALTTD
 70
               2
  9
$DIMTXSTY
  7
STANDARD
  9
$DIMAUNIT
 70
               0
  9
$LUNITS
 70
               2
  9
$LUPREC
 70
               4
  9
$SKETCHINC
 40
0.1
  9
$FILLETRAD
 40
0.0
  9
$AUNITS
 70
               0
  9
$AUPREC
 70
               0
  9
$MENU
  1
acad
  9
$ELEVATION
 40
0.0
  9
$PELEVATION
 40
0.0
  9
$THICKNESS
 40
0.0
  9
$LIMCHECK
 70
               0
  9
$BLIPMODE
 70
               0
  9
$CHAMFERA
 40
0.0
  9
$CHAMFERB
 40
0.0
  9
$CHAMFERC
 40
0.0
  9
$CHAMFERD
 40
0.0
  9
$SKPOLY
 70
               0
  9
$TDCREATE
 40
2458068.595543982
  9
$TDUPDATE
 40
2458068.595543982
  9
$TDINDWG
 40
0.0000000000
  9
$TDUSRTIMER
 40
0.0000000000
  9
$USRTIMER
 70
               1
  9
$ANGBASE
 50
0.0
  9
$ANGDIR
 70
               0
  9
$PDMODE
 70
               1
  9
$PDSIZE
 40
-2.0
  9
$PLINEWID
 40
0.0
  9
$COORDS
 70
               0
  9
$SPLFRAME
 70
               0
  9
$SPLINETYPE
 70
               6
  9
$SPLINESEGS
 70
               8
  9
$ATTDIA
 70
               0
  9
$ATTREQ
 70
               1
  9
$HANDLING
 70
               1
  9
$HANDSEED
  5
523
  9
$SURFTAB1
 70
               6
  9
$SURFTAB2
 70
               6
  9
$SURFTYPE
 70
               6
  9
$SURFU
 70
               6
  9
$SURFV
 70
               6
  9
$UCSNAME
  2

  9
$UCSORG
 10
0.0
 20
0.0
 30
0.0
  9
$UCSXDIR
 10
1.0
 20
0.0
 30
0.0
  9
$UCSYDIR
 10
0.0
 20
1.0
 30
0.0
  9
$PUCSNAME
  2

  9
$PUCSORG
 10
0.0
 20
0.0
 30
0.0
  9
$PUCSXDIR
 10
1.0
 20
0.0
 30
0.0
  9
$PUCSYDIR
 10
0.0
 20
1.0
 30
0.0
  9
$USERI1
 70
               0
  9
$USERI2
 70
               0
  9
$USERI3
 70
               0
  9
$USERI4
 70
               0
  9
$USERI5
 70
               0
  9
$USERR1
 40
0.0
  9
$USERR2
 40
0.0
  9
$USERR3
 40
0.0
  9
$USERR4
 40
0.0
  9
$USERR5
 40
0.0
  9
$WORLDVIEW
 70
               1
  9
$SHADEDGE
 70
               3
  9
$SHADEDIF
 70
              70
  9
$TILEMODE
 70
               1
  9
$MAXACTVP
 70
              16
  9
$PINSBASE
 10
0.0
 20
0.0
 30
0.0
  9
$PLIMCHECK
 70
               0
  9
$PEXTMIN
 10
1.0000000000000000E+20
 20
1.0000000000000000E+20
 30
1.0000000000000000E+20
  9
$PEXTMAX
 10
-1.0000000000000000E+20
 20
-1.0000000000000000E+20
 30
-1.0000000000000000E+20
  9
$PLIMMIN
 10
0.0
 20
0.0
  9
$PLIMMAX
 10
12.0
 20
9.0
  9
$UNITMODE
 70
               0
  9
$VISRETAIN
 70
               0
  9
$PLINEGEN
 70
               1
  9
$PSLTSCALE
 70
               0
  9
$TREEDEPTH
 70
            3020
  9
$PICKSTYLE
 70
               1
  9
$CMLSTYLE
  2
STANDARD
  9
$CMLJUST
 70
               0
  9
$CMLSCALE
 40
1.0
  9
$PROXYGRAPHICS
 70
               0
  9
$MEASUREMENT
 70
               1
  0
ENDSEC
  0
SECTION
  2
CLASSES
  0
CLASS
  1
LWPOLYLINE
  2
AcDbPolyline
  3
"AutoCAD"
 90
        0
280
               0
281
               1
  0
CLASS
  1
IMAGE
  2
AcDbRasterImage
  3
ISM
 90
      127
280
               0
281
               1
  0
CLASS
  1
OLE2FRAME
  2
AcDbOle2Frame
  3
""
 90
        0
280
               0
281
               1
  0
CLASS
  1
HATCH
  2
AcDbHatch
  3
"ACAD_SEDONA"
 90
        0
280
               0
281
               1
  0
CLASS
  1
DICTIONARYVAR
  2
AcDbDictionaryVar
  3
"AutoCAD"
 90
        0
280
               0
281
               0
  0
CLASS
  1
RASTERVARIABLES
  2
AcDbRasterVariables
  3
ISM
 90
        0
280
               0
281
               0
  0
CLASS
  1
IMAGEDEF
  2
AcDbRasterImageDef
  3
ISM
 90
        0
280
               0
281
               0
  0
CLASS
  1
IMAGEDEF_REACTOR
  2
AcDbRasterImageDefReactor
  3
ISM
 90
        1
280
               0
281
               0
  0
CLASS
  1
IDBUFFER
  2
AcDbIdBuffer
  3
"Acad"
 90
        0
280
               0
281
               0
  0
CLASS
  1
SPATIAL_FILTER
  2
AcDbSpatialFilter
  3
"Acad"
 90
        0
280
               0
281
               0
  0
CLASS
  1
XRECORD
  2
AcDbXrecord
  3
"<Built In>"
 90
        0
280
               0
281
               0
  0
CLASS
  1
SORTENTSTABLE
  2
AcDbSortentsTable
  3
"AutoCAD"
 90
        0
280
               0
281
               0
  0
CLASS
  1
LAYER_INDEX
  2
AcDbLayerIndex
  3
"Acad"
 90
        0
280
               0
281
               0
  0
CLASS
  1
SPATIAL_INDEX
  2
AcDbSpatialIndex
  3
"Acad"
 90
        0
280
               0
281
               0
  0
CLASS
  1
OBJECT_PTR
  2
CAseDLPNTableRecord
  3
"ASE-LPNTableRecord"
 90
        1
280
               0
281
               0
  0
CLASS
  1
LAYOUT
  2
AcDbLayout
  3
"AutoCAD 2000"
 90
        1
280
               0
281
               0
  0
CLASS
  1
PLOTSETTINGS
  2
AcDbPlotSettings
  3
"AutoCAD 2000"
 90
        1
280
               0
281
               0
  0
CLASS
  1
ACDBDICTIONARYWDFLT
  2
AcDbDictionaryWithDefault
  3
"AutoCAD 2000"
 90
        1
280
               0
281
               0
  0
CLASS
  1
ACDBPLACEHOLDER
  2
AcDbPlaceHolder
  3
"AutoCAD 2000"
 90
        1
280
               0
281
               0
  0
ENDSEC
  0
SECTION
  2
TABLES
  0
TABLE
  2
VPORT
  5
7
100
AcDbSymbolTable
 70
               1
  0
VPORT
  5
15
100
AcDbSymbolTableRecord
100
AcDbViewportTableRecord
  2
*ACTIVE
 70
               0
 10
0.0
 20
0.0
 11
1.0
 21
1.0
 12
280.53910367122819
 22
74.766666666666666
 13
0.0
 23
0.0
 14
1.0
 24
1.0
 15
0.0
 25
0.0
 16
0.0
 26
0.0
 36
1.0
 17
0.0
 27
0.0
 37
0.0
 40
8.4666666666666686
 41
0.688564
 42
50.0
 43
0.0
 44
0.0
 50
0.0
 51
0.0
 71
               0
 72
             100
 73
               1
 74
               1
 75
               0
 76
               0
 77
               0
 78
               0
  0
ENDTAB
  0
TABLE
  2
LTYPE
  5
4
100
AcDbSymbolTable
 70
              13
  0
LTYPE
  5
11
100
AcDbSymbolTableRecord
100
AcDbLinetypeTableRecord
  2
BYBLOCK
 70
              64
  3

 72
              65
 73
               0
 40
0.0
  0
LTYPE
  5
12
100
AcDbSymbolTableRecord
100
AcDbLinetypeTableRecord
  2
BYLAYER
 70
              64
  3

 72
              65
 73
               0
 40
0.0
  0
LTYPE
  5
13
100
AcDbSymbolTableRecord
100
AcDbLinetypeTableRecord
  2
CONTINUOUS
 70
              64
  3
Solid line
 72
              65
 73
               0
 40
0.0
  0
LTYPE
  5
1F
100
AcDbSymbolTableRecord
100
AcDbLinetypeTableRecord
  2
STYLE_01
 70
               0
  3

 72
              65
 73
               2
 40
0.15
 49
0.1
 74
               0
 49
-0.05
 74
               0
  0
LTYPE
  5
20
100
AcDbSymbolTableRecord
100
AcDbLinetypeTableRecord
  2
STYLE_02
 70
               0
  3

 72
              65
 73
               6
 40
0.9999999999999999
 49
0.4999999999999999
 74
               0
 49
-0.1
 74
               0
 49
0.1
 74
               0
 49
-0.1
 74
               0
 49
0.1
 74
               0
 49
-0.1
 74
               0
  0
LTYPE
  5
21
100
AcDbSymbolTableRecord
100
AcDbLinetypeTableRecord
  2
STYLE_03
 70
               0
  3

 72
              65
 73
               4
 40
0.7999999999999999
 49
0.4999999999999999
 74
               0
 49
-0.1
 74
               0
 49
0.1
 74
               0
 49
-0.1
 74
               0
  0
LTYPE
  5
22
100
AcDbSymbolTableRecord
100
AcDbLinetypeTableRecord
  2
STYLE_04
 70
               0
  3

 72
              65
 73
               4
 40
1.5999999999999999
 49
0.9999999999999999
 74
               0
 49
-0.2000000000000001
 74
               0
 49
0.2
 74
               0
 49
-0.2
 74
               0
  0
LTYPE
  5
23
100
AcDbSymbolTableRecord
100
AcDbLinetypeTableRecord
  2
STYLE_05
 70
               0
  3

 72
              65
 73
               2
 40
0.05
 49
0.0002
 74
               0
 49
-0.0498
 74
               0
  0
LTYPE
  5
24
100
AcDbSymbolTableRecord
100
AcDbLinetypeTableRecord
  2
STYLE_06
 70
               0
  3

 72
              65
 73
               4
 40
0.416656
 49
0.25
 74
               0
 49
-0.083312
 74
               0
 49
0.027772
 74
               0
 49
-0.055572
 74
               0
  0
LTYPE
  5
25
100
AcDbSymbolTableRecord
100
AcDbLinetypeTableRecord
  2
STYLE_07
 70
               0
  3

 72
              65
 73
               6
 40
0.75
 49
0.25
 74
               0
 49
-0.083312
 74
               0
 49
0.2500000000000001
 74
               0
 49
-0.083344
 74
               0
 49
0.027772
 74
               0
 49
-0.055572
 74
               0
  0
LTYPE
  5
26
100
AcDbSymbolTableRecord
100
AcDbLinetypeTableRecord
  2
STYLE_08
 70
               0
  3

 72
              65
 73
               6
 40
0.5
 49
0.25
 74
               0
 49
-0.083312
 74
               0
 49
0.027772
 74
               0
 49
-0.055572
 74
               0
 49
0.027772
 74
               0
 49
-0.055572
 74
               0
  0
LTYPE
  5
27
100
AcDbSymbolTableRecord
100
AcDbLinetypeTableRecord
  2
STYLE_09
 70
               0
  3

 72
              65
 73
               4
 40
2.0
 49
1.5
 74
               0
 49
-0.1111139999999999
 74
               0
 49
0.2777720000000001
 74
               0
 49
-0.1111139999999999
 74
               0
  0
LTYPE
  5
28
100
AcDbSymbolTableRecord
100
AcDbLinetypeTableRecord
  2
STYLE_10
 70
               0
  3

 72
              65
 73
               6
 40
2.375
 49
1.5
 74
               0
 49
-0.1111139999999999
 74
               0
 49
0.2777720000000001
 74
               0
 49
-0.1111139999999999
 74
               0
 49
0.25
 74
               0
 49
-0.125
 74
               0
  0
ENDTAB
  0
TABLE
  2
LAYER
  5
2
100
AcDbSymbolTable
 70
               6
  0
LAYER
  5
14
100
AcDbSymbolTableRecord
100
AcDbLayerTableRecord
  2
0
 70
               0
 62
               7
  6
CONTINUOUS
  0
LAYER
  5
29
100
AcDbSymbolTableRecord
100
AcDbLayerTableRecord
  2
DEFPOINTS
 70
               0
 62
               7
  6
CONTINUOUS
  0
LAYER
  5
2A
100
AcDbSymbolTableRecord
100
AcDbLayerTableRecord
  2
__
 70
               0
 62
               7
  6
CONTINUOUS
  0
LAYER
  5
2B
100
AcDbSymbolTableRecord
100
AcDbLayerTableRecord
  2
__-1
 70
               0
 62
               7
  6
CONTINUOUS
  0
LAYER
  5
2C
100
AcDbSymbolTableRecord
100
AcDbLayerTableRecord
  2
_____1
 70
               0
 62
              19
  6
CONTINUOUS
  0
LAYER
  5
2D
100
AcDbSymbolTableRecord
100
AcDbLayerTableRecord
  2
FORMAT
 70
               0
 62
               7
  6
CONTINUOUS
  0
ENDTAB
  0
TABLE
  2
STYLE
  5
3
100
AcDbSymbolTable
 70
               2
  0
STYLE
  5
17
100
AcDbSymbolTableRecord
100
AcDbTextStyleTableRecord
  2
STANDARD
 70
               0
 40
0.0
 41
1.0
 50
0.0
 71
               0
 42
0.0
  3
txt
  4
BIGFONT.SHX
  0
STYLE
  5
1E
100
AcDbSymbolTableRecord
100
AcDbTextStyleTableRecord
  2
________
 70
               0
 40
0.0
 41
1.0
 50
0.0
 71
               0
 42
0.0
  3
ＭＳ Ｐゴシック
  4

1001
ACAD
1000
ＭＳ Ｐゴシック
1071
        0
  0
ENDTAB
  0
TABLE
  2
VIEW
  5
5
100
AcDbSymbolTable
 70
               0
  0
ENDTAB
  0
TABLE
  2
UCS
  5
6
100
AcDbSymbolTable
 70
               0
  0
ENDTAB
  0
TABLE
  2
APPID
  5
8
100
AcDbSymbolTable
 70
               1
  0
APPID
  5
16
100
AcDbSymbolTableRecord
100
AcDbRegAppTableRecord
  2
ACAD
 70
               0
  0
ENDTAB
  0
TABLE
  2
DIMSTYLE
  5
9
100
AcDbSymbolTable
 70
               1
  0
DIMSTYLE
105
18
100
AcDbSymbolTableRecord
100
AcDbDimStyleTableRecord
  2
STANDARD
 70
               0
  3

  4

  5

  6

  7

 40
1.0
 41
0.18
 42
0.0625
 43
0.38
 44
0.18
 45
0.0
 46
0.0
 47
0.0
 48
0.0
 71
               0
 72
               0
 73
               1
 74
               1
 75
               0
 76
               0
 77
               0
 78
               0
140
0.18
141
0.09
142
0.0
143
25.399999999999999
144
1.0
145
0.0
146
1.0
147
0.09
170
               0
171
               2
172
               0
173
               0
174
               0
175
               0
176
               0
177
               0
178
               0
270
               2
271
               4
272
               4
273
               2
274
               2
275
               0
280
               0
281
               0
282
               0
283
               1
284
               0
285
               0
286
               0
287
               0
288
               0
340
17
  0
ENDTAB
  0
TABLE
  2
BLOCK_RECORD
  5
1
100
AcDbSymbolTable
 70
               1
  0
BLOCK_RECORD
  5
A
100
AcDbSymbolTableRecord
100
AcDbBlockTableRecord
  2
*MODEL_SPACE
  0
BLOCK_RECORD
  5
B
100
AcDbSymbolTableRecord
100
AcDbBlockTableRecord
  2
*PAPER_SPACE
  0
BLOCK_RECORD
  5
1D
100
AcDbSymbolTableRecord
100
AcDbBlockTableRecord
  2
*U0
  0
ENDTAB
  0
ENDSEC
  0
SECTION
  2
BLOCKS
  0
BLOCK
  5
D
100
AcDbEntity
  8
0
100
AcDbBlockBegin
  2
*MODEL_SPACE
 70
               0
 10
0.0
 20
0.0
 30
0.0
  3
*MODEL_SPACE
  1

  0
ENDBLK
  5
E
100
AcDbEntity
  8
0
100
AcDbBlockEnd
  0
BLOCK
  5
F
100
AcDbEntity
 67
               1
  8
0
100
AcDbBlockBegin
  2
*PAPER_SPACE
 70
               0
 10
0.0
 20
0.0
 30
0.0
  3
*PAPER_SPACE
  1

  0
ENDBLK
  5
10
100
AcDbEntity
 67
               1
  8
0
100
AcDbBlockEnd
  0
BLOCK
  5
2E
100
AcDbEntity
  8
__
100
AcDbBlockBegin
  2
*U0
 70
               1
 10
0.0
 20
0.0
 30
0.0
  3
*U0
  1

  0
LINE
  5
2F
100
AcDbEntity
  8
0
  6
CONTINUOUS
 62
               6
100
AcDbLine
 10
4.4323059061792378
 20
3.6115160646249507
 30
0.0
 11
4.5597016226792562
 21
3.5672694843249388
 31
0.0
  0
LINE
  5
30
100
AcDbEntity
  8
0
  6
CONTINUOUS
 62
               6
100
AcDbLine
 10
7.1843493007792461
 20
11.124467450224941
 30
0.0
 11
7.0569554391792622
 21
11.168708553724954
 31
0.0
  0
LINE
  5
31
100
AcDbEntity
  8
0
  6
CONTINUOUS
 62
               6
100
AcDbLine
 10
6.5281597716792419
 20
8.184624836324943
 30
0.0
 11
7.0165075382792566
 21
8.0150213820249547
 31
0.0
  0
LINE
  5
32
100
AcDbEntity
  8
0
  6
CONTINUOUS
 62
               6
100
AcDbLine
 10
5.4494475250792505
 20
6.4259949969249561
 30
0.0
 11
4.9611015736792581
 21
6.5955997820249337
 31
0.0
  0
LINE
  5
33
100
AcDbEntity
  8
0
  6
CONTINUOUS
 62
               6
100
AcDbLine
 10
-51.529682317320749
 20
16.029272976124943
 30
0.0
 11
-51.402286600820759
 21
15.985026395724944
 31
0.0
  0
LINE
  5
34
100
AcDbEntity
  8
0
  6
CONTINUOUS
 62
               6
100
AcDbLine
 10
-48.77763892272074
 20
23.542224361624946
 30
0.0
 11
-48.905032784320753
 21
23.586465465224947
 31
0.0
  0
LINE
  5
35
100
AcDbEntity
  8
0
  6
CONTINUOUS
 62
               6
100
AcDbLine
 10
-49.433828451820744
 20
20.602381747824936
 30
0.0
 11
-48.945480685220758
 21
20.43277829342496
 31
0.0
  0
LINE
  5
36
100
AcDbEntity
  8
0
  6
CONTINUOUS
 62
               6
100
AcDbLine
 10
-50.512540698420764
 20
18.843751908324933
 30
0.0
 11
-51.000886649820757
 21
19.013356693424939
 31
0.0
  0
LINE
  5
37
100
AcDbEntity
  8
0
  6
CONTINUOUS
 62
               6
100
AcDbLine
 10
-10.282633158820744
 20
63.649752433324934
 30
0.0
 11
-10.155237935720749
 21
63.60551232782494
 31
0.0
  0
LINE
  5
38
100
AcDbEntity
  8
0
  6
CONTINUOUS
 62
               6
100
AcDbLine
 10
-7.5305904323207642
 20
71.162704833924934
 30
0.0
 11
-7.6579852808207534
 21
71.206958887224957
 31
0.0
  0
LINE
  5
39
100
AcDbEntity
  8
0
  6
CONTINUOUS
 62
               6
100
AcDbLine
 10
-8.186779667020744
 20
68.222868520124948
 30
0.0
 11
-7.6984323145207441
 21
68.05325792552496
 31
0.0
  0
LINE
  5
3A
100
AcDbEntity
  8
0
  6
CONTINUOUS
 62
               6
100
AcDbLine
 10
-9.2654914201207532
 20
66.464232205824956
 30
0.0
 11
-9.7538387726207532
 21
66.633842800424944
 31
0.0
  0
SPLINE
  5
3B
100
AcDbEntity
  8
0
  6
CONTINUOUS
 62
               6
100
AcDbSpline
210
0.0
220
0.0
230
1.0
 70
               8
 71
               2
 72
              17
 73
              14
 74
               0
 42
0.000001
 43
0.000001
 40
0.0
 40
0.0
 40
0.0
 40
1.0
 40
1.0
 40
2.0
 40
3.0
 40
4.0
 40
5.0
 40
6.0
 40
7.0
 40
8.0
 40
9.0
 40
9.0
 40
10.0
 40
10.0
 40
10.0
 10
28.501576426226137
 20
-24.375104774870763
 30
0.0
 10
28.503418242199331
 20
-24.365125337633259
 30
0.0
 10
28.505260058172524
 20
-24.355145900395755
 30
0.0
 10
28.554149600448426
 20
-24.095607124431709
 30
0.0
 10
28.688098158546779
 20
-23.251845554750574
 30
0.0
 10
28.655583827894048
 20
-22.254459616998687
 30
0.0
 10
28.512647860627823
 20
-21.486351741490736
 30
0.0
 10
28.150476025552763
 20
-20.527927563289794
 30
0.0
 10
27.545388380683619
 20
-19.876400193310829
 30
0.0
 10
27.238829762176266
 20
-19.646744278783885
 30
0.0
 10
26.929657481361659
 20
-19.487917097509111
 30
0.0
 10
26.738713315243047
 20
-19.409802038779489
 30
0.0
 10
26.733712318333048
 20
-19.407707017920416
 30
0.0
 10
26.728711321423049
 20
-19.405611997061342
 30
0.0
  0
SPLINE
  5
3C
100
AcDbEntity
  8
0
  6
CONTINUOUS
 62
               6
100
AcDbSpline
210
0.0
220
0.0
230
1.0
 70
               8
 71
               2
 72
              16
 73
              13
 74
               0
 42
0.000001
 43
0.000001
 40
0.0
 40
0.0
 40
0.0
 40
1.0
 40
1.0
 40
2.0
 40
3.0
 40
4.0
 40
5.0
 40
6.0
 40
7.0
 40
8.0
 40
8.0
 40
9.0
 40
9.0
 40
9.0
 10
24.768030377109341
 20
-28.135968829287052
 30
0.0
 10
24.768761216943588
 20
-28.136106008069433
 30
0.0
 10
24.769492056777835
 20
-28.136243186851814
 30
0.0
 10
25.04212569070657
 20
-28.186664333317239
 30
0.0
 10
25.656215115756936
 20
-28.069830837134205
 30
0.0
 10
26.193733241005788
 20
-27.860083987337859
 30
0.0
 10
26.886403368849557
 20
-27.439385373686562
 30
0.0
 10
27.563362325671363
 20
-26.654254568623699
 30
0.0
 10
28.107758540562315
 20
-25.700938262193361
 30
0.0
 10
28.404619599422148
 20
-24.756532478476927
 30
0.0
 10
28.496640580784998
 20
-24.394129432777291
 30
0.0
 10
28.499108503505568
 20
-24.384617103824027
 30
0.0
 10
28.501576426226137
 20
-24.375104774870763
 30
0.0
  0
LINE
  5
3D
100
AcDbEntity
  8
0
  6
CONTINUOUS
 62
               6
100
AcDbLine
 10
-0.7442250883207464
 20
75.896780467324945
 30
0.0
 11
-1.8058494353207379
 21
76.265486316124949
 31
0.0
  0
LINE
  5
3E
100
AcDbEntity
  8
0
  6
CONTINUOUS
 62
               6
100
AcDbLine
 10
-32.973541150820751
 20
-13.476226167575064
 30
0.0
 11
-31.911918165220754
 21
-13.844933014475046
 31
0.0
  0
LINE
  5
3F
100
AcDbEntity
  8
0
  6
CONTINUOUS
 62
               6
100
AcDbLine
 10
-24.039309067620763
 20
9.8857160921249516
 30
0.0
 11
-23.954379800120762
 21
9.8562174847249509
 31
0.0
  0
LINE
  5
40
100
AcDbEntity
  8
0
  6
CONTINUOUS
 62
               6
100
AcDbLine
 10
-9.1907354590207433
 20
52.365445775424959
 30
0.0
 11
-9.2756656341207417
 21
52.394943717424937
 31
0.0
  0
LINE
  5
41
100
AcDbEntity
  8
0
  6
CONTINUOUS
 62
               6
100
AcDbLine
 10
35.062565881979253
 20
43.347645107224949
 30
0.0
 11
25.087470256479236
 21
46.812042398724955
 31
0.0
  0
LINE
  5
42
100
AcDbEntity
  8
0
  6
CONTINUOUS
 62
               6
100
AcDbLine
 10
6.3868541349792451
 20
-7.0329887820750656
 30
0.0
 11
16.361950648379235
 21
-10.497382004475057
 31
0.0
  0
LINE
  5
43
100
AcDbEntity
  8
0
  6
CONTINUOUS
 62
               6
100
AcDbLine
 10
19.113518969679262
 20
-16.180838453575049
 30
0.0
 11
20.859986261679239
 21
-16.568373045775061
 31
0.0
  0
LINE
  5
44
100
AcDbEntity
  8
0
  6
CONTINUOUS
 62
               6
100
AcDbLine
 10
18.067880342779262
 20
-33.327462359175044
 30
0.0
 11
19.214808648879256
 21
-33.581961481775053
 31
0.0
  0
LINE
  5
45
100
AcDbEntity
  8
0
  6
CONTINUOUS
 62
               6
100
AcDbLine
 10
-29.086773949220742
 20
-22.864020068575044
 30
0.0
 11
-27.340305030820758
 21
-23.251555021775047
 31
0.0
  0
SPLINE
  5
46
100
AcDbEntity
  8
0
  6
CONTINUOUS
 62
               6
100
AcDbSpline
210
0.0
220
0.0
230
1.0
 70
               8
 71
               2
 72
              17
 73
              14
 74
               0
 42
0.000001
 43
0.000001
 40
0.0
 40
0.0
 40
0.0
 40
1.0
 40
1.0
 40
2.0
 40
3.0
 40
4.0
 40
5.0
 40
6.0
 40
7.0
 40
8.0
 40
9.0
 40
9.0
 40
10.0
 40
10.0
 40
10.0
 10
50.265319651980661
 20
7.8977442625078567
 30
0.0
 10
50.278877622369237
 20
7.939666158618607
 30
0.0
 10
50.292435592757812
 20
7.9815880547293574
 30
0.0
 10
51.176074457730152
 20
10.605457158845311
 30
0.0
 10
52.302309832798045
 20
17.63329800445122
 30
0.0
 10
51.419715175781135
 20
24.326838447478636
 30
0.0
 10
50.024115688699254
 20
28.909921768790113
 30
0.0
 10
47.107814875733624
 20
34.636183566030311
 30
0.0
 10
42.731327568285138
 20
39.092650533691781
 30
0.0
 10
38.798987237703813
 20
41.814157607363924
 30
0.0
 10
35.895107191038136
 20
43.071323018912537
 30
0.0
 10
35.229243188642926
 20
43.276675031508816
 30
0.0
 10
35.224086904511935
 20
43.278285849515825
 30
0.0
 10
35.218930620380945
 20
43.279896667522834
 30
0.0
  0
LINE
  5
47
100
AcDbEntity
  8
0
  6
CONTINUOUS
 62
               6
100
AcDbLine
 10
16.618570168679241
 20
-10.560932537375052
 30
0.0
 11
17.645253125279254
 21
-10.887333154875066
 31
0.0
  0
SPLINE
  5
48
100
AcDbEntity
  8
0
  6
CONTINUOUS
 62
               6
100
AcDbSpline
210
0.0
220
0.0
230
1.0
 70
               8
 71
               2
 72
              14
 73
              11
 74
               0
 42
0.000001
 43
0.000001
 40
0.0
 40
0.0
 40
0.0
 40
1.0
 40
1.0
 40
2.0
 40
3.0
 40
4.0
 40
5.0
 40
6.0
 40
6.0
 40
7.0
 40
7.0
 40
7.0
 10
32.944180291360937
 20
-10.224937434983147
 30
0.0
 10
32.952448870495289
 20
-10.222144450285541
 30
0.0
 10
32.960717449629641
 20
-10.219351465587934
 30
0.0
 10
34.056507206788154
 20
-9.8513702942867809
 30
0.0
 10
37.554523574692297
 20
-8.1751956388812772
 30
0.0
 10
41.543173350749925
 20
-5.2230818551550868
 30
0.0
 10
46.073886523895993
 20
-0.6417836514273319
 30
0.0
 10
49.377809032951035
 20
5.3750731128227898
 30
0.0
 10
50.254110282796631
 20
7.8664907818952798
 30
0.0
 10
50.259714967388646
 20
7.8821175222015682
 30
0.0
 10
50.265319651980661
 20
7.8977442625078567
 30
0.0
  0
LINE
  5
49
100
AcDbEntity
  8
0
  6
CONTINUOUS
 62
               6
100
AcDbLine
 10
27.09153604657925
 20
-13.306827892175065
 30
0.0
 11
25.345067128179238
 21
-12.919292939075049
 31
0.0
  0
LINE
  5
4A
100
AcDbEntity
  8
0
  6
CONTINUOUS
 62
               6
100
AcDbLine
 10
20.463880512279246
 20
-70.890917578475054
 30
0.0
 11
33.81507668177926
 21
-61.102972485975059
 31
0.0
  0
POLYLINE
  5
4B
100
AcDbEntity
  8
0
  6
CONTINUOUS
 62
               6
100
AcDb2dPolyline
 66
               1
 10
0.0
 20
0.0
 30
0.0
 75
               5
  0
VERTEX
  5
4C
100
AcDbEntity
  8
0
  6
CONTINUOUS
 62
               6
100
AcDbVertex
100
AcDb2dVertex
 10
6.1994105774792558
 20
3.5095308455249352
 30
0.0
  0
VERTEX
  5
4D
100
AcDbEntity
  8
0
  6
CONTINUOUS
 62
               6
100
AcDbVertex
100
AcDb2dVertex
 10
7.0460001910792585
 20
3.8066002064249602
 30
0.0
  0
VERTEX
  5
4E
100
AcDbEntity
  8
0
  6
CONTINUOUS
 62
               6
100
AcDbVertex
100
AcDb2dVertex
 10
7.8169572410792512
 20
4.3119204952249532
 30
0.0
  0
VERTEX
  5
4F
100
AcDbEntity
  8
0
  6
CONTINUOUS
 62
               6
100
AcDbVertex
100
AcDb2dVertex
 10
8.4674813351792579
 20
4.9961412703249408
 30
0.0
  0
VERTEX
  5
50
100
AcDbEntity
  8
0
  6
CONTINUOUS
 62
               6
100
AcDbVertex
100
AcDb2dVertex
 10
8.9597610945792496
 20
5.8194886159249535
 30
0.0
  0
VERTEX
  5
51
100
AcDbEntity
  8
0
  6
CONTINUOUS
 62
               6
100
AcDbVertex
100
AcDb2dVertex
 10
9.2651879029792497
 20
6.73411814362494
 30
0.0
  0
VERTEX
  5
52
100
AcDbEntity
  8
0
  6
CONTINUOUS
 62
               6
100
AcDbVertex
100
AcDb2dVertex
 10
9.3660146348792352
 20
7.6868695212249492
 30
0.0
  0
VERTEX
  5
53
100
AcDbEntity
  8
0
  6
CONTINUOUS
 62
               6
100
AcDbVertex
100
AcDb2dVertex
 10
9.2563815348792389
 20
8.622369808124958
 30
0.0
  0
VERTEX
  5
54
100
AcDbEntity
  8
0
  6
CONTINUOUS
 62
               6
100
AcDbVertex
100
AcDb2dVertex
 10
8.942653895579241
 20
9.4862585661249597
 30
0.0
  0
VERTEX
  5
55
100
AcDbEntity
  8
0
  6
CONTINUOUS
 62
               6
100
AcDbVertex
100
AcDb2dVertex
 10
8.4430703398792559
 20
10.22833064242495
 30
0.0
  0
VERTEX
  5
56
100
AcDbEntity
  8
0
  6
CONTINUOUS
 62
               6
100
AcDbVertex
100
AcDb2dVertex
 10
7.7866665690792445
 20
10.805450295724953
 30
0.0
  0
VERTEX
  5
57
100
AcDbEntity
  8
0
  6
CONTINUOUS
 62
               6
100
AcDbVertex
100
AcDb2dVertex
 10
7.011581921879241
 20
11.184089792724947
 30
0.0
  0
VERTEX
  5
58
100
AcDbEntity
  8
0
  6
CONTINUOUS
 62
               6
100
AcDbVertex
100
AcDb2dVertex
 10
6.162870872879239
 20
11.342230883224957
 30
0.0
  0
VERTEX
  5
59
100
AcDbEntity
  8
0
  6
CONTINUOUS
 62
               6
100
AcDbVertex
100
AcDb2dVertex
 10
5.2898523943792384
 20
11.270693411924938
 30
0.0
  0
VERTEX
  5
5A
100
AcDbEntity
  8
0
  6
CONTINUOUS
 62
               6
100
AcDbVertex
100
AcDb2dVertex
 10
4.4432643676792623
 20
10.973630497624939
 30
0.0
  0
VERTEX
  5
5B
100
AcDbEntity
  8
0
  6
CONTINUOUS
 62
               6
100
AcDbVertex
100
AcDb2dVertex
 10
3.672305730779243
 20
10.468303762224949
 30
0.0
  0
VERTEX
  5
5C
100
AcDbEntity
  8
0
  6
CONTINUOUS
 62
               6
100
AcDbVertex
100
AcDb2dVertex
 10
3.0217816366792363
 20
9.7840829872249486
 30
0.0
  0
VERTEX
  5
5D
100
AcDbEntity
  8
0
  6
CONTINUOUS
 62
               6
100
AcDbVertex
100
AcDb2dVertex
 10
2.5295035038792548
 20
8.9607352806249452
 30
0.0
  0
VERTEX
  5
5E
100
AcDbEntity
  8
0
  6
CONTINUOUS
 62
               6
100
AcDbVertex
100
AcDb2dVertex
 10
2.2240734423792503
 20
8.0461064748249527
 30
0.0
  0
VERTEX
  5
5F
100
AcDbEntity
  8
0
  6
CONTINUOUS
 62
               6
100
AcDbVertex
100
AcDb2dVertex
 10
2.1232466707792526
 20
7.0933619047249437
 30
0.0
  0
VERTEX
  5
60
100
AcDbEntity
  8
0
  6
CONTINUOUS
 62
               6
100
AcDbVertex
100
AcDb2dVertex
 10
2.2328814369792553
 20
6.1578544494249599
 30
0.0
  0
VERTEX
  5
61
100
AcDbEntity
  8
0
  6
CONTINUOUS
 62
               6
100
AcDbVertex
100
AcDb2dVertex
 10
2.546607449779259
 20
5.2939660522249454
 30
0.0
  0
VERTEX
  5
62
100
AcDbEntity
  8
0
  6
CONTINUOUS
 62
               6
100
AcDbVertex
100
AcDb2dVertex
 10
3.0461891902792502
 20
4.5518926452249531
 30
0.0
  0
VERTEX
  5
63
100
AcDbEntity
  8
0
  6
CONTINUOUS
 62
               6
100
AcDbVertex
100
AcDb2dVertex
 10
3.7025964027792497
 20
3.9747739617249493
 30
0.0
  0
VERTEX
  5
64
100
AcDbEntity
  8
0
  6
CONTINUOUS
 62
               6
100
AcDbVertex
100
AcDb2dVertex
 10
4.4776776081792491
 20
3.5961334949249562
 30
0.0
  0
VERTEX
  5
65
100
AcDbEntity
  8
0
  6
CONTINUOUS
 62
               6
100
AcDbVertex
100
AcDb2dVertex
 10
5.326390472479261
 20
3.4379937352249357
 30
0.0
  0
VERTEX
  5
66
100
AcDbEntity
  8
0
  6
CONTINUOUS
 62
               6
100
AcDbVertex
100
AcDb2dVertex
 10
6.1994105774792558
 20
3.5095308455249352
 30
0.0
  0
SEQEND
  5
67
100
AcDbEntity
  8
0
  6
CONTINUOUS
 62
               6
  0
ARC
  5
68
100
AcDbEntity
  8
0
  6
CONTINUOUS
 62
               6
100
AcDbCircle
 10
5.4763908126792558
 20
7.4381001627249503
 30
0.0
 40
4.0628101081883123
100
AcDbArc
 50
282.08230668039982
 51
65.140884927499911
  0
ARC
  5
69
100
AcDbEntity
  8
0
  6
CONTINUOUS
 62
               6
100
AcDbCircle
 10
5.6239977463792457
 20
6.6482202176249388
 30
0.0
 40
3.2595986961829095
100
AcDbArc
 50
250.94283231659969
 51
282.45140023969998
  0
LINE
  5
6A
100
AcDbEntity
  8
0
  6
CONTINUOUS
 62
               6
100
AcDbLine
 10
7.8261973171792363
 20
7.3058942722249611
 30
0.0
 11
7.7049224801792491
 21
8.3407124132249493
 31
0.0
  0
LINE
  5
6B
100
AcDbEntity
  8
0
  6
CONTINUOUS
 62
               6
100
AcDbLine
 10
7.7049224801792491
 20
8.3407124132249493
 30
0.0
 11
6.8815820587792587
 21
8.1642322650249497
 31
0.0
  0
ARC
  5
6C
100
AcDbEntity
  8
0
  6
CONTINUOUS
 62
               6
100
AcDbCircle
 10
6.7502757605792567
 20
8.8311061149249355
 30
0.0
 40
0.679677920534021
100
AcDbArc
 50
183.77785823400086
 51
281.13894943090065
  0
LINE
  5
6D
100
AcDbEntity
  8
0
  6
CONTINUOUS
 62
               6
100
AcDbLine
 10
6.0720747766792442
 20
8.7863232933249407
 30
0.0
 11
5.9678523816792506
 21
9.6756241017249494
 31
0.0
  0
LINE
  5
6E
100
AcDbEntity
  8
0
  6
CONTINUOUS
 62
               6
100
AcDbLine
 10
5.9678523816792506
 20
9.6756241017249494
 30
0.0
 11
5.0097835475792465
 21
9.4702528500249485
 31
0.0
  0
LINE
  5
6F
100
AcDbEntity
  8
0
  6
CONTINUOUS
 62
               6
100
AcDbLine
 10
5.0097835475792465
 20
9.4702528500249485
 30
0.0
 11
5.1140026894792356
 21
8.5809527634249463
 31
0.0
  0
ARC
  5
70
100
AcDbEntity
  8
0
  6
CONTINUOUS
 62
               6
100
AcDbCircle
 10
4.2730016524792518
 20
8.4716078001249429
 30
0.0
 40
0.8480796338627059
100
AcDbArc
 50
284.57413515920035
 51
7.4079055743998756
  0
LINE
  5
71
100
AcDbEntity
  8
0
  6
CONTINUOUS
 62
               6
100
AcDbLine
 10
4.4864060363792362
 20
7.650816941124944
 30
0.0
 11
3.6630656546792579
 21
7.4743299852249407
 31
0.0
  0
LINE
  5
72
100
AcDbEntity
  8
0
  6
CONTINUOUS
 62
               6
100
AcDbLine
 10
3.6630656546792579
 20
7.4743299852249407
 30
0.0
 11
3.7843386764792513
 21
6.4395105134249349
 31
0.0
  0
LINE
  5
73
100
AcDbEntity
  8
0
  6
CONTINUOUS
 62
               6
100
AcDbLine
 10
3.7843386764792513
 20
6.4395105134249349
 30
0.0
 11
4.6076809130792356
 21
6.6159919924249522
 31
0.0
  0
ARC
  5
74
100
AcDbEntity
  8
0
  6
CONTINUOUS
 62
               6
100
AcDbCircle
 10
4.7389909637792584
 20
5.9491212783249381
 30
0.0
 40
0.6796755687792827
100
AcDbArc
 50
3.7775759151000523
 51
101.13931087210003
  0
LINE
  5
75
100
AcDbEntity
  8
0
  6
CONTINUOUS
 62
               6
100
AcDbLine
 10
5.4171898216792442
 20
5.993900603224958
 30
0.0
 11
5.5214089636792494
 21
5.1046005166249557
 31
0.0
  0
LINE
  5
76
100
AcDbEntity
  8
0
  6
CONTINUOUS
 62
               6
100
AcDbLine
 10
5.5214089636792494
 20
5.1046005166249557
 30
0.0
 11
6.4794794242792477
 21
5.3099714074249533
 31
0.0
  0
LINE
  5
77
100
AcDbEntity
  8
0
  6
CONTINUOUS
 62
               6
100
AcDbLine
 10
6.4794794242792477
 20
5.3099714074249533
 30
0.0
 11
6.3752602823792586
 21
6.1992714940249556
 31
0.0
  0
ARC
  5
78
100
AcDbEntity
  8
0
  6
CONTINUOUS
 62
               6
100
AcDbCircle
 10
7.2162638556792444
 20
6.3086147460249578
 30
0.0
 40
0.8480819282737929
100
AcDbArc
 50
104.57427189879962
 51
187.4077688347997
  0
LINE
  5
79
100
AcDbEntity
  8
0
  6
CONTINUOUS
 62
               6
100
AcDbLine
 10
7.002856935479258
 20
7.1294073164249454
 30
0.0
 11
7.8261973171792363
 21
7.3058942722249611
 31
0.0
  0
LINE
  5
7A
100
AcDbEntity
  8
0
  6
CONTINUOUS
 62
               6
100
AcDbLine
 10
7.7362773035792429
 20
8.0731546369249401
 30
0.0
 11
7.3699280102792386
 21
7.9946274799249437
 31
0.0
  0
LINE
  5
7B
100
AcDbEntity
  8
0
  6
CONTINUOUS
 62
               6
100
AcDbLine
 10
6.8815820587792587
 20
8.1642322650249497
 30
0.0
 11
7.3699280102792386
 21
7.9946274799249437
 31
0.0
  0
ARC
  5
7C
100
AcDbEntity
  8
0
  6
CONTINUOUS
 62
               6
100
AcDbCircle
 10
7.2294767023792588
 20
8.6331812507249452
 30
0.0
 40
0.6538176260418382
100
AcDbArc
 50
250.99008585269914
 51
282.40480630020096
  0
LINE
  5
7D
100
AcDbEntity
  8
0
  6
CONTINUOUS
 62
               6
100
AcDbLine
 10
5.9055375883792465
 20
5.8242971489249413
 30
0.0
 11
5.9783976347792418
 21
5.2025635873249456
 31
0.0
  0
ARC
  5
7E
100
AcDbEntity
  8
0
  6
CONTINUOUS
 62
               6
100
AcDbCircle
 10
5.2019136107792576
 20
5.7646547861249502
 30
0.0
 40
0.7061472319770566
100
AcDbArc
 50
4.8450685627000647
 51
69.47956037410124
  0
LINE
  5
7F
100
AcDbEntity
  8
0
  6
CONTINUOUS
 62
               6
100
AcDbLine
 10
4.1514116060792503
 20
7.3047252001249348
 30
0.0
 11
4.241330828979244
 21
6.5374677464249515
 31
0.0
  0
LINE
  5
80
100
AcDbEntity
  8
0
  6
CONTINUOUS
 62
               6
100
AcDbLine
 10
4.9747538030792384
 20
7.4812134867249398
 30
0.0
 11
4.1514116060792503
 21
7.3047252001249348
 31
0.0
  0
ARC
  5
81
100
AcDbEntity
  8
0
  6
CONTINUOUS
 62
               6
100
AcDbCircle
 10
4.7613487442792461
 20
8.3020048011249372
 30
0.0
 40
0.8480802443260861
100
AcDbArc
 50
284.57417154089927
 51
7.4078691927002183
  0
LINE
  5
82
100
AcDbEntity
  8
0
  6
CONTINUOUS
 62
               6
100
AcDbLine
 10
5.4981313141792612
 20
9.3006493957249603
 30
0.0
 11
5.6023504561792379
 21
8.411349309124958
 31
0.0
  0
LINE
  5
83
100
AcDbEntity
  8
0
  6
CONTINUOUS
 62
               6
100
AcDbLine
 10
5.9992086825792512
 20
9.4080574652249567
 30
0.0
 11
5.4981313141792612
 21
9.3006493957249603
 31
0.0
  0
LINE
  5
84
100
AcDbEntity
  8
0
  6
CONTINUOUS
 62
               6
100
AcDbLine
 10
5.9055375883792465
 20
5.8242971489249413
 30
0.0
 11
5.4171898216792442
 21
5.993900603224958
 31
0.0
  0
LINE
  5
85
100
AcDbEntity
  8
0
  6
CONTINUOUS
 62
               6
100
AcDbLine
 10
5.4981313141792612
 20
9.3006493957249603
 30
0.0
 11
5.0097835475792465
 21
9.4702528500249485
 31
0.0
  0
LINE
  5
86
100
AcDbEntity
  8
0
  6
CONTINUOUS
 62
               6
100
AcDbLine
 10
4.9747538030792384
 20
7.4812134867249398
 30
0.0
 11
4.4864060363792362
 21
7.650816941124944
 31
0.0
  0
LINE
  5
87
100
AcDbEntity
  8
0
  6
CONTINUOUS
 62
               6
100
AcDbLine
 10
5.1140026894792356
 20
8.5809527634249463
 30
0.0
 11
5.6023504561792379
 21
8.411349309124958
 31
0.0
  0
LINE
  5
88
100
AcDbEntity
  8
0
  6
CONTINUOUS
 62
               6
100
AcDbLine
 10
4.1514116060792503
 20
7.3047252001249348
 30
0.0
 11
3.6630656546792579
 21
7.4743299852249407
 31
0.0
  0
POLYLINE
  5
89
100
AcDbEntity
  8
0
  6
CONTINUOUS
 62
               6
100
AcDb2dPolyline
 66
               1
 10
0.0
 20
0.0
 30
0.0
 75
               5
  0
VERTEX
  5
8A
100
AcDbEntity
  8
0
  6
CONTINUOUS
 62
               6
100
AcDbVertex
100
AcDb2dVertex
 10
-49.762579272620741
 20
15.927288117824943
 30
0.0
  0
VERTEX
  5
8B
100
AcDbEntity
  8
0
  6
CONTINUOUS
 62
               6
100
AcDbVertex
100
AcDb2dVertex
 10
-48.915991285420745
 20
16.224357839724959
 30
0.0
  0
VERTEX
  5
8C
100
AcDbEntity
  8
0
  6
CONTINUOUS
 62
               6
100
AcDbVertex
100
AcDb2dVertex
 10
-48.145032608920758
 20
16.729677767624949
 30
0.0
  0
VERTEX
  5
8D
100
AcDbEntity
  8
0
  6
CONTINUOUS
 62
               6
100
AcDbVertex
100
AcDb2dVertex
 10
-47.494508514920739
 20
17.413898542624949
 30
0.0
  0
VERTEX
  5
8E
100
AcDbEntity
  8
0
  6
CONTINUOUS
 62
               6
100
AcDbVertex
100
AcDb2dVertex
 10
-47.002230382020741
 20
18.237246249224953
 30
0.0
  0
VERTEX
  5
8F
100
AcDbEntity
  8
0
  6
CONTINUOUS
 62
               6
100
AcDbVertex
100
AcDb2dVertex
 10
-46.696800320520737
 20
19.151875055024945
 30
0.0
  0
VERTEX
  5
90
100
AcDbEntity
  8
0
  6
CONTINUOUS
 62
               6
100
AcDbVertex
100
AcDb2dVertex
 10
-46.595973588620751
 20
20.104626432624954
 30
0.0
  0
VERTEX
  5
91
100
AcDbEntity
  8
0
  6
CONTINUOUS
 62
               6
100
AcDbVertex
100
AcDb2dVertex
 10
-46.705608315120742
 20
21.040127080424938
 30
0.0
  0
VERTEX
  5
92
100
AcDbEntity
  8
0
  6
CONTINUOUS
 62
               6
100
AcDbVertex
100
AcDb2dVertex
 10
-47.019334327920745
 20
21.904015477524936
 30
0.0
  0
VERTEX
  5
93
100
AcDbEntity
  8
0
  6
CONTINUOUS
 62
               6
100
AcDbVertex
100
AcDb2dVertex
 10
-47.518917883620759
 20
22.646087553824955
 30
0.0
  0
VERTEX
  5
94
100
AcDbEntity
  8
0
  6
CONTINUOUS
 62
               6
100
AcDbVertex
100
AcDb2dVertex
 10
-48.175323281020752
 20
23.223207568024961
 30
0.0
  0
VERTEX
  5
95
100
AcDbEntity
  8
0
  6
CONTINUOUS
 62
               6
100
AcDbVertex
100
AcDb2dVertex
 10
-48.950406301620745
 20
23.601846704124952
 30
0.0
  0
VERTEX
  5
96
100
AcDbEntity
  8
0
  6
CONTINUOUS
 62
               6
100
AcDbVertex
100
AcDb2dVertex
 10
-49.799117350620747
 20
23.759987794624934
 30
0.0
  0
VERTEX
  5
97
100
AcDbEntity
  8
0
  6
CONTINUOUS
 62
               6
100
AcDbVertex
100
AcDb2dVertex
 10
-50.672137455620742
 20
23.688450684324934
 30
0.0
  0
VERTEX
  5
98
100
AcDbEntity
  8
0
  6
CONTINUOUS
 62
               6
100
AcDbVertex
100
AcDb2dVertex
 10
-51.518727108920757
 20
23.391388130924938
 30
0.0
  0
VERTEX
  5
99
100
AcDbEntity
  8
0
  6
CONTINUOUS
 62
               6
100
AcDbVertex
100
AcDb2dVertex
 10
-52.289684119220738
 20
22.886061034524957
 30
0.0
  0
VERTEX
  5
9A
100
AcDbEntity
  8
0
  6
CONTINUOUS
 62
               6
100
AcDbVertex
100
AcDb2dVertex
 10
-52.940208213320744
 20
22.201840259524957
 30
0.0
  0
VERTEX
  5
9B
100
AcDbEntity
  8
0
  6
CONTINUOUS
 62
               6
100
AcDbVertex
100
AcDb2dVertex
 10
-53.432487972720764
 20
21.378492913924944
 30
0.0
  0
VERTEX
  5
9C
100
AcDbEntity
  8
0
  6
CONTINUOUS
 62
               6
100
AcDbVertex
100
AcDb2dVertex
 10
-53.737914781120764
 20
20.463863386224958
 30
0.0
  0
VERTEX
  5
9D
100
AcDbEntity
  8
0
  6
CONTINUOUS
 62
               6
100
AcDbVertex
100
AcDb2dVertex
 10
-53.838741552720762
 20
19.511118816224936
 30
0.0
  0
VERTEX
  5
9E
100
AcDbEntity
  8
0
  6
CONTINUOUS
 62
               6
100
AcDbVertex
100
AcDb2dVertex
 10
-53.729108413020754
 20
18.57561172172494
 30
0.0
  0
VERTEX
  5
9F
100
AcDbEntity
  8
0
  6
CONTINUOUS
 62
               6
100
AcDbVertex
100
AcDb2dVertex
 10
-53.415380773720756
 20
17.711722963724938
 30
0.0
  0
VERTEX
  5
A0
100
AcDbEntity
  8
0
  6
CONTINUOUS
 62
               6
100
AcDbVertex
100
AcDb2dVertex
 10
-52.915799033320752
 20
16.969649556624958
 30
0.0
  0
VERTEX
  5
A1
100
AcDbEntity
  8
0
  6
CONTINUOUS
 62
               6
100
AcDbVertex
100
AcDb2dVertex
 10
-52.259393447220759
 20
16.392531234124945
 30
0.0
  0
VERTEX
  5
A2
100
AcDbEntity
  8
0
  6
CONTINUOUS
 62
               6
100
AcDbVertex
100
AcDb2dVertex
 10
-51.484310615320737
 20
16.013890406424949
 30
0.0
  0
VERTEX
  5
A3
100
AcDbEntity
  8
0
  6
CONTINUOUS
 62
               6
100
AcDbVertex
100
AcDb2dVertex
 10
-50.635597751020754
 20
15.855750646624941
 30
0.0
  0
VERTEX
  5
A4
100
AcDbEntity
  8
0
  6
CONTINUOUS
 62
               6
100
AcDbVertex
100
AcDb2dVertex
 10
-49.762579272620741
 20
15.927288117824943
 30
0.0
  0
SEQEND
  5
A5
100
AcDbEntity
  8
0
  6
CONTINUOUS
 62
               6
  0
ARC
  5
A6
100
AcDbEntity
  8
0
  6
CONTINUOUS
 62
               6
100
AcDbCircle
 10
-50.485597773120759
 20
19.855857482524939
 30
0.0
 40
4.0628098899369629
100
AcDbArc
 50
282.08228910550019
 51
65.140877871599969
  0
ARC
  5
A7
100
AcDbEntity
  8
0
  6
CONTINUOUS
 62
               6
100
AcDbCircle
 10
-50.337992182020741
 20
19.065970062124947
 30
0.0
 40
3.2595914599078544
100
AcDbArc
 50
250.94282008179982
 51
282.45142973470001
  0
LINE
  5
A8
100
AcDbEntity
  8
0
  6
CONTINUOUS
 62
               6
100
AcDbLine
 10
-48.135792532820744
 20
19.723651544524941
 30
0.0
 11
-48.25706736982076
 21
20.758469685624945
 31
0.0
  0
LINE
  5
A9
100
AcDbEntity
  8
0
  6
CONTINUOUS
 62
               6
100
AcDbLine
 10
-48.25706736982076
 20
20.758469685624945
 30
0.0
 11
-49.08040779122075
 21
20.581989537424946
 31
0.0
  0
ARC
  5
AA
100
AcDbEntity
  8
0
  6
CONTINUOUS
 62
               6
100
AcDbCircle
 10
-49.211714602720747
 20
21.248864466624937
 30
0.0
 40
0.679679078677119
100
AcDbArc
 50
183.77791247849962
 51
281.13897430870065
  0
LINE
  5
AB
100
AcDbEntity
  8
0
  6
CONTINUOUS
 62
               6
100
AcDbLine
 10
-49.889916699820759
 20
21.20408092662494
 30
0.0
 11
-49.994135841820764
 21
22.093381013124954
 31
0.0
  0
LINE
  5
AC
100
AcDbEntity
  8
0
  6
CONTINUOUS
 62
               6
100
AcDbLine
 10
-49.994135841820764
 20
22.093381013124954
 30
0.0
 11
-50.95220630252075
 21
21.888010122324957
 31
0.0
  0
LINE
  5
AD
100
AcDbEntity
  8
0
  6
CONTINUOUS
 62
               6
100
AcDbLine
 10
-50.95220630252075
 20
21.888010122324957
 30
0.0
 11
-50.847987160520745
 21
20.998710035824942
 31
0.0
  0
ARC
  5
AE
100
AcDbEntity
  8
0
  6
CONTINUOUS
 62
               6
100
AcDbCircle
 10
-51.688990733820759
 20
20.889366783724952
 30
0.0
 40
0.8480819282737654
100
AcDbArc
 50
284.57427189880013
 51
7.4077688347999242
  0
LINE
  5
AF
100
AcDbEntity
  8
0
  6
CONTINUOUS
 62
               6
100
AcDbLine
 10
-51.475583813620744
 20
20.068574213424952
 30
0.0
 11
-52.298924195320751
 21
19.892087257624937
 31
0.0
  0
LINE
  5
B0
100
AcDbEntity
  8
0
  6
CONTINUOUS
 62
               6
100
AcDbLine
 10
-52.298924195320751
 20
19.892087257624937
 30
0.0
 11
-52.177651173620745
 21
18.857267785824959
 31
0.0
  0
LINE
  5
B1
100
AcDbEntity
  8
0
  6
CONTINUOUS
 62
               6
100
AcDbLine
 10
-52.177651173620745
 20
18.857267785824959
 30
0.0
 11
-51.354308937020761
 21
19.033749264824948
 31
0.0
  0
ARC
  5
B2
100
AcDbEntity
  8
0
  6
CONTINUOUS
 62
               6
100
AcDbCircle
 10
-51.222999399520745
 20
18.36687963002494
 30
0.0
 40
0.6796744106350772
100
AcDbArc
 50
3.7775216697989236
 51
101.13928599509904
  0
LINE
  5
B3
100
AcDbEntity
  8
0
  6
CONTINUOUS
 62
               6
100
AcDbLine
 10
-50.544801654920747
 20
18.411658236524957
 30
0.0
 11
-50.440579259820737
 21
17.522357428124948
 31
0.0
  0
LINE
  5
B4
100
AcDbEntity
  8
0
  6
CONTINUOUS
 62
               6
100
AcDbLine
 10
-50.440579259820737
 20
17.522357428124948
 30
0.0
 11
-49.482510425720761
 21
17.727728679824949
 31
0.0
  0
LINE
  5
B5
100
AcDbEntity
  8
0
  6
CONTINUOUS
 62
               6
100
AcDbLine
 10
-49.482510425720761
 20
17.727728679824949
 30
0.0
 11
-49.586729567720738
 21
18.617028766324935
 31
0.0
  0
ARC
  5
B6
100
AcDbEntity
  8
0
  6
CONTINUOUS
 62
               6
100
AcDbCircle
 10
-48.745728530620738
 20
18.726373729724955
 30
0.0
 40
0.8480796338627059
100
AcDbArc
 50
104.57413515920038
 51
187.4079055744001
  0
LINE
  5
B7
100
AcDbEntity
  8
0
  6
CONTINUOUS
 62
               6
100
AcDbLine
 10
-48.959132914520751
 20
19.547164588724954
 30
0.0
 11
-48.135792532820744
 21
19.723651544524941
 31
0.0
  0
LINE
  5
B8
100
AcDbEntity
  8
0
  6
CONTINUOUS
 62
               6
100
AcDbLine
 10
-48.225710919920743
 20
20.490911548424961
 30
0.0
 11
-48.592061839820758
 21
20.41238475232494
 31
0.0
  0
LINE
  5
B9
100
AcDbEntity
  8
0
  6
CONTINUOUS
 62
               6
100
AcDbLine
 10
-49.08040779122075
 20
20.581989537424946
 30
0.0
 11
-48.592061839820758
 21
20.41238475232494
 31
0.0
  0
ARC
  5
BA
100
AcDbEntity
  8
0
  6
CONTINUOUS
 62
               6
100
AcDbCircle
 10
-48.732513327720739
 20
21.050929356524946
 30
0.0
 40
0.653808712106813
100
AcDbArc
 50
250.98998417900003
 51
282.40499427810107
  0
LINE
  5
BB
100
AcDbEntity
  8
0
  6
CONTINUOUS
 62
               6
100
AcDbLine
 10
-50.056453888220744
 20
18.242054782124953
 30
0.0
 11
-49.983590588720745
 21
17.620320498824938
 31
0.0
  0
ARC
  5
BC
100
AcDbEntity
  8
0
  6
CONTINUOUS
 62
               6
100
AcDbCircle
 10
-50.760072214020738
 20
18.182417248324938
 30
0.0
 40
0.7061411925164829
100
AcDbArc
 50
4.8447168761992101
 51
69.47958477729938
  0
LINE
  5
BD
100
AcDbEntity
  8
0
  6
CONTINUOUS
 62
               6
100
AcDbLine
 10
-51.810578243920759
 20
19.722482472524959
 30
0.0
 11
-51.720657394520742
 21
18.955224657824957
 31
0.0
  0
LINE
  5
BE
100
AcDbEntity
  8
0
  6
CONTINUOUS
 62
               6
100
AcDbLine
 10
-50.987236047020758
 20
19.898970759124936
 30
0.0
 11
-51.810578243920759
 21
19.722482472524959
 31
0.0
  0
ARC
  5
BF
100
AcDbEntity
  8
0
  6
CONTINUOUS
 62
               6
100
AcDbCircle
 10
-51.200643641920749
 20
20.719763784724947
 30
0.0
 40
0.8480825387385755
100
AcDbArc
 50
284.57430828040077
 51
7.4077324531992312
  0
LINE
  5
C0
100
AcDbEntity
  8
0
  6
CONTINUOUS
 62
               6
100
AcDbLine
 10
-50.463858535820748
 20
21.71840666802494
 30
0.0
 11
-50.359639393820743
 21
20.829106581524954
 31
0.0
  0
LINE
  5
C1
100
AcDbEntity
  8
0
  6
CONTINUOUS
 62
               6
100
AcDbLine
 10
-49.962779540920764
 20
21.825814376724949
 30
0.0
 11
-50.463858535820748
 21
21.71840666802494
 31
0.0
  0
LINE
  5
C2
100
AcDbEntity
  8
0
  6
CONTINUOUS
 62
               6
100
AcDbLine
 10
-50.056453888220744
 20
18.242054782124953
 30
0.0
 11
-50.544801654920747
 21
18.411658236524957
 31
0.0
  0
LINE
  5
C3
100
AcDbEntity
  8
0
  6
CONTINUOUS
 62
               6
100
AcDbLine
 10
-50.463858535820748
 20
21.71840666802494
 30
0.0
 11
-50.95220630252075
 21
21.888010122324957
 31
0.0
  0
LINE
  5
C4
100
AcDbEntity
  8
0
  6
CONTINUOUS
 62
               6
100
AcDbLine
 10
-50.987236047020758
 20
19.898970759124936
 30
0.0
 11
-51.475583813620744
 21
20.068574213424952
 31
0.0
  0
LINE
  5
C5
100
AcDbEntity
  8
0
  6
CONTINUOUS
 62
               6
100
AcDbLine
 10
-50.847987160520745
 20
20.998710035824942
 30
0.0
 11
-50.359639393820743
 21
20.829106581524954
 31
0.0
  0
LINE
  5
C6
100
AcDbEntity
  8
0
  6
CONTINUOUS
 62
               6
100
AcDbLine
 10
-51.810578243920759
 20
19.722482472524959
 30
0.0
 11
-52.298924195320751
 21
19.892087257624937
 31
0.0
  0
POLYLINE
  5
C7
100
AcDbEntity
  8
0
  6
CONTINUOUS
 62
               6
100
AcDb2dPolyline
 66
               1
 10
0.0
 20
0.0
 30
0.0
 75
               5
  0
VERTEX
  5
C8
100
AcDbEntity
  8
0
  6
CONTINUOUS
 62
               6
100
AcDbVertex
100
AcDb2dVertex
 10
-8.5155305821207605
 20
63.547774044324953
 30
0.0
  0
VERTEX
  5
C9
100
AcDbEntity
  8
0
  6
CONTINUOUS
 62
               6
100
AcDbVertex
100
AcDb2dVertex
 10
-7.6689412807207589
 20
63.844844341424945
 30
0.0
  0
VERTEX
  5
CA
100
AcDbEntity
  8
0
  6
CONTINUOUS
 62
               6
100
AcDbVertex
100
AcDb2dVertex
 10
-6.8979828075207479
 20
64.350164314324942
 30
0.0
  0
VERTEX
  5
CB
100
AcDbEntity
  8
0
  6
CONTINUOUS
 62
               6
100
AcDbVertex
100
AcDb2dVertex
 10
-6.2474608409207519
 20
65.034384694724949
 30
0.0
  0
VERTEX
  5
CC
100
AcDbEntity
  8
0
  6
CONTINUOUS
 62
               6
100
AcDbVertex
100
AcDb2dVertex
 10
-5.7551803376207431
 20
65.857725943224935
 30
0.0
  0
VERTEX
  5
CD
100
AcDbEntity
  8
0
  6
CONTINUOUS
 62
               6
100
AcDbVertex
100
AcDb2dVertex
 10
-5.449751949820751
 20
66.772354687124945
 30
0.0
  0
VERTEX
  5
CE
100
AcDbEntity
  8
0
  6
CONTINUOUS
 62
               6
100
AcDbVertex
100
AcDb2dVertex
 10
-5.348925007020739
 20
67.725113250124949
 30
0.0
  0
VERTEX
  5
CF
100
AcDbEntity
  8
0
  6
CONTINUOUS
 62
               6
100
AcDbVertex
100
AcDb2dVertex
 10
-5.4585599841207397
 20
68.660613520024938
 30
0.0
  0
VERTEX
  5
D0
100
AcDbEntity
  8
0
  6
CONTINUOUS
 62
               6
100
AcDbVertex
100
AcDb2dVertex
 10
-5.7722853794207367
 20
69.524509012324941
 30
0.0
  0
VERTEX
  5
D1
100
AcDbEntity
  8
0
  6
CONTINUOUS
 62
               6
100
AcDbVertex
100
AcDb2dVertex
 10
-6.2718675812207607
 20
70.266574856224949
 30
0.0
  0
VERTEX
  5
D2
100
AcDbEntity
  8
0
  6
CONTINUOUS
 62
               6
100
AcDbVertex
100
AcDb2dVertex
 10
-6.9282742235207593
 20
70.84370021192494
 30
0.0
  0
VERTEX
  5
D3
100
AcDbEntity
  8
0
  6
CONTINUOUS
 62
               6
100
AcDbVertex
100
AcDb2dVertex
 10
-7.7033557562207591
 20
71.222327153824935
 30
0.0
  0
VERTEX
  5
D4
100
AcDbEntity
  8
0
  6
CONTINUOUS
 62
               6
100
AcDbVertex
100
AcDb2dVertex
 10
-8.5520683773207509
 20
71.380468159724941
 30
0.0
  0
VERTEX
  5
D5
100
AcDbEntity
  8
0
  6
CONTINUOUS
 62
               6
100
AcDbVertex
100
AcDb2dVertex
 10
-9.4250878575207651
 20
71.308937276224938
 30
0.0
  0
VERTEX
  5
D6
100
AcDbEntity
  8
0
  6
CONTINUOUS
 62
               6
100
AcDbVertex
100
AcDb2dVertex
 10
-10.271676705020752
 20
71.011867311824957
 30
0.0
  0
VERTEX
  5
D7
100
AcDbEntity
  8
0
  6
CONTINUOUS
 62
               6
100
AcDbVertex
100
AcDb2dVertex
 10
-11.042635178220763
 20
70.506547338824944
 30
0.0
  0
VERTEX
  5
D8
100
AcDbEntity
  8
0
  6
CONTINUOUS
 62
               6
100
AcDbVertex
100
AcDb2dVertex
 10
-11.693157598620758
 20
69.822326625824942
 30
0.0
  0
VERTEX
  5
D9
100
AcDbEntity
  8
0
  6
CONTINUOUS
 62
               6
100
AcDbVertex
100
AcDb2dVertex
 10
-12.18543756882076
 20
68.998972094824936
 30
0.0
  0
VERTEX
  5
DA
100
AcDbEntity
  8
0
  6
CONTINUOUS
 62
               6
100
AcDbVertex
100
AcDb2dVertex
 10
-12.490866489720759
 20
68.084356633424946
 30
0.0
  0
VERTEX
  5
DB
100
AcDbEntity
  8
0
  6
CONTINUOUS
 62
               6
100
AcDbVertex
100
AcDb2dVertex
 10
-12.591692978720744
 20
67.131598403124954
 30
0.0
  0
VERTEX
  5
DC
100
AcDbEntity
  8
0
  6
CONTINUOUS
 62
               6
100
AcDbVertex
100
AcDb2dVertex
 10
-12.482058001720759
 20
66.196098133124949
 30
0.0
  0
VERTEX
  5
DD
100
AcDbEntity
  8
0
  6
CONTINUOUS
 62
               6
100
AcDbVertex
100
AcDb2dVertex
 10
-12.16833306022076
 20
65.33220230822495
 30
0.0
  0
VERTEX
  5
DE
100
AcDbEntity
  8
0
  6
CONTINUOUS
 62
               6
100
AcDbVertex
100
AcDb2dVertex
 10
-11.66875040452075
 20
64.590136797024954
 30
0.0
  0
VERTEX
  5
DF
100
AcDbEntity
  8
0
  6
CONTINUOUS
 62
               6
100
AcDbVertex
100
AcDb2dVertex
 10
-11.012344216120738
 20
64.013011108624951
 30
0.0
  0
VERTEX
  5
E0
100
AcDbEntity
  8
0
  6
CONTINUOUS
 62
               6
100
AcDbVertex
100
AcDb2dVertex
 10
-10.237262229520752
 20
63.634384499424939
 30
0.0
  0
VERTEX
  5
E1
100
AcDbEntity
  8
0
  6
CONTINUOUS
 62
               6
100
AcDbVertex
100
AcDb2dVertex
 10
-9.3885496085207478
 20
63.476243493524933
 30
0.0
  0
VERTEX
  5
E2
100
AcDbEntity
  8
0
  6
CONTINUOUS
 62
               6
100
AcDbVertex
100
AcDb2dVertex
 10
-8.5155305821207605
 20
63.547774044324953
 30
0.0
  0
SEQEND
  5
E3
100
AcDbEntity
  8
0
  6
CONTINUOUS
 62
               6
  0
LINE
  5
E4
100
AcDbEntity
  8
0
  6
CONTINUOUS
 62
               6
100
AcDbLine
 10
-6.8887432545207616
 20
67.344131842024936
 30
0.0
 11
-7.0100177642207484
 21
68.378963508024938
 31
0.0
  0
LINE
  5
E5
100
AcDbEntity
  8
0
  6
CONTINUOUS
 62
               6
100
AcDbLine
 10
-7.0100177642207484
 20
68.378963508024938
 30
0.0
 11
-7.8333592023207643
 21
68.202475486424945
 31
0.0
  0
ARC
  5
E6
100
AcDbEntity
  8
0
  6
CONTINUOUS
 62
               6
100
AcDbCircle
 10
-7.9646604334207609
 20
68.869357230224935
 30
0.0
 40
0.6796846867922647
100
AcDbArc
 50
183.77904767799936
 51
281.13840177400027
  0
LINE
  5
E7
100
AcDbEntity
  8
0
  6
CONTINUOUS
 62
               6
100
AcDbLine
 10
-8.6428672390207453
 20
68.824559883424953
 30
0.0
 11
-8.7470873038207628
 21
69.713866973524958
 31
0.0
  0
LINE
  5
E8
100
AcDbEntity
  8
0
  6
CONTINUOUS
 62
               6
100
AcDbLine
 10
-8.7470873038207628
 20
69.713866973524958
 30
0.0
 11
-9.7051572523207597
 21
69.508503634624944
 31
0.0
  0
LINE
  5
E9
100
AcDbEntity
  8
0
  6
CONTINUOUS
 62
               6
100
AcDbLine
 10
-9.7051572523207597
 20
69.508503634624944
 30
0.0
 11
-9.6009367019207446
 21
68.619196870124952
 31
0.0
  0
ARC
  5
EA
100
AcDbEntity
  8
0
  6
CONTINUOUS
 62
               6
100
AcDbCircle
 10
-10.441957251120755
 20
68.509858779924954
 30
0.0
 40
0.8480980969407564
100
AcDbArc
 50
284.57515816040018
 51
7.407275158900803
  0
LINE
  5
EB
100
AcDbEntity
  8
0
  6
CONTINUOUS
 62
               6
100
AcDbLine
 10
-10.228533565920742
 20
67.689053862424956
 30
0.0
 11
-11.051874731220749
 21
67.512579811224938
 31
0.0
  0
LINE
  5
EC
100
AcDbEntity
  8
0
  6
CONTINUOUS
 62
               6
100
AcDbLine
 10
-11.051874731220749
 20
67.512579811224938
 30
0.0
 11
-10.930600675420749
 21
66.477747812524953
 31
0.0
  0
LINE
  5
ED
100
AcDbEntity
  8
0
  6
CONTINUOUS
 62
               6
100
AcDbLine
 10
-10.930600675420749
 20
66.477747812524953
 30
0.0
 11
-10.107259237220745
 21
66.654235834124947
 31
0.0
  0
ARC
  5
EE
100
AcDbEntity
  8
0
  6
CONTINUOUS
 62
               6
100
AcDbCircle
 10
-9.9759635071207526
 20
65.987346931924961
 30
0.0
 40
0.679690647673292
100
AcDbArc
 50
3.7796192307005669
 51
101.13783022129944
  0
LINE
  5
EF
100
AcDbEntity
  8
0
  6
CONTINUOUS
 62
               6
100
AcDbLine
 10
-9.2977512005207643
 20
66.032151437124938
 30
0.0
 11
-9.1935311358207628
 21
65.142844347024933
 31
0.0
  0
LINE
  5
F0
100
AcDbEntity
  8
0
  6
CONTINUOUS
 62
               6
100
AcDbLine
 10
-9.1935311358207628
 20
65.142844347024933
 30
0.0
 11
-8.2354611873207375
 21
65.348207685924947
 31
0.0
  0
LINE
  5
F1
100
AcDbEntity
  8
0
  6
CONTINUOUS
 62
               6
100
AcDbLine
 10
-8.2354611873207375
 20
65.348207685924947
 30
0.0
 11
-8.3396812838207381
 21
66.237514783124951
 31
0.0
  0
ARC
  5
F2
100
AcDbEntity
  8
0
  6
CONTINUOUS
 62
               6
100
AcDbCircle
 10
-7.4986619775207544
 20
66.346853522424951
 30
0.0
 40
0.8480969481625758
100
AcDbArc
 50
104.57512326239997
 51
187.40732947120054
  0
LINE
  5
F3
100
AcDbEntity
  8
0
  6
CONTINUOUS
 62
               6
100
AcDbLine
 10
-7.7120848736207392
 20
67.167657458124935
 30
0.0
 11
-6.8887432545207616
 21
67.344131842024936
 31
0.0
  0
ARC
  5
F4
100
AcDbEntity
  8
0
  6
CONTINUOUS
 62
               6
100
AcDbCircle
 10
-9.2385410807207506
 20
67.476340209924942
 30
0.0
 40
4.0628043957804367
100
AcDbArc
 50
282.08220992250006
 51
65.140969452500059
  0
ARC
  5
F5
100
AcDbEntity
  8
0
  6
CONTINUOUS
 62
               6
100
AcDbCircle
 10
-9.0909896622207498
 20
66.685677796124949
 30
0.0
 40
3.2588408521138645
100
AcDbArc
 50
250.93911959489995
 51
282.45519953749999
  0
LINE
  5
F6
100
AcDbEntity
  8
0
  6
CONTINUOUS
 62
               6
100
AcDbLine
 10
-6.9786612821207541
 20
68.111391332724949
 30
0.0
 11
-7.3450118498207644
 21
68.032864891824957
 31
0.0
  0
LINE
  5
F7
100
AcDbEntity
  8
0
  6
CONTINUOUS
 62
               6
100
AcDbLine
 10
-7.8333592023207643
 20
68.202475486424945
 30
0.0
 11
-7.3450118498207644
 21
68.032864891824957
 31
0.0
  0
ARC
  5
F8
100
AcDbEntity
  8
0
  6
CONTINUOUS
 62
               6
100
AcDbCircle
 10
-7.4854516731207639
 20
68.671643943324952
 30
0.0
 40
0.6540351829818005
100
AcDbArc
 50
250.99558845379923
 51
282.3995841952995
  0
LINE
  5
F9
100
AcDbEntity
  8
0
  6
CONTINUOUS
 62
               6
100
AcDbLine
 10
-8.8094038480207644
 20
65.86254084252495
 30
0.0
 11
-8.7365403589207631
 21
65.240807383924945
 31
0.0
  0
ARC
  5
FA
100
AcDbEntity
  8
0
  6
CONTINUOUS
 62
               6
100
AcDbCircle
 10
-9.5129845452207462
 20
65.802925183924955
 30
0.0
 40
0.7061018511707686
100
AcDbArc
 50
4.8432060530990153
 51
69.481716111600278
  0
LINE
  5
FB
100
AcDbEntity
  8
0
  6
CONTINUOUS
 62
               6
100
AcDbLine
 10
-10.563527832520748
 20
67.342968883924939
 30
0.0
 11
-10.473609923920748
 21
66.575710855024951
 31
0.0
  0
LINE
  5
FC
100
AcDbEntity
  8
0
  6
CONTINUOUS
 62
               6
100
AcDbLine
 10
-9.7401862927207503
 20
67.519456882924956
 30
0.0
 11
-10.563527832520748
 21
67.342968883924939
 31
0.0
  0
ARC
  5
FD
100
AcDbEntity
  8
0
  6
CONTINUOUS
 62
               6
100
AcDbCircle
 10
-9.9535785799207588
 20
68.340240165924953
 30
0.0
 40
0.8480692576854836
100
AcDbArc
 50
284.57347299600076
 51
7.4089797376001911
  0
LINE
  5
FE
100
AcDbEntity
  8
0
  6
CONTINUOUS
 62
               6
100
AcDbLine
 10
-9.2168098998207597
 20
69.338893040024956
 30
0.0
 11
-9.1125898825207514
 21
68.449599558024957
 31
0.0
  0
LINE
  5
FF
100
AcDbEntity
  8
0
  6
CONTINUOUS
 62
               6
100
AcDbLine
 10
-8.7157307201207459
 20
69.446294775624935
 30
0.0
 11
-9.2168098998207597
 21
69.338893040024956
 31
0.0
  0
LINE
  5
100
100
AcDbEntity
  8
0
  6
CONTINUOUS
 62
               6
100
AcDbLine
 10
-8.8094038480207644
 20
65.86254084252495
 30
0.0
 11
-9.2977512005207643
 21
66.032151437124938
 31
0.0
  0
LINE
  5
101
100
AcDbEntity
  8
0
  6
CONTINUOUS
 62
               6
100
AcDbLine
 10
-9.2168098998207597
 20
69.338893040024956
 30
0.0
 11
-9.7051572523207597
 21
69.508503634624944
 31
0.0
  0
LINE
  5
102
100
AcDbEntity
  8
0
  6
CONTINUOUS
 62
               6
100
AcDbLine
 10
-9.7401862927207503
 20
67.519456882924956
 30
0.0
 11
-10.228533565920742
 21
67.689053862424956
 31
0.0
  0
LINE
  5
103
100
AcDbEntity
  8
0
  6
CONTINUOUS
 62
               6
100
AcDbLine
 10
-9.6009367019207446
 20
68.619196870124952
 30
0.0
 11
-9.1125898825207514
 21
68.449599558024957
 31
0.0
  0
LINE
  5
104
100
AcDbEntity
  8
0
  6
CONTINUOUS
 62
               6
100
AcDbLine
 10
-10.563527832520748
 20
67.342968883924939
 30
0.0
 11
-11.051874731220749
 21
67.512579811224938
 31
0.0
  0
SPLINE
  5
105
100
AcDbEntity
  8
0
  6
CONTINUOUS
 62
               6
100
AcDbSpline
210
0.0
220
0.0
230
1.0
 70
               8
 71
               2
 72
              19
 73
              16
 74
               0
 42
0.000001
 43
0.000001
 40
0.0
 40
0.0
 40
0.0
 40
1.0
 40
1.0
 40
2.0
 40
3.0
 40
4.0
 40
5.0
 40
6.0
 40
7.0
 40
8.0
 40
9.0
 40
10.0
 40
11.0
 40
11.0
 40
12.0
 40
12.0
 40
12.0
 10
-23.711992631623161
 20
-15.627050063796943
 30
0.0
 10
-23.711170964676668
 20
-15.628673379488276
 30
0.0
 10
-23.710349297730176
 20
-15.630296695179609
 30
0.0
 10
-23.658783190252763
 20
-15.731095598714333
 30
0.0
 10
-23.534397729200606
 20
-15.989880405084548
 30
0.0
 10
-23.460405162198981
 20
-16.217798024229936
 30
0.0
 10
-23.434252611993657
 20
-16.344813669976773
 30
0.0
 10
-23.430773757476516
 20
-16.461502443665879
 30
0.0
 10
-23.460090442709827
 20
-16.543408282834307
 30
0.0
 10
-23.489990768207036
 20
-16.581422748588537
 30
0.0
 10
-23.531918752349526
 20
-16.615547912450879
 30
0.0
 10
-23.611442533588757
 20
-16.639944250772729
 30
0.0
 10
-23.702713577168907
 20
-16.632498690500952
 30
0.0
 10
-23.743999793967447
 20
-16.62577459261054
 30
0.0
 10
-23.744660241899055
 20
-16.625672750926299
 30
0.0
 10
-23.745320689830663
 20
-16.625570909242057
 30
0.0
  0
SPLINE
  5
106
100
AcDbEntity
  8
0
  6
CONTINUOUS
 62
               6
100
AcDbSpline
210
0.0
220
0.0
230
1.0
 70
               8
 71
               2
 72
              17
 73
              14
 74
               0
 42
0.000001
 43
0.000001
 40
0.0
 40
0.0
 40
0.0
 40
1.0
 40
1.0
 40
2.0
 40
3.0
 40
4.0
 40
5.0
 40
6.0
 40
7.0
 40
8.0
 40
9.0
 40
9.0
 40
10.0
 40
10.0
 40
10.0
 10
-23.745320689830663
 20
-16.625570909242057
 30
0.0
 10
-23.744521251648735
 20
-16.625700440247385
 30
0.0
 10
-23.743721813466806
 20
-16.625829971252713
 30
0.0
 10
-23.643727090882692
 20
-16.644919413033975
 30
0.0
 10
-23.478232880334161
 20
-16.636048599307216
 30
0.0
 10
-23.315882076014304
 20
-16.609773305049387
 30
0.0
 10
-23.125255799975633
 20
-16.549288870539826
 30
0.0
 10
-22.944720627311483
 20
-16.470280958082029
 30
0.0
 10
-22.717201194991077
 20
-16.345050963390477
 30
0.0
 10
-22.487131453092985
 20
-16.177477662322801
 30
0.0
 10
-22.237071690033645
 20
-15.970755756028112
 30
0.0
 10
-22.089948723950329
 20
-15.841218445560955
 30
0.0
 10
-22.087559676383634
 20
-15.839130862202097
 30
0.0
 10
-22.08517062881694
 20
-15.83704327884324
 30
0.0
  0
SPLINE
  5
107
100
AcDbEntity
  8
0
  6
CONTINUOUS
 62
               6
100
AcDbSpline
210
0.0
220
0.0
230
1.0
 70
               8
 71
               2
 72
              17
 73
              14
 74
               0
 42
0.000001
 43
0.000001
 40
0.0
 40
0.0
 40
0.0
 40
1.0
 40
1.0
 40
2.0
 40
3.0
 40
4.0
 40
5.0
 40
6.0
 40
7.0
 40
8.0
 40
9.0
 40
9.0
 40
10.0
 40
10.0
 40
10.0
 10
-25.142494848676364
 20
-16.315543163298045
 30
0.0
 10
-25.143233749222887
 20
-16.315335448756841
 30
0.0
 10
-25.14397264976941
 20
-16.315127734215636
 30
0.0
 10
-25.166137367305197
 20
-16.308956118832597
 30
0.0
 10
-25.264328221161605
 20
-16.280717655607091
 30
0.0
 10
-25.42616450702215
 20
-16.193504697843892
 30
0.0
 10
-25.611455894425063
 20
-16.054585651372875
 30
0.0
 10
-25.773014167171112
 20
-15.886973849225328
 30
0.0
 10
-25.93444239639939
 20
-15.686323362469849
 30
0.0
 10
-26.082445718773414
 20
-15.445010352638619
 30
0.0
 10
-26.165309511144727
 20
-15.276925420738408
 30
0.0
 10
-26.190142370657242
 20
-15.224874080225973
 30
0.0
 10
-26.19052052096734
 20
-15.224084783690117
 30
0.0
 10
-26.190898671277438
 20
-15.22329548715426
 30
0.0
  0
LINE
  5
108
100
AcDbEntity
  8
0
  6
CONTINUOUS
 62
               6
100
AcDbLine
 10
-25.142494848720759
 20
-16.315543163275052
 30
0.0
 11
-23.745320689820744
 21
-16.625570909275055
 31
0.0
  0
SPLINE
  5
109
100
AcDbEntity
  8
0
  6
CONTINUOUS
 62
               6
100
AcDbSpline
210
0.0
220
0.0
230
1.0
 70
               8
 71
               2
 72
              20
 73
              17
 74
               0
 42
0.000001
 43
0.000001
 40
0.0
 40
0.0
 40
0.0
 40
1.0
 40
1.0
 40
2.0
 40
3.0
 40
4.0
 40
5.0
 40
6.0
 40
7.0
 40
8.0
 40
9.0
 40
10.0
 40
11.0
 40
12.0
 40
12.0
 40
13.0
 40
13.0
 40
13.0
 10
26.755091350965841
 20
-22.557964379576262
 30
0.0
 10
26.758954237864458
 20
-22.55248717084082
 30
0.0
 10
26.762817124763075
 20
-22.547009962105378
 30
0.0
 10
26.878457636494943
 20
-22.379996186367251
 30
0.0
 10
27.138023640912905
 20
-22.048655616584497
 30
0.0
 10
27.493584940084673
 20
-21.819120610528742
 30
0.0
 10
27.904708988520355
 20
-21.831236044748621
 30
0.0
 10
28.165787803214101
 20
-22.15335448548241
 30
0.0
 10
28.309463256190128
 20
-22.504411571793966
 30
0.0
 10
28.385035927261782
 20
-22.954158915742184
 30
0.0
 10
28.400417784602638
 20
-23.523283340982587
 30
0.0
 10
28.315308988535236
 20
-24.167345316506257
 30
0.0
 10
28.141025976586974
 20
-24.87757074499963
 30
0.0
 10
27.880646597404251
 20
-25.429487995985355
 30
0.0
 10
27.775859829289828
 20
-25.628787843286645
 30
0.0
 10
27.772389753705184
 20
-25.635459996344792
 30
0.0
 10
27.76891967812054
 20
-25.64213214940294
 30
0.0
  0
SPLINE
  5
10A
100
AcDbEntity
  8
0
  6
CONTINUOUS
 62
               6
100
AcDbSpline
210
0.0
220
0.0
230
1.0
 70
               8
 71
               2
 72
              20
 73
              17
 74
               0
 42
0.000001
 43
0.000001
 40
0.0
 40
0.0
 40
0.0
 40
1.0
 40
1.0
 40
2.0
 40
3.0
 40
4.0
 40
5.0
 40
6.0
 40
7.0
 40
8.0
 40
9.0
 40
10.0
 40
11.0
 40
12.0
 40
12.0
 40
13.0
 40
13.0
 40
13.0
 10
27.76891967812054
 20
-25.64213214940294
 30
0.0
 10
27.765056792342435
 20
-25.647609349327666
 30
0.0
 10
27.76119390656433
 20
-25.653086549252393
 30
0.0
 10
27.64555343226121
 20
-25.820100030639068
 30
0.0
 10
27.385987258773241
 20
-26.151441810659591
 30
0.0
 10
27.030426575781036
 20
-26.38097198995267
 30
0.0
 10
26.619301304666379
 20
-26.368861474186687
 30
0.0
 10
26.358223213776057
 20
-26.046740171835509
 30
0.0
 10
26.214548150388936
 20
-25.695682120992316
 30
0.0
 10
26.138975107569053
 20
-25.245936759653731
 30
0.0
 10
26.12359324841043
 20
-24.676813183698144
 30
0.0
 10
26.208702034558968
 20
-24.032751220245942
 30
0.0
 10
26.382985053657734
 20
-23.32252578247703
 30
0.0
 10
26.643364431212035
 20
-22.770608533603664
 30
0.0
 10
26.748151199769637
 20
-22.571308685727516
 30
0.0
 10
26.751621275367739
 20
-22.564636532651889
 30
0.0
 10
26.755091350965841
 20
-22.557964379576262
 30
0.0
  0
POLYLINE
  5
10B
100
AcDbEntity
  8
0
  6
CONTINUOUS
 62
               6
100
AcDb2dPolyline
 66
               1
 10
0.0
 20
0.0
 30
0.0
 75
               5
  0
VERTEX
  5
10C
100
AcDbEntity
  8
0
  6
CONTINUOUS
 62
               6
100
AcDbVertex
100
AcDb2dVertex
 10
24.619856104579242
 20
-20.741488981675062
 30
0.0
  0
VERTEX
  5
10D
100
AcDbEntity
  8
0
  6
CONTINUOUS
 62
               6
100
AcDbVertex
100
AcDb2dVertex
 10
25.098401544679263
 20
-20.073139719075058
 30
0.0
  0
VERTEX
  5
10E
100
AcDbEntity
  8
0
  6
CONTINUOUS
 62
               6
100
AcDbVertex
100
AcDb2dVertex
 10
25.604142584979257
 20
-19.602029200075052
 30
0.0
  0
VERTEX
  5
10F
100
AcDbEntity
  8
0
  6
CONTINUOUS
 62
               6
100
AcDbVertex
100
AcDb2dVertex
 10
26.109814547979255
 20
-19.353563572875046
 30
0.0
  0
VERTEX
  5
110
100
AcDbEntity
  8
0
  6
CONTINUOUS
 62
               6
100
AcDbVertex
100
AcDb2dVertex
 10
26.588156513779239
 20
-19.341134250375049
 30
0.0
  0
VERTEX
  5
111
100
AcDbEntity
  8
0
  6
CONTINUOUS
 62
               6
100
AcDbVertex
100
AcDb2dVertex
 10
26.719691158179245
 20
-19.382773815975057
 30
0.0
  0
SEQEND
  5
112
100
AcDbEntity
  8
0
  6
CONTINUOUS
 62
               6
  0
POLYLINE
  5
113
100
AcDbEntity
  8
0
  6
CONTINUOUS
 62
               6
100
AcDb2dPolyline
 66
               1
 10
0.0
 20
0.0
 30
0.0
 75
               5
  0
VERTEX
  5
114
100
AcDbEntity
  8
0
  6
CONTINUOUS
 62
               6
100
AcDbVertex
100
AcDb2dVertex
 10
24.766731105779257
 20
-28.144692170075061
 30
0.0
  0
VERTEX
  5
115
100
AcDbEntity
  8
0
  6
CONTINUOUS
 62
               6
100
AcDbVertex
100
AcDb2dVertex
 10
24.39679922777924
 20
-28.039632836275061
 30
0.0
  0
VERTEX
  5
116
100
AcDbEntity
  8
0
  6
CONTINUOUS
 62
               6
100
AcDbVertex
100
AcDb2dVertex
 10
24.006959536279254
 20
-27.70075878037504
 30
0.0
  0
VERTEX
  5
117
100
AcDbEntity
  8
0
  6
CONTINUOUS
 62
               6
100
AcDbVertex
100
AcDb2dVertex
 10
23.703155420079241
 20
-27.147919322275058
 30
0.0
  0
VERTEX
  5
118
100
AcDbEntity
  8
0
  6
CONTINUOUS
 62
               6
100
AcDbVertex
100
AcDb2dVertex
 10
23.501764658679235
 20
-26.410920593975064
 30
0.0
  0
VERTEX
  5
119
100
AcDbEntity
  8
0
  6
CONTINUOUS
 62
               6
100
AcDbVertex
100
AcDb2dVertex
 10
23.413644865879263
 20
-25.529495149375052
 30
0.0
  0
VERTEX
  5
11A
100
AcDbEntity
  8
0
  6
CONTINUOUS
 62
               6
100
AcDbVertex
100
AcDb2dVertex
 10
23.443546088279248
 20
-24.551158600675066
 30
0.0
  0
VERTEX
  5
11B
100
AcDbEntity
  8
0
  6
CONTINUOUS
 62
               6
100
AcDbVertex
100
AcDb2dVertex
 10
23.589856792979248
 20
-23.528657762475049
 30
0.0
  0
VERTEX
  5
11C
100
AcDbEntity
  8
0
  6
CONTINUOUS
 62
               6
100
AcDbVertex
100
AcDb2dVertex
 10
23.844688967079236
 20
-22.517112077475062
 30
0.0
  0
VERTEX
  5
11D
100
AcDbEntity
  8
0
  6
CONTINUOUS
 62
               6
100
AcDbVertex
100
AcDb2dVertex
 10
24.19430467097925
 20
-21.571055123675066
 30
0.0
  0
VERTEX
  5
11E
100
AcDbEntity
  8
0
  6
CONTINUOUS
 62
               6
100
AcDbVertex
100
AcDb2dVertex
 10
24.619856104579242
 20
-20.741488981675062
 30
0.0
  0
SEQEND
  5
11F
100
AcDbEntity
  8
0
  6
CONTINUOUS
 62
               6
  0
SPLINE
  5
120
100
AcDbEntity
  8
0
  6
CONTINUOUS
 62
               6
100
AcDbSpline
210
0.0
220
0.0
230
1.0
 70
               8
 71
               2
 72
              16
 73
              13
 74
               0
 42
0.000001
 43
0.000001
 40
0.0
 40
0.0
 40
0.0
 40
1.0
 40
1.0
 40
2.0
 40
3.0
 40
4.0
 40
5.0
 40
6.0
 40
7.0
 40
8.0
 40
8.0
 40
9.0
 40
9.0
 40
9.0
 10
23.549817023053748
 20
-26.596984929021559
 30
0.0
 10
23.547551102806793
 20
-26.586989751911773
 30
0.0
 10
23.545285182559837
 20
-26.576994574801986
 30
0.0
 10
23.463859304160025
 20
-26.241851967029291
 30
0.0
 10
23.367043429184747
 20
-25.585394416823718
 30
0.0
 10
23.373445118467913
 20
-24.77039976570039
 30
0.0
 10
23.492917489856467
 20
-23.705147695009444
 30
0.0
 10
23.704557602622714
 20
-22.822225371465308
 30
0.0
 10
23.919639677890899
 20
-22.118412317550607
 30
0.0
 10
24.295022840705684
 20
-21.278678888874637
 30
0.0
 10
24.540111643921392
 20
-20.815976870170957
 30
0.0
 10
24.547245325287264
 20
-20.802272688311703
 30
0.0
 10
24.554379006653136
 20
-20.788568506452449
 30
0.0
  0
LINE
  5
121
100
AcDbEntity
  8
0
  6
CONTINUOUS
 62
               6
100
AcDbLine
 10
26.447119192679253
 20
-24.604330696875067
 30
0.0
 11
26.819437768979242
 21
-25.706012338075041
 31
0.0
  0
LINE
  5
122
100
AcDbEntity
  8
0
  6
CONTINUOUS
 62
               6
100
AcDbLine
 10
26.819437768979242
 20
-25.706012338075041
 30
0.0
 11
27.634324062479237
 21
-25.201729926375052
 31
0.0
  0
LINE
  5
123
100
AcDbEntity
  8
0
  6
CONTINUOUS
 62
               6
100
AcDbLine
 10
27.634324062479237
 20
-25.201729926375052
 30
0.0
 11
28.076891836479263
 21
-23.59576583207506
 31
0.0
  0
LINE
  5
124
100
AcDbEntity
  8
0
  6
CONTINUOUS
 62
               6
100
AcDbLine
 10
28.076891836479263
 20
-23.59576583207506
 30
0.0
 11
27.704573260179245
 21
-22.494084190975045
 31
0.0
  0
LINE
  5
125
100
AcDbEntity
  8
0
  6
CONTINUOUS
 62
               6
100
AcDbLine
 10
27.704573260179245
 20
-22.494084190975045
 30
0.0
 11
26.889686966579262
 21
-22.998366602575047
 31
0.0
  0
LINE
  5
126
100
AcDbEntity
  8
0
  6
CONTINUOUS
 62
               6
100
AcDbLine
 10
26.889686966579262
 20
-22.998366602575047
 30
0.0
 11
26.447119192679253
 21
-24.604330696875067
 31
0.0
  0
LINE
  5
127
100
AcDbEntity
  8
0
  6
CONTINUOUS
 62
               6
100
AcDbLine
 10
27.704573260179245
 20
-22.494084190975045
 30
0.0
 11
27.468882882279246
 21
-22.676844221075058
 31
0.0
  0
LINE
  5
128
100
AcDbEntity
  8
0
  6
CONTINUOUS
 62
               6
100
AcDbLine
 10
26.877426286879256
 20
-23.04285869777506
 30
0.0
 11
27.468882882279246
 21
-22.676844221075058
 31
0.0
  0
LINE
  5
129
100
AcDbEntity
  8
0
  6
CONTINUOUS
 62
               6
100
AcDbLine
 10
27.634324062479237
 20
-25.201729926375052
 30
0.0
 11
27.40832321007926
 21
-25.011021003875058
 31
0.0
  0
LINE
  5
12A
100
AcDbEntity
  8
0
  6
CONTINUOUS
 62
               6
100
AcDbLine
 10
27.40832321007926
 20
-25.011021003875058
 30
0.0
 11
26.727044262179248
 21
-25.432620260475048
 31
0.0
  0
LINE
  5
12B
100
AcDbEntity
  8
0
  6
CONTINUOUS
 62
               6
100
AcDbLine
 10
26.517780891179257
 20
-24.813412977675043
 30
0.0
 11
27.40832321007926
 21
-25.011021003875058
 31
0.0
  0
LINE
  5
12C
100
AcDbEntity
  8
0
  6
CONTINUOUS
 62
               6
100
AcDbLine
 10
28.076891836479263
 20
-23.59576583207506
 30
0.0
 11
27.789847152779259
 21
-23.626566959075049
 31
0.0
  0
LINE
  5
12D
100
AcDbEntity
  8
0
  6
CONTINUOUS
 62
               6
100
AcDbLine
 10
27.468882882279246
 20
-22.676844221075058
 30
0.0
 11
27.789847152779259
 21
-23.626566959075049
 31
0.0
  0
LINE
  5
12E
100
AcDbEntity
  8
0
  6
CONTINUOUS
 62
               6
100
AcDbLine
 10
26.778418193679244
 20
-23.40213463727504
 30
0.0
 11
27.789847152779259
 21
-23.626566959075049
 31
0.0
  0
LINE
  5
12F
100
AcDbEntity
  8
0
  6
CONTINUOUS
 62
               6
100
AcDbLine
 10
27.789847152779259
 20
-23.626566959075049
 30
0.0
 11
27.40832321007926
 21
-25.011021003875058
 31
0.0
  0
POLYLINE
  5
130
100
AcDbEntity
  8
0
  6
CONTINUOUS
 62
               6
100
AcDb2dPolyline
 66
               1
 10
0.0
 20
0.0
 30
0.0
 75
               5
  0
VERTEX
  5
131
100
AcDbEntity
  8
0
  6
CONTINUOUS
 62
               6
100
AcDbVertex
100
AcDb2dVertex
 10
24.795668068279241
 20
-19.902706720675056
 30
0.0
  0
VERTEX
  5
132
100
AcDbEntity
  8
0
  6
CONTINUOUS
 62
               6
100
AcDbVertex
100
AcDb2dVertex
 10
25.262733302779253
 20
-19.666949833875051
 30
0.0
  0
VERTEX
  5
133
100
AcDbEntity
  8
0
  6
CONTINUOUS
 62
               6
100
AcDbVertex
100
AcDb2dVertex
 10
25.559108661279254
 20
-19.634939173375059
 30
0.0
  0
SEQEND
  5
134
100
AcDbEntity
  8
0
  6
CONTINUOUS
 62
               6
  0
POLYLINE
  5
135
100
AcDbEntity
  8
0
  6
CONTINUOUS
 62
               6
100
AcDb2dPolyline
 66
               1
 10
0.0
 20
0.0
 30
0.0
 75
               5
  0
VERTEX
  5
136
100
AcDbEntity
  8
0
  6
CONTINUOUS
 62
               6
100
AcDbVertex
100
AcDb2dVertex
 10
23.830342301079241
 20
-27.425815234075046
 30
0.0
  0
VERTEX
  5
137
100
AcDbEntity
  8
0
  6
CONTINUOUS
 62
               6
100
AcDbVertex
100
AcDb2dVertex
 10
23.540397162779243
 20
-27.240687067375049
 30
0.0
  0
VERTEX
  5
138
100
AcDbEntity
  8
0
  6
CONTINUOUS
 62
               6
100
AcDbVertex
100
AcDb2dVertex
 10
23.224973698979255
 20
-26.809621735775053
 30
0.0
  0
VERTEX
  5
139
100
AcDbEntity
  8
0
  6
CONTINUOUS
 62
               6
100
AcDbVertex
100
AcDb2dVertex
 10
23.00206999887925
 20
-26.189552821975056
 30
0.0
  0
VERTEX
  5
13A
100
AcDbEntity
  8
0
  6
CONTINUOUS
 62
               6
100
AcDbVertex
100
AcDb2dVertex
 10
22.884640691379246
 20
-25.416518568775061
 30
0.0
  0
VERTEX
  5
13B
100
AcDbEntity
  8
0
  6
CONTINUOUS
 62
               6
100
AcDbVertex
100
AcDb2dVertex
 10
22.879510116779244
 20
-24.535447378775061
 30
0.0
  0
VERTEX
  5
13C
100
AcDbEntity
  8
0
  6
CONTINUOUS
 62
               6
100
AcDbVertex
100
AcDb2dVertex
 10
22.986976417279237
 20
-23.597539069775067
 30
0.0
  0
VERTEX
  5
13D
100
AcDbEntity
  8
0
  6
CONTINUOUS
 62
               6
100
AcDbVertex
100
AcDb2dVertex
 10
23.200794292879237
 20
-22.657303576975053
 30
0.0
  0
VERTEX
  5
13E
100
AcDbEntity
  8
0
  6
CONTINUOUS
 62
               6
100
AcDbVertex
100
AcDb2dVertex
 10
23.508537176479251
 20
-21.769386446075046
 30
0.0
  0
VERTEX
  5
13F
100
AcDbEntity
  8
0
  6
CONTINUOUS
 62
               6
100
AcDbVertex
100
AcDb2dVertex
 10
23.892320366979249
 20
-20.98538607717505
 30
0.0
  0
VERTEX
  5
140
100
AcDbEntity
  8
0
  6
CONTINUOUS
 62
               6
100
AcDbVertex
100
AcDb2dVertex
 10
24.329839681879236
 20
-20.350866946775042
 30
0.0
  0
VERTEX
  5
141
100
AcDbEntity
  8
0
  6
CONTINUOUS
 62
               6
100
AcDbVertex
100
AcDb2dVertex
 10
24.795668068279241
 20
-19.902706720675056
 30
0.0
  0
SEQEND
  5
142
100
AcDbEntity
  8
0
  6
CONTINUOUS
 62
               6
  0
POLYLINE
  5
143
100
AcDbEntity
  8
0
  6
CONTINUOUS
 62
               6
100
AcDb2dPolyline
 66
               1
 10
0.0
 20
0.0
 30
0.0
 75
               5
  0
VERTEX
  5
144
100
AcDbEntity
  8
0
  6
CONTINUOUS
 62
               6
100
AcDbVertex
100
AcDb2dVertex
 10
24.088934180979237
 20
22.190679965624938
 30
0.0
  0
VERTEX
  5
145
100
AcDbEntity
  8
0
  6
CONTINUOUS
 62
               6
100
AcDbVertex
100
AcDb2dVertex
 10
23.195891058079241
 20
18.999400378424937
 30
0.0
  0
VERTEX
  5
146
100
AcDbEntity
  8
0
  6
CONTINUOUS
 62
               6
100
AcDbVertex
100
AcDb2dVertex
 10
22.105117842279242
 20
15.868520240324941
 30
0.0
  0
VERTEX
  5
147
100
AcDbEntity
  8
0
  6
CONTINUOUS
 62
               6
100
AcDbVertex
100
AcDb2dVertex
 10
20.821932026579248
 20
12.813277776824961
 30
0.0
  0
VERTEX
  5
148
100
AcDbEntity
  8
0
  6
CONTINUOUS
 62
               6
100
AcDbVertex
100
AcDb2dVertex
 10
19.352582120379253
 20
9.8485585724249489
 30
0.0
  0
VERTEX
  5
149
100
AcDbEntity
  8
0
  6
CONTINUOUS
 62
               6
100
AcDbVertex
100
AcDb2dVertex
 10
17.704228985379245
 20
6.9888135214249445
 30
0.0
  0
VERTEX
  5
14A
100
AcDbEntity
  8
0
  6
CONTINUOUS
 62
               6
100
AcDbVertex
100
AcDb2dVertex
 10
15.884900697479253
 20
4.2479716570249337
 30
0.0
  0
VERTEX
  5
14B
100
AcDbEntity
  8
0
  6
CONTINUOUS
 62
               6
100
AcDbVertex
100
AcDb2dVertex
 10
13.903459843979249
 20
1.6393807467249388
 30
0.0
  0
VERTEX
  5
14C
100
AcDbEntity
  8
0
  6
CONTINUOUS
 62
               6
100
AcDbVertex
100
AcDb2dVertex
 10
11.769563215679256
 20
-0.82423842417505
 30
0.0
  0
VERTEX
  5
14D
100
AcDbEntity
  8
0
  6
CONTINUOUS
 62
               6
100
AcDbVertex
100
AcDb2dVertex
 10
9.4936058158792491
 20
-3.1308940165750556
 30
0.0
  0
VERTEX
  5
14E
100
AcDbEntity
  8
0
  6
CONTINUOUS
 62
               6
100
AcDbVertex
100
AcDb2dVertex
 10
7.0866769539792358
 20
-5.2693491218750665
 30
0.0
  0
VERTEX
  5
14F
100
AcDbEntity
  8
0
  6
CONTINUOUS
 62
               6
100
AcDbVertex
100
AcDb2dVertex
 10
4.5605025394792449
 20
-7.2291740201750514
 30
0.0
  0
VERTEX
  5
150
100
AcDbEntity
  8
0
  6
CONTINUOUS
 62
               6
100
AcDbVertex
100
AcDb2dVertex
 10
1.9273851159792628
 20
-9.0008317946750509
 30
0.0
  0
VERTEX
  5
151
100
AcDbEntity
  8
0
  6
CONTINUOUS
 62
               6
100
AcDbVertex
100
AcDb2dVertex
 10
-0.7998419799207568
 20
-10.575685224775057
 30
0.0
  0
VERTEX
  5
152
100
AcDbEntity
  8
0
  6
CONTINUOUS
 62
               6
100
AcDbVertex
100
AcDb2dVertex
 10
-3.6078927447207434
 20
-11.946066506975043
 30
0.0
  0
VERTEX
  5
153
100
AcDbEntity
  8
0
  6
CONTINUOUS
 62
               6
100
AcDbVertex
100
AcDb2dVertex
 10
-6.4830866778207508
 20
-13.10529007977506
 30
0.0
  0
VERTEX
  5
154
100
AcDbEntity
  8
0
  6
CONTINUOUS
 62
               6
100
AcDbVertex
100
AcDb2dVertex
 10
-9.4114159763207397
 20
-14.047721167875054
 30
0.0
  0
VERTEX
  5
155
100
AcDbEntity
  8
0
  6
CONTINUOUS
 62
               6
100
AcDbVertex
100
AcDb2dVertex
 10
-12.378615249920756
 20
-14.768758849975043
 30
0.0
  0
VERTEX
  5
156
100
AcDbEntity
  8
0
  6
CONTINUOUS
 62
               6
100
AcDbVertex
100
AcDb2dVertex
 10
-15.370228189020764
 20
-15.264892720475061
 30
0.0
  0
VERTEX
  5
157
100
AcDbEntity
  8
0
  6
CONTINUOUS
 62
               6
100
AcDbVertex
100
AcDb2dVertex
 10
-18.371680016920749
 20
-15.533702414275055
 30
0.0
  0
VERTEX
  5
158
100
AcDbEntity
  8
0
  6
CONTINUOUS
 62
               6
100
AcDbVertex
100
AcDb2dVertex
 10
-21.368347588920756
 20
-15.573886177075039
 30
0.0
  0
VERTEX
  5
159
100
AcDbEntity
  8
0
  6
CONTINUOUS
 62
               6
100
AcDbVertex
100
AcDb2dVertex
 10
-24.345631328520739
 20
-15.385245173275067
 30
0.0
  0
VERTEX
  5
15A
100
AcDbEntity
  8
0
  6
CONTINUOUS
 62
               6
100
AcDbVertex
100
AcDb2dVertex
 10
-27.289026141920743
 20
-14.968693212275056
 30
0.0
  0
VERTEX
  5
15B
100
AcDbEntity
  8
0
  6
CONTINUOUS
 62
               6
100
AcDbVertex
100
AcDb2dVertex
 10
-30.184192823020737
 20
-14.326266500775048
 30
0.0
  0
VERTEX
  5
15C
100
AcDbEntity
  8
0
  6
CONTINUOUS
 62
               6
100
AcDbVertex
100
AcDb2dVertex
 10
-33.017025937820762
 20
-13.461094982075039
 30
0.0
  0
VERTEX
  5
15D
100
AcDbEntity
  8
0
  6
CONTINUOUS
 62
               6
100
AcDbVertex
100
AcDb2dVertex
 10
-35.773724172220739
 20
-12.377386726175061
 30
0.0
  0
VERTEX
  5
15E
100
AcDbEntity
  8
0
  6
CONTINUOUS
 62
               6
100
AcDbVertex
100
AcDb2dVertex
 10
-38.440858058120739
 20
-11.080426498975058
 30
0.0
  0
VERTEX
  5
15F
100
AcDbEntity
  8
0
  6
CONTINUOUS
 62
               6
100
AcDbVertex
100
AcDb2dVertex
 10
-41.005430724320746
 20
-9.5765366851750429
 30
0.0
  0
VERTEX
  5
160
100
AcDbEntity
  8
0
  6
CONTINUOUS
 62
               6
100
AcDbVertex
100
AcDb2dVertex
 10
-43.454952759420763
 20
-7.873035214375065
 30
0.0
  0
VERTEX
  5
161
100
AcDbEntity
  8
0
  6
CONTINUOUS
 62
               6
100
AcDbVertex
100
AcDb2dVertex
 10
-45.777484945220749
 20
-5.9782258083750577
 30
0.0
  0
VERTEX
  5
162
100
AcDbEntity
  8
0
  6
CONTINUOUS
 62
               6
100
AcDbVertex
100
AcDb2dVertex
 10
-47.961716171620765
 20
-3.9013365672750666
 30
0.0
  0
VERTEX
  5
163
100
AcDbEntity
  8
0
  6
CONTINUOUS
 62
               6
100
AcDbVertex
100
AcDb2dVertex
 10
-49.997003215220758
 20
-1.6524955412750586
 30
0.0
  0
VERTEX
  5
164
100
AcDbEntity
  8
0
  6
CONTINUOUS
 62
               6
100
AcDbVertex
100
AcDb2dVertex
 10
-51.873430939220754
 20
0.7573540832249393
 30
0.0
  0
VERTEX
  5
165
100
AcDbEntity
  8
0
  6
CONTINUOUS
 62
               6
100
AcDbVertex
100
AcDb2dVertex
 10
-53.581856436120745
 20
3.3164623154249426
 30
0.0
  0
VERTEX
  5
166
100
AcDbEntity
  8
0
  6
CONTINUOUS
 62
               6
100
AcDbVertex
100
AcDb2dVertex
 10
-55.113958942720757
 20
6.0123668905249446
 30
0.0
  0
VERTEX
  5
167
100
AcDbEntity
  8
0
  6
CONTINUOUS
 62
               6
100
AcDbVertex
100
AcDb2dVertex
 10
-56.462272755220738
 20
8.8319263066249363
 30
0.0
  0
VERTEX
  5
168
100
AcDbEntity
  8
0
  6
CONTINUOUS
 62
               6
100
AcDbVertex
100
AcDb2dVertex
 10
-57.620226213320763
 20
11.761415531224955
 30
0.0
  0
VERTEX
  5
169
100
AcDbEntity
  8
0
  6
CONTINUOUS
 62
               6
100
AcDbVertex
100
AcDb2dVertex
 10
-58.582180438620753
 20
14.786551662624944
 30
0.0
  0
VERTEX
  5
16A
100
AcDbEntity
  8
0
  6
CONTINUOUS
 62
               6
100
AcDbVertex
100
AcDb2dVertex
 10
-59.343453947720747
 20
17.892598312024958
 30
0.0
  0
VERTEX
  5
16B
100
AcDbEntity
  8
0
  6
CONTINUOUS
 62
               6
100
AcDbVertex
100
AcDb2dVertex
 10
-59.900330007420763
 20
21.064432298324945
 30
0.0
  0
VERTEX
  5
16C
100
AcDbEntity
  8
0
  6
CONTINUOUS
 62
               6
100
AcDbVertex
100
AcDb2dVertex
 10
-60.250097307020752
 20
24.286588400824954
 30
0.0
  0
VERTEX
  5
16D
100
AcDbEntity
  8
0
  6
CONTINUOUS
 62
               6
100
AcDbVertex
100
AcDb2dVertex
 10
-60.39105252342074
 20
27.543374315624945
 30
0.0
  0
VERTEX
  5
16E
100
AcDbEntity
  8
0
  6
CONTINUOUS
 62
               6
100
AcDbVertex
100
AcDb2dVertex
 10
-60.322512060820742
 20
30.818927922224944
 30
0.0
  0
VERTEX
  5
16F
100
AcDbEntity
  8
0
  6
CONTINUOUS
 62
               6
100
AcDbVertex
100
AcDb2dVertex
 10
-60.044805373420758
 20
34.097282462124937
 30
0.0
  0
VERTEX
  5
170
100
AcDbEntity
  8
0
  6
CONTINUOUS
 62
               6
100
AcDbVertex
100
AcDb2dVertex
 10
-59.559288381220739
 20
37.362466703624946
 30
0.0
  0
VERTEX
  5
171
100
AcDbEntity
  8
0
  6
CONTINUOUS
 62
               6
100
AcDbVertex
100
AcDb2dVertex
 10
-58.86832480672075
 20
40.598586990524936
 30
0.0
  0
VERTEX
  5
172
100
AcDbEntity
  8
0
  6
CONTINUOUS
 62
               6
100
AcDbVertex
100
AcDb2dVertex
 10
-57.975282551820754
 20
43.789859104624938
 30
0.0
  0
VERTEX
  5
173
100
AcDbEntity
  8
0
  6
CONTINUOUS
 62
               6
100
AcDbVertex
100
AcDb2dVertex
 10
-56.884509336020756
 20
46.920739242824951
 30
0.0
  0
VERTEX
  5
174
100
AcDbEntity
  8
0
  6
CONTINUOUS
 62
               6
100
AcDbVertex
100
AcDb2dVertex
 10
-55.601323520320761
 20
49.975981706324959
 30
0.0
  0
VERTEX
  5
175
100
AcDbEntity
  8
0
  6
CONTINUOUS
 62
               6
100
AcDbVertex
100
AcDb2dVertex
 10
-54.131973614120739
 20
52.940700910724942
 30
0.0
  0
VERTEX
  5
176
100
AcDbEntity
  8
0
  6
CONTINUOUS
 62
               6
100
AcDbVertex
100
AcDb2dVertex
 10
-52.483620439520763
 20
55.800439154124959
 30
0.0
  0
VERTEX
  5
177
100
AcDbEntity
  8
0
  6
CONTINUOUS
 62
               6
100
AcDbVertex
100
AcDb2dVertex
 10
-50.664292191220738
 20
58.541287826124957
 30
0.0
  0
VERTEX
  5
178
100
AcDbEntity
  8
0
  6
CONTINUOUS
 62
               6
100
AcDbVertex
100
AcDb2dVertex
 10
-48.682852205720764
 20
61.149871263424942
 30
0.0
  0
VERTEX
  5
179
100
AcDbEntity
  8
0
  6
CONTINUOUS
 62
               6
100
AcDbVertex
100
AcDb2dVertex
 10
-46.54895384142074
 20
63.613505380224936
 30
0.0
  0
VERTEX
  5
17A
100
AcDbEntity
  8
0
  6
CONTINUOUS
 62
               6
100
AcDbVertex
100
AcDb2dVertex
 10
-44.272997349220759
 20
65.920160307224947
 30
0.0
  0
VERTEX
  5
17B
100
AcDbEntity
  8
0
  6
CONTINUOUS
 62
               6
100
AcDbVertex
100
AcDb2dVertex
 10
-41.866068861820764
 20
68.058601464724958
 30
0.0
  0
VERTEX
  5
17C
100
AcDbEntity
  8
0
  6
CONTINUOUS
 62
               6
100
AcDbVertex
100
AcDb2dVertex
 10
-39.339893125620762
 20
70.01843416862495
 30
0.0
  0
VERTEX
  5
17D
100
AcDbEntity
  8
0
  6
CONTINUOUS
 62
               6
100
AcDbVertex
100
AcDb2dVertex
 10
-36.70677615592075
 20
71.790091610424938
 30
0.0
  0
VERTEX
  5
17E
100
AcDbEntity
  8
0
  6
CONTINUOUS
 62
               6
100
AcDbVertex
100
AcDb2dVertex
 10
-33.979549513820757
 20
73.364944707824961
 30
0.0
  0
VERTEX
  5
17F
100
AcDbEntity
  8
0
  6
CONTINUOUS
 62
               6
100
AcDbVertex
100
AcDb2dVertex
 10
-31.171498749020742
 20
74.735325990024947
 30
0.0
  0
VERTEX
  5
180
100
AcDbEntity
  8
0
  6
CONTINUOUS
 62
               6
100
AcDbVertex
100
AcDb2dVertex
 10
-28.296304855620747
 20
75.894556370424951
 30
0.0
  0
VERTEX
  5
181
100
AcDbEntity
  8
0
  6
CONTINUOUS
 62
               6
100
AcDbVertex
100
AcDb2dVertex
 10
-25.367975063620747
 20
76.83698098362494
 30
0.0
  0
VERTEX
  5
182
100
AcDbEntity
  8
0
  6
CONTINUOUS
 62
               6
100
AcDbVertex
100
AcDb2dVertex
 10
-22.400776243820758
 20
77.558018333124934
 30
0.0
  0
VERTEX
  5
183
100
AcDbEntity
  8
0
  6
CONTINUOUS
 62
               6
100
AcDbVertex
100
AcDb2dVertex
 10
-19.409162624020752
 20
78.054152702624961
 30
0.0
  0
VERTEX
  5
184
100
AcDbEntity
  8
0
  6
CONTINUOUS
 62
               6
100
AcDbVertex
100
AcDb2dVertex
 10
-16.407711516420761
 20
78.322968705024934
 30
0.0
  0
VERTEX
  5
185
100
AcDbEntity
  8
0
  6
CONTINUOUS
 62
               6
100
AcDbVertex
100
AcDb2dVertex
 10
-13.411043717520755
 20
78.363152634124944
 30
0.0
  0
VERTEX
  5
186
100
AcDbEntity
  8
0
  6
CONTINUOUS
 62
               6
100
AcDbVertex
100
AcDb2dVertex
 10
-10.433759898720751
 20
78.174498015124939
 30
0.0
  0
VERTEX
  5
187
100
AcDbEntity
  8
0
  6
CONTINUOUS
 62
               6
100
AcDbVertex
100
AcDb2dVertex
 10
-7.490365164520739
 20
77.757959669324933
 30
0.0
  0
VERTEX
  5
188
100
AcDbEntity
  8
0
  6
CONTINUOUS
 62
               6
100
AcDbVertex
100
AcDb2dVertex
 10
-4.5951984834207451
 20
77.115532957824954
 30
0.0
  0
VERTEX
  5
189
100
AcDbEntity
  8
0
  6
CONTINUOUS
 62
               6
100
AcDbVertex
100
AcDb2dVertex
 10
-1.7623652893207407
 20
76.25034782392494
 30
0.0
  0
VERTEX
  5
18A
100
AcDbEntity
  8
0
  6
CONTINUOUS
 62
               6
100
AcDbVertex
100
AcDb2dVertex
 10
0.9943328656792403
 20
75.166653183224938
 30
0.0
  0
VERTEX
  5
18B
100
AcDbEntity
  8
0
  6
CONTINUOUS
 62
               6
100
AcDbVertex
100
AcDb2dVertex
 10
3.6614665246792413
 20
73.869692789724937
 30
0.0
  0
VERTEX
  5
18C
100
AcDbEntity
  8
0
  6
CONTINUOUS
 62
               6
100
AcDbVertex
100
AcDb2dVertex
 10
6.2260399112792584
 20
72.365796667324943
 30
0.0
  0
VERTEX
  5
18D
100
AcDbEntity
  8
0
  6
CONTINUOUS
 62
               6
100
AcDbVertex
100
AcDb2dVertex
 10
8.6755612656792493
 20
70.66229469742494
 30
0.0
  0
VERTEX
  5
18E
100
AcDbEntity
  8
0
  6
CONTINUOUS
 62
               6
100
AcDbVertex
100
AcDb2dVertex
 10
10.998093905179246
 20
68.767485624124944
 30
0.0
  0
VERTEX
  5
18F
100
AcDbEntity
  8
0
  6
CONTINUOUS
 62
               6
100
AcDbVertex
100
AcDb2dVertex
 10
13.182324638279255
 20
66.690602858024945
 30
0.0
  0
VERTEX
  5
190
100
AcDbEntity
  8
0
  6
CONTINUOUS
 62
               6
100
AcDbVertex
100
AcDb2dVertex
 10
15.217611721479244
 20
64.441755024324934
 30
0.0
  0
VERTEX
  5
191
100
AcDbEntity
  8
0
  6
CONTINUOUS
 62
               6
100
AcDbVertex
100
AcDb2dVertex
 10
17.09403944547924
 20
62.031905399824936
 30
0.0
  0
VERTEX
  5
192
100
AcDbEntity
  8
0
  6
CONTINUOUS
 62
               6
100
AcDbVertex
100
AcDb2dVertex
 10
18.802465396179258
 20
59.47279750042496
 30
0.0
  0
VERTEX
  5
193
100
AcDbEntity
  8
0
  6
CONTINUOUS
 62
               6
100
AcDbVertex
100
AcDb2dVertex
 10
20.33456835657924
 20
56.776893257924954
 30
0.0
  0
VERTEX
  5
194
100
AcDbEntity
  8
0
  6
CONTINUOUS
 62
               6
100
AcDbVertex
100
AcDb2dVertex
 10
21.68288084727925
 20
53.957326036224956
 30
0.0
  0
VERTEX
  5
195
100
AcDbEntity
  8
0
  6
CONTINUOUS
 62
               6
100
AcDbVertex
100
AcDb2dVertex
 10
22.840834679879237
 20
51.027850759524952
 30
0.0
  0
VERTEX
  5
196
100
AcDbEntity
  8
0
  6
CONTINUOUS
 62
               6
100
AcDbVertex
100
AcDb2dVertex
 10
23.80278981287924
 20
48.002715293524957
 30
0.0
  0
VERTEX
  5
197
100
AcDbEntity
  8
0
  6
CONTINUOUS
 62
               6
100
AcDbVertex
100
AcDb2dVertex
 10
24.56406158597926
 20
44.89665369812495
 30
0.0
  0
VERTEX
  5
198
100
AcDbEntity
  8
0
  6
CONTINUOUS
 62
               6
100
AcDbVertex
100
AcDb2dVertex
 10
25.120938513579262
 20
41.724827184824946
 30
0.0
  0
VERTEX
  5
199
100
AcDbEntity
  8
0
  6
CONTINUOUS
 62
               6
100
AcDbVertex
100
AcDb2dVertex
 10
25.470705852879263
 20
38.50266427472495
 30
0.0
  0
VERTEX
  5
19A
100
AcDbEntity
  8
0
  6
CONTINUOUS
 62
               6
100
AcDbVertex
100
AcDb2dVertex
 10
25.611661029679254
 20
35.245885167524946
 30
0.0
  0
VERTEX
  5
19B
100
AcDbEntity
  8
0
  6
CONTINUOUS
 62
               6
100
AcDbVertex
100
AcDb2dVertex
 10
25.543120567079256
 20
31.970331560924947
 30
0.0
  0
VERTEX
  5
19C
100
AcDbEntity
  8
0
  6
CONTINUOUS
 62
               6
100
AcDbVertex
100
AcDb2dVertex
 10
25.265413879679244
 20
28.691977021024954
 30
0.0
  0
VERTEX
  5
19D
100
AcDbEntity
  8
0
  6
CONTINUOUS
 62
               6
100
AcDbVertex
100
AcDb2dVertex
 10
24.779896887479254
 20
25.426792779424957
 30
0.0
  0
VERTEX
  5
19E
100
AcDbEntity
  8
0
  6
CONTINUOUS
 62
               6
100
AcDbVertex
100
AcDb2dVertex
 10
24.088934180979237
 20
22.190679965624938
 30
0.0
  0
SEQEND
  5
19F
100
AcDbEntity
  8
0
  6
CONTINUOUS
 62
               6
  0
POLYLINE
  5
1A0
100
AcDbEntity
  8
0
  6
CONTINUOUS
 62
               6
100
AcDb2dPolyline
 66
               1
 10
0.0
 20
0.0
 30
0.0
 75
               5
  0
VERTEX
  5
1A1
100
AcDbEntity
  8
0
  6
CONTINUOUS
 62
               6
100
AcDbVertex
100
AcDb2dVertex
 10
22.791051459679238
 20
22.531923841624959
 30
0.0
  0
VERTEX
  5
1A2
100
AcDbEntity
  8
0
  6
CONTINUOUS
 62
               6
100
AcDbVertex
100
AcDb2dVertex
 10
21.905877583179262
 20
19.373042001724954
 30
0.0
  0
VERTEX
  5
1A3
100
AcDbEntity
  8
0
  6
CONTINUOUS
 62
               6
100
AcDbVertex
100
AcDb2dVertex
 10
20.822820063779261
 20
16.274790062524957
 30
0.0
  0
VERTEX
  5
1A4
100
AcDbEntity
  8
0
  6
CONTINUOUS
 62
               6
100
AcDbVertex
100
AcDb2dVertex
 10
19.547273393679262
 20
13.252588874724935
 30
0.0
  0
VERTEX
  5
1A5
100
AcDbEntity
  8
0
  6
CONTINUOUS
 62
               6
100
AcDbVertex
100
AcDb2dVertex
 10
18.08559269707925
 20
10.321510342424958
 30
0.0
  0
VERTEX
  5
1A6
100
AcDbEntity
  8
0
  6
CONTINUOUS
 62
               6
100
AcDbVertex
100
AcDb2dVertex
 10
16.445062934679243
 20
7.4961554039249592
 30
0.0
  0
VERTEX
  5
1A7
100
AcDbEntity
  8
0
  6
CONTINUOUS
 62
               6
100
AcDbVertex
100
AcDb2dVertex
 10
14.633852208679258
 20
4.7905893363249419
 30
0.0
  0
VERTEX
  5
1A8
100
AcDbEntity
  8
0
  6
CONTINUOUS
 62
               6
100
AcDbVertex
100
AcDb2dVertex
 10
12.660984387179241
 20
2.2183067661249396
 30
0.0
  0
VERTEX
  5
1A9
100
AcDbEntity
  8
0
  6
CONTINUOUS
 62
               6
100
AcDbVertex
100
AcDb2dVertex
 10
10.536292991679261
 20
-0.2078928828750435
 30
0.0
  0
VERTEX
  5
1AA
100
AcDbEntity
  8
0
  6
CONTINUOUS
 62
               6
100
AcDbVertex
100
AcDb2dVertex
 10
8.2703579191792471
 20
-2.4759120151750409
 30
0.0
  0
VERTEX
  5
1AB
100
AcDbEntity
  8
0
  6
CONTINUOUS
 62
               6
100
AcDbVertex
100
AcDb2dVertex
 10
5.8744723739792448
 20
-4.5744599092750633
 30
0.0
  0
VERTEX
  5
1AC
100
AcDbEntity
  8
0
  6
CONTINUOUS
 62
               6
100
AcDbVertex
100
AcDb2dVertex
 10
3.3605701759792623
 20
-6.4930761885750456
 30
0.0
  0
VERTEX
  5
1AD
100
AcDbEntity
  8
0
  6
CONTINUOUS
 62
               6
100
AcDbVertex
100
AcDb2dVertex
 10
0.7411750194792433
 20
-8.2222012830750515
 30
0.0
  0
VERTEX
  5
1AE
100
AcDbEntity
  8
0
  6
CONTINUOUS
 62
               6
100
AcDbVertex
100
AcDb2dVertex
 10
-1.9706611685207633
 20
-9.7532191458750646
 30
0.0
  0
VERTEX
  5
1AF
100
AcDbEntity
  8
0
  6
CONTINUOUS
 62
               6
100
AcDbVertex
100
AcDb2dVertex
 10
-4.7614313656207514
 20
-11.078512750275067
 30
0.0
  0
VERTEX
  5
1B0
100
AcDbEntity
  8
0
  6
CONTINUOUS
 62
               6
100
AcDbVertex
100
AcDb2dVertex
 10
-7.6172309088207442
 20
-12.191463340375051
 30
0.0
  0
VERTEX
  5
1B1
100
AcDbEntity
  8
0
  6
CONTINUOUS
 62
               6
100
AcDbVertex
100
AcDb2dVertex
 10
-10.523832059720746
 20
-13.086539604875057
 30
0.0
  0
VERTEX
  5
1B2
100
AcDbEntity
  8
0
  6
CONTINUOUS
 62
               6
100
AcDbVertex
100
AcDb2dVertex
 10
-13.466752924420746
 20
-13.759280786075053
 30
0.0
  0
VERTEX
  5
1B3
100
AcDbEntity
  8
0
  6
CONTINUOUS
 62
               6
100
AcDbVertex
100
AcDb2dVertex
 10
-16.431333981320762
 20
-14.206330892675041
 30
0.0
  0
VERTEX
  5
1B4
100
AcDbEntity
  8
0
  6
CONTINUOUS
 62
               6
100
AcDbVertex
100
AcDb2dVertex
 10
-19.402804700620749
 20
-14.425466578775044
 30
0.0
  0
VERTEX
  5
1B5
100
AcDbEntity
  8
0
  6
CONTINUOUS
 62
               6
100
AcDbVertex
100
AcDb2dVertex
 10
-22.366363959620742
 20
-14.415593033475048
 30
0.0
  0
VERTEX
  5
1B6
100
AcDbEntity
  8
0
  6
CONTINUOUS
 62
               6
100
AcDbVertex
100
AcDb2dVertex
 10
-25.30724249452075
 20
-14.176760649175051
 30
0.0
  0
VERTEX
  5
1B7
100
AcDbEntity
  8
0
  6
CONTINUOUS
 62
               6
100
AcDbVertex
100
AcDb2dVertex
 10
-28.210793356620741
 20
-13.71015722047504
 30
0.0
  0
VERTEX
  5
1B8
100
AcDbEntity
  8
0
  6
CONTINUOUS
 62
               6
100
AcDbVertex
100
AcDb2dVertex
 10
-31.062548087720756
 20
-13.018108805875059
 30
0.0
  0
VERTEX
  5
1B9
100
AcDbEntity
  8
0
  6
CONTINUOUS
 62
               6
100
AcDbVertex
100
AcDb2dVertex
 10
-33.848303850020756
 20
-12.104069196875045
 30
0.0
  0
VERTEX
  5
1BA
100
AcDbEntity
  8
0
  6
CONTINUOUS
 62
               6
100
AcDbVertex
100
AcDb2dVertex
 10
-36.554177313120761
 20
-10.972578761175058
 30
0.0
  0
VERTEX
  5
1BB
100
AcDbEntity
  8
0
  6
CONTINUOUS
 62
               6
100
AcDbVertex
100
AcDb2dVertex
 10
-39.166689276820762
 20
-9.6292849953750448
 30
0.0
  0
VERTEX
  5
1BC
100
AcDbEntity
  8
0
  6
CONTINUOUS
 62
               6
100
AcDbVertex
100
AcDb2dVertex
 10
-41.672826281920749
 20
-8.0808793929750635
 30
0.0
  0
VERTEX
  5
1BD
100
AcDbEntity
  8
0
  6
CONTINUOUS
 62
               6
100
AcDbVertex
100
AcDb2dVertex
 10
-44.060098831820738
 20
-6.3350758576750508
 30
0.0
  0
VERTEX
  5
1BE
100
AcDbEntity
  8
0
  6
CONTINUOUS
 62
               6
100
AcDbVertex
100
AcDb2dVertex
 10
-46.316620636220762
 20
-4.4005643262750453
 30
0.0
  0
VERTEX
  5
1BF
100
AcDbEntity
  8
0
  6
CONTINUOUS
 62
               6
100
AcDbVertex
100
AcDb2dVertex
 10
-48.431141277720741
 20
-2.2869895157750619
 30
0.0
  0
VERTEX
  5
1C0
100
AcDbEntity
  8
0
  6
CONTINUOUS
 62
               6
100
AcDbVertex
100
AcDb2dVertex
 10
-50.393134302920743
 20
-0.0048839207750433
 30
0.0
  0
VERTEX
  5
1C1
100
AcDbEntity
  8
0
  6
CONTINUOUS
 62
               6
100
AcDbVertex
100
AcDb2dVertex
 10
-52.192820138520744
 20
2.4343870035249466
 30
0.0
  0
VERTEX
  5
1C2
100
AcDbEntity
  8
0
  6
CONTINUOUS
 62
               6
100
AcDbVertex
100
AcDb2dVertex
 10
-53.821232600420757
 20
5.01867705992494
 30
0.0
  0
VERTEX
  5
1C3
100
AcDbEntity
  8
0
  6
CONTINUOUS
 62
               6
100
AcDbVertex
100
AcDb2dVertex
 10
-55.27026179592076
 20
7.7350996272249546
 30
0.0
  0
VERTEX
  5
1C4
100
AcDbEntity
  8
0
  6
CONTINUOUS
 62
               6
100
AcDbVertex
100
AcDb2dVertex
 10
-56.532686869720749
 20
10.570133847324954
 30
0.0
  0
VERTEX
  5
1C5
100
AcDbEntity
  8
0
  6
CONTINUOUS
 62
               6
100
AcDbVertex
100
AcDb2dVertex
 10
-57.602220414820749
 20
13.509644881024954
 30
0.0
  0
VERTEX
  5
1C6
100
AcDbEntity
  8
0
  6
CONTINUOUS
 62
               6
100
AcDbVertex
100
AcDb2dVertex
 10
-58.473531875220743
 20
16.538991353924942
 30
0.0
  0
VERTEX
  5
1C7
100
AcDbEntity
  8
0
  6
CONTINUOUS
 62
               6
100
AcDbVertex
100
AcDb2dVertex
 10
-59.142283079420764
 20
19.643086304124935
 30
0.0
  0
VERTEX
  5
1C8
100
AcDbEntity
  8
0
  6
CONTINUOUS
 62
               6
100
AcDbVertex
100
AcDb2dVertex
 10
-59.605137144220748
 20
22.806457150924942
 30
0.0
  0
VERTEX
  5
1C9
100
AcDbEntity
  8
0
  6
CONTINUOUS
 62
               6
100
AcDbVertex
100
AcDb2dVertex
 10
-59.859792052820751
 20
26.013352202024933
 30
0.0
  0
VERTEX
  5
1CA
100
AcDbEntity
  8
0
  6
CONTINUOUS
 62
               6
100
AcDbVertex
100
AcDb2dVertex
 10
-59.904980177520741
 20
29.247795073524955
 30
0.0
  0
VERTEX
  5
1CB
100
AcDbEntity
  8
0
  6
CONTINUOUS
 62
               6
100
AcDbVertex
100
AcDb2dVertex
 10
-59.74047711192074
 20
32.493660244524946
 30
0.0
  0
VERTEX
  5
1CC
100
AcDbEntity
  8
0
  6
CONTINUOUS
 62
               6
100
AcDbVertex
100
AcDb2dVertex
 10
-59.36709856402075
 20
35.73479341862496
 30
0.0
  0
VERTEX
  5
1CD
100
AcDbEntity
  8
0
  6
CONTINUOUS
 62
               6
100
AcDbVertex
100
AcDb2dVertex
 10
-58.786703953820762
 20
38.955031256024952
 30
0.0
  0
VERTEX
  5
1CE
100
AcDbEntity
  8
0
  6
CONTINUOUS
 62
               6
100
AcDbVertex
100
AcDb2dVertex
 10
-58.002188356920755
 20
42.138342766624945
 30
0.0
  0
VERTEX
  5
1CF
100
AcDbEntity
  8
0
  6
CONTINUOUS
 62
               6
100
AcDbVertex
100
AcDb2dVertex
 10
-57.017459892820739
 20
45.268859559924934
 30
0.0
  0
VERTEX
  5
1D0
100
AcDbEntity
  8
0
  6
CONTINUOUS
 62
               6
100
AcDbVertex
100
AcDb2dVertex
 10
-55.837422207620762
 20
48.330998073524952
 30
0.0
  0
VERTEX
  5
1D1
100
AcDbEntity
  8
0
  6
CONTINUOUS
 62
               6
100
AcDbVertex
100
AcDb2dVertex
 10
-54.467955492720762
 20
51.309487162124938
 30
0.0
  0
VERTEX
  5
1D2
100
AcDbEntity
  8
0
  6
CONTINUOUS
 62
               6
100
AcDbVertex
100
AcDb2dVertex
 10
-52.915882364420753
 20
54.189496907324937
 30
0.0
  0
VERTEX
  5
1D3
100
AcDbEntity
  8
0
  6
CONTINUOUS
 62
               6
100
AcDbVertex
100
AcDb2dVertex
 10
-51.188935499020744
 20
56.956687831824937
 30
0.0
  0
VERTEX
  5
1D4
100
AcDbEntity
  8
0
  6
CONTINUOUS
 62
               6
100
AcDbVertex
100
AcDb2dVertex
 10
-49.295721598220752
 20
59.597255965724955
 30
0.0
  0
VERTEX
  5
1D5
100
AcDbEntity
  8
0
  6
CONTINUOUS
 62
               6
100
AcDbVertex
100
AcDb2dVertex
 10
-47.245663549920749
 20
62.098050462624954
 30
0.0
  0
VERTEX
  5
1D6
100
AcDbEntity
  8
0
  6
CONTINUOUS
 62
               6
100
AcDbVertex
100
AcDb2dVertex
 10
-45.048983268220752
 20
64.446620986224943
 30
0.0
  0
VERTEX
  5
1D7
100
AcDbEntity
  8
0
  6
CONTINUOUS
 62
               6
100
AcDbVertex
100
AcDb2dVertex
 10
-42.716618950020745
 20
66.631277142524951
 30
0.0
  0
VERTEX
  5
1D8
100
AcDbEntity
  8
0
  6
CONTINUOUS
 62
               6
100
AcDbVertex
100
AcDb2dVertex
 10
-40.260194744920739
 20
68.64110574932495
 30
0.0
  0
VERTEX
  5
1D9
100
AcDbEntity
  8
0
  6
CONTINUOUS
 62
               6
100
AcDbVertex
100
AcDb2dVertex
 10
-37.69194627852076
 20
70.466109354724935
 30
0.0
  0
VERTEX
  5
1DA
100
AcDbEntity
  8
0
  6
CONTINUOUS
 62
               6
100
AcDbVertex
100
AcDb2dVertex
 10
-35.024669095020755
 20
72.097194634124961
 30
0.0
  0
VERTEX
  5
1DB
100
AcDbEntity
  8
0
  6
CONTINUOUS
 62
               6
100
AcDbVertex
100
AcDb2dVertex
 10
-32.271650137320762
 20
73.52623817542495
 30
0.0
  0
VERTEX
  5
1DC
100
AcDbEntity
  8
0
  6
CONTINUOUS
 62
               6
100
AcDbVertex
100
AcDb2dVertex
 10
-29.446604856620752
 20
74.746125452024941
 30
0.0
  0
VERTEX
  5
1DD
100
AcDbEntity
  8
0
  6
CONTINUOUS
 62
               6
100
AcDbVertex
100
AcDb2dVertex
 10
-26.563610455020751
 20
75.750762174924958
 30
0.0
  0
VERTEX
  5
1DE
100
AcDbEntity
  8
0
  6
CONTINUOUS
 62
               6
100
AcDbVertex
100
AcDb2dVertex
 10
-23.637024701920751
 20
76.535162729624957
 30
0.0
  0
VERTEX
  5
1DF
100
AcDbEntity
  8
0
  6
CONTINUOUS
 62
               6
100
AcDbVertex
100
AcDb2dVertex
 10
-20.681433519320763
 20
77.095416984724935
 30
0.0
  0
VERTEX
  5
1E0
100
AcDbEntity
  8
0
  6
CONTINUOUS
 62
               6
100
AcDbVertex
100
AcDb2dVertex
 10
-17.711557013220755
 20
77.428709637224941
 30
0.0
  0
VERTEX
  5
1E1
100
AcDbEntity
  8
0
  6
CONTINUOUS
 62
               6
100
AcDbVertex
100
AcDb2dVertex
 10
-14.742193271320758
 20
77.533405091424939
 30
0.0
  0
VERTEX
  5
1E2
100
AcDbEntity
  8
0
  6
CONTINUOUS
 62
               6
100
AcDbVertex
100
AcDb2dVertex
 10
-11.788133928120743
 20
77.408970703324954
 30
0.0
  0
VERTEX
  5
1E3
100
AcDbEntity
  8
0
  6
CONTINUOUS
 62
               6
100
AcDbVertex
100
AcDb2dVertex
 10
-8.8640972647207548
 20
77.056029923524946
 30
0.0
  0
VERTEX
  5
1E4
100
AcDbEntity
  8
0
  6
CONTINUOUS
 62
               6
100
AcDbVertex
100
AcDb2dVertex
 10
-5.9846504981207431
 20
76.476351987724954
 30
0.0
  0
VERTEX
  5
1E5
100
AcDbEntity
  8
0
  6
CONTINUOUS
 62
               6
100
AcDbVertex
100
AcDb2dVertex
 10
-3.1641389092207532
 20
75.672807695324948
 30
0.0
  0
VERTEX
  5
1E6
100
AcDbEntity
  8
0
  6
CONTINUOUS
 62
               6
100
AcDbVertex
100
AcDb2dVertex
 10
-0.4166136676207373
 20
74.649396353424933
 30
0.0
  0
VERTEX
  5
1E7
100
AcDbEntity
  8
0
  6
CONTINUOUS
 62
               6
100
AcDbVertex
100
AcDb2dVertex
 10
2.244237481879253
 20
73.411242694024949
 30
0.0
  0
VERTEX
  5
1E8
100
AcDbEntity
  8
0
  6
CONTINUOUS
 62
               6
100
AcDbVertex
100
AcDb2dVertex
 10
4.8051574655792422
 20
71.964496466324945
 30
0.0
  0
VERTEX
  5
1E9
100
AcDbEntity
  8
0
  6
CONTINUOUS
 62
               6
100
AcDbVertex
100
AcDb2dVertex
 10
7.2533882773792584
 20
70.316356318824958
 30
0.0
  0
VERTEX
  5
1EA
100
AcDbEntity
  8
0
  6
CONTINUOUS
 62
               6
100
AcDbVertex
100
AcDb2dVertex
 10
9.5767313597792452
 20
68.475050767424946
 30
0.0
  0
VERTEX
  5
1EB
100
AcDbEntity
  8
0
  6
CONTINUOUS
 62
               6
100
AcDbVertex
100
AcDb2dVertex
 10
11.763615294679255
 20
66.449749552324946
 30
0.0
  0
VERTEX
  5
1EC
100
AcDbEntity
  8
0
  6
CONTINUOUS
 62
               6
100
AcDbVertex
100
AcDb2dVertex
 10
13.803143561279256
 20
64.250543506924956
 30
0.0
  0
VERTEX
  5
1ED
100
AcDbEntity
  8
0
  6
CONTINUOUS
 62
               6
100
AcDbVertex
100
AcDb2dVertex
 10
15.685154373779255
 20
61.888370821924937
 30
0.0
  0
VERTEX
  5
1EE
100
AcDbEntity
  8
0
  6
CONTINUOUS
 62
               6
100
AcDbVertex
100
AcDb2dVertex
 10
17.400271172179259
 20
59.375034499424956
 30
0.0
  0
VERTEX
  5
1EF
100
AcDbEntity
  8
0
  6
CONTINUOUS
 62
               6
100
AcDbVertex
100
AcDb2dVertex
 10
18.939951425279247
 20
56.723019685124953
 30
0.0
  0
VERTEX
  5
1F0
100
AcDbEntity
  8
0
  6
CONTINUOUS
 62
               6
100
AcDbVertex
100
AcDb2dVertex
 10
20.296523602979249
 20
53.945566778824954
 30
0.0
  0
VERTEX
  5
1F1
100
AcDbEntity
  8
0
  6
CONTINUOUS
 62
               6
100
AcDbVertex
100
AcDb2dVertex
 10
21.463229282479261
 20
51.056499083024946
 30
0.0
  0
VERTEX
  5
1F2
100
AcDbEntity
  8
0
  6
CONTINUOUS
 62
               6
100
AcDbVertex
100
AcDb2dVertex
 10
22.434256891279261
 20
48.070204046824941
 30
0.0
  0
VERTEX
  5
1F3
100
AcDbEntity
  8
0
  6
CONTINUOUS
 62
               6
100
AcDbVertex
100
AcDb2dVertex
 10
23.204767256179252
 20
45.001569035624939
 30
0.0
  0
VERTEX
  5
1F4
100
AcDbEntity
  8
0
  6
CONTINUOUS
 62
               6
100
AcDbVertex
100
AcDb2dVertex
 10
23.770925552579257
 20
41.865879220524945
 30
0.0
  0
VERTEX
  5
1F5
100
AcDbEntity
  8
0
  6
CONTINUOUS
 62
               6
100
AcDbVertex
100
AcDb2dVertex
 10
24.129904346979259
 20
38.678757042024941
 30
0.0
  0
VERTEX
  5
1F6
100
AcDbEntity
  8
0
  6
CONTINUOUS
 62
               6
100
AcDbVertex
100
AcDb2dVertex
 10
24.279919095479244
 20
35.456086940524941
 30
0.0
  0
VERTEX
  5
1F7
100
AcDbEntity
  8
0
  6
CONTINUOUS
 62
               6
100
AcDbVertex
100
AcDb2dVertex
 10
24.220224539479261
 20
32.213912034524938
 30
0.0
  0
VERTEX
  5
1F8
100
AcDbEntity
  8
0
  6
CONTINUOUS
 62
               6
100
AcDbVertex
100
AcDb2dVertex
 10
23.951114262779242
 20
28.968394022324944
 30
0.0
  0
VERTEX
  5
1F9
100
AcDbEntity
  8
0
  6
CONTINUOUS
 62
               6
100
AcDbVertex
100
AcDb2dVertex
 10
23.473931086279237
 20
25.735694022524953
 30
0.0
  0
VERTEX
  5
1FA
100
AcDbEntity
  8
0
  6
CONTINUOUS
 62
               6
100
AcDbVertex
100
AcDb2dVertex
 10
22.791051459679238
 20
22.531923841624959
 30
0.0
  0
SEQEND
  5
1FB
100
AcDbEntity
  8
0
  6
CONTINUOUS
 62
               6
  0
POLYLINE
  5
1FC
100
AcDbEntity
  8
0
  6
CONTINUOUS
 62
               6
100
AcDb2dPolyline
 66
               1
 10
0.0
 20
0.0
 30
0.0
 75
               5
  0
VERTEX
  5
1FD
100
AcDbEntity
  8
0
  6
CONTINUOUS
 62
               6
100
AcDbVertex
100
AcDb2dVertex
 10
-39.42689440762075
 20
36.337854471224958
 30
0.0
  0
VERTEX
  5
1FE
100
AcDbEntity
  8
0
  6
CONTINUOUS
 62
               6
100
AcDbVertex
100
AcDb2dVertex
 10
-38.755028531120757
 20
38.632280852524943
 30
0.0
  0
VERTEX
  5
1FF
100
AcDbEntity
  8
0
  6
CONTINUOUS
 62
               6
100
AcDbVertex
100
AcDb2dVertex
 10
-37.887645520320746
 20
40.860510845024933
 30
0.0
  0
VERTEX
  5
200
100
AcDbEntity
  8
0
  6
CONTINUOUS
 62
               6
100
AcDbVertex
100
AcDb2dVertex
 10
-36.832842110920751
 20
43.001734131424953
 30
0.0
  0
VERTEX
  5
201
100
AcDbEntity
  8
0
  6
CONTINUOUS
 62
               6
100
AcDbVertex
100
AcDb2dVertex
 10
-35.600469606820752
 20
45.035966745524959
 30
0.0
  0
VERTEX
  5
202
100
AcDbEntity
  8
0
  6
CONTINUOUS
 62
               6
100
AcDbVertex
100
AcDb2dVertex
 10
-34.202032175820761
 20
46.944209552024958
 30
0.0
  0
VERTEX
  5
203
100
AcDbEntity
  8
0
  6
CONTINUOUS
 62
               6
100
AcDbVertex
100
AcDb2dVertex
 10
-32.650586591420762
 20
48.708644509724948
 30
0.0
  0
VERTEX
  5
204
100
AcDbEntity
  8
0
  6
CONTINUOUS
 62
               6
100
AcDbVertex
100
AcDb2dVertex
 10
-30.96061984032076
 20
50.312798690924936
 30
0.0
  0
VERTEX
  5
205
100
AcDbEntity
  8
0
  6
CONTINUOUS
 62
               6
100
AcDbVertex
100
AcDb2dVertex
 10
-29.14791019522076
 20
51.741692769624947
 30
0.0
  0
VERTEX
  5
206
100
AcDbEntity
  8
0
  6
CONTINUOUS
 62
               6
100
AcDbVertex
100
AcDb2dVertex
 10
-27.22938084172074
 20
52.982003051324952
 30
0.0
  0
VERTEX
  5
207
100
AcDbEntity
  8
0
  6
CONTINUOUS
 62
               6
100
AcDbVertex
100
AcDb2dVertex
 10
-25.222947216320762
 20
54.022120127424941
 30
0.0
  0
VERTEX
  5
208
100
AcDbEntity
  8
0
  6
CONTINUOUS
 62
               6
100
AcDbVertex
100
AcDb2dVertex
 10
-23.147340840320737
 20
54.852358549224945
 30
0.0
  0
VERTEX
  5
209
100
AcDbEntity
  8
0
  6
CONTINUOUS
 62
               6
100
AcDbVertex
100
AcDb2dVertex
 10
-21.021941927220752
 20
55.46494828792494
 30
0.0
  0
VERTEX
  5
20A
100
AcDbEntity
  8
0
  6
CONTINUOUS
 62
               6
100
AcDbVertex
100
AcDb2dVertex
 10
-18.866593655620761
 20
55.854172566624939
 30
0.0
  0
VERTEX
  5
20B
100
AcDbEntity
  8
0
  6
CONTINUOUS
 62
               6
100
AcDbVertex
100
AcDb2dVertex
 10
-16.701422262620753
 20
56.016412396124949
 30
0.0
  0
VERTEX
  5
20C
100
AcDbEntity
  8
0
  6
CONTINUOUS
 62
               6
100
AcDbVertex
100
AcDb2dVertex
 10
-14.546640706020753
 20
55.950139142024952
 30
0.0
  0
VERTEX
  5
20D
100
AcDbEntity
  8
0
  6
CONTINUOUS
 62
               6
100
AcDbVertex
100
AcDb2dVertex
 10
-12.422370105920749
 20
55.655977021024952
 30
0.0
  0
VERTEX
  5
20E
100
AcDbEntity
  8
0
  6
CONTINUOUS
 62
               6
100
AcDbVertex
100
AcDb2dVertex
 10
-10.348441913320755
 20
55.136660339824957
 30
0.0
  0
VERTEX
  5
20F
100
AcDbEntity
  8
0
  6
CONTINUOUS
 62
               6
100
AcDbVertex
100
AcDb2dVertex
 10
-8.344220585520759
 20
54.397059535824937
 30
0.0
  0
VERTEX
  5
210
100
AcDbEntity
  8
0
  6
CONTINUOUS
 62
               6
100
AcDbVertex
100
AcDb2dVertex
 10
-6.4284205414207634
 20
53.444059840824949
 30
0.0
  0
VERTEX
  5
211
100
AcDbEntity
  8
0
  6
CONTINUOUS
 62
               6
100
AcDbVertex
100
AcDb2dVertex
 10
-4.6189264778207644
 20
52.28657406682494
 30
0.0
  0
VERTEX
  5
212
100
AcDbEntity
  8
0
  6
CONTINUOUS
 62
               6
100
AcDbVertex
100
AcDb2dVertex
 10
-2.9326354479207453
 20
50.935394178624946
 30
0.0
  0
VERTEX
  5
213
100
AcDbEntity
  8
0
  6
CONTINUOUS
 62
               6
100
AcDbVertex
100
AcDb2dVertex
 10
-1.3852899743207558
 20
49.403146461224949
 30
0.0
  0
VERTEX
  5
214
100
AcDbEntity
  8
0
  6
CONTINUOUS
 62
               6
100
AcDbVertex
100
AcDb2dVertex
 10
0.008660964679251
 20
47.704141220024937
 30
0.0
  0
VERTEX
  5
215
100
AcDbEntity
  8
0
  6
CONTINUOUS
 62
               6
100
AcDbVertex
100
AcDb2dVertex
 10
1.2362037817792384
 20
45.854239784224958
 30
0.0
  0
VERTEX
  5
216
100
AcDbEntity
  8
0
  6
CONTINUOUS
 62
               6
100
AcDbVertex
100
AcDb2dVertex
 10
2.2858761755792614
 20
43.87070240382495
 30
0.0
  0
VERTEX
  5
217
100
AcDbEntity
  8
0
  6
CONTINUOUS
 62
               6
100
AcDbVertex
100
AcDb2dVertex
 10
3.1478784434792431
 20
41.772054226124951
 30
0.0
  0
VERTEX
  5
218
100
AcDbEntity
  8
0
  6
CONTINUOUS
 62
               6
100
AcDbVertex
100
AcDb2dVertex
 10
3.814161303279235
 20
39.57789256222496
 30
0.0
  0
VERTEX
  5
219
100
AcDbEntity
  8
0
  6
CONTINUOUS
 62
               6
100
AcDbVertex
100
AcDb2dVertex
 10
4.2785064490792593
 20
37.308703429824945
 30
0.0
  0
VERTEX
  5
21A
100
AcDbEntity
  8
0
  6
CONTINUOUS
 62
               6
100
AcDbVertex
100
AcDb2dVertex
 10
4.5365764914792521
 20
34.985672890424937
 30
0.0
  0
VERTEX
  5
21B
100
AcDbEntity
  8
0
  6
CONTINUOUS
 62
               6
100
AcDbVertex
100
AcDb2dVertex
 10
4.5859607748792541
 20
32.63049163622496
 30
0.0
  0
VERTEX
  5
21C
100
AcDbEntity
  8
0
  6
CONTINUOUS
 62
               6
100
AcDbVertex
100
AcDb2dVertex
 10
4.4261999422792542
 20
30.265148961224938
 30
0.0
  0
VERTEX
  5
21D
100
AcDbEntity
  8
0
  6
CONTINUOUS
 62
               6
100
AcDbVertex
100
AcDb2dVertex
 10
4.0587840971792559
 20
27.91172912412496
 30
0.0
  0
VERTEX
  5
21E
100
AcDbEntity
  8
0
  6
CONTINUOUS
 62
               6
100
AcDbVertex
100
AcDb2dVertex
 10
3.4871462749792386
 20
25.592210485724948
 30
0.0
  0
VERTEX
  5
21F
100
AcDbEntity
  8
0
  6
CONTINUOUS
 62
               6
100
AcDbVertex
100
AcDb2dVertex
 10
2.716622108379255
 20
23.328232086124942
 30
0.0
  0
VERTEX
  5
220
100
AcDbEntity
  8
0
  6
CONTINUOUS
 62
               6
100
AcDbVertex
100
AcDb2dVertex
 10
1.754404173179239
 20
21.140950788824952
 30
0.0
  0
VERTEX
  5
221
100
AcDbEntity
  8
0
  6
CONTINUOUS
 62
               6
100
AcDbVertex
100
AcDb2dVertex
 10
0.6094794183792374
 20
19.050789064124942
 30
0.0
  0
VERTEX
  5
222
100
AcDbEntity
  8
0
  6
CONTINUOUS
 62
               6
100
AcDbVertex
100
AcDb2dVertex
 10
-0.707463226920737
 20
17.077248845124942
 30
0.0
  0
VERTEX
  5
223
100
AcDbEntity
  8
0
  6
CONTINUOUS
 62
               6
100
AcDbVertex
100
AcDb2dVertex
 10
-2.1841301355207463
 20
15.238762196924952
 30
0.0
  0
VERTEX
  5
224
100
AcDbEntity
  8
0
  6
CONTINUOUS
 62
               6
100
AcDbVertex
100
AcDb2dVertex
 10
-3.8067299723207384
 20
13.55249508482494
 30
0.0
  0
VERTEX
  5
225
100
AcDbEntity
  8
0
  6
CONTINUOUS
 62
               6
100
AcDbVertex
100
AcDb2dVertex
 10
-5.5601150415207599
 20
12.034199289024954
 30
0.0
  0
VERTEX
  5
226
100
AcDbEntity
  8
0
  6
CONTINUOUS
 62
               6
100
AcDbVertex
100
AcDb2dVertex
 10
-7.4279166127207645
 20
10.69803765652496
 30
0.0
  0
VERTEX
  5
227
100
AcDbEntity
  8
0
  6
CONTINUOUS
 62
               6
100
AcDbVertex
100
AcDb2dVertex
 10
-9.3926912929207447
 20
9.5564868617249346
 30
0.0
  0
VERTEX
  5
228
100
AcDbEntity
  8
0
  6
CONTINUOUS
 62
               6
100
AcDbVertex
100
AcDb2dVertex
 10
-11.436099090020747
 20
8.6202178643249425
 30
0.0
  0
VERTEX
  5
229
100
AcDbEntity
  8
0
  6
CONTINUOUS
 62
               6
100
AcDbVertex
100
AcDb2dVertex
 10
-13.539056903720763
 20
7.8979597277249383
 30
0.0
  0
VERTEX
  5
22A
100
AcDbEntity
  8
0
  6
CONTINUOUS
 62
               6
100
AcDbVertex
100
AcDb2dVertex
 10
-15.681933536820765
 20
7.3964638249249361
 30
0.0
  0
VERTEX
  5
22B
100
AcDbEntity
  8
0
  6
CONTINUOUS
 62
               6
100
AcDbVertex
100
AcDb2dVertex
 10
-17.844718489420757
 20
7.1204119808249544
 30
0.0
  0
VERTEX
  5
22C
100
AcDbEntity
  8
0
  6
CONTINUOUS
 62
               6
100
AcDbVertex
100
AcDb2dVertex
 10
-20.007220002520739
 20
7.0723730897249339
 30
0.0
  0
VERTEX
  5
22D
100
AcDbEntity
  8
0
  6
CONTINUOUS
 62
               6
100
AcDbVertex
100
AcDb2dVertex
 10
-22.14924717652076
 20
7.2528025983249478
 30
0.0
  0
VERTEX
  5
22E
100
AcDbEntity
  8
0
  6
CONTINUOUS
 62
               6
100
AcDbVertex
100
AcDb2dVertex
 10
-24.25080060222075
 20
7.6600165470249379
 30
0.0
  0
VERTEX
  5
22F
100
AcDbEntity
  8
0
  6
CONTINUOUS
 62
               6
100
AcDbVertex
100
AcDb2dVertex
 10
-26.292259543120764
 20
8.2902143074249608
 30
0.0
  0
VERTEX
  5
230
100
AcDbEntity
  8
0
  6
CONTINUOUS
 62
               6
100
AcDbVertex
100
AcDb2dVertex
 10
-28.254561702720764
 20
9.1375066073249371
 30
0.0
  0
VERTEX
  5
231
100
AcDbEntity
  8
0
  6
CONTINUOUS
 62
               6
100
AcDbVertex
100
AcDb2dVertex
 10
-30.119387456920748
 20
10.193980139624941
 30
0.0
  0
VERTEX
  5
232
100
AcDbEntity
  8
0
  6
CONTINUOUS
 62
               6
100
AcDbVertex
100
AcDb2dVertex
 10
-31.869322368020761
 20
11.449779887724944
 30
0.0
  0
VERTEX
  5
233
100
AcDbEntity
  8
0
  6
CONTINUOUS
 62
               6
100
AcDbVertex
100
AcDb2dVertex
 10
-33.488031011220755
 20
12.893173158624947
 30
0.0
  0
VERTEX
  5
234
100
AcDbEntity
  8
0
  6
CONTINUOUS
 62
               6
100
AcDbVertex
100
AcDb2dVertex
 10
-34.960397554820759
 20
14.510686767824936
 30
0.0
  0
VERTEX
  5
235
100
AcDbEntity
  8
0
  6
CONTINUOUS
 62
               6
100
AcDbVertex
100
AcDb2dVertex
 10
-36.27267650952075
 20
16.287220612924941
 30
0.0
  0
VERTEX
  5
236
100
AcDbEntity
  8
0
  6
CONTINUOUS
 62
               6
100
AcDbVertex
100
AcDb2dVertex
 10
-37.412618085020739
 20
18.206186545424956
 30
0.0
  0
VERTEX
  5
237
100
AcDbEntity
  8
0
  6
CONTINUOUS
 62
               6
100
AcDbVertex
100
AcDb2dVertex
 10
-38.369571736120747
 20
20.249666267124937
 30
0.0
  0
VERTEX
  5
238
100
AcDbEntity
  8
0
  6
CONTINUOUS
 62
               6
100
AcDbVertex
100
AcDb2dVertex
 10
-39.134608000520757
 20
22.398576480724941
 30
0.0
  0
VERTEX
  5
239
100
AcDbEntity
  8
0
  6
CONTINUOUS
 62
               6
100
AcDbVertex
100
AcDb2dVertex
 10
-39.700583283520757
 20
24.632859248324948
 30
0.0
  0
VERTEX
  5
23A
100
AcDbEntity
  8
0
  6
CONTINUOUS
 62
               6
100
AcDbVertex
100
AcDb2dVertex
 10
-40.062213433120746
 20
26.931653633724935
 30
0.0
  0
VERTEX
  5
23B
100
AcDbEntity
  8
0
  6
CONTINUOUS
 62
               6
100
AcDbVertex
100
AcDb2dVertex
 10
-40.216118045220753
 20
29.273490048524948
 30
0.0
  0
VERTEX
  5
23C
100
AcDbEntity
  8
0
  6
CONTINUOUS
 62
               6
100
AcDbVertex
100
AcDb2dVertex
 10
-40.160866744120739
 20
31.636517026524942
 30
0.0
  0
VERTEX
  5
23D
100
AcDbEntity
  8
0
  6
CONTINUOUS
 62
               6
100
AcDbVertex
100
AcDb2dVertex
 10
-39.896970257420747
 20
33.99865163392495
 30
0.0
  0
VERTEX
  5
23E
100
AcDbEntity
  8
0
  6
CONTINUOUS
 62
               6
100
AcDbVertex
100
AcDb2dVertex
 10
-39.42689440762075
 20
36.337854471224958
 30
0.0
  0
SEQEND
  5
23F
100
AcDbEntity
  8
0
  6
CONTINUOUS
 62
               6
  0
POLYLINE
  5
240
100
AcDbEntity
  8
0
  6
CONTINUOUS
 62
               6
100
AcDb2dPolyline
 66
               1
 10
0.0
 20
0.0
 30
0.0
 75
               5
  0
VERTEX
  5
241
100
AcDbEntity
  8
0
  6
CONTINUOUS
 62
               6
100
AcDbVertex
100
AcDb2dVertex
 10
-54.758178947620763
 20
20.815459722124942
 30
0.0
  0
VERTEX
  5
242
100
AcDbEntity
  8
0
  6
CONTINUOUS
 62
               6
100
AcDbVertex
100
AcDb2dVertex
 10
-54.400526872320739
 20
21.84204301892494
 30
0.0
  0
VERTEX
  5
243
100
AcDbEntity
  8
0
  6
CONTINUOUS
 62
               6
100
AcDbVertex
100
AcDb2dVertex
 10
-53.860051705620748
 20
22.779716851124945
 30
0.0
  0
VERTEX
  5
244
100
AcDbEntity
  8
0
  6
CONTINUOUS
 62
               6
100
AcDbVertex
100
AcDb2dVertex
 10
-53.160371252920754
 20
23.58750412502495
 30
0.0
  0
VERTEX
  5
245
100
AcDbEntity
  8
0
  6
CONTINUOUS
 62
               6
100
AcDbVertex
100
AcDb2dVertex
 10
-52.332071269120746
 20
24.230110525824941
 30
0.0
  0
VERTEX
  5
246
100
AcDbEntity
  8
0
  6
CONTINUOUS
 62
               6
100
AcDbVertex
100
AcDb2dVertex
 10
-51.411344570220763
 20
24.67943768342495
 30
0.0
  0
VERTEX
  5
247
100
AcDbEntity
  8
0
  6
CONTINUOUS
 62
               6
100
AcDbVertex
100
AcDb2dVertex
 10
-50.438437483920751
 20
24.915856665424954
 30
0.0
  0
VERTEX
  5
248
100
AcDbEntity
  8
0
  6
CONTINUOUS
 62
               6
100
AcDbVertex
100
AcDb2dVertex
 10
-49.455867724620759
 20
24.929035067124957
 30
0.0
  0
VERTEX
  5
249
100
AcDbEntity
  8
0
  6
CONTINUOUS
 62
               6
100
AcDbVertex
100
AcDb2dVertex
 10
-48.50657855192074
 20
24.718391332724948
 30
0.0
  0
VERTEX
  5
24A
100
AcDbEntity
  8
0
  6
CONTINUOUS
 62
               6
100
AcDbVertex
100
AcDb2dVertex
 10
-47.632057755920755
 20
24.293131448324957
 30
0.0
  0
VERTEX
  5
24B
100
AcDbEntity
  8
0
  6
CONTINUOUS
 62
               6
100
AcDbVertex
100
AcDb2dVertex
 10
-46.870527334120737
 20
23.671847238424945
 30
0.0
  0
VERTEX
  5
24C
100
AcDbEntity
  8
0
  6
CONTINUOUS
 62
               6
100
AcDbVertex
100
AcDb2dVertex
 10
-46.255268921020757
 20
22.881690701024937
 30
0.0
  0
VERTEX
  5
24D
100
AcDbEntity
  8
0
  6
CONTINUOUS
 62
               6
100
AcDbVertex
100
AcDb2dVertex
 10
-45.813172662220751
 20
21.957188102024944
 30
0.0
  0
VERTEX
  5
24E
100
AcDbEntity
  8
0
  6
CONTINUOUS
 62
               6
100
AcDbVertex
100
AcDb2dVertex
 10
-45.563562315720759
 20
20.93875673272494
 30
0.0
  0
VERTEX
  5
24F
100
AcDbEntity
  8
0
  6
CONTINUOUS
 62
               6
100
AcDbVertex
100
AcDb2dVertex
 10
-45.517344796120739
 20
19.870897977024939
 30
0.0
  0
VERTEX
  5
250
100
AcDbEntity
  8
0
  6
CONTINUOUS
 62
               6
100
AcDbVertex
100
AcDb2dVertex
 10
-45.676541222320765
 20
18.800278110224937
 30
0.0
  0
VERTEX
  5
251
100
AcDbEntity
  8
0
  6
CONTINUOUS
 62
               6
100
AcDbVertex
100
AcDb2dVertex
 10
-46.034191522020762
 20
17.773702951824944
 30
0.0
  0
VERTEX
  5
252
100
AcDbEntity
  8
0
  6
CONTINUOUS
 62
               6
100
AcDbVertex
100
AcDb2dVertex
 10
-46.574665022620763
 20
16.836021951124948
 30
0.0
  0
VERTEX
  5
253
100
AcDbEntity
  8
0
  6
CONTINUOUS
 62
               6
100
AcDbVertex
100
AcDb2dVertex
 10
-47.274343848720747
 20
16.028234316224953
 30
0.0
  0
VERTEX
  5
254
100
AcDbEntity
  8
0
  6
CONTINUOUS
 62
               6
100
AcDbVertex
100
AcDb2dVertex
 10
-48.102645459120737
 20
15.385628276324937
 30
0.0
  0
VERTEX
  5
255
100
AcDbEntity
  8
0
  6
CONTINUOUS
 62
               6
100
AcDbVertex
100
AcDb2dVertex
 10
-49.023372346620761
 20
14.936299427124951
 30
0.0
  0
VERTEX
  5
256
100
AcDbEntity
  8
0
  6
CONTINUOUS
 62
               6
100
AcDbVertex
100
AcDb2dVertex
 10
-49.996281059520754
 20
14.69988080602495
 30
0.0
  0
VERTEX
  5
257
100
AcDbEntity
  8
0
  6
CONTINUOUS
 62
               6
100
AcDbVertex
100
AcDb2dVertex
 10
-50.978850630120746
 20
14.68670409602494
 30
0.0
  0
VERTEX
  5
258
100
AcDbEntity
  8
0
  6
CONTINUOUS
 62
               6
100
AcDbVertex
100
AcDb2dVertex
 10
-51.928139802820738
 20
14.897347830424948
 30
0.0
  0
VERTEX
  5
259
100
AcDbEntity
  8
0
  6
CONTINUOUS
 62
               6
100
AcDbVertex
100
AcDb2dVertex
 10
-52.80266078752075
 20
15.322606023124948
 30
0.0
  0
VERTEX
  5
25A
100
AcDbEntity
  8
0
  6
CONTINUOUS
 62
               6
100
AcDbVertex
100
AcDb2dVertex
 10
-53.564189582820745
 20
15.943889872124956
 30
0.0
  0
VERTEX
  5
25B
100
AcDbEntity
  8
0
  6
CONTINUOUS
 62
               6
100
AcDbVertex
100
AcDb2dVertex
 10
-54.179447807220754
 20
16.734048101124941
 30
0.0
  0
VERTEX
  5
25C
100
AcDbEntity
  8
0
  6
CONTINUOUS
 62
               6
100
AcDbVertex
100
AcDb2dVertex
 10
-54.62154243942075
 20
17.658550339224959
 30
0.0
  0
VERTEX
  5
25D
100
AcDbEntity
  8
0
  6
CONTINUOUS
 62
               6
100
AcDbVertex
100
AcDb2dVertex
 10
-54.871154412520752
 20
18.676982069424938
 30
0.0
  0
VERTEX
  5
25E
100
AcDbEntity
  8
0
  6
CONTINUOUS
 62
               6
100
AcDbVertex
100
AcDb2dVertex
 10
-54.917373598220763
 20
19.744847993724946
 30
0.0
  0
VERTEX
  5
25F
100
AcDbEntity
  8
0
  6
CONTINUOUS
 62
               6
100
AcDbVertex
100
AcDb2dVertex
 10
-54.758178947620763
 20
20.815459722124942
 30
0.0
  0
SEQEND
  5
260
100
AcDbEntity
  8
0
  6
CONTINUOUS
 62
               6
  0
POLYLINE
  5
261
100
AcDbEntity
  8
0
  6
CONTINUOUS
 62
               6
100
AcDb2dPolyline
 66
               1
 10
0.0
 20
0.0
 30
0.0
 75
               5
  0
VERTEX
  5
262
100
AcDbEntity
  8
0
  6
CONTINUOUS
 62
               6
100
AcDbVertex
100
AcDb2dVertex
 10
1.2038125288792401
 20
8.3977020888249427
 30
0.0
  0
VERTEX
  5
263
100
AcDbEntity
  8
0
  6
CONTINUOUS
 62
               6
100
AcDbVertex
100
AcDb2dVertex
 10
1.5614646042792515
 20
9.4242853856249411
 30
0.0
  0
VERTEX
  5
264
100
AcDbEntity
  8
0
  6
CONTINUOUS
 62
               6
100
AcDbVertex
100
AcDb2dVertex
 10
2.1019381444792486
 20
10.361959578724949
 30
0.0
  0
VERTEX
  5
265
100
AcDbEntity
  8
0
  6
CONTINUOUS
 62
               6
100
AcDbVertex
100
AcDb2dVertex
 10
2.8016169705792606
 20
11.169747213624944
 30
0.0
  0
VERTEX
  5
266
100
AcDbEntity
  8
0
  6
CONTINUOUS
 62
               6
100
AcDbVertex
100
AcDb2dVertex
 10
3.6299185809792505
 20
11.812353253524961
 30
0.0
  0
VERTEX
  5
267
100
AcDbEntity
  8
0
  6
CONTINUOUS
 62
               6
100
AcDbVertex
100
AcDb2dVertex
 10
4.550643653279252
 20
12.261680771924958
 30
0.0
  0
VERTEX
  5
268
100
AcDbEntity
  8
0
  6
CONTINUOUS
 62
               6
100
AcDbVertex
100
AcDb2dVertex
 10
5.5235523661792456
 20
12.498099393024958
 30
0.0
  0
VERTEX
  5
269
100
AcDbEntity
  8
0
  6
CONTINUOUS
 62
               6
100
AcDbVertex
100
AcDb2dVertex
 10
6.5061237519792599
 20
12.511277433824958
 30
0.0
  0
VERTEX
  5
26A
100
AcDbEntity
  8
0
  6
CONTINUOUS
 62
               6
100
AcDbVertex
100
AcDb2dVertex
 10
7.4554129246792513
 20
12.300633699424949
 30
0.0
  0
VERTEX
  5
26B
100
AcDbEntity
  8
0
  6
CONTINUOUS
 62
               6
100
AcDbVertex
100
AcDb2dVertex
 10
8.3299320941792416
 20
11.875374176024948
 30
0.0
  0
VERTEX
  5
26C
100
AcDbEntity
  8
0
  6
CONTINUOUS
 62
               6
100
AcDbVertex
100
AcDb2dVertex
 10
9.091460889379249
 20
11.254090326924953
 30
0.0
  0
VERTEX
  5
26D
100
AcDbEntity
  8
0
  6
CONTINUOUS
 62
               6
100
AcDbVertex
100
AcDb2dVertex
 10
9.7067209290792391
 20
10.463933428724957
 30
0.0
  0
VERTEX
  5
26E
100
AcDbEntity
  8
0
  6
CONTINUOUS
 62
               6
100
AcDbVertex
100
AcDb2dVertex
 10
10.148815561279235
 20
9.5394311906249385
 30
0.0
  0
VERTEX
  5
26F
100
AcDbEntity
  8
0
  6
CONTINUOUS
 62
               6
100
AcDbVertex
100
AcDb2dVertex
 10
10.398427534379238
 20
8.5209994604249601
 30
0.0
  0
VERTEX
  5
270
100
AcDbEntity
  8
0
  6
CONTINUOUS
 62
               6
100
AcDbVertex
100
AcDb2dVertex
 10
10.444646680379236
 20
7.4531403437249395
 30
0.0
  0
VERTEX
  5
271
100
AcDbEntity
  8
0
  6
CONTINUOUS
 62
               6
100
AcDbVertex
100
AcDb2dVertex
 10
10.285450254279255
 20
6.3825204769249382
 30
0.0
  0
VERTEX
  5
272
100
AcDbEntity
  8
0
  6
CONTINUOUS
 62
               6
100
AcDbVertex
100
AcDb2dVertex
 10
9.9277999544792408
 20
5.3559453185249453
 30
0.0
  0
VERTEX
  5
273
100
AcDbEntity
  8
0
  6
CONTINUOUS
 62
               6
100
AcDbVertex
100
AcDb2dVertex
 10
9.3873248273792456
 20
4.4182646787249524
 30
0.0
  0
VERTEX
  5
274
100
AcDbEntity
  8
0
  6
CONTINUOUS
 62
               6
100
AcDbVertex
100
AcDb2dVertex
 10
8.6876443747792393
 20
3.6104774048249482
 30
0.0
  0
VERTEX
  5
275
100
AcDbEntity
  8
0
  6
CONTINUOUS
 62
               6
100
AcDbVertex
100
AcDb2dVertex
 10
7.8593443908792437
 20
2.967871003924941
 30
0.0
  0
VERTEX
  5
276
100
AcDbEntity
  8
0
  6
CONTINUOUS
 62
               6
100
AcDbVertex
100
AcDb2dVertex
 10
6.9386158768792541
 20
2.5185425156249579
 30
0.0
  0
VERTEX
  5
277
100
AcDbEntity
  8
0
  6
CONTINUOUS
 62
               6
100
AcDbVertex
100
AcDb2dVertex
 10
5.9657087904792547
 20
2.2821235336249543
 30
0.0
  0
VERTEX
  5
278
100
AcDbEntity
  8
0
  6
CONTINUOUS
 62
               6
100
AcDbVertex
100
AcDb2dVertex
 10
4.9831408464792446
 20
2.2689464627249407
 30
0.0
  0
VERTEX
  5
279
100
AcDbEntity
  8
0
  6
CONTINUOUS
 62
               6
100
AcDbVertex
100
AcDb2dVertex
 10
4.0338516737792531
 20
2.4795901971249492
 30
0.0
  0
VERTEX
  5
27A
100
AcDbEntity
  8
0
  6
CONTINUOUS
 62
               6
100
AcDbVertex
100
AcDb2dVertex
 10
3.1593290624792587
 20
2.9048487507249519
 30
0.0
  0
VERTEX
  5
27B
100
AcDbEntity
  8
0
  6
CONTINUOUS
 62
               6
100
AcDbVertex
100
AcDb2dVertex
 10
2.3977986406792411
 20
3.5261329606249348
 30
0.0
  0
VERTEX
  5
27C
100
AcDbEntity
  8
0
  6
CONTINUOUS
 62
               6
100
AcDbVertex
100
AcDb2dVertex
 10
1.7825420427792551
 20
4.3162908288249611
 30
0.0
  0
VERTEX
  5
27D
100
AcDbEntity
  8
0
  6
CONTINUOUS
 62
               6
100
AcDbVertex
100
AcDb2dVertex
 10
1.3404457840792361
 20
5.2407934278249542
 30
0.0
  0
VERTEX
  5
27E
100
AcDbEntity
  8
0
  6
CONTINUOUS
 62
               6
100
AcDbVertex
100
AcDb2dVertex
 10
1.0908354374792566
 20
6.2592247970249417
 30
0.0
  0
VERTEX
  5
27F
100
AcDbEntity
  8
0
  6
CONTINUOUS
 62
               6
100
AcDbVertex
100
AcDb2dVertex
 10
1.0446178783792561
 20
7.3270903604249469
 30
0.0
  0
VERTEX
  5
280
100
AcDbEntity
  8
0
  6
CONTINUOUS
 62
               6
100
AcDbVertex
100
AcDb2dVertex
 10
1.2038125288792401
 20
8.3977020888249427
 30
0.0
  0
SEQEND
  5
281
100
AcDbEntity
  8
0
  6
CONTINUOUS
 62
               6
  0
POLYLINE
  5
282
100
AcDbEntity
  8
0
  6
CONTINUOUS
 62
               6
100
AcDb2dPolyline
 66
               1
 10
0.0
 20
0.0
 30
0.0
 75
               5
  0
VERTEX
  5
283
100
AcDbEntity
  8
0
  6
CONTINUOUS
 62
               6
100
AcDbVertex
100
AcDb2dVertex
 10
-13.074510446220756
 20
68.33906263772495
 30
0.0
  0
VERTEX
  5
284
100
AcDbEntity
  8
0
  6
CONTINUOUS
 62
               6
100
AcDbVertex
100
AcDb2dVertex
 10
-12.721622302520757
 20
69.33060167362494
 30
0.0
  0
VERTEX
  5
285
100
AcDbEntity
  8
0
  6
CONTINUOUS
 62
               6
100
AcDbVertex
100
AcDb2dVertex
 10
-12.180628115020738
 20
70.226739154524935
 30
0.0
  0
VERTEX
  5
286
100
AcDbEntity
  8
0
  6
CONTINUOUS
 62
               6
100
AcDbVertex
100
AcDb2dVertex
 10
-11.478654642120745
 20
70.982566917324945
 30
0.0
  0
VERTEX
  5
287
100
AcDbEntity
  8
0
  6
CONTINUOUS
 62
               6
100
AcDbVertex
100
AcDb2dVertex
 10
-10.650902705020741
 20
71.560171510024944
 30
0.0
  0
VERTEX
  5
288
100
AcDbEntity
  8
0
  6
CONTINUOUS
 62
               6
100
AcDbVertex
100
AcDb2dVertex
 10
-9.7388782864207428
 20
71.930587721224938
 30
0.0
  0
VERTEX
  5
289
100
AcDbEntity
  8
0
  6
CONTINUOUS
 62
               6
100
AcDbVertex
100
AcDb2dVertex
 10
-8.7883150594207393
 20
72.075238658724956
 30
0.0
  0
VERTEX
  5
28A
100
AcDbEntity
  8
0
  6
CONTINUOUS
 62
               6
100
AcDbVertex
100
AcDb2dVertex
 10
-7.8468772128207434
 20
71.986871691824959
 30
0.0
  0
VERTEX
  5
28B
100
AcDbEntity
  8
0
  6
CONTINUOUS
 62
               6
100
AcDbVertex
100
AcDb2dVertex
 10
-6.9617737058207467
 20
71.669935930224952
 30
0.0
  0
VERTEX
  5
28C
100
AcDbEntity
  8
0
  6
CONTINUOUS
 62
               6
100
AcDbVertex
100
AcDb2dVertex
 10
-6.1773860524207578
 20
71.140305849424934
 30
0.0
  0
VERTEX
  5
28D
100
AcDbEntity
  8
0
  6
CONTINUOUS
 62
               6
100
AcDbVertex
100
AcDb2dVertex
 10
-5.5330474324207444
 20
70.424538472324954
 30
0.0
  0
VERTEX
  5
28E
100
AcDbEntity
  8
0
  6
CONTINUOUS
 62
               6
100
AcDbVertex
100
AcDb2dVertex
 10
-5.0610671100207583
 20
69.558528128524941
 30
0.0
  0
VERTEX
  5
28F
100
AcDbEntity
  8
0
  6
CONTINUOUS
 62
               6
100
AcDbVertex
100
AcDb2dVertex
 10
-4.7851127662207489
 20
68.585701822724943
 30
0.0
  0
VERTEX
  5
290
100
AcDbEntity
  8
0
  6
CONTINUOUS
 62
               6
100
AcDbVertex
100
AcDb2dVertex
 10
-4.7190217020207399
 20
67.554854383924933
 30
0.0
  0
VERTEX
  5
291
100
AcDbEntity
  8
0
  6
CONTINUOUS
 62
               6
100
AcDbVertex
100
AcDb2dVertex
 10
-4.8661079933207532
 20
66.517648682824941
 30
0.0
  0
VERTEX
  5
292
100
AcDbEntity
  8
0
  6
CONTINUOUS
 62
               6
100
AcDbVertex
100
AcDb2dVertex
 10
-5.2189956833207418
 20
65.526109979524946
 30
0.0
  0
VERTEX
  5
293
100
AcDbEntity
  8
0
  6
CONTINUOUS
 62
               6
100
AcDbVertex
100
AcDb2dVertex
 10
-5.7599903245207429
 20
64.629972166024956
 30
0.0
  0
VERTEX
  5
294
100
AcDbEntity
  8
0
  6
CONTINUOUS
 62
               6
100
AcDbVertex
100
AcDb2dVertex
 10
-6.461963343720754
 20
63.874144735824942
 30
0.0
  0
VERTEX
  5
295
100
AcDbEntity
  8
0
  6
CONTINUOUS
 62
               6
100
AcDbVertex
100
AcDb2dVertex
 10
-7.2897157345207404
 20
63.296539810524948
 30
0.0
  0
VERTEX
  5
296
100
AcDbEntity
  8
0
  6
CONTINUOUS
 62
               6
100
AcDbVertex
100
AcDb2dVertex
 10
-8.2017396994207559
 20
62.926123931924948
 30
0.0
  0
VERTEX
  5
297
100
AcDbEntity
  8
0
  6
CONTINUOUS
 62
               6
100
AcDbVertex
100
AcDb2dVertex
 10
-9.1523033801207418
 20
62.781472661824935
 30
0.0
  0
VERTEX
  5
298
100
AcDbEntity
  8
0
  6
CONTINUOUS
 62
               6
100
AcDbVertex
100
AcDb2dVertex
 10
-10.093740693620759
 20
62.86982634622494
 30
0.0
  0
VERTEX
  5
299
100
AcDbEntity
  8
0
  6
CONTINUOUS
 62
               6
100
AcDbVertex
100
AcDb2dVertex
 10
-10.97884473382075
 20
63.186775390224952
 30
0.0
  0
VERTEX
  5
29A
100
AcDbEntity
  8
0
  6
CONTINUOUS
 62
               6
100
AcDbVertex
100
AcDb2dVertex
 10
-11.763231933320753
 20
63.716405803724953
 30
0.0
  0
VERTEX
  5
29B
100
AcDbEntity
  8
0
  6
CONTINUOUS
 62
               6
100
AcDbVertex
100
AcDb2dVertex
 10
-12.407571007220753
 20
64.432172848224937
 30
0.0
  0
VERTEX
  5
29C
100
AcDbEntity
  8
0
  6
CONTINUOUS
 62
               6
100
AcDbVertex
100
AcDb2dVertex
 10
-12.879550875720753
 20
65.298183524724934
 30
0.0
  0
VERTEX
  5
29D
100
AcDbEntity
  8
0
  6
CONTINUOUS
 62
               6
100
AcDbVertex
100
AcDb2dVertex
 10
-13.155505673320761
 20
66.271009497824949
 30
0.0
  0
VERTEX
  5
29E
100
AcDbEntity
  8
0
  6
CONTINUOUS
 62
               6
100
AcDbVertex
100
AcDb2dVertex
 10
-13.221596283820759
 20
67.301857269324941
 30
0.0
  0
VERTEX
  5
29F
100
AcDbEntity
  8
0
  6
CONTINUOUS
 62
               6
100
AcDbVertex
100
AcDb2dVertex
 10
-13.074510446220756
 20
68.33906263772495
 30
0.0
  0
SEQEND
  5
2A0
100
AcDbEntity
  8
0
  6
CONTINUOUS
 62
               6
  0
POLYLINE
  5
2A1
100
AcDbEntity
  8
0
  6
CONTINUOUS
 62
               6
100
AcDb2dPolyline
 66
               1
 10
0.0
 20
0.0
 30
0.0
 75
               5
  0
VERTEX
  5
2A2
100
AcDbEntity
  8
0
  6
CONTINUOUS
 62
               6
100
AcDbVertex
100
AcDb2dVertex
 10
25.150558113779255
 20
21.821966976524934
 30
0.0
  0
VERTEX
  5
2A3
100
AcDbEntity
  8
0
  6
CONTINUOUS
 62
               6
100
AcDbVertex
100
AcDb2dVertex
 10
25.841521727979256
 20
25.058080455824935
 30
0.0
  0
VERTEX
  5
2A4
100
AcDbEntity
  8
0
  6
CONTINUOUS
 62
               6
100
AcDbVertex
100
AcDb2dVertex
 10
26.327037772879237
 20
28.323270839524938
 30
0.0
  0
VERTEX
  5
2A5
100
AcDbEntity
  8
0
  6
CONTINUOUS
 62
               6
100
AcDbVertex
100
AcDb2dVertex
 10
26.604745367879246
 20
31.601626044824954
 30
0.0
  0
VERTEX
  5
2A6
100
AcDbEntity
  8
0
  6
CONTINUOUS
 62
               6
100
AcDbVertex
100
AcDb2dVertex
 10
26.673285830479244
 20
34.877179651424953
 30
0.0
  0
VERTEX
  5
2A7
100
AcDbEntity
  8
0
  6
CONTINUOUS
 62
               6
100
AcDbVertex
100
AcDb2dVertex
 10
26.532330653679253
 20
38.133958758624956
 30
0.0
  0
VERTEX
  5
2A8
100
AcDbEntity
  8
0
  6
CONTINUOUS
 62
               6
100
AcDbVertex
100
AcDb2dVertex
 10
26.182563314379252
 20
41.356121668724953
 30
0.0
  0
VERTEX
  5
2A9
100
AcDbEntity
  8
0
  6
CONTINUOUS
 62
               6
100
AcDbVertex
100
AcDb2dVertex
 10
25.62568638677925
 20
44.527948182124945
 30
0.0
  0
VERTEX
  5
2AA
100
AcDbEntity
  8
0
  6
CONTINUOUS
 62
               6
100
AcDbVertex
100
AcDb2dVertex
 10
24.864414239079252
 20
47.633995829524949
 30
0.0
  0
VERTEX
  5
2AB
100
AcDbEntity
  8
0
  6
CONTINUOUS
 62
               6
100
AcDbVertex
100
AcDb2dVertex
 10
23.902459026879256
 20
50.659144910724947
 30
0.0
  0
VERTEX
  5
2AC
100
AcDbEntity
  8
0
  6
CONTINUOUS
 62
               6
100
AcDbVertex
100
AcDb2dVertex
 10
22.744505194279242
 20
53.588620187524938
 30
0.0
  0
VERTEX
  5
2AD
100
AcDbEntity
  8
0
  6
CONTINUOUS
 62
               6
100
AcDbVertex
100
AcDb2dVertex
 10
21.39619270357926
 20
56.408187409224936
 30
0.0
  0
VERTEX
  5
2AE
100
AcDbEntity
  8
0
  6
CONTINUOUS
 62
               6
100
AcDbVertex
100
AcDb2dVertex
 10
19.86408974317925
 20
59.104091651624955
 30
0.0
  0
VERTEX
  5
2AF
100
AcDbEntity
  8
0
  6
CONTINUOUS
 62
               6
100
AcDbVertex
100
AcDb2dVertex
 10
18.15566379247926
 20
61.663199551124947
 30
0.0
  0
VERTEX
  5
2B0
100
AcDbEntity
  8
0
  6
CONTINUOUS
 62
               6
100
AcDbVertex
100
AcDb2dVertex
 10
16.279236068479236
 20
64.073049175624945
 30
0.0
  0
VERTEX
  5
2B1
100
AcDbEntity
  8
0
  6
CONTINUOUS
 62
               6
100
AcDbVertex
100
AcDb2dVertex
 10
14.243949064479239
 20
66.321883394024937
 30
0.0
  0
VERTEX
  5
2B2
100
AcDbEntity
  8
0
  6
CONTINUOUS
 62
               6
100
AcDbVertex
100
AcDb2dVertex
 10
12.059718479079237
 20
68.398779941724953
 30
0.0
  0
VERTEX
  5
2B3
100
AcDbEntity
  8
0
  6
CONTINUOUS
 62
               6
100
AcDbVertex
100
AcDb2dVertex
 10
9.7371858395792401
 20
70.293589015024949
 30
0.0
  0
VERTEX
  5
2B4
100
AcDbEntity
  8
0
  6
CONTINUOUS
 62
               6
100
AcDbVertex
100
AcDb2dVertex
 10
7.2876644851792491
 20
71.997090984824936
 30
0.0
  0
VERTEX
  5
2B5
100
AcDbEntity
  8
0
  6
CONTINUOUS
 62
               6
100
AcDbVertex
100
AcDb2dVertex
 10
4.7230908716792612
 20
73.50098694092496
 30
0.0
  0
VERTEX
  5
2B6
100
AcDbEntity
  8
0
  6
CONTINUOUS
 62
               6
100
AcDbVertex
100
AcDb2dVertex
 10
2.0559572919792402
 20
74.797933719324945
 30
0.0
  0
VERTEX
  5
2B7
100
AcDbEntity
  8
0
  6
CONTINUOUS
 62
               6
100
AcDbVertex
100
AcDb2dVertex
 10
-0.7007409423207491
 20
75.881641975224952
 30
0.0
  0
VERTEX
  5
2B8
100
AcDbEntity
  8
0
  6
CONTINUOUS
 62
               6
100
AcDbVertex
100
AcDb2dVertex
 10
-0.7442250883207464
 20
75.896780467324945
 30
0.0
  0
SEQEND
  5
2B9
100
AcDbEntity
  8
0
  6
CONTINUOUS
 62
               6
  0
POLYLINE
  5
2BA
100
AcDbEntity
  8
0
  6
CONTINUOUS
 62
               6
100
AcDb2dPolyline
 66
               1
 10
0.0
 20
0.0
 30
0.0
 75
               5
  0
VERTEX
  5
2BB
100
AcDbEntity
  8
0
  6
CONTINUOUS
 62
               6
100
AcDbVertex
100
AcDb2dVertex
 10
-31.911918165220754
 20
-13.844933014475046
 30
0.0
  0
VERTEX
  5
2BC
100
AcDbEntity
  8
0
  6
CONTINUOUS
 62
               6
100
AcDbVertex
100
AcDb2dVertex
 10
-29.122568022220747
 20
-14.694972016775054
 30
0.0
  0
VERTEX
  5
2BD
100
AcDbEntity
  8
0
  6
CONTINUOUS
 62
               6
100
AcDbVertex
100
AcDb2dVertex
 10
-26.227401341120753
 20
-15.337398728275062
 30
0.0
  0
VERTEX
  5
2BE
100
AcDbEntity
  8
0
  6
CONTINUOUS
 62
               6
100
AcDbVertex
100
AcDb2dVertex
 10
-23.284006527720749
 20
-15.75395068937506
 30
0.0
  0
VERTEX
  5
2BF
100
AcDbEntity
  8
0
  6
CONTINUOUS
 62
               6
100
AcDbVertex
100
AcDb2dVertex
 10
-20.306722788120737
 20
-15.942591693175061
 30
0.0
  0
VERTEX
  5
2C0
100
AcDbEntity
  8
0
  6
CONTINUOUS
 62
               6
100
AcDbVertex
100
AcDb2dVertex
 10
-17.310055216120759
 20
-15.902407930375048
 30
0.0
  0
VERTEX
  5
2C1
100
AcDbEntity
  8
0
  6
CONTINUOUS
 62
               6
100
AcDbVertex
100
AcDb2dVertex
 10
-14.30860520342074
 20
-15.633599567275056
 30
0.0
  0
VERTEX
  5
2C2
100
AcDbEntity
  8
0
  6
CONTINUOUS
 62
               6
100
AcDbVertex
100
AcDb2dVertex
 10
-11.316990449120738
 20
-15.137464366075065
 30
0.0
  0
VERTEX
  5
2C3
100
AcDbEntity
  8
0
  6
CONTINUOUS
 62
               6
100
AcDbVertex
100
AcDb2dVertex
 10
-8.3497911755207497
 20
-14.416426683975047
 30
0.0
  0
VERTEX
  5
2C4
100
AcDbEntity
  8
0
  6
CONTINUOUS
 62
               6
100
AcDbVertex
100
AcDb2dVertex
 10
-5.4214618770207608
 20
-13.473995595875053
 30
0.0
  0
VERTEX
  5
2C5
100
AcDbEntity
  8
0
  6
CONTINUOUS
 62
               6
100
AcDbVertex
100
AcDb2dVertex
 10
-2.5462679439207534
 20
-12.314772022975049
 30
0.0
  0
VERTEX
  5
2C6
100
AcDbEntity
  8
0
  6
CONTINUOUS
 62
               6
100
AcDbVertex
100
AcDb2dVertex
 10
0.2617828208792616
 20
-10.944390740775063
 30
0.0
  0
VERTEX
  5
2C7
100
AcDbEntity
  8
0
  6
CONTINUOUS
 62
               6
100
AcDbVertex
100
AcDb2dVertex
 10
2.9890099167792528
 20
-9.3695373107750441
 30
0.0
  0
VERTEX
  5
2C8
100
AcDbEntity
  8
0
  6
CONTINUOUS
 62
               6
100
AcDbVertex
100
AcDb2dVertex
 10
5.622125525079241
 20
-7.5978808669750464
 30
0.0
  0
VERTEX
  5
2C9
100
AcDbEntity
  8
0
  6
CONTINUOUS
 62
               6
100
AcDbVertex
100
AcDb2dVertex
 10
8.1483017547792542
 20
-5.6380546379750598
 30
0.0
  0
VERTEX
  5
2CA
100
AcDbEntity
  8
0
  6
CONTINUOUS
 62
               6
100
AcDbVertex
100
AcDb2dVertex
 10
10.555230616679239
 20
-3.4995995326750489
 30
0.0
  0
VERTEX
  5
2CB
100
AcDbEntity
  8
0
  6
CONTINUOUS
 62
               6
100
AcDbVertex
100
AcDb2dVertex
 10
12.831188016479246
 20
-1.1929439402750432
 30
0.0
  0
VERTEX
  5
2CC
100
AcDbEntity
  8
0
  6
CONTINUOUS
 62
               6
100
AcDbVertex
100
AcDb2dVertex
 10
14.965084644779239
 20
1.2706752307249332
 30
0.0
  0
VERTEX
  5
2CD
100
AcDbEntity
  8
0
  6
CONTINUOUS
 62
               6
100
AcDbVertex
100
AcDb2dVertex
 10
16.946525498279243
 20
3.8792661409249405
 30
0.0
  0
VERTEX
  5
2CE
100
AcDbEntity
  8
0
  6
CONTINUOUS
 62
               6
100
AcDbVertex
100
AcDb2dVertex
 10
18.765853786179235
 20
6.6201080053249513
 30
0.0
  0
VERTEX
  5
2CF
100
AcDbEntity
  8
0
  6
CONTINUOUS
 62
               6
100
AcDbVertex
100
AcDb2dVertex
 10
20.414206921179243
 20
9.4798530563249557
 30
0.0
  0
VERTEX
  5
2D0
100
AcDbEntity
  8
0
  6
CONTINUOUS
 62
               6
100
AcDbVertex
100
AcDb2dVertex
 10
21.883556827379238
 20
12.444572260724939
 30
0.0
  0
VERTEX
  5
2D1
100
AcDbEntity
  8
0
  6
CONTINUOUS
 62
               6
100
AcDbVertex
100
AcDb2dVertex
 10
23.16674264307926
 20
15.499814724224947
 30
0.0
  0
VERTEX
  5
2D2
100
AcDbEntity
  8
0
  6
CONTINUOUS
 62
               6
100
AcDbVertex
100
AcDb2dVertex
 10
24.257514951279262
 20
18.630694197024937
 30
0.0
  0
VERTEX
  5
2D3
100
AcDbEntity
  8
0
  6
CONTINUOUS
 62
               6
100
AcDbVertex
100
AcDb2dVertex
 10
25.150558113779255
 20
21.821966976524934
 30
0.0
  0
SEQEND
  5
2D4
100
AcDbEntity
  8
0
  6
CONTINUOUS
 62
               6
  0
POLYLINE
  5
2D5
100
AcDbEntity
  8
0
  6
CONTINUOUS
 62
               6
100
AcDb2dPolyline
 66
               1
 10
0.0
 20
0.0
 30
0.0
 75
               5
  0
VERTEX
  5
2D6
100
AcDbEntity
  8
0
  6
CONTINUOUS
 62
               6
100
AcDbVertex
100
AcDb2dVertex
 10
3.1253280015792484
 20
26.815795091824938
 30
0.0
  0
VERTEX
  5
2D7
100
AcDbEntity
  8
0
  6
CONTINUOUS
 62
               6
100
AcDbVertex
100
AcDb2dVertex
 10
2.4711004096792522
 20
24.592910740324939
 30
0.0
  0
VERTEX
  5
2D8
100
AcDbEntity
  8
0
  6
CONTINUOUS
 62
               6
100
AcDbVertex
100
AcDb2dVertex
 10
1.6215980335792608
 20
22.436897988424946
 30
0.0
  0
VERTEX
  5
2D9
100
AcDbEntity
  8
0
  6
CONTINUOUS
 62
               6
100
AcDbVertex
100
AcDb2dVertex
 10
0.5852610055792411
 20
20.369171348724947
 30
0.0
  0
VERTEX
  5
2DA
100
AcDbEntity
  8
0
  6
CONTINUOUS
 62
               6
100
AcDbVertex
100
AcDb2dVertex
 10
-0.6276066551207578
 20
18.410290391424937
 30
0.0
  0
VERTEX
  5
2DB
100
AcDbEntity
  8
0
  6
CONTINUOUS
 62
               6
100
AcDbVertex
100
AcDb2dVertex
 10
-2.0049528721207537
 20
16.579722542224957
 30
0.0
  0
VERTEX
  5
2DC
100
AcDbEntity
  8
0
  6
CONTINUOUS
 62
               6
100
AcDbVertex
100
AcDb2dVertex
 10
-3.5330899139207474
 20
14.89565718032496
 30
0.0
  0
VERTEX
  5
2DD
100
AcDbEntity
  8
0
  6
CONTINUOUS
 62
               6
100
AcDbVertex
100
AcDb2dVertex
 10
-5.1968301373207453
 20
13.374834314324957
 30
0.0
  0
VERTEX
  5
2DE
100
AcDbEntity
  8
0
  6
CONTINUOUS
 62
               6
100
AcDbVertex
100
AcDb2dVertex
 10
-6.9796387502207438
 20
12.032370101224942
 30
0.0
  0
VERTEX
  5
2DF
100
AcDbEntity
  8
0
  6
CONTINUOUS
 62
               6
100
AcDbVertex
100
AcDb2dVertex
 10
-8.8637956563207467
 20
10.881598384124956
 30
0.0
  0
VERTEX
  5
2E0
100
AcDbEntity
  8
0
  6
CONTINUOUS
 62
               6
100
AcDbVertex
100
AcDb2dVertex
 10
-10.830579083320742
 20
9.933967580124957
 30
0.0
  0
VERTEX
  5
2E1
100
AcDbEntity
  8
0
  6
CONTINUOUS
 62
               6
100
AcDbVertex
100
AcDb2dVertex
 10
-12.860438036920755
 20
9.1988848440249598
 30
0.0
  0
VERTEX
  5
2E2
100
AcDbEntity
  8
0
  6
CONTINUOUS
 62
               6
100
AcDbVertex
100
AcDb2dVertex
 10
-14.933201019920745
 20
8.683662918524945
 30
0.0
  0
VERTEX
  5
2E3
100
AcDbEntity
  8
0
  6
CONTINUOUS
 62
               6
100
AcDbVertex
100
AcDb2dVertex
 10
-17.028268659120755
 20
8.393412898624959
 30
0.0
  0
VERTEX
  5
2E4
100
AcDbEntity
  8
0
  6
CONTINUOUS
 62
               6
100
AcDbVertex
100
AcDb2dVertex
 10
-19.124816866420758
 20
8.3310362484249509
 30
0.0
  0
VERTEX
  5
2E5
100
AcDbEntity
  8
0
  6
CONTINUOUS
 62
               6
100
AcDbVertex
100
AcDb2dVertex
 10
-21.202009495320738
 20
8.4971406727249388
 30
0.0
  0
VERTEX
  5
2E6
100
AcDbEntity
  8
0
  6
CONTINUOUS
 62
               6
100
AcDbVertex
100
AcDb2dVertex
 10
-23.239204960320762
 20
8.8900738294249351
 30
0.0
  0
VERTEX
  5
2E7
100
AcDbEntity
  8
0
  6
CONTINUOUS
 62
               6
100
AcDbVertex
100
AcDb2dVertex
 10
-25.216154931920755
 20
9.5059334261249404
 30
0.0
  0
VERTEX
  5
2E8
100
AcDbEntity
  8
0
  6
CONTINUOUS
 62
               6
100
AcDbVertex
100
AcDb2dVertex
 10
-27.113211965620764
 20
10.338606357224947
 30
0.0
  0
VERTEX
  5
2E9
100
AcDbEntity
  8
0
  6
CONTINUOUS
 62
               6
100
AcDbVertex
100
AcDb2dVertex
 10
-28.911521537620757
 20
11.379809718124946
 30
0.0
  0
VERTEX
  5
2EA
100
AcDbEntity
  8
0
  6
CONTINUOUS
 62
               6
100
AcDbVertex
100
AcDb2dVertex
 10
-30.593211645620755
 20
12.619190870024951
 30
0.0
  0
VERTEX
  5
2EB
100
AcDbEntity
  8
0
  6
CONTINUOUS
 62
               6
100
AcDbVertex
100
AcDb2dVertex
 10
-32.141570799620752
 20
14.044438525324935
 30
0.0
  0
VERTEX
  5
2EC
100
AcDbEntity
  8
0
  6
CONTINUOUS
 62
               6
100
AcDbVertex
100
AcDb2dVertex
 10
-33.541207525320743
 20
15.641393469924949
 30
0.0
  0
VERTEX
  5
2ED
100
AcDbEntity
  8
0
  6
CONTINUOUS
 62
               6
100
AcDbVertex
100
AcDb2dVertex
 10
-34.778213788020764
 20
17.394175214424948
 30
0.0
  0
VERTEX
  5
2EE
100
AcDbEntity
  8
0
  6
CONTINUOUS
 62
               6
100
AcDbVertex
100
AcDb2dVertex
 10
-35.840294493720762
 20
19.28536777972495
 30
0.0
  0
VERTEX
  5
2EF
100
AcDbEntity
  8
0
  6
CONTINUOUS
 62
               6
100
AcDbVertex
100
AcDb2dVertex
 10
-36.716894333820761
 20
21.296170763424939
 30
0.0
  0
VERTEX
  5
2F0
100
AcDbEntity
  8
0
  6
CONTINUOUS
 62
               6
100
AcDbVertex
100
AcDb2dVertex
 10
-37.399302877020745
 20
23.406608772424946
 30
0.0
  0
VERTEX
  5
2F1
100
AcDbEntity
  8
0
  6
CONTINUOUS
 62
               6
100
AcDbVertex
100
AcDb2dVertex
 10
-37.880734818720754
 20
25.595696148824956
 30
0.0
  0
VERTEX
  5
2F2
100
AcDbEntity
  8
0
  6
CONTINUOUS
 62
               6
100
AcDbVertex
100
AcDb2dVertex
 10
-38.156409514320757
 20
27.841686590324954
 30
0.0
  0
VERTEX
  5
2F3
100
AcDbEntity
  8
0
  6
CONTINUOUS
 62
               6
100
AcDbVertex
100
AcDb2dVertex
 10
-38.22358529692076
 20
30.122260214224937
 30
0.0
  0
VERTEX
  5
2F4
100
AcDbEntity
  8
0
  6
CONTINUOUS
 62
               6
100
AcDbVertex
100
AcDb2dVertex
 10
-38.08159070032076
 20
32.414737131824936
 30
0.0
  0
VERTEX
  5
2F5
100
AcDbEntity
  8
0
  6
CONTINUOUS
 62
               6
100
AcDbVertex
100
AcDb2dVertex
 10
-37.731844009820747
 20
34.696347751724957
 30
0.0
  0
VERTEX
  5
2F6
100
AcDbEntity
  8
0
  6
CONTINUOUS
 62
               6
100
AcDbVertex
100
AcDb2dVertex
 10
-37.177816619420753
 20
36.944413769224937
 30
0.0
  0
VERTEX
  5
2F7
100
AcDbEntity
  8
0
  6
CONTINUOUS
 62
               6
100
AcDbVertex
100
AcDb2dVertex
 10
-36.425015961920764
 20
39.13658908072496
 30
0.0
  0
VERTEX
  5
2F8
100
AcDbEntity
  8
0
  6
CONTINUOUS
 62
               6
100
AcDbVertex
100
AcDb2dVertex
 10
-35.480924860920737
 20
41.251088834424948
 30
0.0
  0
VERTEX
  5
2F9
100
AcDbEntity
  8
0
  6
CONTINUOUS
 62
               6
100
AcDbVertex
100
AcDb2dVertex
 10
-34.354922759520747
 20
43.266894794524958
 30
0.0
  0
VERTEX
  5
2FA
100
AcDbEntity
  8
0
  6
CONTINUOUS
 62
               6
100
AcDbVertex
100
AcDb2dVertex
 10
-33.058202566120741
 20
45.163976662124938
 30
0.0
  0
VERTEX
  5
2FB
100
AcDbEntity
  8
0
  6
CONTINUOUS
 62
               6
100
AcDbVertex
100
AcDb2dVertex
 10
-31.603653525520741
 20
46.923482995924942
 30
0.0
  0
VERTEX
  5
2FC
100
AcDbEntity
  8
0
  6
CONTINUOUS
 62
               6
100
AcDbVertex
100
AcDb2dVertex
 10
-30.005727483620745
 20
48.527924113924954
 30
0.0
  0
VERTEX
  5
2FD
100
AcDbEntity
  8
0
  6
CONTINUOUS
 62
               6
100
AcDbVertex
100
AcDb2dVertex
 10
-28.280309159520755
 20
49.961348951024959
 30
0.0
  0
VERTEX
  5
2FE
100
AcDbEntity
  8
0
  6
CONTINUOUS
 62
               6
100
AcDbVertex
100
AcDb2dVertex
 10
-26.444543374120741
 20
51.209519298224947
 30
0.0
  0
VERTEX
  5
2FF
100
AcDbEntity
  8
0
  6
CONTINUOUS
 62
               6
100
AcDbVertex
100
AcDb2dVertex
 10
-24.516676238920752
 20
52.260028281324949
 30
0.0
  0
VERTEX
  5
300
100
AcDbEntity
  8
0
  6
CONTINUOUS
 62
               6
100
AcDbVertex
100
AcDb2dVertex
 10
-22.515869096420744
 20
53.102430588224948
 30
0.0
  0
VERTEX
  5
301
100
AcDbEntity
  8
0
  6
CONTINUOUS
 62
               6
100
AcDbVertex
100
AcDb2dVertex
 10
-20.462004873120748
 20
53.728359149424946
 30
0.0
  0
VERTEX
  5
302
100
AcDbEntity
  8
0
  6
CONTINUOUS
 62
               6
100
AcDbVertex
100
AcDb2dVertex
 10
-18.375496234420751
 20
54.131590156824942
 30
0.0
  0
VERTEX
  5
303
100
AcDbEntity
  8
0
  6
CONTINUOUS
 62
               6
100
AcDbVertex
100
AcDb2dVertex
 10
-16.277080573420761
 20
54.308131489824959
 30
0.0
  0
VERTEX
  5
304
100
AcDbEntity
  8
0
  6
CONTINUOUS
 62
               6
100
AcDbVertex
100
AcDb2dVertex
 10
-14.187611773520757
 20
54.25619557762495
 30
0.0
  0
VERTEX
  5
305
100
AcDbEntity
  8
0
  6
CONTINUOUS
 62
               6
100
AcDbVertex
100
AcDb2dVertex
 10
-12.127857205420753
 20
53.976332259324934
 30
0.0
  0
VERTEX
  5
306
100
AcDbEntity
  8
0
  6
CONTINUOUS
 62
               6
100
AcDbVertex
100
AcDb2dVertex
 10
-10.118287052820762
 20
53.471309985324936
 30
0.0
  0
VERTEX
  5
307
100
AcDbEntity
  8
0
  6
CONTINUOUS
 62
               6
100
AcDbVertex
100
AcDb2dVertex
 10
-8.1788726494207538
 20
52.746143391024944
 30
0.0
  0
VERTEX
  5
308
100
AcDbEntity
  8
0
  6
CONTINUOUS
 62
               6
100
AcDbVertex
100
AcDb2dVertex
 10
-6.3288896625207371
 20
51.808032559224941
 30
0.0
  0
VERTEX
  5
309
100
AcDbEntity
  8
0
  6
CONTINUOUS
 62
               6
100
AcDbVertex
100
AcDb2dVertex
 10
-4.5867238169207383
 20
50.666329174424945
 30
0.0
  0
VERTEX
  5
30A
100
AcDbEntity
  8
0
  6
CONTINUOUS
 62
               6
100
AcDbVertex
100
AcDb2dVertex
 10
-2.9696888957207648
 20
49.332348027724933
 30
0.0
  0
VERTEX
  5
30B
100
AcDbEntity
  8
0
  6
CONTINUOUS
 62
               6
100
AcDbVertex
100
AcDb2dVertex
 10
-1.4938564248207626
 20
47.819365411724945
 30
0.0
  0
VERTEX
  5
30C
100
AcDbEntity
  8
0
  6
CONTINUOUS
 62
               6
100
AcDbVertex
100
AcDb2dVertex
 10
-0.1738940993207621
 20
46.142412025624949
 30
0.0
  0
VERTEX
  5
30D
100
AcDbEntity
  8
0
  6
CONTINUOUS
 62
               6
100
AcDbVertex
100
AcDb2dVertex
 10
0.9770807179792485
 20
44.318161807024936
 30
0.0
  0
VERTEX
  5
30E
100
AcDbEntity
  8
0
  6
CONTINUOUS
 62
               6
100
AcDbVertex
100
AcDb2dVertex
 10
1.9476264172792526
 20
42.364732587324951
 30
0.0
  0
VERTEX
  5
30F
100
AcDbEntity
  8
0
  6
CONTINUOUS
 62
               6
100
AcDbVertex
100
AcDb2dVertex
 10
2.7281011835792413
 20
40.301546645024942
 30
0.0
  0
VERTEX
  5
310
100
AcDbEntity
  8
0
  6
CONTINUOUS
 62
               6
100
AcDbVertex
100
AcDb2dVertex
 10
3.3107454916792562
 20
38.149113556124959
 30
0.0
  0
VERTEX
  5
311
100
AcDbEntity
  8
0
  6
CONTINUOUS
 62
               6
100
AcDbVertex
100
AcDb2dVertex
 10
3.6897695737792446
 20
35.928812807524949
 30
0.0
  0
VERTEX
  5
312
100
AcDbEntity
  8
0
  6
CONTINUOUS
 62
               6
100
AcDbVertex
100
AcDb2dVertex
 10
3.8614070635792359
 20
33.662715310124938
 30
0.0
  0
VERTEX
  5
313
100
AcDbEntity
  8
0
  6
CONTINUOUS
 62
               6
100
AcDbVertex
100
AcDb2dVertex
 10
3.8239528832792473
 20
31.373341150824942
 30
0.0
  0
VERTEX
  5
314
100
AcDbEntity
  8
0
  6
CONTINUOUS
 62
               6
100
AcDbVertex
100
AcDb2dVertex
 10
3.5777776713792377
 20
29.083452346624952
 30
0.0
  0
VERTEX
  5
315
100
AcDbEntity
  8
0
  6
CONTINUOUS
 62
               6
100
AcDbVertex
100
AcDb2dVertex
 10
3.1253280015792484
 20
26.815795091824938
 30
0.0
  0
SEQEND
  5
316
100
AcDbEntity
  8
0
  6
CONTINUOUS
 62
               6
  0
POLYLINE
  5
317
100
AcDbEntity
  8
0
  6
CONTINUOUS
 62
               6
100
AcDb2dPolyline
 66
               1
 10
0.0
 20
0.0
 30
0.0
 75
               5
  0
VERTEX
  5
318
100
AcDbEntity
  8
0
  6
CONTINUOUS
 62
               6
100
AcDbVertex
100
AcDb2dVertex
 10
-21.950687149520746
 20
9.2881178424249384
 30
0.0
  0
VERTEX
  5
319
100
AcDbEntity
  8
0
  6
CONTINUOUS
 62
               6
100
AcDbVertex
100
AcDb2dVertex
 10
-23.910825996620758
 20
9.841151242924937
 30
0.0
  0
VERTEX
  5
31A
100
AcDbEntity
  8
0
  6
CONTINUOUS
 62
               6
100
AcDbVertex
100
AcDb2dVertex
 10
-23.954379800120762
 20
9.8562174847249509
 30
0.0
  0
SEQEND
  5
31B
100
AcDbEntity
  8
0
  6
CONTINUOUS
 62
               6
  0
POLYLINE
  5
31C
100
AcDbEntity
  8
0
  6
CONTINUOUS
 62
               6
100
AcDb2dPolyline
 66
               1
 10
0.0
 20
0.0
 30
0.0
 75
               5
  0
VERTEX
  5
31D
100
AcDbEntity
  8
0
  6
CONTINUOUS
 62
               6
100
AcDbVertex
100
AcDb2dVertex
 10
-9.1907354590207433
 20
52.365445775424959
 30
0.0
  0
VERTEX
  5
31E
100
AcDbEntity
  8
0
  6
CONTINUOUS
 62
               6
100
AcDbVertex
100
AcDb2dVertex
 10
-7.349450282920742
 20
51.609215877324957
 30
0.0
  0
VERTEX
  5
31F
100
AcDbEntity
  8
0
  6
CONTINUOUS
 62
               6
100
AcDbVertex
100
AcDb2dVertex
 10
-5.5592540834207398
 20
50.627586389724954
 30
0.0
  0
VERTEX
  5
320
100
AcDbEntity
  8
0
  6
CONTINUOUS
 62
               6
100
AcDbVertex
100
AcDb2dVertex
 10
-3.8820686564207563
 20
49.445688563324936
 30
0.0
  0
VERTEX
  5
321
100
AcDbEntity
  8
0
  6
CONTINUOUS
 62
               6
100
AcDbVertex
100
AcDb2dVertex
 10
-2.335104946920751
 20
48.075647343124942
 30
0.0
  0
VERTEX
  5
322
100
AcDbEntity
  8
0
  6
CONTINUOUS
 62
               6
100
AcDbVertex
100
AcDb2dVertex
 10
-0.9342365277207421
 20
46.531528341424959
 30
0.0
  0
VERTEX
  5
323
100
AcDbEntity
  8
0
  6
CONTINUOUS
 62
               6
100
AcDbVertex
100
AcDb2dVertex
 10
0.306160602679256
 20
44.82916143802494
 30
0.0
  0
VERTEX
  5
324
100
AcDbEntity
  8
0
  6
CONTINUOUS
 62
               6
100
AcDbVertex
100
AcDb2dVertex
 10
1.3733603094792386
 20
42.986029194024937
 30
0.0
  0
VERTEX
  5
325
100
AcDbEntity
  8
0
  6
CONTINUOUS
 62
               6
100
AcDbVertex
100
AcDb2dVertex
 10
2.2564100063792409
 20
41.021052562424941
 30
0.0
  0
VERTEX
  5
326
100
AcDbEntity
  8
0
  6
CONTINUOUS
 62
               6
100
AcDbVertex
100
AcDb2dVertex
 10
2.9462483625792402
 20
38.954375323624944
 30
0.0
  0
VERTEX
  5
327
100
AcDbEntity
  8
0
  6
CONTINUOUS
 62
               6
100
AcDbVertex
100
AcDb2dVertex
 10
3.4357992988792603
 20
36.807209907224959
 30
0.0
  0
VERTEX
  5
328
100
AcDbEntity
  8
0
  6
CONTINUOUS
 62
               6
100
AcDbVertex
100
AcDb2dVertex
 10
3.720035140579256
 20
34.601597203224955
 30
0.0
  0
VERTEX
  5
329
100
AcDbEntity
  8
0
  6
CONTINUOUS
 62
               6
100
AcDbVertex
100
AcDb2dVertex
 10
3.7960432524792509
 20
32.360160536324955
 30
0.0
  0
VERTEX
  5
32A
100
AcDbEntity
  8
0
  6
CONTINUOUS
 62
               6
100
AcDbVertex
100
AcDb2dVertex
 10
3.6630416361792584
 20
30.105908290224946
 30
0.0
  0
VERTEX
  5
32B
100
AcDbEntity
  8
0
  6
CONTINUOUS
 62
               6
100
AcDbVertex
100
AcDb2dVertex
 10
3.3223940163792349
 20
27.861967790924936
 30
0.0
  0
VERTEX
  5
32C
100
AcDbEntity
  8
0
  6
CONTINUOUS
 62
               6
100
AcDbVertex
100
AcDb2dVertex
 10
2.7775988171792392
 20
25.651359708624952
 30
0.0
  0
VERTEX
  5
32D
100
AcDbEntity
  8
0
  6
CONTINUOUS
 62
               6
100
AcDbVertex
100
AcDb2dVertex
 10
2.0342453069792441
 20
23.496777280824958
 30
0.0
  0
VERTEX
  5
32E
100
AcDbEntity
  8
0
  6
CONTINUOUS
 62
               6
100
AcDbVertex
100
AcDb2dVertex
 10
1.099958633779238
 20
21.420320407924933
 30
0.0
  0
VERTEX
  5
32F
100
AcDbEntity
  8
0
  6
CONTINUOUS
 62
               6
100
AcDbVertex
100
AcDb2dVertex
 10
-0.015670629820761
 20
19.443311305224952
 30
0.0
  0
VERTEX
  5
330
100
AcDbEntity
  8
0
  6
CONTINUOUS
 62
               6
100
AcDbVertex
100
AcDb2dVertex
 10
-1.3011946658207592
 20
17.586015677124934
 30
0.0
  0
VERTEX
  5
331
100
AcDbEntity
  8
0
  6
CONTINUOUS
 62
               6
100
AcDbVertex
100
AcDb2dVertex
 10
-2.7434260094207445
 20
15.867512357824936
 30
0.0
  0
VERTEX
  5
332
100
AcDbEntity
  8
0
  6
CONTINUOUS
 62
               6
100
AcDbVertex
100
AcDb2dVertex
 10
-4.3275625231207471
 20
14.305420812724961
 30
0.0
  0
VERTEX
  5
333
100
AcDbEntity
  8
0
  6
CONTINUOUS
 62
               6
100
AcDbVertex
100
AcDb2dVertex
 10
-6.0373475869207596
 20
12.915777765924943
 30
0.0
  0
VERTEX
  5
334
100
AcDbEntity
  8
0
  6
CONTINUOUS
 62
               6
100
AcDbVertex
100
AcDb2dVertex
 10
-7.85523915692076
 20
11.712837405524951
 30
0.0
  0
VERTEX
  5
335
100
AcDbEntity
  8
0
  6
CONTINUOUS
 62
               6
100
AcDbVertex
100
AcDb2dVertex
 10
-9.7625823616207583
 20
10.70894916622494
 30
0.0
  0
VERTEX
  5
336
100
AcDbEntity
  8
0
  6
CONTINUOUS
 62
               6
100
AcDbVertex
100
AcDb2dVertex
 10
-11.739805336420744
 20
9.9144152057249499
 30
0.0
  0
VERTEX
  5
337
100
AcDbEntity
  8
0
  6
CONTINUOUS
 62
               6
100
AcDbVertex
100
AcDb2dVertex
 10
-13.766618508120757
 20
9.3373826416249557
 30
0.0
  0
VERTEX
  5
338
100
AcDbEntity
  8
0
  6
CONTINUOUS
 62
               6
100
AcDbVertex
100
AcDb2dVertex
 10
-15.822223232320738
 20
8.9837702585249559
 30
0.0
  0
VERTEX
  5
339
100
AcDbEntity
  8
0
  6
CONTINUOUS
 62
               6
100
AcDbVertex
100
AcDb2dVertex
 10
-17.885529919920742
 20
8.8572178531249364
 30
0.0
  0
VERTEX
  5
33A
100
AcDbEntity
  8
0
  6
CONTINUOUS
 62
               6
100
AcDbVertex
100
AcDb2dVertex
 10
-19.935361836720745
 20
8.959010541424945
 30
0.0
  0
VERTEX
  5
33B
100
AcDbEntity
  8
0
  6
CONTINUOUS
 62
               6
100
AcDbVertex
100
AcDb2dVertex
 10
-21.950687149520746
 20
9.2881178424249384
 30
0.0
  0
SEQEND
  5
33C
100
AcDbEntity
  8
0
  6
CONTINUOUS
 62
               6
  0
POLYLINE
  5
33D
100
AcDbEntity
  8
0
  6
CONTINUOUS
 62
               6
100
AcDb2dPolyline
 66
               1
 10
0.0
 20
0.0
 30
0.0
 75
               5
  0
VERTEX
  5
33E
100
AcDbEntity
  8
0
  6
CONTINUOUS
 62
               6
100
AcDbVertex
100
AcDb2dVertex
 10
-11.27935737712076
 20
52.963044025024956
 30
0.0
  0
VERTEX
  5
33F
100
AcDbEntity
  8
0
  6
CONTINUOUS
 62
               6
100
AcDbVertex
100
AcDb2dVertex
 10
-9.3192185300207484
 20
52.410010624624945
 30
0.0
  0
VERTEX
  5
340
100
AcDbEntity
  8
0
  6
CONTINUOUS
 62
               6
100
AcDbVertex
100
AcDb2dVertex
 10
-7.4343804580207404
 20
51.638713819324934
 30
0.0
  0
VERTEX
  5
341
100
AcDbEntity
  8
0
  6
CONTINUOUS
 62
               6
100
AcDbVertex
100
AcDb2dVertex
 10
-5.6441833509207413
 20
50.657084997124954
 30
0.0
  0
VERTEX
  5
342
100
AcDbEntity
  8
0
  6
CONTINUOUS
 62
               6
100
AcDbVertex
100
AcDb2dVertex
 10
-3.9669988315207547
 20
49.475186505324942
 30
0.0
  0
VERTEX
  5
343
100
AcDbEntity
  8
0
  6
CONTINUOUS
 62
               6
100
AcDbVertex
100
AcDb2dVertex
 10
-2.4200351220207494
 20
48.105145285124948
 30
0.0
  0
VERTEX
  5
344
100
AcDbEntity
  8
0
  6
CONTINUOUS
 62
               6
100
AcDbVertex
100
AcDb2dVertex
 10
-1.0191667028207405
 20
46.561026283524953
 30
0.0
  0
VERTEX
  5
345
100
AcDbEntity
  8
0
  6
CONTINUOUS
 62
               6
100
AcDbVertex
100
AcDb2dVertex
 10
0.2212304275792576
 20
44.858659380024946
 30
0.0
  0
VERTEX
  5
346
100
AcDbEntity
  8
0
  6
CONTINUOUS
 62
               6
100
AcDbVertex
100
AcDb2dVertex
 10
1.2884301343792401
 20
43.015527136124959
 30
0.0
  0
VERTEX
  5
347
100
AcDbEntity
  8
0
  6
CONTINUOUS
 62
               6
100
AcDbVertex
100
AcDb2dVertex
 10
2.1714798312792425
 20
41.050550504524935
 30
0.0
  0
VERTEX
  5
348
100
AcDbEntity
  8
0
  6
CONTINUOUS
 62
               6
100
AcDbVertex
100
AcDb2dVertex
 10
2.8613181874792417
 20
38.983873265724938
 30
0.0
  0
VERTEX
  5
349
100
AcDbEntity
  8
0
  6
CONTINUOUS
 62
               6
100
AcDbVertex
100
AcDb2dVertex
 10
3.3508691237792618
 20
36.836707849224936
 30
0.0
  0
VERTEX
  5
34A
100
AcDbEntity
  8
0
  6
CONTINUOUS
 62
               6
100
AcDbVertex
100
AcDb2dVertex
 10
3.6351049654792575
 20
34.631095145224961
 30
0.0
  0
VERTEX
  5
34B
100
AcDbEntity
  8
0
  6
CONTINUOUS
 62
               6
100
AcDbVertex
100
AcDb2dVertex
 10
3.7111130773792524
 20
32.389658478324961
 30
0.0
  0
VERTEX
  5
34C
100
AcDbEntity
  8
0
  6
CONTINUOUS
 62
               6
100
AcDbVertex
100
AcDb2dVertex
 10
3.5781123686792569
 20
30.135406897624947
 30
0.0
  0
VERTEX
  5
34D
100
AcDbEntity
  8
0
  6
CONTINUOUS
 62
               6
100
AcDbVertex
100
AcDb2dVertex
 10
3.2374638808792611
 20
27.891458925324955
 30
0.0
  0
VERTEX
  5
34E
100
AcDbEntity
  8
0
  6
CONTINUOUS
 62
               6
100
AcDbVertex
100
AcDb2dVertex
 10
2.6926686420792407
 20
25.680857650624958
 30
0.0
  0
VERTEX
  5
34F
100
AcDbEntity
  8
0
  6
CONTINUOUS
 62
               6
100
AcDbVertex
100
AcDb2dVertex
 10
1.9493151318792457
 20
23.526275222824935
 30
0.0
  0
VERTEX
  5
350
100
AcDbEntity
  8
0
  6
CONTINUOUS
 62
               6
100
AcDbVertex
100
AcDb2dVertex
 10
1.0150293662792365
 20
21.449819015324934
 30
0.0
  0
VERTEX
  5
351
100
AcDbEntity
  8
0
  6
CONTINUOUS
 62
               6
100
AcDbVertex
100
AcDb2dVertex
 10
-0.1005998973207625
 20
19.472809912624953
 30
0.0
  0
VERTEX
  5
352
100
AcDbEntity
  8
0
  6
CONTINUOUS
 62
               6
100
AcDbVertex
100
AcDb2dVertex
 10
-1.3861257485207545
 20
17.615512953724945
 30
0.0
  0
VERTEX
  5
353
100
AcDbEntity
  8
0
  6
CONTINUOUS
 62
               6
100
AcDbVertex
100
AcDb2dVertex
 10
-2.8283570921207399
 20
15.897009634424947
 30
0.0
  0
VERTEX
  5
354
100
AcDbEntity
  8
0
  6
CONTINUOUS
 62
               6
100
AcDbVertex
100
AcDb2dVertex
 10
-4.4124917906207486
 20
14.334919420124933
 30
0.0
  0
VERTEX
  5
355
100
AcDbEntity
  8
0
  6
CONTINUOUS
 62
               6
100
AcDbVertex
100
AcDb2dVertex
 10
-6.1222768544207611
 20
12.945276373324944
 30
0.0
  0
VERTEX
  5
356
100
AcDbEntity
  8
0
  6
CONTINUOUS
 62
               6
100
AcDbVertex
100
AcDb2dVertex
 10
-7.9401702396207554
 20
11.742334682124934
 30
0.0
  0
VERTEX
  5
357
100
AcDbEntity
  8
0
  6
CONTINUOUS
 62
               6
100
AcDbVertex
100
AcDb2dVertex
 10
-9.8475116291207598
 20
10.738447773624941
 30
0.0
  0
VERTEX
  5
358
100
AcDbEntity
  8
0
  6
CONTINUOUS
 62
               6
100
AcDbVertex
100
AcDb2dVertex
 10
-11.824734564220762
 20
9.9439070055249346
 30
0.0
  0
VERTEX
  5
359
100
AcDbEntity
  8
0
  6
CONTINUOUS
 62
               6
100
AcDbVertex
100
AcDb2dVertex
 10
-13.851547735920747
 20
9.3668744414249403
 30
0.0
  0
VERTEX
  5
35A
100
AcDbEntity
  8
0
  6
CONTINUOUS
 62
               6
100
AcDbVertex
100
AcDb2dVertex
 10
-15.907154315020762
 20
9.0132675351249389
 30
0.0
  0
VERTEX
  5
35B
100
AcDbEntity
  8
0
  6
CONTINUOUS
 62
               6
100
AcDbVertex
100
AcDb2dVertex
 10
-17.97045914772076
 20
8.8867096529249494
 30
0.0
  0
VERTEX
  5
35C
100
AcDbEntity
  8
0
  6
CONTINUOUS
 62
               6
100
AcDbVertex
100
AcDb2dVertex
 10
-20.020291104120759
 20
8.9885091488249458
 30
0.0
  0
VERTEX
  5
35D
100
AcDbEntity
  8
0
  6
CONTINUOUS
 62
               6
100
AcDbVertex
100
AcDb2dVertex
 10
-22.035618232220742
 20
9.3176151191249375
 30
0.0
  0
VERTEX
  5
35E
100
AcDbEntity
  8
0
  6
CONTINUOUS
 62
               6
100
AcDbVertex
100
AcDb2dVertex
 10
-23.99575526412076
 20
9.8706498503249378
 30
0.0
  0
VERTEX
  5
35F
100
AcDbEntity
  8
0
  6
CONTINUOUS
 62
               6
100
AcDbVertex
100
AcDb2dVertex
 10
-25.88059420412074
 20
10.641939182624938
 30
0.0
  0
VERTEX
  5
360
100
AcDbEntity
  8
0
  6
CONTINUOUS
 62
               6
100
AcDbVertex
100
AcDb2dVertex
 10
-27.670791350920751
 20
11.623574812324946
 30
0.0
  0
VERTEX
  5
361
100
AcDbEntity
  8
0
  6
CONTINUOUS
 62
               6
100
AcDbVertex
100
AcDb2dVertex
 10
-29.347974962620754
 20
12.805473969524954
 30
0.0
  0
VERTEX
  5
362
100
AcDbEntity
  8
0
  6
CONTINUOUS
 62
               6
100
AcDbVertex
100
AcDb2dVertex
 10
-30.894939579820743
 20
14.175514524424941
 30
0.0
  0
VERTEX
  5
363
100
AcDbEntity
  8
0
  6
CONTINUOUS
 62
               6
100
AcDbVertex
100
AcDb2dVertex
 10
-32.295807131020752
 20
15.719640999024946
 30
0.0
  0
VERTEX
  5
364
100
AcDbEntity
  8
0
  6
CONTINUOUS
 62
               6
100
AcDbVertex
100
AcDb2dVertex
 10
-33.53620603692076
 20
17.42199976402496
 30
0.0
  0
VERTEX
  5
365
100
AcDbEntity
  8
0
  6
CONTINUOUS
 62
               6
100
AcDbVertex
100
AcDb2dVertex
 10
-34.603404836220761
 20
19.265132673424958
 30
0.0
  0
VERTEX
  5
366
100
AcDbEntity
  8
0
  6
CONTINUOUS
 62
               6
100
AcDbVertex
100
AcDb2dVertex
 10
-35.486454572620744
 20
21.230116112624941
 30
0.0
  0
VERTEX
  5
367
100
AcDbEntity
  8
0
  6
CONTINUOUS
 62
               6
100
AcDbVertex
100
AcDb2dVertex
 10
-36.176293836520756
 20
23.296792686024943
 30
0.0
  0
VERTEX
  5
368
100
AcDbEntity
  8
0
  6
CONTINUOUS
 62
               6
100
AcDbVertex
100
AcDb2dVertex
 10
-36.665844733220752
 20
25.443951294924958
 30
0.0
  0
VERTEX
  5
369
100
AcDbEntity
  8
0
  6
CONTINUOUS
 62
               6
100
AcDbVertex
100
AcDb2dVertex
 10
-36.95007879932075
 20
27.649572137224951
 30
0.0
  0
VERTEX
  5
36A
100
AcDbEntity
  8
0
  6
CONTINUOUS
 62
               6
100
AcDbVertex
100
AcDb2dVertex
 10
-37.026087779120758
 20
29.89100133112494
 30
0.0
  0
VERTEX
  5
36B
100
AcDbEntity
  8
0
  6
CONTINUOUS
 62
               6
100
AcDbVertex
100
AcDb2dVertex
 10
-36.893087110120746
 20
32.145259719424942
 30
0.0
  0
VERTEX
  5
36C
100
AcDbEntity
  8
0
  6
CONTINUOUS
 62
               6
100
AcDbVertex
100
AcDb2dVertex
 10
-36.552438582620738
 20
34.389200884124946
 30
0.0
  0
VERTEX
  5
36D
100
AcDbEntity
  8
0
  6
CONTINUOUS
 62
               6
100
AcDbVertex
100
AcDb2dVertex
 10
-36.007643343920762
 20
36.599802158824943
 30
0.0
  0
VERTEX
  5
36E
100
AcDbEntity
  8
0
  6
CONTINUOUS
 62
               6
100
AcDbVertex
100
AcDb2dVertex
 10
-35.264289873320763
 20
38.754391394224953
 30
0.0
  0
VERTEX
  5
36F
100
AcDbEntity
  8
0
  6
CONTINUOUS
 62
               6
100
AcDbVertex
100
AcDb2dVertex
 10
-34.330004068120758
 20
40.830840794224954
 30
0.0
  0
VERTEX
  5
370
100
AcDbEntity
  8
0
  6
CONTINUOUS
 62
               6
100
AcDbVertex
100
AcDb2dVertex
 10
-33.214373936520758
 20
42.807857369824958
 30
0.0
  0
VERTEX
  5
371
100
AcDbEntity
  8
0
  6
CONTINUOUS
 62
               6
100
AcDbVertex
100
AcDb2dVertex
 10
-31.928849860820748
 20
44.665146190324961
 30
0.0
  0
VERTEX
  5
372
100
AcDbEntity
  8
0
  6
CONTINUOUS
 62
               6
100
AcDbVertex
100
AcDb2dVertex
 10
-30.486618556820758
 20
46.383656317324935
 30
0.0
  0
VERTEX
  5
373
100
AcDbEntity
  8
0
  6
CONTINUOUS
 62
               6
100
AcDbVertex
100
AcDb2dVertex
 10
-28.90248295082074
 20
47.945747196924955
 30
0.0
  0
VERTEX
  5
374
100
AcDbEntity
  8
0
  6
CONTINUOUS
 62
               6
100
AcDbVertex
100
AcDb2dVertex
 10
-27.192697847320744
 20
49.335383436224944
 30
0.0
  0
VERTEX
  5
375
100
AcDbEntity
  8
0
  6
CONTINUOUS
 62
               6
100
AcDbVertex
100
AcDb2dVertex
 10
-25.374805369820763
 20
50.53832446202496
 30
0.0
  0
VERTEX
  5
376
100
AcDbEntity
  8
0
  6
CONTINUOUS
 62
               6
100
AcDbVertex
100
AcDb2dVertex
 10
-23.467462204720761
 20
51.542219508924958
 30
0.0
  0
VERTEX
  5
377
100
AcDbEntity
  8
0
  6
CONTINUOUS
 62
               6
100
AcDbVertex
100
AcDb2dVertex
 10
-21.490240137520743
 20
52.336752803924938
 30
0.0
  0
VERTEX
  5
378
100
AcDbEntity
  8
0
  6
CONTINUOUS
 62
               6
100
AcDbVertex
100
AcDb2dVertex
 10
-19.463426058220762
 20
52.913786033424955
 30
0.0
  0
VERTEX
  5
379
100
AcDbEntity
  8
0
  6
CONTINUOUS
 62
               6
100
AcDbVertex
100
AcDb2dVertex
 10
-17.407820386820759
 20
53.267392274324934
 30
0.0
  0
VERTEX
  5
37A
100
AcDbEntity
  8
0
  6
CONTINUOUS
 62
               6
100
AcDbVertex
100
AcDb2dVertex
 10
-15.344515514420749
 20
53.393943348924935
 30
0.0
  0
VERTEX
  5
37B
100
AcDbEntity
  8
0
  6
CONTINUOUS
 62
               6
100
AcDbVertex
100
AcDb2dVertex
 10
-13.29468269002075
 20
53.292151326124937
 30
0.0
  0
VERTEX
  5
37C
100
AcDbEntity
  8
0
  6
CONTINUOUS
 62
               6
100
AcDbVertex
100
AcDb2dVertex
 10
-11.27935737712076
 20
52.963044025024956
 30
0.0
  0
SEQEND
  5
37D
100
AcDbEntity
  8
0
  6
CONTINUOUS
 62
               6
  0
POLYLINE
  5
37E
100
AcDbEntity
  8
0
  6
CONTINUOUS
 62
               6
100
AcDb2dPolyline
 66
               1
 10
0.0
 20
0.0
 30
0.0
 75
               5
  0
VERTEX
  5
37F
100
AcDbEntity
  8
0
  6
CONTINUOUS
 62
               6
100
AcDbVertex
100
AcDb2dVertex
 10
-22.221239659220743
 20
10.434997764624953
 30
0.0
  0
VERTEX
  5
380
100
AcDbEntity
  8
0
  6
CONTINUOUS
 62
               6
100
AcDbVertex
100
AcDb2dVertex
 10
-24.124417570720738
 20
10.973870577024954
 30
0.0
  0
VERTEX
  5
381
100
AcDbEntity
  8
0
  6
CONTINUOUS
 62
               6
100
AcDbVertex
100
AcDb2dVertex
 10
-25.95294703572074
 20
11.728079275924941
 30
0.0
  0
VERTEX
  5
382
100
AcDbEntity
  8
0
  6
CONTINUOUS
 62
               6
100
AcDbVertex
100
AcDb2dVertex
 10
-27.687443757420738
 20
12.689621226224958
 30
0.0
  0
VERTEX
  5
383
100
AcDbEntity
  8
0
  6
CONTINUOUS
 62
               6
100
AcDbVertex
100
AcDb2dVertex
 10
-29.309519926120743
 20
13.848316101124951
 30
0.0
  0
VERTEX
  5
384
100
AcDbEntity
  8
0
  6
CONTINUOUS
 62
               6
100
AcDbVertex
100
AcDb2dVertex
 10
-30.80198318982076
 20
15.191867233724949
 30
0.0
  0
VERTEX
  5
385
100
AcDbEntity
  8
0
  6
CONTINUOUS
 62
               6
100
AcDbVertex
100
AcDb2dVertex
 10
-32.149014863120755
 20
16.706047808324954
 30
0.0
  0
VERTEX
  5
386
100
AcDbEntity
  8
0
  6
CONTINUOUS
 62
               6
100
AcDbVertex
100
AcDb2dVertex
 10
-33.336331742320738
 20
18.374788367224951
 30
0.0
  0
VERTEX
  5
387
100
AcDbEntity
  8
0
  6
CONTINUOUS
 62
               6
100
AcDbVertex
100
AcDb2dVertex
 10
-34.351351412020762
 20
20.180416128124946
 30
0.0
  0
VERTEX
  5
388
100
AcDbEntity
  8
0
  6
CONTINUOUS
 62
               6
100
AcDbVertex
100
AcDb2dVertex
 10
-35.183312124820759
 20
22.103787846324948
 30
0.0
  0
VERTEX
  5
389
100
AcDbEntity
  8
0
  6
CONTINUOUS
 62
               6
100
AcDbVertex
100
AcDb2dVertex
 10
-35.823397204320742
 20
24.124505131424954
 30
0.0
  0
VERTEX
  5
38A
100
AcDbEntity
  8
0
  6
CONTINUOUS
 62
               6
100
AcDbVertex
100
AcDb2dVertex
 10
-36.264817415320749
 20
26.221161363924935
 30
0.0
  0
VERTEX
  5
38B
100
AcDbEntity
  8
0
  6
CONTINUOUS
 62
               6
100
AcDbVertex
100
AcDb2dVertex
 10
-36.502898233220748
 20
28.37152504432494
 30
0.0
  0
VERTEX
  5
38C
100
AcDbEntity
  8
0
  6
CONTINUOUS
 62
               6
100
AcDbVertex
100
AcDb2dVertex
 10
-36.535114784920751
 20
30.552793521624935
 30
0.0
  0
VERTEX
  5
38D
100
AcDbEntity
  8
0
  6
CONTINUOUS
 62
               6
100
AcDbVertex
100
AcDb2dVertex
 10
-36.361124901920761
 20
32.741862094124954
 30
0.0
  0
VERTEX
  5
38E
100
AcDbEntity
  8
0
  6
CONTINUOUS
 62
               6
100
AcDbVertex
100
AcDb2dVertex
 10
-35.982772120720739
 20
34.915515394024951
 30
0.0
  0
VERTEX
  5
38F
100
AcDbEntity
  8
0
  6
CONTINUOUS
 62
               6
100
AcDbVertex
100
AcDb2dVertex
 10
-35.40406839642074
 20
37.050713515624935
 30
0.0
  0
VERTEX
  5
390
100
AcDbEntity
  8
0
  6
CONTINUOUS
 62
               6
100
AcDbVertex
100
AcDb2dVertex
 10
-34.631146998320759
 20
39.124826671824948
 30
0.0
  0
VERTEX
  5
391
100
AcDbEntity
  8
0
  6
CONTINUOUS
 62
               6
100
AcDbVertex
100
AcDb2dVertex
 10
-33.67220223992075
 20
41.115860861624938
 30
0.0
  0
VERTEX
  5
392
100
AcDbEntity
  8
0
  6
CONTINUOUS
 62
               6
100
AcDbVertex
100
AcDb2dVertex
 10
-32.537397445720757
 20
43.002719882024948
 30
0.0
  0
VERTEX
  5
393
100
AcDbEntity
  8
0
  6
CONTINUOUS
 62
               6
100
AcDbVertex
100
AcDb2dVertex
 10
-31.238764350820759
 20
44.765390653324957
 30
0.0
  0
VERTEX
  5
394
100
AcDbEntity
  8
0
  6
CONTINUOUS
 62
               6
100
AcDbVertex
100
AcDb2dVertex
 10
-29.790067986120761
 20
46.385202334924955
 30
0.0
  0
VERTEX
  5
395
100
AcDbEntity
  8
0
  6
CONTINUOUS
 62
               6
100
AcDbVertex
100
AcDb2dVertex
 10
-28.206664575720737
 20
47.844981177424941
 30
0.0
  0
VERTEX
  5
396
100
AcDbEntity
  8
0
  6
CONTINUOUS
 62
               6
100
AcDbVertex
100
AcDb2dVertex
 10
-26.505336824720757
 20
49.129234081624944
 30
0.0
  0
VERTEX
  5
397
100
AcDbEntity
  8
0
  6
CONTINUOUS
 62
               6
100
AcDbVertex
100
AcDb2dVertex
 10
-24.704121860020763
 20
50.224374054424956
 30
0.0
  0
VERTEX
  5
398
100
AcDbEntity
  8
0
  6
CONTINUOUS
 62
               6
100
AcDbVertex
100
AcDb2dVertex
 10
-22.822111573720747
 20
51.11878116572494
 30
0.0
  0
VERTEX
  5
399
100
AcDbEntity
  8
0
  6
CONTINUOUS
 62
               6
100
AcDbVertex
100
AcDb2dVertex
 10
-20.879255567820763
 20
51.802977196524935
 30
0.0
  0
VERTEX
  5
39A
100
AcDbEntity
  8
0
  6
CONTINUOUS
 62
               6
100
AcDbVertex
100
AcDb2dVertex
 10
-18.896150618820741
 20
52.269704441524951
 30
0.0
  0
VERTEX
  5
39B
100
AcDbEntity
  8
0
  6
CONTINUOUS
 62
               6
100
AcDbVertex
100
AcDb2dVertex
 10
-16.893815283720755
 20
52.51403187852496
 30
0.0
  0
VERTEX
  5
39C
100
AcDbEntity
  8
0
  6
CONTINUOUS
 62
               6
100
AcDbVertex
100
AcDb2dVertex
 10
-14.89347673872075
 20
52.533337934124958
 30
0.0
  0
VERTEX
  5
39D
100
AcDbEntity
  8
0
  6
CONTINUOUS
 62
               6
100
AcDbVertex
100
AcDb2dVertex
 10
-12.916338412320755
 20
52.327444630424949
 30
0.0
  0
VERTEX
  5
39E
100
AcDbEntity
  8
0
  6
CONTINUOUS
 62
               6
100
AcDbVertex
100
AcDb2dVertex
 10
-10.98335884582076
 20
51.898523658624939
 30
0.0
  0
VERTEX
  5
39F
100
AcDbEntity
  8
0
  6
CONTINUOUS
 62
               6
100
AcDbVertex
100
AcDb2dVertex
 10
-9.1150279930207603
 20
51.251121663224936
 30
0.0
  0
VERTEX
  5
3A0
100
AcDbEntity
  8
0
  6
CONTINUOUS
 62
               6
100
AcDbVertex
100
AcDb2dVertex
 10
-7.3311504853207623
 20
50.39211214942496
 30
0.0
  0
VERTEX
  5
3A1
100
AcDbEntity
  8
0
  6
CONTINUOUS
 62
               6
100
AcDbVertex
100
AcDb2dVertex
 10
-5.650635660320745
 20
49.330573968524945
 30
0.0
  0
VERTEX
  5
3A2
100
AcDbEntity
  8
0
  6
CONTINUOUS
 62
               6
100
AcDbVertex
100
AcDb2dVertex
 10
-4.0912970241207631
 20
48.077791675924956
 30
0.0
  0
VERTEX
  5
3A3
100
AcDbEntity
  8
0
  6
CONTINUOUS
 62
               6
100
AcDbVertex
100
AcDb2dVertex
 10
-2.6696651778207467
 20
46.647028312424951
 30
0.0
  0
VERTEX
  5
3A4
100
AcDbEntity
  8
0
  6
CONTINUOUS
 62
               6
100
AcDbVertex
100
AcDb2dVertex
 10
-1.400808986420742
 20
45.053455656324942
 30
0.0
  0
VERTEX
  5
3A5
100
AcDbEntity
  8
0
  6
CONTINUOUS
 62
               6
100
AcDbVertex
100
AcDb2dVertex
 10
-0.2981795522207449
 20
43.313963418724953
 30
0.0
  0
VERTEX
  5
3A6
100
AcDbEntity
  8
0
  6
CONTINUOUS
 62
               6
100
AcDbVertex
100
AcDb2dVertex
 10
0.6265378980792491
 20
41.447000857924948
 30
0.0
  0
VERTEX
  5
3A7
100
AcDbEntity
  8
0
  6
CONTINUOUS
 62
               6
100
AcDbVertex
100
AcDb2dVertex
 10
1.3635359984792501
 20
39.472333556024935
 30
0.0
  0
VERTEX
  5
3A8
100
AcDbEntity
  8
0
  6
CONTINUOUS
 62
               6
100
AcDbVertex
100
AcDb2dVertex
 10
1.9050076391792459
 20
37.410911000924941
 30
0.0
  0
VERTEX
  5
3A9
100
AcDbEntity
  8
0
  6
CONTINUOUS
 62
               6
100
AcDbVertex
100
AcDb2dVertex
 10
2.2452097535792461
 20
35.284588795924961
 30
0.0
  0
VERTEX
  5
3AA
100
AcDbEntity
  8
0
  6
CONTINUOUS
 62
               6
100
AcDbVertex
100
AcDb2dVertex
 10
2.3805393312792376
 20
33.115891685424955
 30
0.0
  0
VERTEX
  5
3AB
100
AcDbEntity
  8
0
  6
CONTINUOUS
 62
               6
100
AcDbVertex
100
AcDb2dVertex
 10
2.3095572219792473
 20
30.927821888624933
 30
0.0
  0
VERTEX
  5
3AC
100
AcDbEntity
  8
0
  6
CONTINUOUS
 62
               6
100
AcDbVertex
100
AcDb2dVertex
 10
2.0330189257792597
 20
28.743563169524933
 30
0.0
  0
VERTEX
  5
3AD
100
AcDbEntity
  8
0
  6
CONTINUOUS
 62
               6
100
AcDbVertex
100
AcDb2dVertex
 10
1.5538553189792594
 20
26.586277466324944
 30
0.0
  0
VERTEX
  5
3AE
100
AcDbEntity
  8
0
  6
CONTINUOUS
 62
               6
100
AcDbVertex
100
AcDb2dVertex
 10
0.8771456822792629
 20
24.478828442224952
 30
0.0
  0
VERTEX
  5
3AF
100
AcDbEntity
  8
0
  6
CONTINUOUS
 62
               6
100
AcDbVertex
100
AcDb2dVertex
 10
0.0100639368792486
 20
22.443554374524936
 30
0.0
  0
VERTEX
  5
3B0
100
AcDbEntity
  8
0
  6
CONTINUOUS
 62
               6
100
AcDbVertex
100
AcDb2dVertex
 10
-1.0382009910207444
 20
20.502040716324942
 30
0.0
  0
VERTEX
  5
3B1
100
AcDbEntity
  8
0
  6
CONTINUOUS
 62
               6
100
AcDbVertex
100
AcDb2dVertex
 10
-2.2565340231207642
 20
18.674849848824934
 30
0.0
  0
VERTEX
  5
3B2
100
AcDbEntity
  8
0
  6
CONTINUOUS
 62
               6
100
AcDbVertex
100
AcDb2dVertex
 10
-3.6320243040207458
 20
16.981359292424955
 30
0.0
  0
VERTEX
  5
3B3
100
AcDbEntity
  8
0
  6
CONTINUOUS
 62
               6
100
AcDbVertex
100
AcDb2dVertex
 10
-5.1500882943207387
 20
15.439527253924936
 30
0.0
  0
VERTEX
  5
3B4
100
AcDbEntity
  8
0
  6
CONTINUOUS
 62
               6
100
AcDbVertex
100
AcDb2dVertex
 10
-6.7946332663207443
 20
14.065682930224952
 30
0.0
  0
VERTEX
  5
3B5
100
AcDbEntity
  8
0
  6
CONTINUOUS
 62
               6
100
AcDbVertex
100
AcDb2dVertex
 10
-8.5482302784207604
 20
12.874400907024935
 30
0.0
  0
VERTEX
  5
3B6
100
AcDbEntity
  8
0
  6
CONTINUOUS
 62
               6
100
AcDbVertex
100
AcDb2dVertex
 10
-10.392288795620743
 20
11.878311266624948
 30
0.0
  0
VERTEX
  5
3B7
100
AcDbEntity
  8
0
  6
CONTINUOUS
 62
               6
100
AcDbVertex
100
AcDb2dVertex
 10
-12.307259219120738
 20
11.08795681702496
 30
0.0
  0
VERTEX
  5
3B8
100
AcDbEntity
  8
0
  6
CONTINUOUS
 62
               6
100
AcDbVertex
100
AcDb2dVertex
 10
-14.272846443420747
 20
10.511734217724936
 30
0.0
  0
VERTEX
  5
3B9
100
AcDbEntity
  8
0
  6
CONTINUOUS
 62
               6
100
AcDbVertex
100
AcDb2dVertex
 10
-16.268212958220744
 20
10.155736411124948
 30
0.0
  0
VERTEX
  5
3BA
100
AcDbEntity
  8
0
  6
CONTINUOUS
 62
               6
100
AcDbVertex
100
AcDb2dVertex
 10
-18.272205773220747
 20
10.023751375424936
 30
0.0
  0
VERTEX
  5
3BB
100
AcDbEntity
  8
0
  6
CONTINUOUS
 62
               6
100
AcDbVertex
100
AcDb2dVertex
 10
-20.263584026720764
 20
10.11716598262494
 30
0.0
  0
VERTEX
  5
3BC
100
AcDbEntity
  8
0
  6
CONTINUOUS
 62
               6
100
AcDbVertex
100
AcDb2dVertex
 10
-22.221239659220743
 20
10.434997764624953
 30
0.0
  0
SEQEND
  5
3BD
100
AcDbEntity
  8
0
  6
CONTINUOUS
 62
               6
  0
LINE
  5
3BE
100
AcDbEntity
  8
0
  6
CONTINUOUS
 62
               6
100
AcDbLine
 10
19.972242872279253
 20
5.3361232376249603
 30
0.0
 11
30.588487329179259
 21
1.6490518002249388
 31
0.0
  0
ARC
  5
3BF
100
AcDbEntity
  8
0
  6
CONTINUOUS
 62
               6
100
AcDbCircle
 10
-1.4717164373207368
 20
24.860830151324947
 30
0.0
 40
29.000992585372991
100
AcDbArc
 50
303.18958439049999
 51
317.68216502829995
  0
LINE
  5
3C0
100
AcDbEntity
  8
0
  6
CONTINUOUS
 62
               6
100
AcDbLine
 10
35.216639131979235
 20
43.293512317924936
 30
0.0
 11
35.062565881979253
 21
43.347645107224949
 31
0.0
  0
LINE
  5
3C1
100
AcDbEntity
  8
0
  6
CONTINUOUS
 62
               6
100
AcDbLine
 10
16.361950648379235
 20
-10.497382004475057
 30
0.0
 11
17.642855767779253
 21
-10.900286704975045
 31
0.0
  0
ARC
  5
3C2
100
AcDbEntity
  8
0
  6
CONTINUOUS
 62
               6
100
AcDbCircle
 10
21.36144033817925
 20
17.66966277582496
 30
0.0
 40
30.010854122412706
100
AcDbArc
 50
292.82178587230004
 51
346.96878807690013
  0
LINE
  5
3C3
100
AcDbEntity
  8
0
  6
CONTINUOUS
 62
               6
100
AcDbLine
 10
18.760135455479258
 20
-14.687020908275045
 30
0.0
 11
17.526100788879262
 21
-21.353887515975046
 31
0.0
  0
LINE
  5
3C4
100
AcDbEntity
  8
0
  6
CONTINUOUS
 62
               6
100
AcDbLine
 10
17.526100788879262
 20
-21.353887515975046
 30
0.0
 11
15.77963187047925
 21
-20.966352562875059
 31
0.0
  0
LINE
  5
3C5
100
AcDbEntity
  8
0
  6
CONTINUOUS
 62
               6
100
AcDbLine
 10
17.866054342279256
 20
-9.6944628636750423
 30
0.0
 11
15.77963187047925
 21
-20.966352562875059
 31
0.0
  0
LINE
  5
3C6
100
AcDbEntity
  8
0
  6
CONTINUOUS
 62
               6
100
AcDbLine
 10
17.866054342279256
 20
-9.6944628636750423
 30
0.0
 11
21.358990552579257
 21
-10.469532408975041
 31
0.0
  0
LINE
  5
3C7
100
AcDbEntity
  8
0
  6
CONTINUOUS
 62
               6
100
AcDbLine
 10
20.506602747379247
 20
-15.074555500475057
 30
0.0
 11
21.358990552579257
 21
-10.469532408975041
 31
0.0
  0
LINE
  5
3C8
100
AcDbEntity
  8
0
  6
CONTINUOUS
 62
               6
100
AcDbLine
 10
20.506602747379247
 20
-15.074555500475057
 30
0.0
 11
18.760135455479258
 21
-14.687020908275045
 31
0.0
  0
LINE
  5
3C9
100
AcDbEntity
  8
0
  6
CONTINUOUS
 62
               6
100
AcDbLine
 10
26.894628654179257
 20
-11.389880641875052
 30
0.0
 11
27.984077877679255
 21
-9.3991944630750623
 31
0.0
  0
LINE
  5
3CA
100
AcDbEntity
  8
0
  6
CONTINUOUS
 62
               6
100
AcDbLine
 10
27.984077877679255
 20
-9.3991944630750623
 30
0.0
 11
27.644766611679245
 21
-9.2813503330750535
 31
0.0
  0
LINE
  5
3CB
100
AcDbEntity
  8
0
  6
CONTINUOUS
 62
               6
100
AcDbLine
 10
27.644766611679245
 20
-9.2813503330750535
 30
0.0
 11
28.242336750279236
 21
-6.8566068746750517
 31
0.0
  0
LINE
  5
3CC
100
AcDbEntity
  8
0
  6
CONTINUOUS
 62
               6
100
AcDbLine
 10
28.242336750279236
 20
-6.8566068746750517
 30
0.0
 11
27.817686821979237
 21
-6.7091233066750391
 31
0.0
  0
LINE
  5
3CD
100
AcDbEntity
  8
0
  6
CONTINUOUS
 62
               6
100
AcDbLine
 10
27.817686821979237
 20
-6.7091233066750391
 30
0.0
 11
27.220116683379246
 21
-9.1338667650750409
 31
0.0
  0
LINE
  5
3CE
100
AcDbEntity
  8
0
  6
CONTINUOUS
 62
               6
100
AcDbLine
 10
27.220116683379246
 20
-9.1338667650750409
 30
0.0
 11
26.880805417479252
 21
-9.0160226350750605
 31
0.0
  0
LINE
  5
3CF
100
AcDbEntity
  8
0
  6
CONTINUOUS
 62
               6
100
AcDbLine
 10
26.880805417479252
 20
-9.0160226350750605
 30
0.0
 11
26.894628654179257
 21
-11.389880641875052
 31
0.0
  0
POLYLINE
  5
3D0
100
AcDbEntity
  8
0
  6
CONTINUOUS
 62
               6
100
AcDb2dPolyline
 66
               1
 10
0.0
 20
0.0
 30
0.0
 75
               5
  0
VERTEX
  5
3D1
100
AcDbEntity
  8
0
  6
CONTINUOUS
 62
               6
100
AcDbVertex
100
AcDb2dVertex
 10
27.798178062379236
 20
-13.603279171075044
 30
0.0
  0
VERTEX
  5
3D2
100
AcDbEntity
  8
0
  6
CONTINUOUS
 62
               6
100
AcDbVertex
100
AcDb2dVertex
 10
27.555961277979236
 20
-13.332778054775062
 30
0.0
  0
VERTEX
  5
3D3
100
AcDbEntity
  8
0
  6
CONTINUOUS
 62
               6
100
AcDbVertex
100
AcDb2dVertex
 10
26.918284055379246
 20
-12.847834767775041
 30
0.0
  0
VERTEX
  5
3D4
100
AcDbEntity
  8
0
  6
CONTINUOUS
 62
               6
100
AcDbVertex
100
AcDb2dVertex
 10
26.212746434979238
 20
-12.602798668575062
 30
0.0
  0
VERTEX
  5
3D5
100
AcDbEntity
  8
0
  6
CONTINUOUS
 62
               6
100
AcDbVertex
100
AcDb2dVertex
 10
25.455443897279252
 20
-12.60325894027504
 30
0.0
  0
VERTEX
  5
3D6
100
AcDbEntity
  8
0
  6
CONTINUOUS
 62
               6
100
AcDbVertex
100
AcDb2dVertex
 10
24.663653506879257
 20
-12.849200737175053
 30
0.0
  0
VERTEX
  5
3D7
100
AcDbEntity
  8
0
  6
CONTINUOUS
 62
               6
100
AcDbVertex
100
AcDb2dVertex
 10
23.855438781179259
 20
-13.335017976775063
 30
0.0
  0
VERTEX
  5
3D8
100
AcDbEntity
  8
0
  6
CONTINUOUS
 62
               6
100
AcDbVertex
100
AcDb2dVertex
 10
23.049237937479262
 20
-14.04962719367505
 30
0.0
  0
VERTEX
  5
3D9
100
AcDbEntity
  8
0
  6
CONTINUOUS
 62
               6
100
AcDbVertex
100
AcDb2dVertex
 10
22.263443419879252
 20
-14.976724519775061
 30
0.0
  0
VERTEX
  5
3DA
100
AcDbEntity
  8
0
  6
CONTINUOUS
 62
               6
100
AcDbVertex
100
AcDb2dVertex
 10
21.515981887479256
 20
-16.095158548475055
 30
0.0
  0
SEQEND
  5
3DB
100
AcDbEntity
  8
0
  6
CONTINUOUS
 62
               6
  0
POLYLINE
  5
3DC
100
AcDbEntity
  8
0
  6
CONTINUOUS
 62
               6
100
AcDb2dPolyline
 66
               1
 10
0.0
 20
0.0
 30
0.0
 75
               5
  0
VERTEX
  5
3DD
100
AcDbEntity
  8
0
  6
CONTINUOUS
 62
               6
100
AcDbVertex
100
AcDb2dVertex
 10
21.515981887479256
 20
-16.095158548475055
 30
0.0
  0
VERTEX
  5
3DE
100
AcDbEntity
  8
0
  6
CONTINUOUS
 62
               6
100
AcDbVertex
100
AcDb2dVertex
 10
21.306574151179262
 20
-16.374431439275057
 30
0.0
  0
VERTEX
  5
3DF
100
AcDbEntity
  8
0
  6
CONTINUOUS
 62
               6
100
AcDbVertex
100
AcDb2dVertex
 10
21.086095834979261
 20
-16.538090764175067
 30
0.0
  0
VERTEX
  5
3E0
100
AcDbEntity
  8
0
  6
CONTINUOUS
 62
               6
100
AcDbVertex
100
AcDb2dVertex
 10
20.874611830579255
 20
-16.571238667875051
 30
0.0
  0
VERTEX
  5
3E1
100
AcDbEntity
  8
0
  6
CONTINUOUS
 62
               6
100
AcDbVertex
100
AcDb2dVertex
 10
20.691367968579243
 20
-16.470858220975046
 30
0.0
  0
VERTEX
  5
3E2
100
AcDbEntity
  8
0
  6
CONTINUOUS
 62
               6
100
AcDbVertex
100
AcDb2dVertex
 10
20.553040055679247
 20
-16.246088669075064
 30
0.0
  0
VERTEX
  5
3E3
100
AcDbEntity
  8
0
  6
CONTINUOUS
 62
               6
100
AcDbVertex
100
AcDb2dVertex
 10
20.47221680687926
 20
-15.917382336975052
 30
0.0
  0
VERTEX
  5
3E4
100
AcDbEntity
  8
0
  6
CONTINUOUS
 62
               6
100
AcDbVertex
100
AcDb2dVertex
 10
20.456253585579248
 20
-15.514654748175062
 30
0.0
  0
VERTEX
  5
3E5
100
AcDbEntity
  8
0
  6
CONTINUOUS
 62
               6
100
AcDbVertex
100
AcDb2dVertex
 10
20.506602747379247
 20
-15.074555500475057
 30
0.0
  0
SEQEND
  5
3E6
100
AcDbEntity
  8
0
  6
CONTINUOUS
 62
               6
  0
LINE
  5
3E7
100
AcDbEntity
  8
0
  6
CONTINUOUS
 62
               6
100
AcDbLine
 10
21.358990552579257
 20
-10.469532408975041
 30
0.0
 11
22.923235493279236
 21
-4.1223339599750517
 31
0.0
  0
LINE
  5
3E8
100
AcDbEntity
  8
0
  6
CONTINUOUS
 62
               6
100
AcDbLine
 10
22.923235493279236
 20
-4.1223339599750517
 30
0.0
 11
33.53948047777925
 21
-7.8093981738750671
 31
0.0
  0
LINE
  5
3E9
100
AcDbEntity
  8
0
  6
CONTINUOUS
 62
               6
100
AcDbLine
 10
31.975235443479249
 20
-14.156600109975059
 30
0.0
 11
33.53948047777925
 21
-7.8093981738750671
 31
0.0
  0
LINE
  5
3EA
100
AcDbEntity
  8
0
  6
CONTINUOUS
 62
               6
100
AcDbLine
 10
31.975235443479249
 20
-14.156600109975059
 30
0.0
 11
30.602387667779254
 21
-18.58086568247505
 31
0.0
  0
ARC
  5
3EB
100
AcDbEntity
  8
0
  6
CONTINUOUS
 62
               6
100
AcDbCircle
 10
29.013534474979252
 20
-18.264844044075048
 30
0.0
 40
1.6199765875182248
100
AcDbArc
 50
304.4912950798003
 51
348.75072539559972
  0
LINE
  5
3EC
100
AcDbEntity
  8
0
  6
CONTINUOUS
 62
               6
100
AcDbLine
 10
15.180819411079256
 20
0.3077374488249376
 30
0.0
 11
18.924679795079243
 21
-3.5303631118750474
 31
0.0
  0
ARC
  5
3ED
100
AcDbEntity
  8
0
  6
CONTINUOUS
 62
               6
100
AcDbCircle
 10
14.596907693979261
 20
-0.260923585175064
 30
0.0
 40
0.8150633502020618
100
AcDbArc
 50
44.241914419199631
 51
108.60524623190001
  0
ARC
  5
3EE
100
AcDbEntity
  8
0
  6
CONTINUOUS
 62
               6
100
AcDbCircle
 10
22.254881618779251
 20
3.1691418932249604
 30
0.0
 40
3.147419227541135
100
AcDbArc
 50
136.48893368619986
 51
221.44670909070004
  0
LINE
  5
3EF
100
AcDbEntity
  8
0
  6
CONTINUOUS
 62
               6
100
AcDbLine
 10
22.234397605379257
 20
-1.3118120474750441
 30
0.0
 11
19.895665235079235
 21
1.085792222924951
 31
0.0
  0
ARC
  5
3F0
100
AcDbEntity
  8
0
  6
CONTINUOUS
 62
               6
100
AcDbCircle
 10
20.032668557979235
 20
-3.3411148219750402
 30
0.0
 40
2.9942746282091086
100
AcDbArc
 50
344.87627289700015
 51
42.666329530999981
  0
LINE
  5
3F1
100
AcDbEntity
  8
0
  6
CONTINUOUS
 62
               6
100
AcDbLine
 10
19.154293429379237
 20
-4.4672017692750643
 30
0.0
 11
17.866054342279256
 21
-9.6944628636750423
 31
0.0
  0
ARC
  5
3F2
100
AcDbEntity
  8
0
  6
CONTINUOUS
 62
               6
100
AcDbCircle
 10
18.190773306779249
 20
-4.2067970703750603
 30
0.0
 40
0.9980889909349368
100
AcDbArc
 50
344.87633323119985
 51
42.666441151299175
  0
POLYLINE
  5
3F3
100
AcDbEntity
  8
0
  6
CONTINUOUS
 62
               6
100
AcDb2dPolyline
 66
               1
 10
0.0
 20
0.0
 30
0.0
 75
               5
  0
VERTEX
  5
3F4
100
AcDbEntity
  8
0
  6
CONTINUOUS
 62
               6
100
AcDbVertex
100
AcDb2dVertex
 10
18.760135455479258
 20
-14.687020908275045
 30
0.0
  0
VERTEX
  5
3F5
100
AcDbEntity
  8
0
  6
CONTINUOUS
 62
               6
100
AcDbVertex
100
AcDb2dVertex
 10
18.709786293679258
 20
-15.127120155975049
 30
0.0
  0
VERTEX
  5
3F6
100
AcDbEntity
  8
0
  6
CONTINUOUS
 62
               6
100
AcDbVertex
100
AcDb2dVertex
 10
18.725749514879254
 20
-15.52984774477504
 30
0.0
  0
VERTEX
  5
3F7
100
AcDbEntity
  8
0
  6
CONTINUOUS
 62
               6
100
AcDbVertex
100
AcDb2dVertex
 10
18.806572763779258
 20
-15.858554076875052
 30
0.0
  0
VERTEX
  5
3F8
100
AcDbEntity
  8
0
  6
CONTINUOUS
 62
               6
100
AcDbVertex
100
AcDb2dVertex
 10
18.944900676579238
 20
-16.083323628775062
 30
0.0
  0
VERTEX
  5
3F9
100
AcDbEntity
  8
0
  6
CONTINUOUS
 62
               6
100
AcDbVertex
100
AcDb2dVertex
 10
19.113518969679262
 20
-16.180838453575049
 30
0.0
  0
SEQEND
  5
3FA
100
AcDbEntity
  8
0
  6
CONTINUOUS
 62
               6
  0
LINE
  5
3FB
100
AcDbEntity
  8
0
  6
CONTINUOUS
 62
               6
100
AcDbLine
 10
32.85064190067925
 20
-4.9988801850750662
 30
0.0
 11
22.234397605379257
 21
-1.3118120474750441
 31
0.0
  0
ARC
  5
3FC
100
AcDbEntity
  8
0
  6
CONTINUOUS
 62
               6
100
AcDbCircle
 10
30.648917235979241
 20
-7.028181503675043
 30
0.0
 40
2.994270418818672
100
AcDbArc
 50
344.87630004210007
 51
42.666365883000026
  0
POLYLINE
  5
3FD
100
AcDbEntity
  8
0
  6
CONTINUOUS
 62
               6
100
AcDb2dPolyline
 66
               1
 10
0.0
 20
0.0
 30
0.0
 75
               5
  0
VERTEX
  5
3FE
100
AcDbEntity
  8
0
  6
CONTINUOUS
 62
               6
100
AcDbVertex
100
AcDb2dVertex
 10
25.903003727079238
 20
-13.043097490775054
 30
0.0
  0
VERTEX
  5
3FF
100
AcDbEntity
  8
0
  6
CONTINUOUS
 62
               6
100
AcDbVertex
100
AcDb2dVertex
 10
25.809493986079246
 20
-12.94524346257505
 30
0.0
  0
VERTEX
  5
400
100
AcDbEntity
  8
0
  6
CONTINUOUS
 62
               6
100
AcDbVertex
100
AcDb2dVertex
 10
25.413643538579237
 20
-12.610252971175058
 30
0.0
  0
SEQEND
  5
401
100
AcDbEntity
  8
0
  6
CONTINUOUS
 62
               6
  0
POLYLINE
  5
402
100
AcDbEntity
  8
0
  6
CONTINUOUS
 62
               6
100
AcDb2dPolyline
 66
               1
 10
0.0
 20
0.0
 30
0.0
 75
               5
  0
VERTEX
  5
403
100
AcDbEntity
  8
0
  6
CONTINUOUS
 62
               6
100
AcDbVertex
100
AcDb2dVertex
 10
19.211870121579238
 20
-33.486182718775055
 30
0.0
  0
VERTEX
  5
404
100
AcDbEntity
  8
0
  6
CONTINUOUS
 62
               6
100
AcDbVertex
100
AcDb2dVertex
 10
18.594434617779257
 20
-33.016590564375051
 30
0.0
  0
VERTEX
  5
405
100
AcDbEntity
  8
0
  6
CONTINUOUS
 62
               6
100
AcDbVertex
100
AcDb2dVertex
 10
18.043132720979258
 20
-32.314882731575054
 30
0.0
  0
VERTEX
  5
406
100
AcDbEntity
  8
0
  6
CONTINUOUS
 62
               6
100
AcDbVertex
100
AcDb2dVertex
 10
17.584626998579239
 20
-31.404566284275049
 30
0.0
  0
VERTEX
  5
407
100
AcDbEntity
  8
0
  6
CONTINUOUS
 62
               6
100
AcDbVertex
100
AcDb2dVertex
 10
17.229159737379263
 20
-30.305971270375053
 30
0.0
  0
VERTEX
  5
408
100
AcDbEntity
  8
0
  6
CONTINUOUS
 62
               6
100
AcDbVertex
100
AcDb2dVertex
 10
16.98467120737925
 20
-29.043644936175056
 30
0.0
  0
VERTEX
  5
409
100
AcDbEntity
  8
0
  6
CONTINUOUS
 62
               6
100
AcDbVertex
100
AcDb2dVertex
 10
16.856623131379251
 20
-27.645776968275058
 30
0.0
  0
VERTEX
  5
40A
100
AcDbEntity
  8
0
  6
CONTINUOUS
 62
               6
100
AcDbVertex
100
AcDb2dVertex
 10
16.847875803879248
 20
-26.143602497175053
 30
0.0
  0
VERTEX
  5
40B
100
AcDbEntity
  8
0
  6
CONTINUOUS
 62
               6
100
AcDbVertex
100
AcDb2dVertex
 10
16.958624577379254
 20
-24.570669282575054
 30
0.0
  0
VERTEX
  5
40C
100
AcDbEntity
  8
0
  6
CONTINUOUS
 62
               6
100
AcDbVertex
100
AcDb2dVertex
 10
17.186395699479249
 20
-22.962122917975066
 30
0.0
  0
VERTEX
  5
40D
100
AcDbEntity
  8
0
  6
CONTINUOUS
 62
               6
100
AcDbVertex
100
AcDb2dVertex
 10
17.526100788879262
 20
-21.353887515975046
 30
0.0
  0
SEQEND
  5
40E
100
AcDbEntity
  8
0
  6
CONTINUOUS
 62
               6
  0
LINE
  5
40F
100
AcDbEntity
  8
0
  6
CONTINUOUS
 62
               6
100
AcDbLine
 10
30.511910245079235
 20
-2.6012788090750547
 30
0.0
 11
19.895665235079235
 21
1.085792222924951
 31
0.0
  0
LINE
  5
410
100
AcDbEntity
  8
0
  6
CONTINUOUS
 62
               6
100
AcDbLine
 10
32.85064190067925
 20
-4.9988801850750662
 30
0.0
 11
30.511910245079235
 21
-2.6012788090750547
 31
0.0
  0
POLYLINE
  5
411
100
AcDbEntity
  8
0
  6
CONTINUOUS
 62
               6
100
AcDb2dPolyline
 66
               1
 10
0.0
 20
0.0
 30
0.0
 75
               5
  0
VERTEX
  5
412
100
AcDbEntity
  8
0
  6
CONTINUOUS
 62
               6
100
AcDbVertex
100
AcDb2dVertex
 10
15.77963187047925
 20
-20.966352562875059
 30
0.0
  0
VERTEX
  5
413
100
AcDbEntity
  8
0
  6
CONTINUOUS
 62
               6
100
AcDbVertex
100
AcDb2dVertex
 10
15.439926780979249
 20
-22.57458796487505
 30
0.0
  0
VERTEX
  5
414
100
AcDbEntity
  8
0
  6
CONTINUOUS
 62
               6
100
AcDbVertex
100
AcDb2dVertex
 10
15.212155658979242
 20
-24.183134329475067
 30
0.0
  0
VERTEX
  5
415
100
AcDbEntity
  8
0
  6
CONTINUOUS
 62
               6
100
AcDbVertex
100
AcDb2dVertex
 10
15.101406885479236
 20
-25.756067544075066
 30
0.0
  0
VERTEX
  5
416
100
AcDbEntity
  8
0
  6
CONTINUOUS
 62
               6
100
AcDbVertex
100
AcDb2dVertex
 10
15.110154212879252
 20
-27.258242015175043
 30
0.0
  0
VERTEX
  5
417
100
AcDbEntity
  8
0
  6
CONTINUOUS
 62
               6
100
AcDbVertex
100
AcDb2dVertex
 10
15.238202288979238
 20
-28.656109983075041
 30
0.0
  0
VERTEX
  5
418
100
AcDbEntity
  8
0
  6
CONTINUOUS
 62
               6
100
AcDbVertex
100
AcDb2dVertex
 10
15.48269081897925
 20
-29.918436317275066
 30
0.0
  0
VERTEX
  5
419
100
AcDbEntity
  8
0
  6
CONTINUOUS
 62
               6
100
AcDbVertex
100
AcDb2dVertex
 10
15.838158080079239
 20
-31.017031331175062
 30
0.0
  0
VERTEX
  5
41A
100
AcDbEntity
  8
0
  6
CONTINUOUS
 62
               6
100
AcDbVertex
100
AcDb2dVertex
 10
16.296663802579246
 20
-31.927347778475067
 30
0.0
  0
VERTEX
  5
41B
100
AcDbEntity
  8
0
  6
CONTINUOUS
 62
               6
100
AcDbVertex
100
AcDb2dVertex
 10
16.847965699279257
 20
-32.629055611275064
 30
0.0
  0
VERTEX
  5
41C
100
AcDbEntity
  8
0
  6
CONTINUOUS
 62
               6
100
AcDbVertex
100
AcDb2dVertex
 10
17.479748289479261
 20
-33.106479268875049
 30
0.0
  0
VERTEX
  5
41D
100
AcDbEntity
  8
0
  6
CONTINUOUS
 62
               6
100
AcDbVertex
100
AcDb2dVertex
 10
18.067880342779262
 20
-33.327462359175044
 30
0.0
  0
SEQEND
  5
41E
100
AcDbEntity
  8
0
  6
CONTINUOUS
 62
               6
  0
ARC
  5
41F
100
AcDbEntity
  8
0
  6
CONTINUOUS
 62
               6
100
AcDbCircle
 10
32.87112572067926
 20
-0.5179290320750596
 30
0.0
 40
3.1474186175090333
100
AcDbArc
 50
136.48893599880003
 51
221.44672148769999
  0
LINE
  5
420
100
AcDbEntity
  8
0
  6
CONTINUOUS
 62
               6
100
AcDbLine
 10
27.220116683379246
 20
-9.1338667650750409
 30
0.0
 11
26.958146833579235
 21
-9.0757366303750615
 31
0.0
  0
LINE
  5
421
100
AcDbEntity
  8
0
  6
CONTINUOUS
 62
               6
100
AcDbLine
 10
26.958146833579235
 20
-9.0757366303750615
 30
0.0
 11
26.880997607079252
 21
-9.0489434387750549
 31
0.0
  0
LINE
  5
422
100
AcDbEntity
  8
0
  6
CONTINUOUS
 62
               6
100
AcDbLine
 10
27.980366900379238
 20
-6.7984767399750439
 30
0.0
 11
27.810228891379239
 21
-6.7393835991750421
 31
0.0
  0
LINE
  5
423
100
AcDbEntity
  8
0
  6
CONTINUOUS
 62
               6
100
AcDbLine
 10
27.382796761879263
 20
-9.2232201983750457
 30
0.0
 11
27.980366900379238
 21
-6.7984767399750439
 31
0.0
  0
LINE
  5
424
100
AcDbEntity
  8
0
  6
CONTINUOUS
 62
               6
100
AcDbLine
 10
27.722108027879244
 20
-9.3410643283750545
 30
0.0
 11
27.382796761879263
 21
-9.2232201983750457
 31
0.0
  0
LINE
  5
425
100
AcDbEntity
  8
0
  6
CONTINUOUS
 62
               6
100
AcDbLine
 10
26.891536126379236
 20
-10.858718464075039
 30
0.0
 11
27.722108027879244
 21
-9.3410643283750545
 31
0.0
  0
LINE
  5
426
100
AcDbEntity
  8
0
  6
CONTINUOUS
 62
               6
100
AcDbLine
 10
28.242336750279236
 20
-6.8566068746750517
 30
0.0
 11
27.980366900379238
 21
-6.7984767399750439
 31
0.0
  0
LINE
  5
427
100
AcDbEntity
  8
0
  6
CONTINUOUS
 62
               6
100
AcDbLine
 10
27.722108027879244
 20
-9.3410643283750545
 30
0.0
 11
27.984077877679255
 21
-9.3991944630750623
 31
0.0
  0
LINE
  5
428
100
AcDbEntity
  8
0
  6
CONTINUOUS
 62
               6
100
AcDbLine
 10
27.644766611679245
 20
-9.2813503330750535
 30
0.0
 11
27.382796761879263
 21
-9.2232201983750457
 31
0.0
  0
POLYLINE
  5
429
100
AcDbEntity
  8
0
  6
CONTINUOUS
 62
               6
100
AcDb2dPolyline
 66
               1
 10
0.0
 20
0.0
 30
0.0
 75
               5
  0
VERTEX
  5
42A
100
AcDbEntity
  8
0
  6
CONTINUOUS
 62
               6
100
AcDbVertex
100
AcDb2dVertex
 10
-20.801887175220742
 20
-15.927137170675067
 30
0.0
  0
VERTEX
  5
42B
100
AcDbEntity
  8
0
  6
CONTINUOUS
 62
               6
100
AcDbVertex
100
AcDb2dVertex
 10
-21.268786266620765
 20
-17.207698402875067
 30
0.0
  0
VERTEX
  5
42C
100
AcDbEntity
  8
0
  6
CONTINUOUS
 62
               6
100
AcDbVertex
100
AcDb2dVertex
 10
-21.889661078720763
 20
-18.603462388975046
 30
0.0
  0
VERTEX
  5
42D
100
AcDbEntity
  8
0
  6
CONTINUOUS
 62
               6
100
AcDbVertex
100
AcDb2dVertex
 10
-22.57906430922074
 20
-19.863166984375042
 30
0.0
  0
VERTEX
  5
42E
100
AcDbEntity
  8
0
  6
CONTINUOUS
 62
               6
100
AcDbVertex
100
AcDb2dVertex
 10
-23.32159589982075
 20
-20.958676707675053
 30
0.0
  0
VERTEX
  5
42F
100
AcDbEntity
  8
0
  6
CONTINUOUS
 62
               6
100
AcDbVertex
100
AcDb2dVertex
 10
-24.100668671920744
 20
-21.865518476975055
 30
0.0
  0
VERTEX
  5
430
100
AcDbEntity
  8
0
  6
CONTINUOUS
 62
               6
100
AcDbVertex
100
AcDb2dVertex
 10
-24.898879503620748
 20
-22.563434027775045
 30
0.0
  0
VERTEX
  5
431
100
AcDbEntity
  8
0
  6
CONTINUOUS
 62
               6
100
AcDbVertex
100
AcDb2dVertex
 10
-25.698397705220742
 20
-23.036835552375052
 30
0.0
  0
VERTEX
  5
432
100
AcDbEntity
  8
0
  6
CONTINUOUS
 62
               6
100
AcDbVertex
100
AcDb2dVertex
 10
-26.481363411020737
 20
-23.275145622675055
 30
0.0
  0
VERTEX
  5
433
100
AcDbEntity
  8
0
  6
CONTINUOUS
 62
               6
100
AcDbVertex
100
AcDb2dVertex
 10
-27.230286526220738
 20
-23.273041807175062
 30
0.0
  0
VERTEX
  5
434
100
AcDbEntity
  8
0
  6
CONTINUOUS
 62
               6
100
AcDbVertex
100
AcDb2dVertex
 10
-27.928437084120759
 20
-23.030571931475052
 30
0.0
  0
VERTEX
  5
435
100
AcDbEntity
  8
0
  6
CONTINUOUS
 62
               6
100
AcDbVertex
100
AcDb2dVertex
 10
-28.560219674320763
 20
-22.553148273775051
 30
0.0
  0
VERTEX
  5
436
100
AcDbEntity
  8
0
  6
CONTINUOUS
 62
               6
100
AcDbVertex
100
AcDb2dVertex
 10
-29.111521571020745
 20
-21.851440441075042
 30
0.0
  0
VERTEX
  5
437
100
AcDbEntity
  8
0
  6
CONTINUOUS
 62
               6
100
AcDbVertex
100
AcDb2dVertex
 10
-29.570027293520752
 20
-20.941123993675049
 30
0.0
  0
VERTEX
  5
438
100
AcDbEntity
  8
0
  6
CONTINUOUS
 62
               6
100
AcDbVertex
100
AcDb2dVertex
 10
-29.925494554620741
 20
-19.842528979775054
 30
0.0
  0
VERTEX
  5
439
100
AcDbEntity
  8
0
  6
CONTINUOUS
 62
               6
100
AcDbVertex
100
AcDb2dVertex
 10
-30.169983084720741
 20
-18.580202645675044
 30
0.0
  0
VERTEX
  5
43A
100
AcDbEntity
  8
0
  6
CONTINUOUS
 62
               6
100
AcDbVertex
100
AcDb2dVertex
 10
-30.29803116072074
 20
-17.182334677775046
 30
0.0
  0
VERTEX
  5
43B
100
AcDbEntity
  8
0
  6
CONTINUOUS
 62
               6
100
AcDbVertex
100
AcDb2dVertex
 10
-30.306778488120756
 20
-15.680160206575053
 30
0.0
  0
VERTEX
  5
43C
100
AcDbEntity
  8
0
  6
CONTINUOUS
 62
               6
100
AcDbVertex
100
AcDb2dVertex
 10
-30.224072204820743
 20
-14.387242754375066
 30
0.0
  0
SEQEND
  5
43D
100
AcDbEntity
  8
0
  6
CONTINUOUS
 62
               6
  0
POLYLINE
  5
43E
100
AcDbEntity
  8
0
  6
CONTINUOUS
 62
               6
100
AcDb2dPolyline
 66
               1
 10
0.0
 20
0.0
 30
0.0
 75
               5
  0
VERTEX
  5
43F
100
AcDbEntity
  8
0
  6
CONTINUOUS
 62
               6
100
AcDbVertex
100
AcDb2dVertex
 10
-31.953996833920741
 20
-13.830319081375066
 30
0.0
  0
VERTEX
  5
440
100
AcDbEntity
  8
0
  6
CONTINUOUS
 62
               6
100
AcDbVertex
100
AcDb2dVertex
 10
-32.053247406620756
 20
-15.292625253475066
 30
0.0
  0
VERTEX
  5
441
100
AcDbEntity
  8
0
  6
CONTINUOUS
 62
               6
100
AcDbVertex
100
AcDb2dVertex
 10
-32.04450007922074
 20
-16.794799724675059
 30
0.0
  0
VERTEX
  5
442
100
AcDbEntity
  8
0
  6
CONTINUOUS
 62
               6
100
AcDbVertex
100
AcDb2dVertex
 10
-31.916452003120753
 20
-18.192667692475041
 30
0.0
  0
VERTEX
  5
443
100
AcDbEntity
  8
0
  6
CONTINUOUS
 62
               6
100
AcDbVertex
100
AcDb2dVertex
 10
-31.671963473120741
 20
-19.454994026675067
 30
0.0
  0
VERTEX
  5
444
100
AcDbEntity
  8
0
  6
CONTINUOUS
 62
               6
100
AcDbVertex
100
AcDb2dVertex
 10
-31.316496212020752
 20
-20.553589040575062
 30
0.0
  0
VERTEX
  5
445
100
AcDbEntity
  8
0
  6
CONTINUOUS
 62
               6
100
AcDbVertex
100
AcDb2dVertex
 10
-30.857990489520745
 20
-21.463905487875067
 30
0.0
  0
VERTEX
  5
446
100
AcDbEntity
  8
0
  6
CONTINUOUS
 62
               6
100
AcDbVertex
100
AcDb2dVertex
 10
-30.306688592720747
 20
-22.165613320675064
 30
0.0
  0
VERTEX
  5
447
100
AcDbEntity
  8
0
  6
CONTINUOUS
 62
               6
100
AcDbVertex
100
AcDb2dVertex
 10
-29.674906002620759
 20
-22.643036978375065
 30
0.0
  0
VERTEX
  5
448
100
AcDbEntity
  8
0
  6
CONTINUOUS
 62
               6
100
AcDbVertex
100
AcDb2dVertex
 10
-29.086773949220742
 20
-22.864020068575044
 30
0.0
  0
SEQEND
  5
449
100
AcDbEntity
  8
0
  6
CONTINUOUS
 62
               6
  0
POLYLINE
  5
44A
100
AcDbEntity
  8
0
  6
CONTINUOUS
 62
               6
100
AcDb2dPolyline
 66
               1
 10
0.0
 20
0.0
 30
0.0
 75
               5
  0
VERTEX
  5
44B
100
AcDbEntity
  8
0
  6
CONTINUOUS
 62
               6
100
AcDbVertex
100
AcDb2dVertex
 10
20.556240982979261
 20
-31.927985199075053
 30
0.0
  0
VERTEX
  5
44C
100
AcDbEntity
  8
0
  6
CONTINUOUS
 62
               6
100
AcDbVertex
100
AcDb2dVertex
 10
20.177786934679261
 20
-30.927071741175055
 30
0.0
  0
VERTEX
  5
44D
100
AcDbEntity
  8
0
  6
CONTINUOUS
 62
               6
100
AcDbVertex
100
AcDb2dVertex
 10
19.905401502279261
 20
-29.757665421775059
 30
0.0
  0
VERTEX
  5
44E
100
AcDbEntity
  8
0
  6
CONTINUOUS
 62
               6
100
AcDbVertex
100
AcDb2dVertex
 10
19.745312233679243
 20
-28.446498890375054
 30
0.0
  0
VERTEX
  5
44F
100
AcDbEntity
  8
0
  6
CONTINUOUS
 62
               6
100
AcDbVertex
100
AcDb2dVertex
 10
19.701179704379257
 20
-27.023554007875063
 30
0.0
  0
VERTEX
  5
450
100
AcDbEntity
  8
0
  6
CONTINUOUS
 62
               6
100
AcDbVertex
100
AcDb2dVertex
 10
19.77401277367926
 20
-25.521361687575066
 30
0.0
  0
VERTEX
  5
451
100
AcDbEntity
  8
0
  6
CONTINUOUS
 62
               6
100
AcDbVertex
100
AcDb2dVertex
 10
19.962146071679257
 20
-23.974266368875064
 30
0.0
  0
VERTEX
  5
452
100
AcDbEntity
  8
0
  6
CONTINUOUS
 62
               6
100
AcDbVertex
100
AcDb2dVertex
 10
20.261278277179258
 20
-22.417642506475048
 30
0.0
  0
VERTEX
  5
453
100
AcDbEntity
  8
0
  6
CONTINUOUS
 62
               6
100
AcDbVertex
100
AcDb2dVertex
 10
20.664569922679249
 20
-20.887081092575059
 30
0.0
  0
VERTEX
  5
454
100
AcDbEntity
  8
0
  6
CONTINUOUS
 62
               6
100
AcDbVertex
100
AcDb2dVertex
 10
21.162800432879237
 20
-19.417573773475041
 30
0.0
  0
VERTEX
  5
455
100
AcDbEntity
  8
0
  6
CONTINUOUS
 62
               6
100
AcDbVertex
100
AcDb2dVertex
 10
21.744578634979263
 20
-18.042722714175042
 30
0.0
  0
VERTEX
  5
456
100
AcDbEntity
  8
0
  6
CONTINUOUS
 62
               6
100
AcDbVertex
100
AcDb2dVertex
 10
22.396602537579241
 20
-16.793958781275066
 30
0.0
  0
VERTEX
  5
457
100
AcDbEntity
  8
0
  6
CONTINUOUS
 62
               6
100
AcDbVertex
100
AcDb2dVertex
 10
23.103964537579259
 20
-15.699832389475048
 30
0.0
  0
VERTEX
  5
458
100
AcDbEntity
  8
0
  6
CONTINUOUS
 62
               6
100
AcDbVertex
100
AcDb2dVertex
 10
23.850491895779243
 20
-14.785363951575064
 30
0.0
  0
VERTEX
  5
459
100
AcDbEntity
  8
0
  6
CONTINUOUS
 62
               6
100
AcDbVertex
100
AcDb2dVertex
 10
24.619116028279251
 20
-14.071458659475056
 30
0.0
  0
VERTEX
  5
45A
100
AcDbEntity
  8
0
  6
CONTINUOUS
 62
               6
100
AcDbVertex
100
AcDb2dVertex
 10
25.392263380179259
 20
-13.574442177075056
 30
0.0
  0
VERTEX
  5
45B
100
AcDbEntity
  8
0
  6
CONTINUOUS
 62
               6
100
AcDbVertex
100
AcDb2dVertex
 10
26.152256915579244
 20
-13.305670589075064
 30
0.0
  0
VERTEX
  5
45C
100
AcDbEntity
  8
0
  6
CONTINUOUS
 62
               6
100
AcDbVertex
100
AcDb2dVertex
 10
26.881720524279245
 20
-13.271298873375045
 30
0.0
  0
VERTEX
  5
45D
100
AcDbEntity
  8
0
  6
CONTINUOUS
 62
               6
100
AcDbVertex
100
AcDb2dVertex
 10
27.563975693079243
 20
-13.472102900375049
 30
0.0
  0
VERTEX
  5
45E
100
AcDbEntity
  8
0
  6
CONTINUOUS
 62
               6
100
AcDbVertex
100
AcDb2dVertex
 10
28.183423525879249
 20
-13.903500180775055
 30
0.0
  0
VERTEX
  5
45F
100
AcDbEntity
  8
0
  6
CONTINUOUS
 62
               6
100
AcDbVertex
100
AcDb2dVertex
 10
28.725901506979255
 20
-14.555623313375051
 30
0.0
  0
VERTEX
  5
460
100
AcDbEntity
  8
0
  6
CONTINUOUS
 62
               6
100
AcDbVertex
100
AcDb2dVertex
 10
29.179006096079263
 20
-15.413562051375052
 30
0.0
  0
VERTEX
  5
461
100
AcDbEntity
  8
0
  6
CONTINUOUS
 62
               6
100
AcDbVertex
100
AcDb2dVertex
 10
29.532377940279247
 20
-16.457701140275063
 30
0.0
  0
VERTEX
  5
462
100
AcDbEntity
  8
0
  6
CONTINUOUS
 62
               6
100
AcDbVertex
100
AcDb2dVertex
 10
29.777937604379247
 20
-17.664169635875041
 30
0.0
  0
VERTEX
  5
463
100
AcDbEntity
  8
0
  6
CONTINUOUS
 62
               6
100
AcDbVertex
100
AcDb2dVertex
 10
29.910070543979259
 20
-19.005378707175041
 30
0.0
  0
VERTEX
  5
464
100
AcDbEntity
  8
0
  6
CONTINUOUS
 62
               6
100
AcDbVertex
100
AcDb2dVertex
 10
29.925756203879246
 20
-20.450668767975046
 30
0.0
  0
VERTEX
  5
465
100
AcDbEntity
  8
0
  6
CONTINUOUS
 62
               6
100
AcDbVertex
100
AcDb2dVertex
 10
29.82463488457924
 20
-21.966991977275043
 30
0.0
  0
VERTEX
  5
466
100
AcDbEntity
  8
0
  6
CONTINUOUS
 62
               6
100
AcDbVertex
100
AcDb2dVertex
 10
29.609019956779235
 20
-23.519679243475039
 30
0.0
  0
VERTEX
  5
467
100
AcDbEntity
  8
0
  6
CONTINUOUS
 62
               6
100
AcDbVertex
100
AcDb2dVertex
 10
29.283840050079249
 20
-25.073234637275064
 30
0.0
  0
SEQEND
  5
468
100
AcDbEntity
  8
0
  6
CONTINUOUS
 62
               6
  0
LINE
  5
469
100
AcDbEntity
  8
0
  6
CONTINUOUS
 62
               6
100
AcDbLine
 10
18.809772064579249
 20
-31.54045024587505
 30
0.0
 11
20.556240982979261
 21
-31.927985199075053
 31
0.0
  0
POLYLINE
  5
46A
100
AcDbEntity
  8
0
  6
CONTINUOUS
 62
               6
100
AcDb2dPolyline
 66
               1
 10
0.0
 20
0.0
 30
0.0
 75
               5
  0
VERTEX
  5
46B
100
AcDbEntity
  8
0
  6
CONTINUOUS
 62
               6
100
AcDbVertex
100
AcDb2dVertex
 10
18.809772064579249
 20
-31.54045024587505
 30
0.0
  0
VERTEX
  5
46C
100
AcDbEntity
  8
0
  6
CONTINUOUS
 62
               6
100
AcDbVertex
100
AcDb2dVertex
 10
18.431318016279249
 20
-30.539536787975052
 30
0.0
  0
VERTEX
  5
46D
100
AcDbEntity
  8
0
  6
CONTINUOUS
 62
               6
100
AcDbVertex
100
AcDb2dVertex
 10
18.158932583879249
 20
-29.370130468575056
 30
0.0
  0
VERTEX
  5
46E
100
AcDbEntity
  8
0
  6
CONTINUOUS
 62
               6
100
AcDbVertex
100
AcDb2dVertex
 10
17.998843315179244
 20
-28.058963937275067
 30
0.0
  0
VERTEX
  5
46F
100
AcDbEntity
  8
0
  6
CONTINUOUS
 62
               6
100
AcDbVertex
100
AcDb2dVertex
 10
17.954710785979245
 20
-26.636019054775048
 30
0.0
  0
VERTEX
  5
470
100
AcDbEntity
  8
0
  6
CONTINUOUS
 62
               6
100
AcDbVertex
100
AcDb2dVertex
 10
18.02754385517926
 20
-25.133826734475051
 30
0.0
  0
VERTEX
  5
471
100
AcDbEntity
  8
0
  6
CONTINUOUS
 62
               6
100
AcDbVertex
100
AcDb2dVertex
 10
18.215677153279245
 20
-23.586731415675061
 30
0.0
  0
VERTEX
  5
472
100
AcDbEntity
  8
0
  6
CONTINUOUS
 62
               6
100
AcDbVertex
100
AcDb2dVertex
 10
18.514809358779246
 20
-22.030107553375061
 30
0.0
  0
VERTEX
  5
473
100
AcDbEntity
  8
0
  6
CONTINUOUS
 62
               6
100
AcDbVertex
100
AcDb2dVertex
 10
18.918101004179249
 20
-20.499546139475044
 30
0.0
  0
VERTEX
  5
474
100
AcDbEntity
  8
0
  6
CONTINUOUS
 62
               6
100
AcDbVertex
100
AcDb2dVertex
 10
19.416331514479253
 20
-19.030038820375054
 30
0.0
  0
VERTEX
  5
475
100
AcDbEntity
  8
0
  6
CONTINUOUS
 62
               6
100
AcDbVertex
100
AcDb2dVertex
 10
19.998109716579251
 20
-17.655187761075055
 30
0.0
  0
VERTEX
  5
476
100
AcDbEntity
  8
0
  6
CONTINUOUS
 62
               6
100
AcDbVertex
100
AcDb2dVertex
 10
20.591304303679237
 20
-16.508750895775066
 30
0.0
  0
SEQEND
  5
477
100
AcDbEntity
  8
0
  6
CONTINUOUS
 62
               6
  0
POLYLINE
  5
478
100
AcDbEntity
  8
0
  6
CONTINUOUS
 62
               6
100
AcDb2dPolyline
 66
               1
 10
0.0
 20
0.0
 30
0.0
 75
               5
  0
VERTEX
  5
479
100
AcDbEntity
  8
0
  6
CONTINUOUS
 62
               6
100
AcDbVertex
100
AcDb2dVertex
 10
24.579358375679249
 20
-12.889032234575055
 30
0.0
  0
VERTEX
  5
47A
100
AcDbEntity
  8
0
  6
CONTINUOUS
 62
               6
100
AcDbVertex
100
AcDb2dVertex
 10
25.135251605879262
 20
-12.883763920275058
 30
0.0
  0
VERTEX
  5
47B
100
AcDbEntity
  8
0
  6
CONTINUOUS
 62
               6
100
AcDbVertex
100
AcDb2dVertex
 10
25.345067128179238
 20
-12.919292939075049
 30
0.0
  0
SEQEND
  5
47C
100
AcDbEntity
  8
0
  6
CONTINUOUS
 62
               6
  0
LINE
  5
47D
100
AcDbEntity
  8
0
  6
CONTINUOUS
 62
               6
100
AcDbLine
 10
34.470095711079239
 20
-59.607782824275048
 30
0.0
 11
21.168844627279242
 21
-69.359112489075059
 31
0.0
  0
LINE
  5
47E
100
AcDbEntity
  8
0
  6
CONTINUOUS
 62
               6
100
AcDbLine
 10
20.963688827879253
 20
-34.12780246217504
 30
0.0
 11
21.168844627279242
 21
-69.359112489075059
 31
0.0
  0
ARC
  5
47F
100
AcDbEntity
  8
0
  6
CONTINUOUS
 62
               6
100
AcDbCircle
 10
15.598830170379244
 20
-33.983833789775062
 30
0.0
 40
5.3667900456422126
100
AcDbArc
 50
358.46280795360013
 51
22.523886982100066
  0
ARC
  5
480
100
AcDbEntity
  8
0
  6
CONTINUOUS
 62
               6
100
AcDbCircle
 10
38.278829470279248
 20
-27.434580313775044
 30
0.0
 40
9.2997735495310305
100
AcDbArc
 50
165.2907369614
 51
188.13495328420004
  0
LINE
  5
481
100
AcDbEntity
  8
0
  6
CONTINUOUS
 62
               6
100
AcDbLine
 10
29.072634736579261
 20
-28.750546346275044
 30
0.0
 11
34.470095711079239
 21
-59.607782824275048
 31
0.0
  0
LINE
  5
482
100
AcDbEntity
  8
0
  6
CONTINUOUS
 62
               6
100
AcDbLine
 10
19.217219909379253
 20
-33.740267509075053
 30
0.0
 11
20.963688827879253
 21
-34.12780246217504
 31
0.0
  0
ARC
  5
483
100
AcDbEntity
  8
0
  6
CONTINUOUS
 62
               6
100
AcDbCircle
 10
13.852361251879245
 20
-33.596298836675047
 30
0.0
 40
5.3667900456424116
100
AcDbArc
 50
358.46280795360013
 51
22.523886982100009
  0
ARC
  5
484
100
AcDbEntity
  8
0
  6
CONTINUOUS
 62
               6
100
AcDbCircle
 10
-30.029567232220757
 20
-57.267076108275049
 30
0.0
 40
2.943160715524249
100
AcDbArc
 50
181.52749826600012
 51
255.32258660089991
  0
LINE
  5
485
100
AcDbEntity
  8
0
  6
CONTINUOUS
 62
               6
100
AcDbLine
 10
-32.97168208552074
 20
-57.345531107875047
 30
0.0
 11
-33.176837884920758
 21
-22.114221080975042
 31
0.0
  0
LINE
  5
486
100
AcDbEntity
  8
0
  6
CONTINUOUS
 62
               6
100
AcDbLine
 10
-33.176837884920758
 20
-22.114221080975042
 30
0.0
 11
-31.430368966520746
 21
-22.501756034175045
 31
0.0
  0
LINE
  5
487
100
AcDbEntity
  8
0
  6
CONTINUOUS
 62
               6
100
AcDbLine
 10
-31.430368966520746
 20
-22.501756034175045
 30
0.0
 11
-31.225213167120756
 21
-57.73306606107505
 31
0.0
  0
ARC
  5
488
100
AcDbEntity
  8
0
  6
CONTINUOUS
 62
               6
100
AcDbCircle
 10
-30.636793070020758
 20
-57.717377236475059
 30
0.0
 40
0.5886292125179908
100
AcDbArc
 50
181.52729405189987
 51
255.32273549280038
  0
LINE
  5
489
100
AcDbEntity
  8
0
  6
CONTINUOUS
 62
               6
100
AcDbLine
 10
-30.785936469320745
 20
-58.286798518375051
 30
0.0
 11
18.988419573979257
 21
-69.331542877675048
 31
0.0
  0
ARC
  5
48A
100
AcDbEntity
  8
0
  6
CONTINUOUS
 62
               6
100
AcDbCircle
 10
19.075847054879262
 20
-68.995380527175058
 30
0.0
 40
0.3473452034638642
100
AcDbArc
 50
255.42174958529765
 51
3.9294644665995118
  0
ARC
  5
48B
100
AcDbEntity
  8
0
  6
CONTINUOUS
 62
               6
100
AcDbCircle
 10
19.436194278079256
 20
-69.478119621175054
 30
0.0
 40
1.73673254415656
100
AcDbArc
 50
255.42193615220023
 51
3.9291909583998574
  0
LINE
  5
48C
100
AcDbEntity
  8
0
  6
CONTINUOUS
 62
               6
100
AcDbLine
 10
-30.775295339720742
 20
-60.114194754775056
 30
0.0
 11
18.999060703579261
 21
-71.158939114075054
 31
0.0
  0
LINE
  5
48D
100
AcDbEntity
  8
0
  6
CONTINUOUS
 62
               6
100
AcDbLine
 10
19.422375708879258
 20
-68.971577535975058
 30
0.0
 11
19.217219909379253
 21
-33.740267509075053
 31
0.0
  0
SPLINE
  5
48E
100
AcDbEntity
  8
0
  6
CONTINUOUS
 62
               6
100
AcDbSpline
210
0.0
220
0.0
230
1.0
 70
               8
 71
               2
 72
              15
 73
              12
 74
               0
 42
0.000001
 43
0.000001
 40
0.0
 40
0.0
 40
0.0
 40
1.0
 40
1.0
 40
2.0
 40
3.0
 40
4.0
 40
5.0
 40
6.0
 40
7.0
 40
7.0
 40
8.0
 40
8.0
 40
8.0
 10
34.470095711052949
 20
-59.607782824269151
 30
0.0
 10
34.469746463238053
 20
-59.612860785834499
 30
0.0
 10
34.469397215423157
 20
-59.617938747399847
 30
0.0
 10
34.458544976000695
 20
-59.79105420632844
 30
0.0
 10
34.424866945300977
 20
-60.111225089140063
 30
0.0
 10
34.351978624139434
 20
-60.417453828606753
 30
0.0
 10
34.223299878389554
 20
-60.694942688529522
 30
0.0
 10
34.074773315883277
 20
-60.872552851018582
 30
0.0
 10
33.910581252149285
 20
-61.003738843082971
 30
0.0
 10
33.797988920819051
 20
-61.071967522931814
 30
0.0
 10
33.796194096788852
 20
-61.073093514135486
 30
0.0
 10
33.794399272758653
 20
-61.074219505339158
 30
0.0
  0
POLYLINE
  5
48F
100
AcDbEntity
  8
0
  6
CONTINUOUS
 62
               6
100
AcDb2dPolyline
 66
               1
 10
0.0
 20
0.0
 30
0.0
 75
               5
  0
VERTEX
  5
490
100
AcDbEntity
  8
0
  6
CONTINUOUS
 62
               6
100
AcDbVertex
100
AcDb2dVertex
 10
-15.930225325720755
 20
-57.267958769775049
 30
0.0
  0
VERTEX
  5
491
100
AcDbEntity
  8
0
  6
CONTINUOUS
 62
               6
100
AcDbVertex
100
AcDb2dVertex
 10
-16.253254939820749
 20
-57.57636848027505
 30
0.0
  0
VERTEX
  5
492
100
AcDbEntity
  8
0
  6
CONTINUOUS
 62
               6
100
AcDbVertex
100
AcDb2dVertex
 10
-16.793803567720744
 20
-57.830253553175055
 30
0.0
  0
VERTEX
  5
493
100
AcDbEntity
  8
0
  6
CONTINUOUS
 62
               6
100
AcDbVertex
100
AcDb2dVertex
 10
-17.498960972820754
 20
-58.00476140857505
 30
0.0
  0
VERTEX
  5
494
100
AcDbEntity
  8
0
  6
CONTINUOUS
 62
               6
100
AcDbVertex
100
AcDb2dVertex
 10
-18.299700255520747
 20
-58.082810288375057
 30
0.0
  0
VERTEX
  5
495
100
AcDbEntity
  8
0
  6
CONTINUOUS
 62
               6
100
AcDbVertex
100
AcDb2dVertex
 10
-19.117638672920748
 20
-58.056760374275058
 30
0.0
  0
VERTEX
  5
496
100
AcDbEntity
  8
0
  6
CONTINUOUS
 62
               6
100
AcDbVertex
100
AcDb2dVertex
 10
-19.872712465720753
 20
-57.929161241275054
 30
0.0
  0
VERTEX
  5
497
100
AcDbEntity
  8
0
  6
CONTINUOUS
 62
               6
100
AcDbVertex
100
AcDb2dVertex
 10
-20.491006693220754
 20
-57.712503860275049
 30
0.0
  0
VERTEX
  5
498
100
AcDbEntity
  8
0
  6
CONTINUOUS
 62
               6
100
AcDbVertex
100
AcDb2dVertex
 10
-20.912002104720756
 20
-57.427995335275057
 30
0.0
  0
VERTEX
  5
499
100
AcDbEntity
  8
0
  6
CONTINUOUS
 62
               6
100
AcDbVertex
100
AcDb2dVertex
 10
-21.094485762620764
 20
-57.103486054875049
 30
0.0
  0
VERTEX
  5
49A
100
AcDbEntity
  8
0
  6
CONTINUOUS
 62
               6
100
AcDbVertex
100
AcDb2dVertex
 10
-21.020596402520738
 20
-56.770740825575047
 30
0.0
  0
SEQEND
  5
49B
100
AcDbEntity
  8
0
  6
CONTINUOUS
 62
               6
  0
ARC
  5
49C
100
AcDbEntity
  8
0
  6
CONTINUOUS
 62
               6
100
AcDbCircle
 10
-8.5013116831207469
 20
-62.838990776175052
 30
0.0
 40
9.2857501326302359
100
AcDbArc
 50
109.35798188020007
 51
143.13332682730001
  0
POLYLINE
  5
49D
100
AcDbEntity
  8
0
  6
CONTINUOUS
 62
               6
100
AcDb2dPolyline
 66
               1
 10
0.0
 20
0.0
 30
0.0
 75
               5
  0
VERTEX
  5
49E
100
AcDbEntity
  8
0
  6
CONTINUOUS
 62
               6
100
AcDbVertex
100
AcDb2dVertex
 10
-15.345414761620759
 20
-52.610187300275058
 30
0.0
  0
VERTEX
  5
49F
100
AcDbEntity
  8
0
  6
CONTINUOUS
 62
               6
100
AcDbVertex
100
AcDb2dVertex
 10
-14.688126578620739
 20
-52.406896240775055
 30
0.0
  0
VERTEX
  5
4A0
100
AcDbEntity
  8
0
  6
CONTINUOUS
 62
               6
100
AcDbVertex
100
AcDb2dVertex
 10
-13.910849264720753
 20
-52.295354131275047
 30
0.0
  0
VERTEX
  5
4A1
100
AcDbEntity
  8
0
  6
CONTINUOUS
 62
               6
100
AcDbVertex
100
AcDb2dVertex
 10
-13.089666970620755
 20
-52.286480161975049
 30
0.0
  0
VERTEX
  5
4A2
100
AcDbEntity
  8
0
  6
CONTINUOUS
 62
               6
100
AcDbVertex
100
AcDb2dVertex
 10
-12.304965987620761
 20
-52.381142467475058
 30
0.0
  0
VERTEX
  5
4A3
100
AcDbEntity
  8
0
  6
CONTINUOUS
 62
               6
100
AcDbVertex
100
AcDb2dVertex
 10
-11.633554116020747
 20
-52.570075302775052
 30
0.0
  0
VERTEX
  5
4A4
100
AcDbEntity
  8
0
  6
CONTINUOUS
 62
               6
100
AcDbVertex
100
AcDb2dVertex
 10
-11.141156896520755
 20
-52.834783935575047
 30
0.0
  0
VERTEX
  5
4A5
100
AcDbEntity
  8
0
  6
CONTINUOUS
 62
               6
100
AcDbVertex
100
AcDb2dVertex
 10
-10.875971820620748
 20
-53.149357192575053
 30
0.0
  0
VERTEX
  5
4A6
100
AcDbEntity
  8
0
  6
CONTINUOUS
 62
               6
100
AcDbVertex
100
AcDb2dVertex
 10
-10.863958263120765
 20
-53.483002601975059
 30
0.0
  0
VERTEX
  5
4A7
100
AcDbEntity
  8
0
  6
CONTINUOUS
 62
               6
100
AcDbVertex
100
AcDb2dVertex
 10
-11.106293481920744
 20
-53.803060418375054
 30
0.0
  0
VERTEX
  5
4A8
100
AcDbEntity
  8
0
  6
CONTINUOUS
 62
               6
100
AcDbVertex
100
AcDb2dVertex
 10
-11.579253021120763
 20
-54.078201277175054
 30
0.0
  0
SEQEND
  5
4A9
100
AcDbEntity
  8
0
  6
CONTINUOUS
 62
               6
  0
ARC
  5
4AA
100
AcDbEntity
  8
0
  6
CONTINUOUS
 62
               6
100
AcDbCircle
 10
-11.33073178792074
 20
-64.03727289437505
 30
0.0
 40
12.11181095274407
100
AcDbArc
 50
109.35792753000004
 51
143.13338117750001
  0
POLYLINE
  5
4AB
100
AcDbEntity
  8
0
  6
CONTINUOUS
 62
               6
100
AcDb2dPolyline
 66
               1
 10
0.0
 20
0.0
 30
0.0
 75
               5
  0
VERTEX
  5
4AC
100
AcDbEntity
  8
0
  6
CONTINUOUS
 62
               6
100
AcDbVertex
100
AcDb2dVertex
 10
-2.859251878020757
 20
-61.580866729375046
 30
0.0
  0
VERTEX
  5
4AD
100
AcDbEntity
  8
0
  6
CONTINUOUS
 62
               6
100
AcDbVertex
100
AcDb2dVertex
 10
-3.9409979053207564
 20
-61.28780856967505
 30
0.0
  0
VERTEX
  5
4AE
100
AcDbEntity
  8
0
  6
CONTINUOUS
 62
               6
100
AcDbVertex
100
AcDb2dVertex
 10
-4.87883428272076
 20
-60.922248961175058
 30
0.0
  0
VERTEX
  5
4AF
100
AcDbEntity
  8
0
  6
CONTINUOUS
 62
               6
100
AcDbVertex
100
AcDb2dVertex
 10
-5.6442654449207623
 20
-60.49529532037505
 30
0.0
  0
VERTEX
  5
4B0
100
AcDbEntity
  8
0
  6
CONTINUOUS
 62
               6
100
AcDbVertex
100
AcDb2dVertex
 10
-6.2140342394207551
 20
-60.019920333475056
 30
0.0
  0
VERTEX
  5
4B1
100
AcDbEntity
  8
0
  6
CONTINUOUS
 62
               6
100
AcDbVertex
100
AcDb2dVertex
 10
-6.5708282999207483
 20
-59.510568091075058
 30
0.0
  0
VERTEX
  5
4B2
100
AcDbEntity
  8
0
  6
CONTINUOUS
 62
               6
100
AcDbVertex
100
AcDb2dVertex
 10
-6.7038067895207405
 20
-58.982714936175057
 30
0.0
  0
VERTEX
  5
4B3
100
AcDbEntity
  8
0
  6
CONTINUOUS
 62
               6
100
AcDbVertex
100
AcDb2dVertex
 10
-6.6089294477207545
 20
-58.452399454275053
 30
0.0
  0
VERTEX
  5
4B4
100
AcDbEntity
  8
0
  6
CONTINUOUS
 62
               6
100
AcDbVertex
100
AcDb2dVertex
 10
-6.2890786467207533
 20
-57.93573508017505
 30
0.0
  0
VERTEX
  5
4B5
100
AcDbEntity
  8
0
  6
CONTINUOUS
 62
               6
100
AcDbVertex
100
AcDb2dVertex
 10
-5.7539728305207518
 20
-57.448420244075052
 30
0.0
  0
VERTEX
  5
4B6
100
AcDbEntity
  8
0
  6
CONTINUOUS
 62
               6
100
AcDbVertex
100
AcDb2dVertex
 10
-5.0198713585207599
 20
-57.005261803475051
 30
0.0
  0
VERTEX
  5
4B7
100
AcDbEntity
  8
0
  6
CONTINUOUS
 62
               6
100
AcDbVertex
100
AcDb2dVertex
 10
-4.109079386320758
 20
-56.619725075875053
 30
0.0
  0
VERTEX
  5
4B8
100
AcDbEntity
  8
0
  6
CONTINUOUS
 62
               6
100
AcDbVertex
100
AcDb2dVertex
 10
-3.0492704610207397
 20
-56.303524212875047
 30
0.0
  0
VERTEX
  5
4B9
100
AcDbEntity
  8
0
  6
CONTINUOUS
 62
               6
100
AcDbVertex
100
AcDb2dVertex
 10
-1.8726468201207638
 20
-56.06626678837506
 30
0.0
  0
VERTEX
  5
4BA
100
AcDbEntity
  8
0
  6
CONTINUOUS
 62
               6
100
AcDbVertex
100
AcDb2dVertex
 10
-0.6149596866207503
 20
-55.915161958675057
 30
0.0
  0
VERTEX
  5
4BB
100
AcDbEntity
  8
0
  6
CONTINUOUS
 62
               6
100
AcDbVertex
100
AcDb2dVertex
 10
0.6855771784792353
 20
-55.854800846675047
 30
0.0
  0
VERTEX
  5
4BC
100
AcDbEntity
  8
0
  6
CONTINUOUS
 62
               6
100
AcDbVertex
100
AcDb2dVertex
 10
1.9894474550792438
 20
-55.887017385275058
 30
0.0
  0
VERTEX
  5
4BD
100
AcDbEntity
  8
0
  6
CONTINUOUS
 62
               6
100
AcDbVertex
100
AcDb2dVertex
 10
3.2570336359792407
 20
-56.010832888675054
 30
0.0
  0
VERTEX
  5
4BE
100
AcDbEntity
  8
0
  6
CONTINUOUS
 62
               6
100
AcDbVertex
100
AcDb2dVertex
 10
4.449820835779235
 20
-56.22248524117505
 30
0.0
  0
VERTEX
  5
4BF
100
AcDbEntity
  8
0
  6
CONTINUOUS
 62
               6
100
AcDbVertex
100
AcDb2dVertex
 10
5.5315669197792374
 20
-56.515543359175055
 30
0.0
  0
VERTEX
  5
4C0
100
AcDbEntity
  8
0
  6
CONTINUOUS
 62
               6
100
AcDbVertex
100
AcDb2dVertex
 10
6.4694033538792439
 20
-56.881102926075059
 30
0.0
  0
VERTEX
  5
4C1
100
AcDbEntity
  8
0
  6
CONTINUOUS
 62
               6
100
AcDbVertex
100
AcDb2dVertex
 10
7.2348344027792564
 20
-57.308056650175047
 30
0.0
  0
VERTEX
  5
4C2
100
AcDbEntity
  8
0
  6
CONTINUOUS
 62
               6
100
AcDbVertex
100
AcDb2dVertex
 10
7.8046032073792446
 20
-57.783431629475047
 30
0.0
  0
VERTEX
  5
4C3
100
AcDbEntity
  8
0
  6
CONTINUOUS
 62
               6
100
AcDbVertex
100
AcDb2dVertex
 10
8.1613973143792578
 20
-58.292783837875049
 30
0.0
  0
VERTEX
  5
4C4
100
AcDbEntity
  8
0
  6
CONTINUOUS
 62
               6
100
AcDbVertex
100
AcDb2dVertex
 10
8.2943756905792441
 20
-58.820637075875055
 30
0.0
  0
VERTEX
  5
4C5
100
AcDbEntity
  8
0
  6
CONTINUOUS
 62
               6
100
AcDbVertex
100
AcDb2dVertex
 10
8.1994982353792523
 20
-59.350952640975052
 30
0.0
  0
VERTEX
  5
4C6
100
AcDbEntity
  8
0
  6
CONTINUOUS
 62
               6
100
AcDbVertex
100
AcDb2dVertex
 10
7.8796474343792511
 20
-59.867617015075055
 30
0.0
  0
VERTEX
  5
4C7
100
AcDbEntity
  8
0
  6
CONTINUOUS
 62
               6
100
AcDbVertex
100
AcDb2dVertex
 10
7.344541618079262
 20
-60.354931851175053
 30
0.0
  0
VERTEX
  5
4C8
100
AcDbEntity
  8
0
  6
CONTINUOUS
 62
               6
100
AcDbVertex
100
AcDb2dVertex
 10
6.6104401461792577
 20
-60.798090291775054
 30
0.0
  0
VERTEX
  5
4C9
100
AcDbEntity
  8
0
  6
CONTINUOUS
 62
               6
100
AcDbVertex
100
AcDb2dVertex
 10
5.6996481738792397
 20
-61.183627019375052
 30
0.0
  0
VERTEX
  5
4CA
100
AcDbEntity
  8
0
  6
CONTINUOUS
 62
               6
100
AcDbVertex
100
AcDb2dVertex
 10
4.6398393620792433
 20
-61.499827799175051
 30
0.0
  0
VERTEX
  5
4CB
100
AcDbEntity
  8
0
  6
CONTINUOUS
 62
               6
100
AcDbVertex
100
AcDb2dVertex
 10
3.4632158345792448
 20
-61.73708514047506
 30
0.0
  0
VERTEX
  5
4CC
100
AcDbEntity
  8
0
  6
CONTINUOUS
 62
               6
100
AcDbVertex
100
AcDb2dVertex
 10
2.2055286545792399
 20
-61.888190004375048
 30
0.0
  0
VERTEX
  5
4CD
100
AcDbEntity
  8
0
  6
CONTINUOUS
 62
               6
100
AcDbVertex
100
AcDb2dVertex
 10
0.9049917793792588
 20
-61.948551123875049
 30
0.0
  0
VERTEX
  5
4CE
100
AcDbEntity
  8
0
  6
CONTINUOUS
 62
               6
100
AcDbVertex
100
AcDb2dVertex
 10
-0.3988783838207439
 20
-61.916334501975058
 30
0.0
  0
VERTEX
  5
4CF
100
AcDbEntity
  8
0
  6
CONTINUOUS
 62
               6
100
AcDbVertex
100
AcDb2dVertex
 10
-1.6664646214207437
 20
-61.792519040175051
 30
0.0
  0
VERTEX
  5
4D0
100
AcDbEntity
  8
0
  6
CONTINUOUS
 62
               6
100
AcDbVertex
100
AcDb2dVertex
 10
-2.859251878020757
 20
-61.580866729375046
 30
0.0
  0
SEQEND
  5
4D1
100
AcDbEntity
  8
0
  6
CONTINUOUS
 62
               6
  0
LINE
  5
4D2
100
AcDbEntity
  8
0
  6
CONTINUOUS
 62
               6
100
AcDbLine
 10
-0.7478563712207631
 20
-48.897121704975049
 30
0.0
 11
-17.416214992320761
 21
-48.48527226887505
 31
0.0
  0
ARC
  5
4D3
100
AcDbEntity
  8
0
  6
CONTINUOUS
 62
               6
100
AcDbCircle
 10
-1.1933018482207558
 20
-70.712735585075052
 30
0.0
 40
21.820161104757631
100
AcDbArc
 50
77.85026460829998
 51
88.83025983349998
  0
LINE
  5
4D4
100
AcDbEntity
  8
0
  6
CONTINUOUS
 62
               6
100
AcDbLine
 10
19.32888377917925
 20
-52.916079904275051
 30
0.0
 11
3.3991273445792558
 21
-49.381326237675054
 31
0.0
  0
LINE
  5
4D5
100
AcDbEntity
  8
0
  6
CONTINUOUS
 62
               6
100
AcDbLine
 10
-17.416214992320761
 20
-48.48527226887505
 30
0.0
 11
-30.785936469320745
 21
-58.286798518375051
 31
0.0
  0
ARC
  5
4D6
100
AcDbEntity
  8
0
  6
CONTINUOUS
 62
               6
100
AcDbCircle
 10
9.4720889810792528
 20
-47.294237805675053
 30
0.0
 40
19.392815881401962
100
AcDbArc
 50
292.63625147639999
 51
300.76951601280001
  0
ARC
  5
4D7
100
AcDbEntity
  8
0
  6
CONTINUOUS
 62
               6
100
AcDbCircle
 10
19.464604981179235
 20
-62.574594196275058
 30
0.0
 40
2.8172222104802351
100
AcDbArc
 50
91.950237825199963
 51
133.62807617439995
  0
ARC
  5
4D8
100
AcDbEntity
  8
0
  6
CONTINUOUS
 62
               6
100
AcDbCircle
 10
10.091880430179259
 20
-54.964361501675057
 30
0.0
 40
9.2857500146103753
100
AcDbArc
 50
289.35798165910006
 51
323.13332704839991
  0
POLYLINE
  5
4D9
100
AcDbEntity
  8
0
  6
CONTINUOUS
 62
               6
100
AcDb2dPolyline
 66
               1
 10
0.0
 20
0.0
 30
0.0
 75
               5
  0
VERTEX
  5
4DA
100
AcDbEntity
  8
0
  6
CONTINUOUS
 62
               6
100
AcDbVertex
100
AcDb2dVertex
 10
16.935983698179257
 20
-65.193164685775059
 30
0.0
  0
VERTEX
  5
4DB
100
AcDbEntity
  8
0
  6
CONTINUOUS
 62
               6
100
AcDbVertex
100
AcDb2dVertex
 10
16.27869536617925
 20
-65.39645585447505
 30
0.0
  0
VERTEX
  5
4DC
100
AcDbEntity
  8
0
  6
CONTINUOUS
 62
               6
100
AcDbVertex
100
AcDb2dVertex
 10
15.501418279179262
 20
-65.507997797575058
 30
0.0
  0
VERTEX
  5
4DD
100
AcDbEntity
  8
0
  6
CONTINUOUS
 62
               6
100
AcDbVertex
100
AcDb2dVertex
 10
14.680236041879255
 20
-65.516871725275053
 30
0.0
  0
VERTEX
  5
4DE
100
AcDbEntity
  8
0
  6
CONTINUOUS
 62
               6
100
AcDbVertex
100
AcDb2dVertex
 10
13.895534775179243
 20
-65.422209627775047
 30
0.0
  0
VERTEX
  5
4DF
100
AcDbEntity
  8
0
  6
CONTINUOUS
 62
               6
100
AcDbVertex
100
AcDb2dVertex
 10
13.224122790279239
 20
-65.233276875575058
 30
0.0
  0
VERTEX
  5
4E0
100
AcDbEntity
  8
0
  6
CONTINUOUS
 62
               6
100
AcDbVertex
100
AcDb2dVertex
 10
12.731725627379262
 20
-64.968568201275048
 30
0.0
  0
VERTEX
  5
4E1
100
AcDbEntity
  8
0
  6
CONTINUOUS
 62
               6
100
AcDbVertex
100
AcDb2dVertex
 10
12.466540835079257
 20
-64.653994736275052
 30
0.0
  0
VERTEX
  5
4E2
100
AcDbEntity
  8
0
  6
CONTINUOUS
 62
               6
100
AcDbVertex
100
AcDb2dVertex
 10
12.454527291879259
 20
-64.32034931647506
 30
0.0
  0
VERTEX
  5
4E3
100
AcDbEntity
  8
0
  6
CONTINUOUS
 62
               6
100
AcDbVertex
100
AcDb2dVertex
 10
12.696862198579254
 20
-64.000291728875055
 30
0.0
  0
VERTEX
  5
4E4
100
AcDbEntity
  8
0
  6
CONTINUOUS
 62
               6
100
AcDbVertex
100
AcDb2dVertex
 10
13.169821695279239
 20
-63.725150901175056
 30
0.0
  0
SEQEND
  5
4E5
100
AcDbEntity
  8
0
  6
CONTINUOUS
 62
               6
  0
ARC
  5
4E6
100
AcDbEntity
  8
0
  6
CONTINUOUS
 62
               6
100
AcDbCircle
 10
-36.795227624020754
 20
-22.357787361675051
 30
0.0
 40
5.3667900456413307
100
AcDbArc
 50
358.46280795360013
 51
22.523886982100066
  0
ARC
  5
4E7
100
AcDbEntity
  8
0
  6
CONTINUOUS
 62
               6
100
AcDbCircle
 10
-18.963305106720753
 20
-15.458921065675057
 30
0.0
 40
13.755285243368318
100
AcDbArc
 50
172.26766806840007
 51
200.6148432114
  0
LINE
  5
4E8
100
AcDbEntity
  8
0
  6
CONTINUOUS
 62
               6
100
AcDbLine
 10
-17.92396208332076
 20
-47.981736396175052
 30
0.0
 11
-22.784928096320755
 21
-20.19163685607505
 31
0.0
  0
LINE
  5
4E9
100
AcDbEntity
  8
0
  6
CONTINUOUS
 62
               6
100
AcDbLine
 10
-31.225213167120756
 20
-57.73306606107505
 30
0.0
 11
-17.92396208332076
 21
-47.981736396175052
 31
0.0
  0
ARC
  5
4EA
100
AcDbEntity
  8
0
  6
CONTINUOUS
 62
               6
100
AcDbCircle
 10
-20.570499773220746
 20
-15.037973365575041
 30
0.0
 40
13.897416985877987
100
AcDbArc
 50
171.49165494260001
 51
200.54161060249996
  0
LINE
  5
4EB
100
AcDbEntity
  8
0
  6
CONTINUOUS
 62
               6
100
AcDbLine
 10
-33.584285729820749
 20
-19.914403817875055
 30
0.0
 11
-31.837816811320749
 21
-20.301938770975042
 31
0.0
  0
ARC
  5
4EC
100
AcDbEntity
  8
0
  6
CONTINUOUS
 62
               6
100
AcDbCircle
 10
-38.541696542520754
 20
-21.970252408575064
 30
0.0
 40
5.3667900456428095
100
AcDbArc
 50
358.46280795359996
 51
22.523886982099839
  0
LINE
  5
4ED
100
AcDbEntity
  8
0
  6
CONTINUOUS
 62
               6
100
AcDbLine
 10
17.531435129479263
 20
-62.362789644975052
 30
0.0
 11
17.52079399987926
 21
-60.535393408675048
 31
0.0
  0
ARC
  5
4EE
100
AcDbEntity
  8
0
  6
CONTINUOUS
 62
               6
100
AcDbCircle
 10
10.328821667779238
 20
-57.012744247475055
 30
0.0
 40
8.9722141322532689
100
AcDbArc
 50
291.51583681189987
 51
323.39532150380001
  0
POLYLINE
  5
4EF
100
AcDbEntity
  8
0
  6
CONTINUOUS
 62
               6
100
AcDb2dPolyline
 66
               1
 10
0.0
 20
0.0
 30
0.0
 75
               5
  0
VERTEX
  5
4F0
100
AcDbEntity
  8
0
  6
CONTINUOUS
 62
               6
100
AcDbVertex
100
AcDb2dVertex
 10
7.9554874175792349
 20
-59.773710465975057
 30
0.0
  0
VERTEX
  5
4F1
100
AcDbEntity
  8
0
  6
CONTINUOUS
 62
               6
100
AcDbVertex
100
AcDb2dVertex
 10
7.8152443369792479
 20
-59.610827865875052
 30
0.0
  0
VERTEX
  5
4F2
100
AcDbEntity
  8
0
  6
CONTINUOUS
 62
               6
100
AcDbVertex
100
AcDb2dVertex
 10
7.2454755323792597
 20
-59.135452886475051
 30
0.0
  0
VERTEX
  5
4F3
100
AcDbEntity
  8
0
  6
CONTINUOUS
 62
               6
100
AcDbVertex
100
AcDb2dVertex
 10
6.4800444834792472
 20
-58.70849916247505
 30
0.0
  0
VERTEX
  5
4F4
100
AcDbEntity
  8
0
  6
CONTINUOUS
 62
               6
100
AcDbVertex
100
AcDb2dVertex
 10
5.5422080493792407
 20
-58.342939595575046
 30
0.0
  0
VERTEX
  5
4F5
100
AcDbEntity
  8
0
  6
CONTINUOUS
 62
               6
100
AcDbVertex
100
AcDb2dVertex
 10
4.4604619653792383
 20
-58.049881477475054
 30
0.0
  0
VERTEX
  5
4F6
100
AcDbEntity
  8
0
  6
CONTINUOUS
 62
               6
100
AcDbVertex
100
AcDb2dVertex
 10
3.267674765579244
 20
-57.83822912507506
 30
0.0
  0
VERTEX
  5
4F7
100
AcDbEntity
  8
0
  6
CONTINUOUS
 62
               6
100
AcDbVertex
100
AcDb2dVertex
 10
2.0000885846792471
 20
-57.71441362167505
 30
0.0
  0
VERTEX
  5
4F8
100
AcDbEntity
  8
0
  6
CONTINUOUS
 62
               6
100
AcDbVertex
100
AcDb2dVertex
 10
0.6962183080792386
 20
-57.682197082975051
 30
0.0
  0
VERTEX
  5
4F9
100
AcDbEntity
  8
0
  6
CONTINUOUS
 62
               6
100
AcDbVertex
100
AcDb2dVertex
 10
-0.604318557020747
 20
-57.742558194975047
 30
0.0
  0
VERTEX
  5
4FA
100
AcDbEntity
  8
0
  6
CONTINUOUS
 62
               6
100
AcDbVertex
100
AcDb2dVertex
 10
-1.8620056905207605
 20
-57.893663024775051
 30
0.0
  0
VERTEX
  5
4FB
100
AcDbEntity
  8
0
  6
CONTINUOUS
 62
               6
100
AcDbVertex
100
AcDb2dVertex
 10
-3.0386293314207649
 20
-58.130920449175051
 30
0.0
  0
VERTEX
  5
4FC
100
AcDbEntity
  8
0
  6
CONTINUOUS
 62
               6
100
AcDbVertex
100
AcDb2dVertex
 10
-4.0984382567207547
 20
-58.447121312275058
 30
0.0
  0
VERTEX
  5
4FD
100
AcDbEntity
  8
0
  6
CONTINUOUS
 62
               6
100
AcDbVertex
100
AcDb2dVertex
 10
-5.0092302289207566
 20
-58.832658039875056
 30
0.0
  0
VERTEX
  5
4FE
100
AcDbEntity
  8
0
  6
CONTINUOUS
 62
               6
100
AcDbVertex
100
AcDb2dVertex
 10
-5.7433317009207485
 20
-59.275816480475058
 30
0.0
  0
VERTEX
  5
4FF
100
AcDbEntity
  8
0
  6
CONTINUOUS
 62
               6
100
AcDbVertex
100
AcDb2dVertex
 10
-6.27843751712075
 20
-59.763131316575056
 30
0.0
  0
VERTEX
  5
500
100
AcDbEntity
  8
0
  6
CONTINUOUS
 62
               6
100
AcDbVertex
100
AcDb2dVertex
 10
-6.3542771220207612
 20
-59.857037881475051
 30
0.0
  0
SEQEND
  5
501
100
AcDbEntity
  8
0
  6
CONTINUOUS
 62
               6
  0
ARC
  5
502
100
AcDbEntity
  8
0
  6
CONTINUOUS
 62
               6
100
AcDbCircle
 10
19.475246110779239
 20
-64.401990432575047
 30
0.0
 40
2.8172222104800935
100
AcDbArc
 50
91.950237825200048
 51
133.62807617440009
  0
SPLINE
  5
503
100
AcDbEntity
  8
0
  6
CONTINUOUS
 62
               6
100
AcDbSpline
210
0.0
220
0.0
230
1.0
 70
               8
 71
               2
 72
              16
 73
              13
 74
               0
 42
0.000001
 43
0.000001
 40
0.0
 40
0.0
 40
0.0
 40
1.0
 40
1.0
 40
2.0
 40
3.0
 40
4.0
 40
5.0
 40
6.0
 40
7.0
 40
8.0
 40
8.0
 40
9.0
 40
9.0
 40
9.0
 10
-17.923962751719955
 20
-47.981736139018651
 30
0.0
 10
-17.923777515976795
 20
-47.982795130067487
 30
0.0
 10
-17.923592280233635
 20
-47.983854121116323
 30
0.0
 10
-17.910770182006132
 20
-48.050512801062226
 30
0.0
 10
-17.862605988875572
 20
-48.148574707156854
 30
0.0
 10
-17.801886308809202
 20
-48.240618364978587
 30
0.0
 10
-17.728386708099919
 20
-48.315435649443032
 30
0.0
 10
-17.656159206032186
 20
-48.376276096784963
 30
0.0
 10
-17.547695564347549
 20
-48.442205383381335
 30
0.0
 10
-17.452846580354219
 20
-48.477155350252545
 30
0.0
 10
-17.417352092148747
 20
-48.485020122811832
 30
0.0
 10
-17.416783580224205
 20
-48.485146273492042
 30
0.0
 10
-17.416215068299664
 20
-48.485272424172251
 30
0.0
  0
LINE
  5
504
100
AcDbEntity
  8
0
  6
CONTINUOUS
 62
               6
100
AcDbLine
 10
-15.334773632020756
 20
-54.437583536675049
 30
0.0
 11
-15.345414761620759
 21
-52.610187300275058
 31
0.0
  0
ARC
  5
505
100
AcDbEntity
  8
0
  6
CONTINUOUS
 62
               6
100
AcDbCircle
 10
-10.736998214220762
 20
-66.927869062675057
 30
0.0
 40
13.309649556472541
100
AcDbArc
 50
110.209070504
 51
136.46479173200007
  0
ARC
  5
506
100
AcDbEntity
  8
0
  6
CONTINUOUS
 62
               6
100
AcDbCircle
 10
-13.408990517120742
 20
-59.680614995675057
 30
0.0
 40
5.5855187303145666
100
AcDbArc
 50
75.582183789399878
 51
110.16845379600005
  0
SPLINE
  5
507
100
AcDbEntity
  8
0
  6
CONTINUOUS
 62
               6
100
AcDbSpline
210
0.0
220
0.0
230
1.0
 70
               8
 71
               2
 72
              17
 73
              14
 74
               0
 42
0.000001
 43
0.000001
 40
0.0
 40
0.0
 40
0.0
 40
1.0
 40
1.0
 40
2.0
 40
3.0
 40
4.0
 40
5.0
 40
6.0
 40
7.0
 40
8.0
 40
9.0
 40
9.0
 40
10.0
 40
10.0
 40
10.0
 10
-23.503322881314858
 20
-15.659589841835739
 30
0.0
 10
-23.501960279401843
 20
-15.661564435331343
 30
0.0
 10
-23.500597677488827
 20
-15.663539028826946
 30
0.0
 10
-23.459877339521796
 20
-15.723199006184714
 30
0.0
 10
-23.376512734873359
 20
-15.837325342832102
 30
0.0
 10
-23.237219206598752
 20
-15.982532842639714
 30
0.0
 10
-22.888691473810439
 20
-16.139502316053253
 30
0.0
 10
-22.475301825182783
 20
-15.999840524343071
 30
0.0
 10
-22.265059068666204
 20
-15.84759565537486
 30
0.0
 10
-22.079252220972052
 20
-15.660255664928869
 30
0.0
 10
-21.879707168808039
 20
-15.402074568041101
 30
0.0
 10
-21.780595153535188
 20
-15.265626358782797
 30
0.0
 10
-21.777289094252026
 20
-15.261103858627678
 30
0.0
 10
-21.773983034968865
 20
-15.256581358472559
 30
0.0
  0
LINE
  5
508
100
AcDbEntity
  8
0
  6
CONTINUOUS
 62
               6
100
AcDbLine
 10
15.569538257979247
 20
-0.0907674947750508
 30
0.0
 11
14.222856264779239
 21
0.3769426006249574
 31
0.0
  0
POLYLINE
  5
509
100
AcDbEntity
  8
0
  6
CONTINUOUS
 62
               6
100
AcDb2dPolyline
 66
               1
 10
0.0
 20
0.0
 30
0.0
 75
               5
  0
VERTEX
  5
50A
100
AcDbEntity
  8
0
  6
CONTINUOUS
 62
               6
100
AcDbVertex
100
AcDb2dVertex
 10
50.599436276879231
 20
10.902761073624944
 30
0.0
  0
VERTEX
  5
50B
100
AcDbEntity
  8
0
  6
CONTINUOUS
 62
               6
100
AcDbVertex
100
AcDb2dVertex
 10
51.10989552807925
 20
13.402808404824938
 30
0.0
  0
VERTEX
  5
50C
100
AcDbEntity
  8
0
  6
CONTINUOUS
 62
               6
100
AcDbVertex
100
AcDb2dVertex
 10
51.415871300479267
 20
15.92719613542495
 30
0.0
  0
VERTEX
  5
50D
100
AcDbEntity
  8
0
  6
CONTINUOUS
 62
               6
100
AcDbVertex
100
AcDb2dVertex
 10
51.51489463827923
 20
18.455590378224954
 30
0.0
  0
VERTEX
  5
50E
100
AcDbEntity
  8
0
  6
CONTINUOUS
 62
               6
100
AcDbVertex
100
AcDb2dVertex
 10
51.406170492079269
 20
20.967634040624958
 30
0.0
  0
VERTEX
  5
50F
100
AcDbEntity
  8
0
  6
CONTINUOUS
 62
               6
100
AcDbVertex
100
AcDb2dVertex
 10
51.090575066879268
 20
23.443104597324961
 30
0.0
  0
VERTEX
  5
510
100
AcDbEntity
  8
0
  6
CONTINUOUS
 62
               6
100
AcDbVertex
100
AcDb2dVertex
 10
50.570646703379253
 20
25.862073028424945
 30
0.0
  0
VERTEX
  5
511
100
AcDbEntity
  8
0
  6
CONTINUOUS
 62
               6
100
AcDbVertex
100
AcDb2dVertex
 10
49.850574072679223
 20
28.205062025224933
 30
0.0
  0
VERTEX
  5
512
100
AcDbEntity
  8
0
  6
CONTINUOUS
 62
               6
100
AcDbVertex
100
AcDb2dVertex
 10
48.936156004079265
 20
30.453203285824955
 30
0.0
  0
VERTEX
  5
513
100
AcDbEntity
  8
0
  6
CONTINUOUS
 62
               6
100
AcDbVertex
100
AcDb2dVertex
 10
47.83475053227923
 20
32.588395604924941
 30
0.0
  0
VERTEX
  5
514
100
AcDbEntity
  8
0
  6
CONTINUOUS
 62
               6
100
AcDbVertex
100
AcDb2dVertex
 10
46.555229658479249
 20
34.593455032224952
 30
0.0
  0
VERTEX
  5
515
100
AcDbEntity
  8
0
  6
CONTINUOUS
 62
               6
100
AcDbVertex
100
AcDb2dVertex
 10
45.107891302579247
 20
36.452233331024942
 30
0.0
  0
VERTEX
  5
516
100
AcDbEntity
  8
0
  6
CONTINUOUS
 62
               6
100
AcDbVertex
100
AcDb2dVertex
 10
43.504390102579265
 20
38.149769986124952
 30
0.0
  0
VERTEX
  5
517
100
AcDbEntity
  8
0
  6
CONTINUOUS
 62
               6
100
AcDbVertex
100
AcDb2dVertex
 10
41.757638556779256
 20
39.672382535024937
 30
0.0
  0
VERTEX
  5
518
100
AcDbEntity
  8
0
  6
CONTINUOUS
 62
               6
100
AcDbVertex
100
AcDb2dVertex
 10
39.881698842479267
 20
41.007826818924954
 30
0.0
  0
VERTEX
  5
519
100
AcDbEntity
  8
0
  6
CONTINUOUS
 62
               6
100
AcDbVertex
100
AcDb2dVertex
 10
37.891673623879257
 20
42.145348813624949
 30
0.0
  0
VERTEX
  5
51A
100
AcDbEntity
  8
0
  6
CONTINUOUS
 62
               6
100
AcDbVertex
100
AcDb2dVertex
 10
35.803590279679241
 20
43.075785512324941
 30
0.0
  0
VERTEX
  5
51B
100
AcDbEntity
  8
0
  6
CONTINUOUS
 62
               6
100
AcDbVertex
100
AcDb2dVertex
 10
35.216639131979235
 20
43.293512317924936
 30
0.0
  0
SEQEND
  5
51C
100
AcDbEntity
  8
0
  6
CONTINUOUS
 62
               6
  0
LINE
  5
51D
100
AcDbEntity
  8
0
  6
CONTINUOUS
 62
               6
100
AcDbLine
 10
18.988419573979257
 20
-69.331542877675048
 30
0.0
 11
19.420643015179252
 21
-69.014673942775048
 31
0.0
  0
LINE
  5
51E
100
AcDbEntity
  8
0
  6
CONTINUOUS
 62
               6
100
AcDbLine
 10
13.169821695279239
 20
-63.725150901175056
 30
0.0
 11
13.178497514379245
 21
-65.215045293775049
 31
0.0
  0
LINE
  5
51F
100
AcDbEntity
  8
0
  6
CONTINUOUS
 62
               6
100
AcDbLine
 10
-21.017528542220759
 20
-57.297583040775052
 30
0.0
 11
-21.020596402520738
 21
-56.770740825575047
 31
0.0
  0
ENDBLK
  5
520
100
AcDbEntity
  8
__
100
AcDbBlockEnd
  0
ENDSEC
  0
SECTION
  2
ENTITIES
  0
INSERT
  5
521
100
AcDbEntity
  8
__
 62
               7
100
AcDbBlockReference
  2
*U0
 10
210.0
 20
148.5
 30
0.0
  0
MTEXT
  5
522
100
AcDbEntity
  8
0
 62
               7
100
AcDbMText
 10
263.95854811567261
 20
78.269750000000002
 30
0.0
 40
2.910416666666666
 41
0.0
 71
               1
 72
               1
  1
HHA-D12S^I\PHHA-W12S^I
  7
________
  0
ENDSEC
  0
SECTION
  2
OBJECTS
  0
DICTIONARY
  5
19
100
AcDbDictionary
  3
ACAD_GROUP
350
1A
  3
ACAD_MLINESTYLE
350
1B
  0
DICTIONARY
  5
1A
102
{ACAD_REACTORS
330
19
102
}
100
AcDbDictionary
  0
DICTIONARY
  5
1B
102
{ACAD_REACTORS
330
19
102
}
100
AcDbDictionary
  3
STANDARD
350
1C
  0
MLINESTYLE
  5
1C
102
{ACAD_REACTORS
330
1B
102
}
100
AcDbMlineStyle
  2
STANDARD
 70
               0
  3

 62
               0
 51
90.0
 52
90.0
 71
               2
 49
0.5
 62
             256
  6
BYLAYER
 49
-0.5
 62
             256
  6
BYLAYER
  0
ENDSEC
  0
EOF
