  0
SECTION
  2
HEADER
  9
$ACADVER
  1
AC1015
  9
$ACADMAINTVER
 70
     6
  9
$DWGCODEPAGE
  3
DOS932
  9
$INSBASE
 10
0.0
 20
0.0
 30
0.0
  9
$EXTMIN
 10
0.0
 20
0.0
 30
0.0
  9
$EXTMAX
 10
210.0
 20
297.0
 30
0.0
  9
$LIMMIN
 10
0.0
 20
0.0
  9
$LIMMAX
 10
210.0
 20
297.0
  9
$ORTHOMODE
 70
     0
  9
$REGENMODE
 70
     1
  9
$FILLMODE
 70
     1
  9
$QTEXTMODE
 70
     0
  9
$MIRRTEXT
 70
     1
  9
$LTSCALE
 40
1.0
  9
$ATTMODE
 70
     1
  9
$TEXTSIZE
 40
3.5
  9
$TRACEWID
 40
1.0
  9
$TEXTSTYLE
  7
Standard
  9
$CLAYER
  8
0
  9
$CELTYPE
  6
ByLayer
  9
$CECOLOR
 62
   256
  9
$CELTSCALE
 40
1.0
  9
$DISPSILH
 70
     0
  9
$DIMSCALE
 40
1.0
  9
$DIMASZ
 40
1.5
  9
$DIMEXO
 40
1.0
  9
$DIMDLI
 40
3.75
  9
$DIMRND
 40
0.0
  9
$DIMDLE
 40
0.0
  9
$DIMEXE
 40
1.0
  9
$DIMTP
 40
0.0
  9
$DIMTM
 40
0.0
  9
$DIMTXT
 40
3.5
  9
$DIMCEN
 40
2.5
  9
$DIMTSZ
 40
0.0
  9
$DIMTOL
 70
     0
  9
$DIMLIM
 70
     0
  9
$DIMTIH
 70
     1
  9
$DIMTOH
 70
     1
  9
$DIMSE1
 70
     0
  9
$DIMSE2
 70
     0
  9
$DIMTAD
 70
     1
  9
$DIMZIN
 70
     0
  9
$DIMBLK
  1

  9
$DIMASO
 70
     1
  9
$DIMSHO
 70
     1
  9
$DIMPOST
  1

  9
$DIMAPOST
  1

  9
$DIMALT
 70
     0
  9
$DIMALTD
 70
     3
  9
$DIMALTF
 40
0.0393700787
  9
$DIMLFAC
 40
2.0
  9
$DIMTOFL
 70
     1
  9
$DIMTVP
 40
0.0
  9
$DIMTIX
 70
     0
  9
$DIMSOXD
 70
     0
  9
$DIMSAH
 70
     0
  9
$DIMBLK1
  1

  9
$DIMBLK2
  1

  9
$DIMSTYLE
  2
ISO-25
  9
$DIMCLRD
 70
     0
  9
$DIMCLRE
 70
     0
  9
$DIMCLRT
 70
     0
  9
$DIMTFAC
 40
1.0
  9
$DIMGAP
 40
1.5
  9
$DIMJUST
 70
     0
  9
$DIMSD1
 70
     0
  9
$DIMSD2
 70
     0
  9
$DIMTOLJ
 70
     0
  9
$DIMTZIN
 70
     0
  9
$DIMALTZ
 70
     0
  9
$DIMALTTZ
 70
     0
  9
$DIMUPT
 70
     0
  9
$DIMDEC
 70
     1
  9
$DIMTDEC
 70
     1
  9
$DIMALTU
 70
     2
  9
$DIMALTTD
 70
     3
  9
$DIMTXSTY
  7
Standard
  9
$DIMAUNIT
 70
     0
  9
$DIMADEC
 70
     2
  9
$DIMALTRND
 40
0.0
  9
$DIMAZIN
 70
     0
  9
$DIMDSEP
 70
    44
  9
$DIMATFIT
 70
     3
  9
$DIMFRAC
 70
     0
  9
$DIMLDRBLK
  1

  9
$DIMLUNIT
 70
     2
  9
$DIMLWD
 70
    -2
  9
$DIMLWE
 70
    -2
  9
$DIMTMOVE
 70
     0
  9
$LUNITS
 70
     2
  9
$LUPREC
 70
     2
  9
$SKETCHINC
 40
1.0
  9
$FILLETRAD
 40
10.0
  9
$AUNITS
 70
     0
  9
$AUPREC
 70
     2
  9
$MENU
  1
.
  9
$ELEVATION
 40
0.0
  9
$PELEVATION
 40
0.0
  9
$THICKNESS
 40
0.0
  9
$LIMCHECK
 70
     0
  9
$CHAMFERA
 40
0.0
  9
$CHAMFERB
 40
0.0
  9
$CHAMFERC
 40
0.0
  9
$CHAMFERD
 40
0.0
  9
$SKPOLY
 70
     0
  9
$TDCREATE
 40
2460018.604710648
  9
$TDUCREATE
 40
2460018.229710648
  9
$TDUPDATE
 40
2460018.604711019
  9
$TDUUPDATE
 40
2460018.229711019
  9
$TDINDWG
 40
0.0000000116
  9
$TDUSRTIMER
 40
0.0000000116
  9
$USRTIMER
 70
     1
  9
$ANGBASE
 50
0.0
  9
$ANGDIR
 70
     0
  9
$PDMODE
 70
     0
  9
$PDSIZE
 40
-1.0
  9
$PLINEWID
 40
0.0
  9
$SPLFRAME
 70
     0
  9
$SPLINETYPE
 70
     6
  9
$SPLINESEGS
 70
     8
  9
$HANDSEED
  5
1CF
  9
$SURFTAB1
 70
     6
  9
$SURFTAB2
 70
     6
  9
$SURFTYPE
 70
     6
  9
$SURFU
 70
     6
  9
$SURFV
 70
     6
  9
$UCSBASE
  2

  9
$UCSNAME
  2

  9
$UCSORG
 10
0.0
 20
0.0
 30
0.0
  9
$UCSXDIR
 10
1.0
 20
0.0
 30
0.0
  9
$UCSYDIR
 10
0.0
 20
1.0
 30
0.0
  9
$UCSORTHOREF
  2

  9
$UCSORTHOVIEW
 70
     0
  9
$UCSORGTOP
 10
0.0
 20
0.0
 30
0.0
  9
$UCSORGBOTTOM
 10
0.0
 20
0.0
 30
0.0
  9
$UCSORGLEFT
 10
0.0
 20
0.0
 30
0.0
  9
$UCSORGRIGHT
 10
0.0
 20
0.0
 30
0.0
  9
$UCSORGFRONT
 10
0.0
 20
0.0
 30
0.0
  9
$UCSORGBACK
 10
0.0
 20
0.0
 30
0.0
  9
$PUCSBASE
  2

  9
$PUCSNAME
  2

  9
$PUCSORG
 10
0.0
 20
0.0
 30
0.0
  9
$PUCSXDIR
 10
1.0
 20
0.0
 30
0.0
  9
$PUCSYDIR
 10
0.0
 20
1.0
 30
0.0
  9
$PUCSORTHOREF
  2

  9
$PUCSORTHOVIEW
 70
     0
  9
$PUCSORGTOP
 10
0.0
 20
0.0
 30
0.0
  9
$PUCSORGBOTTOM
 10
0.0
 20
0.0
 30
0.0
  9
$PUCSORGLEFT
 10
0.0
 20
0.0
 30
0.0
  9
$PUCSORGRIGHT
 10
0.0
 20
0.0
 30
0.0
  9
$PUCSORGFRONT
 10
0.0
 20
0.0
 30
0.0
  9
$PUCSORGBACK
 10
0.0
 20
0.0
 30
0.0
  9
$USERI1
 70
     0
  9
$USERI2
 70
     0
  9
$USERI3
 70
     0
  9
$USERI4
 70
     0
  9
$USERI5
 70
     0
  9
$USERR1
 40
0.0
  9
$USERR2
 40
0.0
  9
$USERR3
 40
0.0
  9
$USERR4
 40
0.0
  9
$USERR5
 40
0.0
  9
$WORLDVIEW
 70
     1
  9
$SHADEDGE
 70
     3
  9
$SHADEDIF
 70
    70
  9
$TILEMODE
 70
     1
  9
$MAXACTVP
 70
    64
  9
$PINSBASE
 10
0.0
 20
0.0
 30
0.0
  9
$PLIMCHECK
 70
     0
  9
$PEXTMIN
 10
1.0000000000E+20
 20
1.0000000000E+20
 30
1.0000000000E+20
  9
$PEXTMAX
 10
-1.0000000000E+20
 20
-1.0000000000E+20
 30
-1.0000000000E+20
  9
$PLIMMIN
 10
0.0
 20
0.0
  9
$PLIMMAX
 10
420.0
 20
297.0
  9
$UNITMODE
 70
     0
  9
$VISRETAIN
 70
     1
  9
$PLINEGEN
 70
     0
  9
$PSLTSCALE
 70
     1
  9
$TREEDEPTH
 70
  3020
  9
$CMLSTYLE
  2
Standard
  9
$CMLJUST
 70
     0
  9
$CMLSCALE
 40
20.0
  9
$PROXYGRAPHICS
 70
     1
  9
$MEASUREMENT
 70
     1
  9
$CELWEIGHT
370
    -1
  9
$ENDCAPS
280
     0
  9
$JOINSTYLE
280
     0
  9
$LWDISPLAY
290
     1
  9
$INSUNITS
 70
     4
  9
$HYPERLINKBASE
  1

  9
$STYLESHEET
  1

  9
$XEDIT
290
     1
  9
$CEPSNTYPE
380
     0
  9
$PSTYLEMODE
290
     1
  9
$FINGERPRINTGUID
  2
{45d4ce34-ebf5-4ac2-88ee-e7f4920db16f}
  9
$VERSIONGUID
  2
{FAEB1C32-E019-11D5-929B-00C0DF256EC4}
  9
$EXTNAMES
290
     1
  9
$PSVPSCALE
 40
0.0
  9
$OLESTARTUP
290
     0
  0
ENDSEC
  0
SECTION
  2
CLASSES
  0
CLASS
  1
ACDBDICTIONARYWDFLT
  2
AcDbDictionaryWithDefault
  3
ObjectDBX Classes
 90
        0
280
     0
281
     0
  0
CLASS
  1
VISUALSTYLE
  2
AcDbVisualStyle
  3
ObjectDBX Classes
 90
     4095
280
     0
281
     0
  0
CLASS
  1
MATERIAL
  2
AcDbMaterial
  3
ObjectDBX Classes
 90
     1153
280
     0
281
     0
  0
CLASS
  1
SCALE
  2
AcDbScale
  3
ObjectDBX Classes
 90
     1153
280
     0
281
     0
  0
CLASS
  1
TABLESTYLE
  2
AcDbTableStyle
  3
ObjectDBX Classes
 90
     4095
280
     0
281
     0
  0
CLASS
  1
MLEADERSTYLE
  2
AcDbMLeaderStyle
  3
ACDB_MLEADERSTYLE_CLASS
 90
     4095
280
     0
281
     0
  0
CLASS
  1
SUN
  2
AcDbSun
  3
SCENEOE
 90
     1153
280
     0
281
     0
  0
CLASS
  1
ACDBPLACEHOLDER
  2
AcDbPlaceHolder
  3
ObjectDBX Classes
 90
        0
280
     0
281
     0
  0
CLASS
  1
LAYOUT
  2
AcDbLayout
  3
ObjectDBX Classes
 90
        0
280
     0
281
     0
  0
ENDSEC
  0
SECTION
  2
TABLES
  0
TABLE
  2
VPORT
  5
8
330
0
100
AcDbSymbolTable
 70
     1
  0
VPORT
  5
29
330
8
100
AcDbSymbolTableRecord
100
AcDbViewportTableRecord
  2
*Active
 70
     0
 10
0.0
 20
0.0
 11
1.0
 21
1.0
 12
105.0
 22
148.5
 13
0.0
 23
0.0
 14
10.0
 24
10.0
 15
10.0
 25
10.0
 16
0.0
 26
0.0
 36
1.0
 17
0.0
 27
0.0
 37
0.0
 40
297.0
 41
0.7070707071
 42
50.0
 43
0.0
 44
0.0
 50
0.0
 51
0.0
 71
     0
 72
  2000
 73
     1
 74
     3
 75
     0
 76
     0
 77
     0
 78
     0
281
     0
 65
     1
110
0.0
120
0.0
130
0.0
111
1.0
121
0.0
131
0.0
112
0.0
122
1.0
132
0.0
 79
     0
146
0.0
  0
ENDTAB
  0
TABLE
  2
LTYPE
  5
5
330
0
100
AcDbSymbolTable
 70
     6
  0
LTYPE
  5
14
330
5
100
AcDbSymbolTableRecord
100
AcDbLinetypeTableRecord
  2
ByBlock
 70
     0
  3

 72
    65
 73
     0
 40
0.0
  0
LTYPE
  5
15
330
5
100
AcDbSymbolTableRecord
100
AcDbLinetypeTableRecord
  2
ByLayer
 70
     0
  3

 72
    65
 73
     0
 40
0.0
  0
LTYPE
  5
16
330
5
100
AcDbSymbolTableRecord
100
AcDbLinetypeTableRecord
  2
Continuous
 70
     0
  3
Solid line
 72
    65
 73
     0
 40
0.0
  0
LTYPE
  5
6E
330
5
100
AcDbSymbolTableRecord
100
AcDbLinetypeTableRecord
  2
HIDDEN
 70
     0
  3
Hidden __ __ __ __ __ __ __ __ __ __ __ __ __ __
 72
    65
 73
     2
 40
1.905
 49
1.27
 74
     0
 49
-0.635
 74
     0
  0
LTYPE
  5
6F
330
5
100
AcDbSymbolTableRecord
100
AcDbLinetypeTableRecord
  2
PHANTOM
 70
     0
  3
Phantom ______  __  __  ______  __  __  ______
 72
    65
 73
     6
 40
12.7
 49
6.35
 74
     0
 49
-1.27
 74
     0
 49
1.27
 74
     0
 49
-1.27
 74
     0
 49
1.27
 74
     0
 49
-1.27
 74
     0
  0
LTYPE
  5
70
330
5
100
AcDbSymbolTableRecord
100
AcDbLinetypeTableRecord
  2
CENTER
 70
     0
  3
Center ____ _ ____ _ ____ _ ____ _ ____ _ ____
 72
    65
 73
     4
 40
10.16
 49
6.35
 74
     0
 49
-1.27
 74
     0
 49
1.27
 74
     0
 49
-1.27
 74
     0
  0
LTYPE
  5
71
330
5
100
AcDbSymbolTableRecord
100
AcDbLinetypeTableRecord
  2
CENTERX2
 70
     0
  3
Center (2x) ________  __  ________  __  _____
 72
    65
 73
     4
 40
20.32
 49
12.7
 74
     0
 49
-2.54
 74
     0
 49
2.54
 74
     0
 49
-2.54
 74
     0
  0
LTYPE
  5
72
330
5
100
AcDbSymbolTableRecord
100
AcDbLinetypeTableRecord
  2
DOT2
 70
     0
  3
Dot (.5x) ........................................
 72
    65
 73
     2
 40
0.635
 49
0.0
 74
     0
 49
-0.635
 74
     0
  0
ENDTAB
  0
TABLE
  2
LAYER
  5
2
330
0
100
AcDbSymbolTable
 70
     2
  0
LAYER
  5
10
330
2
100
AcDbSymbolTableRecord
100
AcDbLayerTableRecord
  2
0
 70
     0
 62
     7
  6
Continuous
370
    -3
390
F
  0
LAYER
  5
73
330
2
100
AcDbSymbolTableRecord
100
AcDbLayerTableRecord
  2
FORMAT
 70
     0
 62
     7
  6
Continuous
370
    -3
390
F
  0
ENDTAB
  0
TABLE
  2
STYLE
  5
3
330
0
100
AcDbSymbolTable
 70
     2
  0
STYLE
  5
11
330
3
100
AcDbSymbolTableRecord
100
AcDbTextStyleTableRecord
  2
Standard
 70
     0
 40
0.0
 41
1.0
 50
0.0
 71
     0
 42
3.5
  3
txt
  4
bigfont
  0
STYLE
  5
74
330
3
100
AcDbSymbolTableRecord
100
AcDbTextStyleTableRecord
  2
SLDTEXTSTYLE0
 70
     0
 40
0.0
 41
0.7
 50
0.0
 71
     0
 42
3.5
  3
TXT
  4
bigfont
  0
ENDTAB
  0
TABLE
  2
VIEW
  5
6
330
0
100
AcDbSymbolTable
 70
     0
  0
ENDTAB
  0
TABLE
  2
UCS
  5
7
330
0
100
AcDbSymbolTable
 70
     0
  0
ENDTAB
  0
TABLE
  2
APPID
  5
9
330
0
100
AcDbSymbolTable
 70
     1
  0
APPID
  5
12
330
9
100
AcDbSymbolTableRecord
100
AcDbRegAppTableRecord
  2
ACAD
 70
     0
  0
ENDTAB
  0
TABLE
  2
DIMSTYLE
  5
A
330
0
100
AcDbSymbolTable
 70
     1
100
AcDbDimStyleTable
  0
DIMSTYLE
105
27
330
A
100
AcDbSymbolTableRecord
100
AcDbDimStyleTableRecord
  2
ISO-25
 70
     0
 41
2.5
 42
0.625
 43
3.75
 44
1.25
 73
     0
 74
     0
 77
     1
 78
     8
140
2.5
141
2.5
143
0.0393700787
147
0.625
171
     3
172
     1
178
     0
271
     2
272
     2
274
     3
278
    44
283
     0
284
     8
340
11
  0
ENDTAB
  0
TABLE
  2
BLOCK_RECORD
  5
1
330
0
100
AcDbSymbolTable
 70
     1
  0
BLOCK_RECORD
  5
1F
330
1
100
AcDbSymbolTableRecord
100
AcDbBlockTableRecord
  2
*Model_Space
340
22
  0
BLOCK_RECORD
  5
1B
330
1
100
AcDbSymbolTableRecord
100
AcDbBlockTableRecord
  2
*Paper_Space
340
1E
  0
BLOCK_RECORD
  5
23
330
1
100
AcDbSymbolTableRecord
100
AcDbBlockTableRecord
  2
*Paper_Space0
340
26
  0
ENDTAB
  0
ENDSEC
  0
SECTION
  2
BLOCKS
  0
BLOCK
  5
20
330
1F
100
AcDbEntity
  8
0
100
AcDbBlockBegin
  2
*Model_Space
 70
     0
 10
0.0
 20
0.0
 30
0.0
  3
*Model_Space
  1

  0
ENDBLK
  5
21
330
1F
100
AcDbEntity
  8
0
100
AcDbBlockEnd
  0
BLOCK
  5
1C
330
1B
100
AcDbEntity
 67
     1
  8
0
100
AcDbBlockBegin
  2
*Paper_Space
 70
     0
 10
0.0
 20
0.0
 30
0.0
  3
*Paper_Space
  1

  0
ENDBLK
  5
1D
330
1B
100
AcDbEntity
 67
     1
  8
0
100
AcDbBlockEnd
  0
BLOCK
  5
24
330
23
100
AcDbEntity
  8
0
100
AcDbBlockBegin
  2
*Paper_Space0
 70
     0
 10
0.0
 20
0.0
 30
0.0
  3
*Paper_Space0
  1

  0
ENDBLK
  5
25
330
23
100
AcDbEntity
  8
0
100
AcDbBlockEnd
  0
ENDSEC
  0
SECTION
  2
ENTITIES
  0
MTEXT
  5
75
330
1F
100
AcDbEntity
  8
0
  6
Continuous
 62
     7
370
     0
100
AcDbMText
 10
144.4876024301
 20
115.3124509603
 30
0.0
 40
3.5
 41
0.0
 71
     1
 72
     1
  1
HHA-W/D15S
  7
SLDTEXTSTYLE0
 73
     1
 44
1.0
  0
LINE
  5
76
330
1F
100
AcDbEntity
  8
0
  6
Continuous
 62
     7
370
    25
100
AcDbLine
 10
54.023748742
 20
174.2535161934
 30
0.0
 11
53.9662493159
 21
159.9881103048
 31
0.0
  0
LINE
  5
77
330
1F
100
AcDbEntity
  8
0
  6
Continuous
 62
     7
370
    25
100
AcDbLine
 10
83.6075613637
 20
159.9881103048
 30
0.0
 11
83.5500619376
 21
174.2535161934
 31
0.0
  0
LINE
  5
78
330
1F
100
AcDbEntity
  8
0
  6
Continuous
 62
     7
370
    25
100
AcDbLine
 10
48.7909819343
 20
156.7109698158
 30
0.0
 11
47.4064789186
 21
122.4303429212
 31
0.0
  0
LINE
  5
79
330
1F
100
AcDbEntity
  8
0
  6
Continuous
 62
     7
370
    25
100
AcDbLine
 10
61.7381688467
 20
115.3559795139
 30
0.0
 11
62.9073712007
 21
116.2165779165
 31
0.0
  0
LINE
  5
7A
330
1F
100
AcDbEntity
  8
0
  6
Continuous
 62
     7
370
    25
100
AcDbLine
 10
90.167331761
 20
122.4303429212
 30
0.0
 11
89.1961819821
 21
146.4762444838
 31
0.0
  0
LINE
  5
7B
330
1F
100
AcDbEntity
  8
0
  6
Continuous
 62
     7
370
    25
100
AcDbLine
 10
88.9647869078
 20
152.2056420512
 30
0.0
 11
88.7828287453
 21
156.7109698158
 31
0.0
  0
LINE
  5
7C
330
1F
100
AcDbEntity
  8
0
  6
Continuous
 62
     7
370
    25
100
AcDbLine
 10
54.6763573937
 20
126.2665980922
 30
0.0
 11
53.4060852134
 21
124.977040971
 31
0.0
  0
LINE
  5
7D
330
1F
100
AcDbEntity
  8
0
  6
Continuous
 62
     7
370
    25
100
AcDbLine
 10
48.5853854246
 20
116.2104642951
 30
0.0
 11
48.5853854246
 21
114.0454007857
 31
0.0
  0
LINE
  5
7E
330
1F
100
AcDbEntity
  8
0
  6
Continuous
 62
     7
370
    25
100
AcDbLine
 10
90.9619053398
 20
120.0494048235
 30
0.0
 11
90.9619053398
 21
122.214468333
 31
0.0
  0
LINE
  5
7F
330
1F
100
AcDbEntity
  8
0
  6
Continuous
 62
     7
370
    25
100
AcDbLine
 10
46.6119053398
 20
122.214468333
 30
0.0
 11
46.6119053398
 21
120.0494048235
 31
0.0
  0
LINE
  5
80
330
1F
100
AcDbEntity
  8
0
  6
Continuous
 62
     7
370
    25
100
AcDbLine
 10
61.6369053398
 20
179.7618564145
 30
0.0
 11
61.6369053398
 21
179.291760225
 31
0.0
  0
LINE
  5
81
330
1F
100
AcDbEntity
  8
0
  6
Continuous
 62
     7
370
    25
100
AcDbLine
 10
74.6248558934
 20
181.8258836268
 30
0.0
 11
74.5023814063
 21
181.9124861672
 31
0.0
  0
LINE
  5
82
330
1F
100
AcDbEntity
  8
0
  6
Continuous
 62
     7
370
    25
100
AcDbLine
 10
63.0714292733
 20
181.9124861672
 30
0.0
 11
62.9489547862
 21
181.8258836268
 31
0.0
  0
LINE
  5
83
330
1F
100
AcDbEntity
  8
0
  6
Continuous
 62
     7
370
    25
100
AcDbLine
 10
75.9369053398
 20
179.291760225
 30
0.0
 11
75.9369053398
 21
179.7618564145
 31
0.0
  0
LINE
  5
84
330
1F
100
AcDbEntity
  8
0
  6
Continuous
 62
     7
370
    25
100
AcDbLine
 10
51.6619053398
 20
179.0257348212
 30
0.0
 11
51.6619053398
 21
178.5927221193
 31
0.0
  0
LINE
  5
85
330
1F
100
AcDbEntity
  8
0
  6
Continuous
 62
     7
370
    25
100
AcDbLine
 10
82.7694092882
 20
183.9692965012
 30
0.0
 11
81.9529127073
 21
184.5466467704
 31
0.0
  0
LINE
  5
86
330
1F
100
AcDbEntity
  8
0
  6
Continuous
 62
     7
370
    25
100
AcDbLine
 10
55.6208979723
 20
184.5466467704
 30
0.0
 11
54.8044013914
 21
183.9692965012
 31
0.0
  0
LINE
  5
87
330
1F
100
AcDbEntity
  8
0
  6
Continuous
 62
     7
370
    25
100
AcDbLine
 10
85.9119053398
 20
178.5927221193
 30
0.0
 11
85.9119053398
 21
179.0257348212
 31
0.0
  0
SPLINE
  5
88
330
1F
100
AcDbEntity
  8
0
  6
Continuous
 62
     7
370
    25
100
AcDbSpline
210
0.0
220
0.0
230
1.0
 70
     8
 71
     3
 72
     9
 73
     5
 74
     0
 42
0.00000001
 43
0.00000001
 40
0.0
 40
0.0
 40
0.0
 40
0.0
 40
0.5598696508467871
 40
1.0
 40
1.0
 40
1.0
 40
1.0
 10
81.61670681527895
 20
157.7850769310137
 30
0.0
 10
81.55774279540474
 20
157.7354217852696
 30
0.0
 10
81.45242538842434
 20
157.6467312379806
 30
0.0
 10
81.34155952803175
 20
157.5666769627316
 30
0.0
 10
81.29276409818797
 20
157.531442646615
 30
0.0
  0
LINE
  5
89
330
1F
100
AcDbEntity
  8
0
  6
Continuous
 62
     7
370
    25
100
AcDbLine
 10
81.2980771334
 20
156.0006686007
 30
0.0
 11
81.2927354096
 21
157.5314210377
 31
0.0
  0
LWPOLYLINE
  5
8A
330
1F
100
AcDbEntity
  8
0
  6
Continuous
 62
     7
370
    25
100
AcDbPolyline
 90
       19
 70
   128
 43
0.0
 10
61.9244206561
 20
153.4050903833
 10
63.0313513504
 20
153.1444446366
 10
64.1775089523
 20
152.9303400243
 10
65.3550818387
 20
152.7642357737
 10
66.556044276
 20
152.6472639662
 10
67.7722111196
 20
152.5802218219
 10
68.9952935991
 20
152.5635662657
 10
70.216955811
 20
152.5974108132
 10
71.4288715315
 20
152.6815247974
 10
72.6227809638
 20
152.8153349404
 10
73.7905470329
 20
152.9979292609
 10
74.9242108435
 20
153.2280632895
 10
76.0160459237
 20
153.5041685506
 10
77.058610885
 20
153.8243632522
 10
78.0448001387
 20
154.1864651111
 10
78.967892324
 20
154.5880062266
 10
79.8215961175
 20
155.0262499002
 10
80.6000931114
 20
155.4982092875
 10
81.2980771334
 20
156.0006686007
  0
LINE
  5
8B
330
1F
100
AcDbEntity
  8
0
  6
Continuous
 62
     7
370
    25
100
AcDbLine
 10
61.9244206561
 20
153.4050903833
 30
0.0
 11
61.9275049017
 21
154.9369725604
 31
0.0
  0
SPLINE
  5
8C
330
1F
100
AcDbEntity
  8
0
  6
Continuous
 62
     7
370
    25
100
AcDbSpline
210
0.0
220
0.0
230
1.0
 70
     8
 71
     3
 72
     9
 73
     5
 74
     0
 42
0.00000001
 43
0.00000001
 40
0.0
 40
0.0
 40
0.0
 40
0.0
 40
0.5599828039665995
 40
1.0
 40
1.0
 40
1.0
 40
1.0
 10
60.84501635135111
 20
155.2494582313348
 30
0.0
 10
61.04354497159246
 20
155.1806916189692
 30
0.0
 10
61.39807125139086
 20
155.0578903260036
 30
0.0
 10
61.76569686997561
 20
154.9739286778233
 30
0.0
 10
61.92745846385532
 20
154.9369841088166
 30
0.0
  0
LWPOLYLINE
  5
8D
330
1F
100
AcDbEntity
  8
0
  6
Continuous
 62
     7
370
    25
100
AcDbPolyline
 90
       14
 70
   128
 43
0.0
 10
53.9662493159
 20
159.9881103048
 10
53.9676850899
 20
159.868982261
 10
54.0353742284
 20
159.2581511333
 10
54.2036022461
 20
158.6521932484
 10
54.471222587
 20
158.0552385048
 10
54.836411288
 20
157.4713554403
 10
55.29667941
 20
156.9045235026
 10
55.8488900013
 20
156.3586059279
 10
56.4892794773
 20
155.8373234108
 10
57.2134832714
 20
155.3442287458
 10
58.0165655815
 20
154.8826826136
 10
58.8930530101
 20
154.4558306762
 10
59.8369718678
 20
154.0665821377
 10
60.3749206327
 20
153.8721258151
  0
LINE
  5
8E
330
1F
100
AcDbEntity
  8
0
  6
Continuous
 62
     7
370
    25
100
AcDbLine
 10
85.5497094882
 20
152.100786056
 30
0.0
 11
84.2671094325
 21
153.4615967356
 31
0.0
  0
SPLINE
  5
8F
330
1F
100
AcDbEntity
  8
0
  6
Continuous
 62
     7
370
    25
100
AcDbSpline
210
0.0
220
0.0
230
1.0
 70
     8
 71
     3
 72
     9
 73
     5
 74
     0
 42
0.00000001
 43
0.00000001
 40
0.0
 40
0.0
 40
0.0
 40
0.0
 40
0.5599993204459144
 40
0.9999999999999999
 40
0.9999999999999999
 40
0.9999999999999999
 40
0.9999999999999999
 10
85.22775858208608
 20
151.8147575584458
 30
0.0
 10
85.287845905707
 20
151.8691094333116
 30
0.0
 10
85.3951448280933
 20
151.9661664704926
 30
0.0
 10
85.50248134696021
 20
152.0596522496274
 30
0.0
 10
85.54970948820264
 20
152.1007860559754
 30
0.0
  0
LINE
  5
90
330
1F
100
AcDbEntity
  8
0
  6
Continuous
 62
     7
370
    25
100
AcDbLine
 10
85.2277585821
 20
151.8147575584
 30
0.0
 11
86.7201799066
 21
150.2364764689
 31
0.0
  0
SPLINE
  5
91
330
1F
100
AcDbEntity
  8
0
  6
Continuous
 62
     7
370
    25
100
AcDbSpline
210
0.0
220
0.0
230
1.0
 70
     8
 71
     3
 72
     9
 73
     5
 74
     0
 42
0.00000001
 43
0.00000001
 40
0.0
 40
0.0
 40
0.0
 40
0.0
 40
0.4990250524699579
 40
1.0
 40
1.0
 40
1.0
 40
1.0
 10
84.96499678090744
 20
148.4471947173106
 30
0.0
 10
85.25554156471135
 20
148.7677725840655
 30
0.0
 10
85.83776640966819
 20
149.4101809464675
 30
0.0
 10
86.42567816964487
 20
149.960668111528
 30
0.0
 10
86.72020723275148
 20
150.2364483901601
 30
0.0
  0
LINE
  5
92
330
1F
100
AcDbEntity
  8
0
  6
Continuous
 62
     7
370
    25
100
AcDbLine
 10
84.9649967809
 20
148.4471947173
 30
0.0
 11
83.659274426
 21
149.8230321871
 31
0.0
  0
LWPOLYLINE
  5
93
330
1F
100
AcDbEntity
  8
0
  6
Continuous
 62
     7
370
    25
100
AcDbPolyline
 90
       14
 70
   128
 43
0.0
 10
66.5582116442
 20
146.5713567302
 10
68.0155072306
 20
146.5165152868
 10
69.4769215831
 20
146.5150276326
 10
70.934651696
 20
146.5669017107
 10
72.3809142353
 20
146.671860547
 10
73.8079870963
 20
146.8293437294
 10
75.2082506349
 20
147.0385103998
 10
76.5742283513
 20
147.2982437437
 10
77.8986268097
 20
147.6071569535
 10
79.1743745808
 20
147.9636006327
 10
80.3946599981
 20
148.3656716031
 10
81.5529675285
 20
148.8112230663
 10
82.6431125605
 20
149.2978760664
 10
83.659274426
 20
149.8230321871
  0
SPLINE
  5
94
330
1F
100
AcDbEntity
  8
0
  6
Continuous
 62
     7
370
    25
100
AcDbSpline
210
0.0
220
0.0
230
1.0
 70
     8
 71
     3
 72
     9
 73
     5
 74
     0
 42
0.00000001
 43
0.00000001
 40
0.0
 40
0.0
 40
0.0
 40
0.0
 40
0.4987584339578958
 40
1.0
 40
1.0
 40
1.0
 40
1.0
 10
63.14541514422034
 20
148.4221664904977
 30
0.0
 10
63.72065922675304
 20
148.1423074160734
 30
0.0
 10
64.87401131739912
 20
147.5811959533487
 30
0.0
 10
65.99588295009094
 20
146.9085265801838
 30
0.0
 10
66.55821164415961
 20
146.57135673015
 30
0.0
  0
SPLINE
  5
95
330
1F
100
AcDbEntity
  8
0
  6
Continuous
 62
     7
370
    25
100
AcDbSpline
210
0.0
220
0.0
230
1.0
 70
     8
 71
     3
 72
    11
 73
     7
 74
     0
 42
0.00000001
 43
0.00000001
 40
0.0
 40
0.0
 40
0.0
 40
0.0
 40
0.2463176350985387
 40
0.4926011315618842
 40
0.7462818617731142
 40
1.0
 40
1.0
 40
1.0
 40
1.0
 10
63.14541514422034
 20
148.4221664904977
 30
0.0
 10
62.57474566079417
 20
148.6736898339431
 30
0.0
 10
61.43348578644084
 20
149.1767016607082
 30
0.0
 10
59.68167423193016
 20
149.7569408812399
 30
0.0
 10
57.9091445309176
 20
150.20058976684
 30
0.0
 10
56.72641541027769
 20
150.3640632865183
 30
0.0
 10
56.1350072515658
 20
150.4458060724056
 30
0.0
  0
SPLINE
  5
96
330
1F
100
AcDbEntity
  8
0
  6
Continuous
 62
     7
370
    25
100
AcDbSpline
210
0.0
220
0.0
230
1.0
 70
     8
 71
     3
 72
     9
 73
     5
 74
     0
 42
0.00000001
 43
0.00000001
 40
0.0
 40
0.0
 40
0.0
 40
0.0
 40
0.4988782674056729
 40
1.0
 40
1.0
 40
1.0
 40
1.0
 10
52.68862039315628
 20
150.575162853985
 30
0.0
 10
53.25505658452381
 20
150.58567618202
 30
0.0
 10
54.39047624173435
 20
150.6067501167288
 30
0.0
 10
55.55262783274253
 20
150.4995342655233
 30
0.0
 10
56.1350072515658
 20
150.4458060724056
 30
0.0
  0
LWPOLYLINE
  5
97
330
1F
100
AcDbEntity
  8
0
  6
Continuous
 62
     7
370
    25
100
AcDbPolyline
 90
       14
 70
   128
 43
0.0
 10
49.7701561161
 20
159.6059779765
 10
49.3686399574
 20
158.9033889188
 10
49.0708047509
 20
158.1880157728
 10
48.8782407438
 20
157.4636781676
 10
48.7919761028
 20
156.7342435966
 10
48.8124714254
 20
156.0036067675
 10
48.9396172797
 20
155.2756688077
 10
49.1727347894
 20
154.5543164339
 10
49.5105792579
 20
153.8434012003
 10
49.9513468148
 20
153.1467189337
 10
50.4926840471
 20
152.4679894656
 10
51.1317005646
 20
151.8108367717
 10
51.8649844334
 20
151.1787696215
 10
52.6886203932
 20
150.575162854
  0
LINE
  5
98
330
1F
100
AcDbEntity
  8
0
  6
Continuous
 62
     7
370
    25
100
AcDbLine
 10
49.7701561161
 20
159.6059779765
 30
0.0
 11
48.4544260712
 21
158.9868886311
 31
0.0
  0
SPLINE
  5
99
330
1F
100
AcDbEntity
  8
0
  6
Continuous
 62
     7
370
    25
100
AcDbSpline
210
0.0
220
0.0
230
1.0
 70
     8
 71
     3
 72
     9
 73
     5
 74
     0
 42
0.00000001
 43
0.00000001
 40
0.0
 40
0.0
 40
0.0
 40
0.0
 40
0.4989954421997331
 40
1.0
 40
1.0
 40
1.0
 40
1.0
 10
50.21428814547748
 20
160.7747995034634
 30
0.0
 10
49.9205667433088
 20
160.5002450318237
 30
0.0
 10
49.33194132245556
 20
159.9500306442345
 30
0.0
 10
48.74732267707869
 20
159.3083656951491
 30
0.0
 10
48.45442607116986
 20
158.9868886310767
 30
0.0
  0
LINE
  5
9A
330
1F
100
AcDbEntity
  8
0
  6
Continuous
 62
     7
370
    25
100
AcDbLine
 10
50.2143100868
 20
160.774809913
 30
0.0
 11
51.7021000715
 21
161.492781567
 31
0.0
  0
SPLINE
  5
9B
330
1F
100
AcDbEntity
  8
0
  6
Continuous
 62
     7
370
    25
100
AcDbSpline
210
0.0
220
0.0
230
1.0
 70
     8
 71
     3
 72
     9
 73
     5
 74
     0
 42
0.00000001
 43
0.00000001
 40
0.0
 40
0.0
 40
0.0
 40
0.0
 40
0.559984699896247
 40
1.0
 40
1.0
 40
1.0
 40
1.0
 10
51.70210007147574
 20
161.4927815669598
 30
0.0
 10
51.76220192405376
 20
161.547127425502
 30
0.0
 10
51.86952959316535
 20
161.6441762530008
 30
0.0
 10
51.9768698207817
 20
161.7376608529295
 30
0.0
 10
52.02410116324951
 20
161.7787955072222
 30
0.0
  0
LINE
  5
9C
330
1F
100
AcDbEntity
  8
0
  6
Continuous
 62
     7
370
    25
100
AcDbLine
 10
52.9942015481
 20
162.1211582369
 30
0.0
 11
53.9767600704
 21
162.5957916166
 31
0.0
  0
SPLINE
  5
9D
330
1F
100
AcDbEntity
  8
0
  6
Continuous
 62
     7
370
    25
100
AcDbSpline
210
0.0
220
0.0
230
1.0
 70
     8
 71
     3
 72
     9
 73
     5
 74
     0
 42
0.00000001
 43
0.00000001
 40
0.0
 40
0.0
 40
0.0
 40
0.0
 40
0.5599970555745324
 40
1.0
 40
1.0
 40
1.0
 40
1.0
 10
60.39067069861439
 20
150.0266890225006
 30
0.0
 10
60.18859300350726
 20
150.0889499409264
 30
0.0
 10
59.82773807919019
 20
150.2001307369787
 30
0.0
 10
59.46690680799878
 20
150.2966985843986
 30
0.0
 10
59.30813998623375
 20
150.3391887216002
 30
0.0
  0
LINE
  5
9E
330
1F
100
AcDbEntity
  8
0
  6
Continuous
 62
     7
370
    25
100
AcDbLine
 10
60.3906706986
 20
150.0266890225
 30
0.0
 11
61.9244206561
 21
153.4050903833
 31
0.0
  0
LINE
  5
9F
330
1F
100
AcDbEntity
  8
0
  6
Continuous
 62
     7
370
    25
100
AcDbLine
 10
81.2980771334
 20
156.0006686007
 30
0.0
 11
83.9546097277
 21
153.1836582429
 31
0.0
  0
SPLINE
  5
A0
330
1F
100
AcDbEntity
  8
0
  6
Continuous
 62
     7
370
    25
100
AcDbSpline
210
0.0
220
0.0
230
1.0
 70
     8
 71
     3
 72
     9
 73
     5
 74
     0
 42
0.00000001
 43
0.00000001
 40
0.0
 40
0.0
 40
0.0
 40
0.0
 40
0.5599829247846637
 40
1.0
 40
1.0
 40
1.0
 40
1.0
 10
83.95460972768237
 20
153.1836582428708
 30
0.0
 10
84.01293403862157
 20
153.2365137793281
 30
0.0
 10
84.117087769669
 20
153.3309015438795
 30
0.0
 10
84.22126824458539
 20
153.4216610174891
 30
0.0
 10
84.26710943245264
 20
153.4615967356149
 30
0.0
  0
LWPOLYLINE
  5
A1
330
1F
100
AcDbEntity
  8
0
  6
Continuous
 62
     7
370
    25
100
AcDbPolyline
 90
       13
 70
   128
 43
0.0
 10
68.9045103321
 20
111.5222373875
 10
70.3824322391
 20
111.5518779439
 10
71.8527211422
 20
111.6325283552
 10
73.308343176
 20
111.7638027896
 10
74.7423346416
 20
111.9450732299
 10
76.1478353211
 20
112.1754724779
 10
77.518121296
 20
112.4538983031
 10
78.8466371154
 20
112.7790187159
 10
80.127027157
 20
113.1492783394
 10
81.3531660319
 20
113.5629058509
 10
82.5191878893
 20
114.0179224555
 10
83.6195144782
 20
114.5121513528
 10
84.6488818338
 20
115.0432281507
  0
ELLIPSE
  5
A2
330
1F
100
AcDbEntity
  8
0
  6
Continuous
 62
     7
370
    25
100
AcDbEllipse
 10
77.9433374041
 20
122.2929617293
 30
0.0
 11
-18.16440205130177
 21
267.2793079186523
 31
0.0
210
0.0
220
0.0
230
1.0
 40
0.0364145448
 41
1.47736118867557
 42
1.608630013051197
  0
LWPOLYLINE
  5
A3
330
1F
100
AcDbEntity
  8
0
  6
Continuous
 62
     7
370
    25
100
AcDbPolyline
 90
        3
 70
   128
 43
0.0
 10
83.659274426
 20
149.8230321871
 10
84.2134737431
 20
130.3462539811
 10
84.6488818338
 20
115.0432281507
  0
LINE
  5
A4
330
1F
100
AcDbEntity
  8
0
  6
Continuous
 62
     7
370
    25
100
AcDbLine
 10
62.0248905332
 20
115.5670227302
 30
0.0
 11
61.8359602031
 21
115.2065764416
 31
0.0
  0
ELLIPSE
  5
A5
330
1F
100
AcDbEntity
  8
0
  6
Continuous
 62
     7
370
    25
100
AcDbEllipse
 10
59.0868085735
 20
121.4931123288
 30
0.0
 11
-4.399952521824567
 21
5.474833462143167
 31
0.0
210
0.0
220
0.0
230
1.0
 40
0.7670342089
 41
3.390710390079125
 42
3.586579945710879
  0
LINE
  5
A6
330
1F
100
AcDbEntity
  8
0
  6
Continuous
 62
     7
370
    25
100
AcDbLine
 10
64.6046653894
 20
118.8155572912
 30
0.0
 11
64.8658867204
 21
118.0041589657
 31
0.0
  0
ELLIPSE
  5
A7
330
1F
100
AcDbEntity
  8
0
  6
Continuous
 62
     7
370
    25
100
AcDbEllipse
 10
59.0867172513
 20
121.4885037134
 30
0.0
 11
-4.080025380025361
 21
5.076724896673297
 31
0.0
210
0.0
220
0.0
230
1.0
 40
0.7670341218
 41
3.695221104835377
 42
4.067579015108679
  0
LINE
  5
A8
330
1F
100
AcDbEntity
  8
0
  6
Continuous
 62
     7
370
    25
100
AcDbLine
 10
64.9461317082
 20
121.5916135536
 30
0.0
 11
64.6511587972
 21
120.9383107717
 31
0.0
  0
ELLIPSE
  5
A9
330
1F
100
AcDbEntity
  8
0
  6
Continuous
 62
     7
370
    25
100
AcDbEllipse
 10
59.0868085735
 20
121.4931123288
 30
0.0
 11
-4.399952521824815
 21
5.474833462143508
 31
0.0
210
0.0
220
0.0
230
1.0
 40
0.7670342089
 41
4.175283935988687
 42
4.372800262303407
  0
LINE
  5
AA
330
1F
100
AcDbEntity
  8
0
  6
Continuous
 62
     7
370
    25
100
AcDbLine
 10
64.5119948139
 20
122.8516276324
 30
0.0
 11
63.8090264979
 21
123.3769890619
 31
0.0
  0
ELLIPSE
  5
AB
330
1F
100
AcDbEntity
  8
0
  6
Continuous
 62
     7
370
    25
100
AcDbEllipse
 10
59.0867172513
 20
121.4885037134
 30
0.0
 11
-4.080025380025361
 21
5.076724896673297
 31
0.0
210
0.0
220
0.0
230
1.0
 40
0.7670341218
 41
4.482169301698824
 42
4.852662271596939
  0
LINE
  5
AC
330
1F
100
AcDbEntity
  8
0
  6
Continuous
 62
     7
370
    25
100
AcDbLine
 10
62.0724887379
 20
126.1130396816
 30
0.0
 11
62.372047156
 21
125.2970795398
 31
0.0
  0
ELLIPSE
  5
AD
330
1F
100
AcDbEntity
  8
0
  6
Continuous
 62
     7
370
    25
100
AcDbEllipse
 10
59.0868085735
 20
121.4931123288
 30
0.0
 11
-4.399952521823921
 21
5.474833462142372
 31
0.0
210
0.0
220
0.0
230
1.0
 40
0.7670342089
 41
4.961368342971642
 42
5.160053220992788
  0
LINE
  5
AE
330
1F
100
AcDbEntity
  8
0
  6
Continuous
 62
     7
370
    25
100
AcDbLine
 10
60.9678199922
 20
126.9053070407
 30
0.0
 11
60.2349398472
 21
126.8289057073
 31
0.0
  0
ELLIPSE
  5
AF
330
1F
100
AcDbEntity
  8
0
  6
Continuous
 62
     7
370
    25
100
AcDbEllipse
 10
59.0867172513
 20
121.4885037134
 30
0.0
 11
-4.080025380025361
 21
5.076724896673297
 31
0.0
210
0.0
220
0.0
230
1.0
 40
0.7670341218
 41
5.269447713534508
 42
5.454306360891151
  0
ELLIPSE
  5
B0
330
1F
100
AcDbEntity
  8
0
  6
Continuous
 62
     7
370
    25
100
AcDbEllipse
 10
59.0867172513
 20
121.4885037134
 30
0.0
 11
-4.080025380025361
 21
5.076724896673297
 31
0.0
210
0.0
220
0.0
230
1.0
 40
0.7670341218
 41
5.454306360891151
 42
5.639165008248368
  0
LINE
  5
B1
330
1F
100
AcDbEntity
  8
0
  6
Continuous
 62
     7
370
    25
100
AcDbLine
 10
58.1619981812
 20
127.4273124217
 30
0.0
 11
57.4404655075
 21
127.9235665713
 31
0.0
  0
ELLIPSE
  5
B2
330
1F
100
AcDbEntity
  8
0
  6
Continuous
 62
     7
370
    25
100
AcDbEllipse
 10
59.0868085735
 20
121.4931123288
 30
0.0
 11
-4.399952521823921
 21
5.474833462142372
 31
0.0
210
0.0
220
0.0
230
1.0
 40
0.7670342089
 41
5.748564523771855
 42
5.947249401792057
  0
ELLIPSE
  5
B3
330
1F
100
AcDbEntity
  8
0
  6
Continuous
 62
     7
370
    25
100
AcDbEllipse
 10
59.0867172513
 20
121.4885037134
 30
0.0
 11
-4.080025380025361
 21
5.076724896673297
 31
0.0
210
0.0
220
0.0
230
1.0
 40
0.7670341218
 41
6.163282452563333
 42
6.37229117759505
  0
LINE
  5
B4
330
1F
100
AcDbEntity
  8
0
  6
Continuous
 62
     7
370
    25
100
AcDbLine
 10
54.4766440454
 20
126.0638527479
 30
0.0
 11
53.7768693382
 21
125.9505914239
 31
0.0
  0
LINE
  5
B5
330
1F
100
AcDbEntity
  8
0
  6
Continuous
 62
     7
370
    25
100
AcDbLine
 10
49.5840374169
 20
116.3783767418
 30
0.0
 11
68.2799321479
 21
110.981336814
 31
0.0
  0
LINE
  5
B6
330
1F
100
AcDbEntity
  8
0
  6
Continuous
 62
     7
370
    25
100
AcDbLine
 10
52.6886203932
 20
150.575162854
 30
0.0
 11
49.5840374169
 21
116.3783767418
 31
0.0
  0
LINE
  5
B7
330
1F
100
AcDbEntity
  8
0
  6
Continuous
 62
     7
370
    25
100
AcDbLine
 10
68.2799321479
 20
110.981336814
 30
0.0
 11
66.5582116442
 21
146.5713567302
 31
0.0
  0
LINE
  5
B8
330
1F
100
AcDbEntity
  8
0
  6
Continuous
 62
     7
370
    25
100
AcDbLine
 10
68.9045103321
 20
111.5222373875
 30
0.0
 11
68.2799321479
 21
110.981336814
 31
0.0
  0
ARC
  5
B9
330
1F
100
AcDbEntity
  8
0
  6
Continuous
 62
     7
370
    25
100
AcDbCircle
 10
79.142645943
 20
160.1096327265
 30
0.0
 40
4.466568863643153
100
AcDbArc
 50
319.0835754237
 51
358.4409551545
  0
SPLINE
  5
BA
330
1F
100
AcDbEntity
  8
0
  6
Continuous
 62
     7
370
    25
100
AcDbSpline
210
0.0
220
0.0
230
1.0
 70
     8
 71
     3
 72
     9
 73
     5
 74
     0
 42
0.00000001
 43
0.00000001
 40
0.0
 40
0.0
 40
0.0
 40
0.0
 40
0.5601255677855034
 40
0.9999999999999999
 40
0.9999999999999999
 40
0.9999999999999999
 40
0.9999999999999999
 10
81.917712368519
 20
158.0726636318933
 30
0.0
 10
81.86309515383316
 20
158.0167256006745
 30
0.0
 10
81.7655862775614
 20
157.9168586521973
 30
0.0
 10
81.66218874583811
 20
157.8253355872444
 30
0.0
 10
81.61670681527895
 20
157.7850769310137
 30
0.0
  0
LINE
  5
BB
330
1F
100
AcDbEntity
  8
0
  6
Continuous
 62
     7
370
    25
100
AcDbLine
 10
60.3906706986
 20
150.0266890225
 30
0.0
 11
60.3906712172
 21
150.4337402417
 31
0.0
  0
LINE
  5
BC
330
1F
100
AcDbEntity
  8
0
  6
Continuous
 62
     7
370
    25
100
AcDbLine
 10
60.3906712172
 20
150.4337402417
 30
0.0
 11
61.9275034902
 21
154.9369710495
 31
0.0
  0
LINE
  5
BD
330
1F
100
AcDbEntity
  8
0
  6
Continuous
 62
     7
370
    25
100
AcDbLine
 10
59.3081394624
 20
150.7462402417
 30
0.0
 11
60.3906712172
 21
150.4337402417
 31
0.0
  0
LINE
  5
BE
330
1F
100
AcDbEntity
  8
0
  6
Continuous
 62
     7
370
    25
100
AcDbLine
 10
60.8449717355
 20
155.2494710495
 30
0.0
 11
59.3081394624
 21
150.7462402417
 31
0.0
  0
LINE
  5
BF
330
1F
100
AcDbEntity
  8
0
  6
Continuous
 62
     7
370
    25
100
AcDbLine
 10
59.3081399862
 20
150.3391887216
 30
0.0
 11
59.3081394624
 21
150.7462402417
 31
0.0
  0
LINE
  5
C0
330
1F
100
AcDbEntity
  8
0
  6
Continuous
 62
     7
370
    25
100
AcDbLine
 10
84.9649967809
 20
148.4471947173
 30
0.0
 11
85.0878262223
 21
114.9165158202
 31
0.0
  0
LINE
  5
C1
330
1F
100
AcDbEntity
  8
0
  6
Continuous
 62
     7
370
    25
100
AcDbLine
 10
85.0878262223
 20
114.9165158202
 30
0.0
 11
84.6488818338
 21
115.0432281507
 31
0.0
  0
LINE
  5
C2
330
1F
100
AcDbEntity
  8
0
  6
Continuous
 62
     7
370
    25
100
AcDbLine
 10
85.0878262223
 20
114.9165158202
 30
0.0
 11
87.0808011365
 21
116.6424827251
 31
0.0
  0
LINE
  5
C3
330
1F
100
AcDbEntity
  8
0
  6
Continuous
 62
     7
370
    25
100
AcDbLine
 10
86.7202064015
 20
150.2364865497
 30
0.0
 11
87.0808011365
 21
116.6424827251
 31
0.0
  0
SPLINE
  5
C4
330
1F
100
AcDbEntity
  8
0
  6
Continuous
 62
     7
370
    25
100
AcDbSpline
210
0.0
220
0.0
230
1.0
 70
     8
 71
     3
 72
     9
 73
     5
 74
     0
 42
0.00000001
 43
0.00000001
 40
0.0
 40
0.0
 40
0.0
 40
0.0
 40
0.5600157315450718
 40
1.0
 40
1.0
 40
1.0
 40
1.0
 10
84.26710943245264
 20
153.4615967356149
 30
0.0
 10
84.32545245614389
 20
153.5117409275325
 30
0.0
 10
84.4296335003626
 20
153.6012816120043
 30
0.0
 10
84.53378437812195
 20
153.6871450410471
 30
0.0
 10
84.57960912588184
 20
153.7249235990615
 30
0.0
  0
SPLINE
  5
C5
330
1F
100
AcDbEntity
  8
0
  6
Continuous
 62
     7
370
    25
100
AcDbSpline
210
0.0
220
0.0
230
1.0
 70
     8
 71
     3
 72
     9
 73
     5
 74
     0
 42
0.00000001
 43
0.00000001
 40
0.0
 40
0.0
 40
0.0
 40
0.0
 40
0.5600140127567097
 40
1.0
 40
1.0
 40
1.0
 40
1.0
 10
52.02410116324951
 20
161.7787955072222
 30
0.0
 10
52.08421115019343
 20
161.8304779837281
 30
0.0
 10
52.19154772673375
 20
161.922765811048
 30
0.0
 10
52.29884348606731
 20
162.0114434697159
 30
0.0
 10
52.34605211666471
 20
162.0504603969113
 30
0.0
  0
LWPOLYLINE
  5
C6
330
1F
100
AcDbEntity
  8
0
  6
Continuous
 62
     7
370
    25
100
AcDbPolyline
 90
        3
 70
   128
 43
0.0
 10
52.3460521167
 20
162.0504603969
 10
51.5102711504
 20
161.6461513664
 10
50.8536038644
 20
161.32846314
  0
SPLINE
  5
C7
330
1F
100
AcDbEntity
  8
0
  6
Continuous
 62
     7
370
    25
100
AcDbSpline
210
0.0
220
0.0
230
1.0
 70
     8
 71
     3
 72
     9
 73
     5
 74
     0
 42
0.00000001
 43
0.00000001
 40
0.0
 40
0.0
 40
0.0
 40
0.0
 40
0.498995442701662
 40
1.0
 40
1.0
 40
1.0
 40
1.0
 10
50.85360386444653
 20
161.3284631399947
 30
0.0
 10
51.14696931880067
 20
161.5623407915175
 30
0.0
 10
51.73488141027351
 20
162.0310377604848
 30
0.0
 10
52.31711314580063
 20
162.3998949126605
 30
0.0
 10
52.60881389870345
 20
162.5846940268926
 30
0.0
  0
LINE
  5
C8
330
1F
100
AcDbEntity
  8
0
  6
Continuous
 62
     7
370
    25
100
AcDbLine
 10
52.6088138987
 20
162.5846940269
 30
0.0
 11
53.5375047302
 21
163.018855021
 31
0.0
  0
LINE
  5
C9
330
1F
100
AcDbEntity
  8
0
  6
Continuous
 62
     7
370
    25
100
AcDbLine
 10
83.5947337915
 20
163.1705859724
 30
0.0
 11
84.8851902867
 21
162.4429858095
 31
0.0
  0
LWPOLYLINE
  5
CA
330
1F
100
AcDbEntity
  8
0
  6
Continuous
 62
     7
370
    25
100
AcDbPolyline
 90
       14
 70
   128
 43
0.0
 10
84.8851902867
 20
162.4429858095
 10
85.708826246
 20
161.8393790318
 10
86.4421101148
 20
161.2073118815
 10
87.0811266323
 20
160.5501591875
 10
87.6224638645
 20
159.8714297193
 10
88.0632314215
 20
159.1747474525
 10
88.40107589
 20
158.4638322187
 10
88.6341933996
 20
157.7424798447
 10
88.761339254
 20
157.0145418845
 10
88.7818345765
 20
156.2839050552
 10
88.6955699356
 20
155.5544704838
 10
88.5030059284
 20
154.8301328782
 10
88.205170722
 20
154.1147597319
 10
87.8036545636
 20
153.4121706691
  0
LINE
  5
CB
330
1F
100
AcDbEntity
  8
0
  6
Continuous
 62
     7
370
    25
100
AcDbLine
 10
87.8036545636
 20
153.4121706691
 30
0.0
 11
89.1193846084
 21
152.0450001131
 31
0.0
  0
SPLINE
  5
CC
330
1F
100
AcDbEntity
  8
0
  6
Continuous
 62
     7
370
    25
100
AcDbSpline
210
0.0
220
0.0
230
1.0
 70
     8
 71
     3
 72
     9
 73
     5
 74
     0
 42
0.00000001
 43
0.00000001
 40
0.0
 40
0.0
 40
0.0
 40
0.0
 40
0.4990250529475508
 40
1.0
 40
1.0
 40
1.0
 40
1.0
 10
89.11938460844166
 20
152.0450001131254
 30
0.0
 10
88.82764831407545
 20
151.8613077595337
 30
0.0
 10
88.24303579283418
 20
151.4932052915179
 30
0.0
 10
87.65440982245298
 20
151.0247809112351
 30
0.0
 10
87.35952295810755
 20
150.7901120321247
 30
0.0
  0
LWPOLYLINE
  5
CD
330
1F
100
AcDbEntity
  8
0
  6
Continuous
 62
     7
370
    25
100
AcDbPolyline
 90
        3
 70
   128
 43
0.0
 10
87.3595229581
 20
150.7901120321
 10
86.5263580761
 20
151.6762174574
 10
85.8717106234
 20
152.3724363698
  0
SPLINE
  5
CE
330
1F
100
AcDbEntity
  8
0
  6
Continuous
 62
     7
370
    25
100
AcDbSpline
210
0.0
220
0.0
230
1.0
 70
     8
 71
     3
 72
     9
 73
     5
 74
     0
 42
0.00000001
 43
0.00000001
 40
0.0
 40
0.0
 40
0.0
 40
0.0
 40
0.559999322201522
 40
1.0
 40
1.0
 40
1.0
 40
1.0
 10
85.54970948820264
 20
152.1007860559754
 30
0.0
 10
85.6098205327439
 20
152.1524664936256
 30
0.0
 10
85.71716181363144
 20
152.244753101129
 30
0.0
 10
85.8244873254667
 20
152.3334219960008
 30
0.0
 10
85.87171062341928
 20
152.372436369844
 30
0.0
  0
LINE
  5
CF
330
1F
100
AcDbEntity
  8
0
  6
Continuous
 62
     7
370
    25
100
AcDbLine
 10
81.2927380844
 20
157.531420161
 30
0.0
 11
83.9546094325
 21
153.5907093493
 31
0.0
  0
LINE
  5
D0
330
1F
100
AcDbEntity
  8
0
  6
Continuous
 62
     7
370
    25
100
AcDbLine
 10
83.9546097277
 20
153.1836582429
 30
0.0
 11
83.9546094325
 21
153.5907093493
 31
0.0
  0
LINE
  5
D1
330
1F
100
AcDbEntity
  8
0
  6
Continuous
 62
     7
370
    25
100
AcDbLine
 10
84.5796094325
 20
154.1319752267
 30
0.0
 11
81.9177381262
 21
158.0726859765
 31
0.0
  0
LINE
  5
D2
330
1F
100
AcDbEntity
  8
0
  6
Continuous
 62
     7
370
    25
100
AcDbLine
 10
84.5796094325
 20
154.1319752267
 30
0.0
 11
83.9546094325
 21
153.5907093493
 31
0.0
  0
ARC
  5
D3
330
1F
100
AcDbEntity
  8
0
  6
Continuous
 62
     7
370
    25
100
AcDbCircle
 10
54.2456171608
 20
122.5052966942
 30
0.0
 40
6.839548959052256
100
AcDbArc
 50
180.6279099456
 51
228.10169393
  0
LINE
  5
D4
330
1F
100
AcDbEntity
  8
0
  6
Continuous
 62
     7
370
    25
100
AcDbLine
 10
84.5796091259
 20
153.7249235991
 30
0.0
 11
84.5796094325
 21
154.1319752267
 31
0.0
  0
LINE
  5
D5
330
1F
100
AcDbEntity
  8
0
  6
Continuous
 62
     7
370
    25
100
AcDbLine
 10
85.8735359064
 20
151.1318283331
 30
0.0
 11
85.8717106234
 21
152.3724363698
 31
0.0
  0
LINE
  5
D6
330
1F
100
AcDbEntity
  8
0
  6
Continuous
 62
     7
370
    25
100
AcDbLine
 10
87.0745347437
 20
117.2262772299
 30
0.0
 11
87.5848154101
 21
117.0789718899
 31
0.0
  0
LINE
  5
D7
330
1F
100
AcDbEntity
  8
0
  6
Continuous
 62
     7
370
    25
100
AcDbLine
 10
87.3595229581
 20
150.7901120321
 30
0.0
 11
87.5848154101
 21
117.0789718899
 31
0.0
  0
LINE
  5
D8
330
1F
100
AcDbEntity
  8
0
  6
Continuous
 62
     7
370
    25
100
AcDbLine
 10
87.5848154101
 20
117.0789718899
 30
0.0
 11
89.5777903243
 21
118.8049387947
 31
0.0
  0
LINE
  5
D9
330
1F
100
AcDbEntity
  8
0
  6
Continuous
 62
     7
370
    25
100
AcDbLine
 10
89.1193846084
 20
152.0450001131
 30
0.0
 11
89.5777903243
 21
118.8049387947
 31
0.0
  0
LWPOLYLINE
  5
DA
330
1F
100
AcDbEntity
  8
0
  6
Continuous
 62
     7
370
    25
100
AcDbPolyline
 90
       26
 70
   128
 43
0.0
 10
57.7869053398
 20
125.873425664
 10
58.4788590866
 20
125.6301417832
 10
59.1599003095
 20
125.3036265552
 10
59.8192885815
 20
124.89902932
 10
60.4466249557
 20
124.4227308177
 10
61.0320159627
 20
123.8822425603
 10
61.5662296367
 20
123.2860883704
 10
62.0408411088
 20
122.6436699558
 10
62.4483654727
 20
121.9651186386
 10
62.7823758257
 20
121.2611355785
 10
63.0376046249
 20
120.5428230087
 10
63.2100267598
 20
119.8215091477
 10
63.2969230303
 20
119.108569546
 10
63.2969230303
 20
118.4152476868
 10
63.2100267598
 20
117.7524776703
 10
63.0376046249
 20
117.1307117753
 10
62.7823758257
 20
116.5597556215
 10
62.4483654727
 20
116.0486135285
 10
62.0408411088
 20
115.6053465125
 10
61.5662296367
 20
115.2369451591
 10
61.0320159627
 20
114.9492193777
 10
60.4466249557
 20
114.7467067758
 10
59.8192885815
 20
114.632601098
 10
59.1599003095
 20
114.6087018592
 10
58.4788590866
 20
114.6753859645
 10
57.7869053398
 20
114.8316017657
  0
LINE
  5
DB
330
1F
100
AcDbEntity
  8
0
  6
Continuous
 62
     7
370
    25
100
AcDbLine
 10
59.2004060158
 20
127.2258607647
 30
0.0
 11
57.7869053398
 21
125.873425664
 31
0.0
  0
SPLINE
  5
DC
330
1F
100
AcDbEntity
  8
0
  6
Continuous
 62
     7
370
    25
100
AcDbSpline
210
0.0
220
0.0
230
1.0
 70
     8
 71
     3
 72
     9
 73
     5
 74
     0
 42
0.00000001
 43
0.00000001
 40
0.0
 40
0.0
 40
0.0
 40
0.0
 40
0.5599999904589463
 40
1.0
 40
1.0
 40
1.0
 40
1.0
 10
60.23493984724559
 20
126.8289057072647
 30
0.0
 10
60.03223233555423
 20
126.614355113919
 30
0.0
 10
59.67025462993816
 20
126.2312290478457
 30
0.0
 10
59.30754140723575
 20
125.848026293594
 30
0.0
 10
59.14794758578601
 20
125.6794170780671
 30
0.0
  0
ARC
  5
DD
330
1F
100
AcDbEntity
  8
0
  6
Continuous
 62
     7
370
    25
100
AcDbCircle
 10
55.5996656748
 20
118.5655010324
 30
0.0
 40
7.949723644564457
100
AcDbArc
 50
46.3032213943
 51
63.4908783058
  0
SPLINE
  5
DE
330
1F
100
AcDbEntity
  8
0
  6
Continuous
 62
     7
370
    25
100
AcDbSpline
210
0.0
220
0.0
230
1.0
 70
     8
 71
     3
 72
     9
 73
     5
 74
     0
 42
0.00000001
 43
0.00000001
 40
0.0
 40
0.0
 40
0.0
 40
0.0
 40
0.5599999919649412
 40
1.0
 40
1.0
 40
1.0
 40
1.0
 10
61.0916667642033
 20
124.3131988374789
 30
0.0
 10
61.33059011591079
 20
124.4970682962697
 30
0.0
 10
61.75723896436729
 20
124.8254066202501
 30
0.0
 10
62.18418909508182
 20
125.1529572569938
 30
0.0
 10
62.37204715602679
 20
125.2970795397929
 30
0.0
  0
SPLINE
  5
DF
330
1F
100
AcDbEntity
  8
0
  6
Continuous
 62
     7
370
    25
100
AcDbSpline
210
0.0
220
0.0
230
1.0
 70
     8
 71
     3
 72
     9
 73
     5
 74
     0
 42
0.00000001
 43
0.00000001
 40
0.0
 40
0.0
 40
0.0
 40
0.0
 40
0.5599999912598467
 40
1.0
 40
1.0
 40
1.0
 40
1.0
 10
63.80902649788403
 20
123.3769890619308
 30
0.0
 10
63.59526444463519
 20
123.1736515778068
 30
0.0
 10
63.21354648644748
 20
122.8105489219183
 30
0.0
 10
62.83116544044439
 20
122.447922400106
 30
0.0
 10
62.66291777686097
 20
122.2883667273392
 30
0.0
  0
ARC
  5
E0
330
1F
100
AcDbEntity
  8
0
  6
Continuous
 62
     7
370
    25
100
AcDbCircle
 10
56.2025719904
 20
118.6611993682
 30
0.0
 40
7.408941269308814
100
AcDbArc
 50
11.2943067662
 51
29.3120743539
  0
SPLINE
  5
E1
330
1F
100
AcDbEntity
  8
0
  6
Continuous
 62
     7
370
    25
100
AcDbSpline
210
0.0
220
0.0
230
1.0
 70
     8
 71
     3
 72
     9
 73
     5
 74
     0
 42
0.00000001
 43
0.00000001
 40
0.0
 40
0.0
 40
0.0
 40
0.0
 40
0.5599999929131327
 40
0.9999999999999999
 40
0.9999999999999999
 40
0.9999999999999999
 40
0.9999999999999999
 10
63.46803262198188
 20
120.1122309125902
 30
0.0
 10
63.68894863549007
 20
120.2665816480915
 30
0.0
 10
64.08344152174703
 20
120.5422079649746
 30
0.0
 10
64.47768962775856
 20
120.8172793571899
 30
0.0
 10
64.65115879719762
 20
120.938310771714
 30
0.0
  0
SPLINE
  5
E2
330
1F
100
AcDbEntity
  8
0
  6
Continuous
 62
     7
370
    25
100
AcDbSpline
210
0.0
220
0.0
230
1.0
 70
     8
 71
     3
 72
     9
 73
     5
 74
     0
 42
0.00000001
 43
0.00000001
 40
0.0
 40
0.0
 40
0.0
 40
0.0
 40
0.5599999925869814
 40
1.0
 40
1.0
 40
1.0
 40
1.0
 10
64.60466538937762
 20
118.8155572912328
 30
0.0
 10
64.39255457087025
 20
118.6426442171582
 30
0.0
 10
64.0137852470931
 20
118.3338708665091
 30
0.0
 10
63.63479037048427
 20
118.0257288917758
 30
0.0
 10
63.46803262196689
 20
117.890146420609
 30
0.0
  0
ARC
  5
E3
330
1F
100
AcDbEntity
  8
0
  6
Continuous
 62
     7
370
    25
100
AcDbCircle
 10
59.5038138048
 20
118.7101465271
 30
0.0
 40
4.048139202795215
100
AcDbArc
 50
321.2957680987
 51
348.3131685626
  0
LWPOLYLINE
  5
E4
330
1F
100
AcDbEntity
  8
0
  6
Continuous
 62
     7
370
    25
100
AcDbPolyline
 90
       23
 70
   128
 43
0.0
 10
57.7869053398
 20
116.2388930469
 10
58.3723345999
 20
116.1117649035
 10
58.9458462085
 20
116.0709661766
 10
59.4957651231
 20
116.1173274106
 10
60.0108965804
 20
116.2499048245
 10
60.4807539896
 20
116.4659995244
 10
60.8957724087
 20
116.7612124455
 10
61.2475032595
 20
117.129533904
 10
61.5287863161
 20
117.5634659371
 10
61.7338954668
 20
118.05417494
 10
61.8586552807
 20
118.5916714925
 10
61.9005260078
 20
119.1650137148
 10
61.8586552807
 20
119.7625300127
 10
61.7338954668
 20
120.3720566773
 10
61.5287863161
 20
120.9811855036
 10
61.2475032595
 20
121.5775163852
 10
60.8957724087
 20
122.1489097451
 10
60.4807539896
 20
122.6837336622
 10
60.0108965804
 20
123.1711006638
 10
59.4957651231
 20
123.6010893632
 10
58.9458462085
 20
123.9649464306
 10
58.3723345999
 20
124.2552647853
 10
57.7869053398
 20
124.4661343828
  0
LWPOLYLINE
  5
E5
330
1F
100
AcDbEntity
  8
0
  6
Continuous
 62
     7
370
    25
100
AcDbPolyline
 90
       23
 70
   128
 43
0.0
 10
57.7869053398
 20
124.4661343828
 10
57.2014760797
 20
124.5932625262
 10
56.6279644711
 20
124.6340612531
 10
56.0780455565
 20
124.5877000191
 10
55.5629140992
 20
124.4551226052
 10
55.09305669
 20
124.2390279053
 10
54.6780382709
 20
123.9438149842
 10
54.3263074201
 20
123.5754935257
 10
54.0450243635
 20
123.1415614926
 10
53.8399152128
 20
122.6508524897
 10
53.7151553989
 20
122.1133559372
 10
53.6732846718
 20
121.5400137148
 10
53.7151553989
 20
120.942497417
 10
53.8399152128
 20
120.3329707523
 10
54.0450243635
 20
119.7238419261
 10
54.3263074201
 20
119.1275110444
 10
54.6780382709
 20
118.5561176846
 10
55.09305669
 20
118.0212937675
 10
55.5629140992
 20
117.5339267659
 10
56.0780455565
 20
117.1039380664
 10
56.6279644711
 20
116.7400809991
 10
57.2014760797
 20
116.4497626444
 10
57.7869053398
 20
116.2388930469
  0
LWPOLYLINE
  5
E6
330
1F
100
AcDbEntity
  8
0
  6
Continuous
 62
     7
370
    25
100
AcDbPolyline
 90
       26
 70
   128
 43
0.0
 10
57.7869053398
 20
114.8316017657
 10
57.094951593
 20
115.0748856464
 10
56.4139103701
 20
115.4014008745
 10
55.7545220981
 20
115.8059981097
 10
55.1271857239
 20
116.282296612
 10
54.5417947169
 20
116.8227848694
 10
54.0075810429
 20
117.4189390592
 10
53.5329695708
 20
118.0613574739
 10
53.1254452069
 20
118.7399087911
 10
52.791434854
 20
119.4438918512
 10
52.5362060547
 20
120.162204421
 10
52.3637839198
 20
120.883518282
 10
52.2768876493
 20
121.5964578837
 10
52.2768876493
 20
122.2897797428
 10
52.3637839198
 20
122.9525497594
 10
52.5362060547
 20
123.5743156544
 10
52.791434854
 20
124.1452718082
 10
53.1254452069
 20
124.6564139012
 10
53.5329695708
 20
125.0996809172
 10
54.0075810429
 20
125.4680822706
 10
54.5417947169
 20
125.755808052
 10
55.1271857239
 20
125.9583206539
 10
55.7545220981
 20
126.0724263316
 10
56.4139103701
 20
126.0963255705
 10
57.094951593
 20
126.0296414652
 10
57.7869053398
 20
125.873425664
  0
ARC
  5
E7
330
1F
100
AcDbEntity
  8
0
  6
Continuous
 62
     7
370
    25
100
AcDbCircle
 10
84.4694140597
 20
122.2423605705
 30
0.0
 40
5.701017759558988
100
AcDbArc
 50
333.3691257841
 51
1.8895833075
  0
LINE
  5
E8
330
1F
100
AcDbEntity
  8
0
  6
Continuous
 62
     7
370
    25
100
AcDbLine
 10
59.1479475858
 20
125.6794170781
 30
0.0
 11
59.8058745036
 21
125.7434279
 31
0.0
  0
ARC
  5
E9
330
1F
100
AcDbEntity
  8
0
  6
Continuous
 62
     7
370
    25
100
AcDbCircle
 10
55.3926166234
 20
118.4017527844
 30
0.0
 40
8.566039844711831
100
AcDbArc
 50
50.8051904306
 51
58.9889092693
  0
LINE
  5
EA
330
1F
100
AcDbEntity
  8
0
  6
Continuous
 62
     7
370
    25
100
AcDbLine
 10
60.8060034351
 20
125.0404485786
 30
0.0
 11
61.0916667642
 21
124.3131988375
 31
0.0
  0
LINE
  5
EB
330
1F
100
AcDbEntity
  8
0
  6
Continuous
 62
     7
370
    25
100
AcDbLine
 10
62.0724887379
 20
126.1130396816
 30
0.0
 11
60.8060034351
 21
125.0404485786
 31
0.0
  0
LINE
  5
EC
330
1F
100
AcDbEntity
  8
0
  6
Continuous
 62
     7
370
    25
100
AcDbLine
 10
59.8058745036
 20
125.7434279
 30
0.0
 11
60.9678199922
 21
126.9053070407
 31
0.0
  0
LINE
  5
ED
330
1F
100
AcDbEntity
  8
0
  6
Continuous
 62
     7
370
    25
100
AcDbLine
 10
57.7869053398
 20
124.4661343828
 30
0.0
 11
58.0056553402
 21
124.2766913256
 31
0.0
  0
LINE
  5
EE
330
1F
100
AcDbEntity
  8
0
  6
Continuous
 62
     7
370
    25
100
AcDbLine
 10
57.7869053398
 20
116.2388930469
 30
0.0
 11
58.0056553398
 21
116.8072222181
 31
0.0
  0
LWPOLYLINE
  5
EF
330
1F
100
AcDbEntity
  8
0
  6
Continuous
 62
     7
370
    25
100
AcDbPolyline
 90
       22
 70
   128
 43
0.0
 10
58.0056553398
 20
116.8072222181
 10
58.5622886413
 20
116.6882499241
 10
59.1064876746
 20
116.655363073
 10
59.6260959326
 20
116.7092963028
 10
60.1095062255
 20
116.8488448342
 10
60.5459199661
 20
117.0708913835
 10
60.9255883926
 20
117.3704757979
 10
61.2400303397
 20
117.7409058565
 10
61.4822216941
 20
118.1739067639
 10
61.6467523009
 20
118.6598059955
 10
61.7299468183
 20
119.1877493652
 10
61.7299468184
 20
119.7459434906
 10
61.646752301
 20
120.3219192374
 10
61.4822216942
 20
120.9028102591
 10
61.2400303399
 20
121.4756404101
 10
60.9255883928
 20
122.0276136116
 10
60.5459199663
 20
122.5463996942
 10
60.1095062258
 20
123.0204098342
 10
59.6260959329
 20
123.4390554283
 10
59.1064876749
 20
123.7929846258
 10
58.5622886416
 20
124.0742912331
 10
58.0056553402
 20
124.2766913256
  0
LWPOLYLINE
  5
F0
330
1F
100
AcDbEntity
  8
0
  6
Continuous
 62
     7
370
    25
100
AcDbPolyline
 90
       14
 70
   128
 43
0.0
 10
90.0488798565
 20
125.3632405005
 10
90.0879359155
 20
125.2965423673
 10
90.4533390309
 20
124.5754149708
 10
90.7212066011
 20
123.843659327
 10
90.8903327694
 20
123.104569572
 10
90.9599561826
 20
122.3614728581
 10
90.9297634177
 20
121.6177143756
 10
90.7998903931
 20
120.8766422937
 10
90.5709217567
 20
120.1415926886
 10
90.2438882542
 20
119.4158745249
 10
89.8202620887
 20
118.70275476
 10
89.3019502933
 20
118.0054436373
 10
88.6912861467
 20
117.3270802346
 10
87.9910186687
 20
116.670718333
  0
LWPOLYLINE
  5
F1
330
1F
100
AcDbEntity
  8
0
  6
Continuous
 62
     7
370
    25
100
AcDbPolyline
 90
       16
 70
   128
 43
0.0
 10
87.9910186687
 20
116.670718333
 10
87.2043002459
 20
116.0393126695
 10
86.3346724398
 20
115.435705636
 10
85.3860500443
 20
114.8626144838
 10
84.3627034624
 20
114.3226190908
 10
83.2692394821
 20
113.8181503484
 10
82.1105805381
 20
113.351479218
 10
80.8919425526
 20
112.9247065078
 10
79.6188114547
 20
112.5397534158
 10
78.2969184847
 20
112.1983528811
 10
76.9322143936
 20
111.9020417827
 10
75.5308426546
 20
111.6521540211
 10
74.0991118075
 20
111.4498145131
 10
72.6434670592
 20
111.2959341284
 10
71.1704612696
 20
111.1912055886
 10
69.6867254526
 20
111.1361003489
  0
ARC
  5
F2
330
1F
100
AcDbEntity
  8
0
  6
Continuous
 62
     7
370
    25
100
AcDbCircle
 10
69.6661375206
 20
110.4593050405
 30
0.0
 40
0.6771083756726504
100
AcDbArc
 50
88.2576150431
 51
125.3895749822
  0
LINE
  5
F3
330
1F
100
AcDbEntity
  8
0
  6
Continuous
 62
     7
370
    25
100
AcDbLine
 10
69.2740018176
 20
111.0113062568
 30
0.0
 11
68.8544506588
 21
110.6479642951
 31
0.0
  0
ARC
  5
F4
330
1F
100
AcDbEntity
  8
0
  6
Continuous
 62
     7
370
    25
100
AcDbCircle
 10
67.9772665517
 20
112.0057730433
 30
0.0
 40
1.616507517561835
100
AcDbArc
 50
252.3978397297
 51
302.8636406952
  0
LINE
  5
F5
330
1F
100
AcDbEntity
  8
0
  6
Continuous
 62
     7
370
    25
100
AcDbLine
 10
67.488425255
 20
110.4649515932
 30
0.0
 11
49.0853854246
 21
115.7774515932
 31
0.0
  0
LWPOLYLINE
  5
F6
330
1F
100
AcDbEntity
  8
0
  6
Continuous
 62
     7
370
    25
100
AcDbPolyline
 90
        9
 70
   128
 43
0.0
 10
49.0853854246
 20
115.7774515932
 10
48.9260396095
 20
115.8345443914
 10
48.7920320843
 20
115.9060835806
 10
48.6885126831
 20
115.98931995
 10
48.6194595983
 20
116.0810547726
 10
48.5875265014
 20
116.1777627305
 10
48.5939405632
 20
116.2757273912
 10
48.6384552951
 20
116.3711840277
 10
48.7193600208
 20
116.4604642951
  0
LINE
  5
F7
330
1F
100
AcDbEntity
  8
0
  6
Continuous
 62
     7
370
    25
100
AcDbLine
 10
48.7193600208
 20
116.4604642951
 30
0.0
 11
49.1389111796
 21
116.8238062568
 31
0.0
  0
ARC
  5
F8
330
1F
100
AcDbEntity
  8
0
  6
Continuous
 62
     7
370
    25
100
AcDbCircle
 10
49.0534873088
 20
116.9480285063
 30
0.0
 40
0.1507594274331997
100
AcDbArc
 50
304.5151229138
 51
50.8356025919
  0
LWPOLYLINE
  5
F9
330
1F
100
AcDbEntity
  8
0
  6
Continuous
 62
     7
370
    25
100
AcDbPolyline
 90
       13
 70
   128
 43
0.0
 10
49.14869907
 20
117.0649178792
 10
48.5022762364
 20
117.734946954
 10
47.9471684936
 20
118.4251414408
 10
47.4858747641
 20
119.1323942986
 10
47.1204716487
 20
119.8535216951
 10
46.8526040785
 20
120.585277339
 10
46.6834779102
 20
121.3243670939
 10
46.613854497
 20
122.0674638078
 10
46.6440472619
 20
122.8112222904
 10
46.7739202865
 20
123.5522943722
 10
47.0028889229
 20
124.2873439773
 10
47.3299224254
 20
125.0130621411
 10
47.5249308231
 20
125.3632405005
  0
LINE
  5
FA
330
1F
100
AcDbEntity
  8
0
  6
Continuous
 62
     7
370
    25
100
AcDbLine
 10
62.6629177769
 20
122.2883667273
 30
0.0
 11
63.3077036179
 21
121.8165697587
 31
0.0
  0
ARC
  5
FB
330
1F
100
AcDbEntity
  8
0
  6
Continuous
 62
     7
370
    25
100
AcDbCircle
 10
56.0514524661
 20
118.4954487157
 30
0.0
 40
7.980164519647061
100
AcDbArc
 50
16.0132363955
 51
24.5931447266
  0
LINE
  5
FC
330
1F
100
AcDbEntity
  8
0
  6
Continuous
 62
     7
370
    25
100
AcDbLine
 10
63.7219705855
 20
120.6968522546
 30
0.0
 11
63.468032622
 21
120.1122309126
 31
0.0
  0
LINE
  5
FD
330
1F
100
AcDbEntity
  8
0
  6
Continuous
 62
     7
370
    25
100
AcDbLine
 10
64.9461317082
 20
121.5916135536
 30
0.0
 11
63.7219705855
 21
120.6968522546
 31
0.0
  0
LINE
  5
FE
330
1F
100
AcDbEntity
  8
0
  6
Continuous
 62
     7
370
    25
100
AcDbLine
 10
63.3077036179
 20
121.8165697587
 30
0.0
 11
64.5119948139
 21
122.8516276324
 31
0.0
  0
LINE
  5
FF
330
1F
100
AcDbEntity
  8
0
  6
Continuous
 62
     7
370
    25
100
AcDbLine
 10
58.0056553398
 20
116.8072222181
 30
0.0
 11
59.5115062938
 21
118.1113273986
 31
0.0
  0
ELLIPSE
  5
100
330
1F
100
AcDbEntity
  8
0
  6
Continuous
 62
     7
370
    25
100
AcDbEllipse
 10
59.5868139597
 20
121.9112803042
 30
0.0
 11
-2.702279771492279
 21
3.36239174489755
 31
0.0
210
0.0
220
0.0
230
1.0
 40
0.7670340102
 41
2.312710471008038
 42
2.854424283988011
  0
ARC
  5
101
330
1F
100
AcDbEntity
  8
0
  6
Continuous
 62
     7
370
    25
100
AcDbCircle
 10
56.4996260107
 20
121.8526130166
 30
0.0
 40
4.488548384259301
100
AcDbArc
 50
84.5509243576
 51
109.7598543679
  0
SPLINE
  5
102
330
1F
100
AcDbEntity
  8
0
  6
Continuous
 62
     7
370
    25
100
AcDbSpline
210
0.0
220
0.0
230
1.0
 70
     8
 71
     3
 72
     9
 73
     5
 74
     0
 42
0.00000001
 43
0.00000001
 40
0.0
 40
0.0
 40
0.0
 40
0.0
 40
0.5599999917166889
 40
1.0
 40
1.0
 40
1.0
 40
1.0
 10
56.92586309382464
 20
126.3208776178651
 30
0.0
 10
57.15641347947665
 20
126.5275461344845
 30
0.0
 10
57.56811060280208
 20
126.896597062478
 30
0.0
 10
57.98053252984878
 20
127.2651493931697
 30
0.0
 10
58.16199818116554
 20
127.4273124217268
 30
0.0
  0
LINE
  5
103
330
1F
100
AcDbEntity
  8
0
  6
Continuous
 62
     7
370
    25
100
AcDbLine
 10
69.6867254526
 20
108.9710368394
 30
0.0
 11
69.6867254526
 21
111.1361003489
 31
0.0
  0
LINE
  5
104
330
1F
100
AcDbEntity
  8
0
  6
Continuous
 62
     7
370
    25
100
AcDbLine
 10
87.9910186687
 20
116.670718333
 30
0.0
 11
87.9910186687
 21
114.5056548235
 31
0.0
  0
LWPOLYLINE
  5
105
330
1F
100
AcDbEntity
  8
0
  6
Continuous
 62
     7
370
    25
100
AcDbPolyline
 90
       16
 70
   128
 43
0.0
 10
69.6867254526
 20
108.9710368394
 10
71.1704612696
 20
109.0261420791
 10
72.6434670592
 20
109.130870619
 10
74.0991118075
 20
109.2847510037
 10
75.5308426546
 20
109.4870905116
 10
76.9322143936
 20
109.7369782733
 10
78.2969184847
 20
110.0332893716
 10
79.6188114547
 20
110.3746899063
 10
80.8919425526
 20
110.7596429983
 10
82.1105805381
 20
111.1864157085
 10
83.2692394821
 20
111.653086839
 10
84.3627034624
 20
112.1575555813
 10
85.3860500443
 20
112.6975509743
 10
86.3346724398
 20
113.2706421266
 10
87.2043002459
 20
113.87424916
 10
87.9910186687
 20
114.5056548235
  0
LINE
  5
106
330
1F
100
AcDbEntity
  8
0
  6
Continuous
 62
     7
370
    25
100
AcDbLine
 10
56.267936176
 20
126.7647427229
 30
0.0
 11
56.9258630938
 21
126.3208776179
 31
0.0
  0
LINE
  5
107
330
1F
100
AcDbEntity
  8
0
  6
Continuous
 62
     7
370
    25
100
AcDbLine
 10
57.4404655075
 20
127.9235665713
 30
0.0
 11
56.267936176
 21
126.7647427229
 31
0.0
  0
LWPOLYLINE
  5
108
330
1F
100
AcDbEntity
  8
0
  6
Continuous
 62
     7
370
    25
100
AcDbPolyline
 90
       22
 70
   128
 43
0.0
 10
58.0056553402
 20
124.2766913256
 10
57.4490220387
 20
124.3956636197
 10
56.9048230053
 20
124.4285504708
 10
56.3852147473
 20
124.3746172411
 10
55.9018044543
 20
124.2350687098
 10
55.4653907137
 20
124.0130221604
 10
55.0857222871
 20
123.7134377461
 10
54.7712803399
 20
123.3430076875
 10
54.5290889856
 20
122.91000678
 10
54.3645583787
 20
122.4241075484
 10
54.2813638613
 20
121.8961641787
 10
54.2813638613
 20
121.3379700532
 10
54.3645583787
 20
120.7619943064
 10
54.5290889854
 20
120.1811032847
 10
54.7712803397
 20
119.6082731336
 10
55.0857222869
 20
119.0562999321
 10
55.4653907134
 20
118.5375138494
 10
55.901804454
 20
118.0635037094
 10
56.3852147469
 20
117.6448581153
 10
56.904823005
 20
117.2909289179
 10
57.4490220383
 20
117.0096223106
 10
58.0056553398
 20
116.8072222181
  0
LINE
  5
109
330
1F
100
AcDbEntity
  8
0
  6
Continuous
 62
     7
370
    25
100
AcDbLine
 10
54.9821439154
 20
126.0768661682
 30
0.0
 11
55.2678072445
 21
126.6391881093
 31
0.0
  0
ARC
  5
10A
330
1F
100
AcDbEntity
  8
0
  6
Continuous
 62
     7
370
    25
100
AcDbCircle
 10
56.3636872527
 20
121.9558844509
 30
0.0
 40
4.80981144629068
100
AcDbArc
 50
91.1406881687
 51
103.1700905568
  0
LINE
  5
10B
330
1F
100
AcDbEntity
  8
0
  6
Continuous
 62
     7
370
    25
100
AcDbLine
 10
55.2678072445
 20
126.6391881093
 30
0.0
 11
56.317143036
 21
127.7744648767
 31
0.0
  0
LINE
  5
10C
330
1F
100
AcDbEntity
  8
0
  6
Continuous
 62
     7
370
    25
100
AcDbLine
 10
63.7219705855
 20
117.158913927
 30
0.0
 11
64.8658867204
 21
118.0041589657
 31
0.0
  0
LINE
  5
10D
330
1F
100
AcDbEntity
  8
0
  6
Continuous
 62
     7
370
    25
100
AcDbLine
 10
63.468032622
 20
117.8901464206
 30
0.0
 11
63.7219705855
 21
117.158913927
 31
0.0
  0
ELLIPSE
  5
10E
330
1F
100
AcDbEntity
  8
0
  6
Continuous
 62
     7
370
    25
100
AcDbEllipse
 10
59.5868139597
 20
121.9112803042
 30
0.0
 11
-2.702279771492279
 21
3.36239174489755
 31
0.0
210
0.0
220
0.0
230
1.0
 40
0.7670340102
 41
0.3634768067910474
 42
2.312710471008038
  0
ARC
  5
10F
330
1F
100
AcDbEntity
  8
0
  6
Continuous
 62
     7
370
    25
100
AcDbCircle
 10
59.6214378269
 20
118.5503675235
 30
0.0
 40
4.330186140967909
100
AcDbArc
 50
328.3528008099
 51
341.2561358504
  0
LINE
  5
110
330
1F
100
AcDbEntity
  8
0
  6
Continuous
 62
     7
370
    25
100
AcDbLine
 10
63.3077036179
 20
116.2783735681
 30
0.0
 11
62.6629177768
 21
116.1788438785
 31
0.0
  0
LINE
  5
111
330
1F
100
AcDbEntity
  8
0
  6
Continuous
 62
     7
370
    25
100
AcDbLine
 10
64.3862901449
 20
117.0193670113
 30
0.0
 11
63.3077036179
 21
116.2783735681
 31
0.0
  0
LINE
  5
112
330
1F
100
AcDbEntity
  8
0
  6
Continuous
 62
     7
370
    25
100
AcDbLine
 10
67.488425255
 20
108.2998880838
 30
0.0
 11
67.488425255
 21
110.4649515932
 31
0.0
  0
LINE
  5
113
330
1F
100
AcDbEntity
  8
0
  6
Continuous
 62
     7
370
    25
100
AcDbLine
 10
68.8544506588
 20
110.6479642951
 30
0.0
 11
68.8544506588
 21
108.4829007857
 31
0.0
  0
ARC
  5
114
330
1F
100
AcDbEntity
  8
0
  6
Continuous
 62
     7
370
    25
100
AcDbCircle
 10
67.9772665517
 20
109.8407095338
 30
0.0
 40
1.616507517561862
100
AcDbArc
 50
252.3978397297
 51
302.8636406952
  0
LINE
  5
115
330
1F
100
AcDbEntity
  8
0
  6
Continuous
 62
     7
370
    25
100
AcDbLine
 10
49.0853854246
 20
115.7774515932
 30
0.0
 11
49.0853854246
 21
113.6123880838
 31
0.0
  0
LINE
  5
116
330
1F
100
AcDbEntity
  8
0
  6
Continuous
 62
     7
370
    25
100
AcDbLine
 10
49.0853854246
 20
113.6123880838
 30
0.0
 11
67.488425255
 21
108.2998880838
 31
0.0
  0
LINE
  5
117
330
1F
100
AcDbEntity
  8
0
  6
Continuous
 62
     7
370
    25
100
AcDbLine
 10
52.7661070617
 20
124.8596665634
 30
0.0
 11
53.3847083132
 21
124.9551543776
 31
0.0
  0
LINE
  5
118
330
1F
100
AcDbEntity
  8
0
  6
Continuous
 62
     7
370
    25
100
AcDbLine
 10
53.7768693382
 20
125.9505914239
 30
0.0
 11
52.7661070617
 21
124.8596665634
 31
0.0
  0
LINE
  5
119
330
1F
100
AcDbEntity
  8
0
  6
Continuous
 62
     7
370
    25
100
AcDbLine
 10
69.2740018176
 20
108.8462427473
 30
0.0
 11
69.2740018176
 21
111.0113062568
 31
0.0
  0
LINE
  5
11A
330
1F
100
AcDbEntity
  8
0
  6
Continuous
 62
     7
370
    25
100
AcDbLine
 10
68.8544506588
 20
108.4829007857
 30
0.0
 11
69.2740018176
 21
108.8462427473
 31
0.0
  0
LINE
  5
11B
330
1F
100
AcDbEntity
  8
0
  6
Continuous
 62
     7
370
    25
100
AcDbLine
 10
52.5142356358
 20
123.5114966494
 30
0.0
 11
52.3518400941
 21
123.9791262046
 31
0.0
  0
ARC
  5
11C
330
1F
100
AcDbEntity
  8
0
  6
Continuous
 62
     7
370
    25
100
AcDbCircle
 10
56.4523728527
 20
122.5876726081
 30
0.0
 40
4.330186140969838
100
AcDbArc
 50
148.3528008099
 51
161.2561358504
  0
ARC
  5
11D
330
1F
100
AcDbEntity
  8
0
  6
Continuous
 62
     7
370
    25
100
AcDbCircle
 10
69.6661375206
 20
108.294241531
 30
0.0
 40
0.6771083756651273
100
AcDbArc
 50
88.2576150435
 51
125.3895749829
  0
LINE
  5
11E
330
1F
100
AcDbEntity
  8
0
  6
Continuous
 62
     7
370
    25
100
AcDbLine
 10
60.8060034351
 20
114.4988520223
 30
0.0
 11
61.8359602031
 21
115.2065764416
 31
0.0
  0
LINE
  5
11F
330
1F
100
AcDbEntity
  8
0
  6
Continuous
 62
     7
370
    25
100
AcDbLine
 10
61.0355889695
 20
114.9507860657
 30
0.0
 11
60.8060034351
 21
114.4988520223
 31
0.0
  0
ARC
  5
120
330
1F
100
AcDbEntity
  8
0
  6
Continuous
 62
     7
370
    25
100
AcDbCircle
 10
59.7101234269
 20
119.1821556807
 30
0.0
 40
4.809811446288009
100
AcDbArc
 50
271.1406881687
 51
283.1700905569
  0
LINE
  5
121
330
1F
100
AcDbEntity
  8
0
  6
Continuous
 62
     7
370
    25
100
AcDbLine
 10
59.8058745036
 20
114.3732974087
 30
0.0
 11
59.4577275026
 21
114.6081719836
 31
0.0
  0
LINE
  5
122
330
1F
100
AcDbEntity
  8
0
  6
Continuous
 62
     7
370
    25
100
AcDbLine
 10
52.8803451515
 20
119.2378810924
 30
0.0
 11
52.7661070617
 21
119.3214703729
 31
0.0
  0
ARC
  5
123
330
1F
100
AcDbEntity
  8
0
  6
Continuous
 62
     7
370
    25
100
AcDbCircle
 10
60.0223582136
 20
122.6425914159
 30
0.0
 40
7.980164519711349
100
AcDbArc
 50
196.0132363956
 51
204.5931447265
  0
LINE
  5
124
330
1F
100
AcDbEntity
  8
0
  6
Continuous
 62
     7
370
    25
100
AcDbLine
 10
52.3518400941
 20
120.441187877
 30
0.0
 11
52.4213063902
 21
120.6011146508
 31
0.0
  0
LINE
  5
125
330
1F
100
AcDbEntity
  8
0
  6
Continuous
 62
     7
370
    25
100
AcDbLine
 10
56.4023965282
 20
115.4076941065
 30
0.0
 11
56.267936176
 21
115.3946122316
 31
0.0
  0
ARC
  5
126
330
1F
100
AcDbEntity
  8
0
  6
Continuous
 62
     7
370
    25
100
AcDbCircle
 10
60.6811940562
 20
122.7362873472
 30
0.0
 40
8.566039844693103
100
AcDbArc
 50
230.8051904306
 51
238.9889092694
  0
LINE
  5
127
330
1F
100
AcDbEntity
  8
0
  6
Continuous
 62
     7
370
    25
100
AcDbLine
 10
55.2678072445
 20
116.097591553
 30
0.0
 11
55.227890721
 21
116.1992121618
 31
0.0
  0
LINE
  5
128
330
1F
100
AcDbEntity
  8
0
  6
Continuous
 62
     7
370
    25
100
AcDbLine
 10
52.9942015481
 20
162.1211582369
 30
0.0
 11
52.9942012472
 21
162.5282093493
 31
0.0
  0
LINE
  5
129
330
1F
100
AcDbEntity
  8
0
  6
Continuous
 62
     7
370
    25
100
AcDbLine
 10
52.9942012472
 20
162.5282093493
 30
0.0
 11
53.9800762811
 21
163.4185318547
 31
0.0
  0
LINE
  5
12A
330
1F
100
AcDbEntity
  8
0
  6
Continuous
 62
     7
370
    25
100
AcDbLine
 10
48.4544260712
 20
158.9868886311
 30
0.0
 11
48.2334948634
 21
142.9074561657
 31
0.0
  0
LINE
  5
12B
330
1F
100
AcDbEntity
  8
0
  6
Continuous
 62
     7
370
    25
100
AcDbLine
 10
50.8536038644
 20
161.32846314
 30
0.0
 11
50.8509546777
 21
161.0820392764
 31
0.0
  0
LWPOLYLINE
  5
12C
330
1F
100
AcDbEntity
  8
0
  6
Continuous
 62
     7
370
    25
100
AcDbPolyline
 90
        7
 70
   128
 43
0.0
 10
48.5853854246
 20
114.0454007857
 10
48.5875265014
 20
114.012699221
 10
48.6194595983
 20
113.9159912631
 10
48.6885126831
 20
113.8242564405
 10
48.7920320843
 20
113.7410200712
 10
48.9260396095
 20
113.6694808819
 10
49.0853854246
 20
113.6123880838
  0
ARC
  5
12D
330
1F
100
AcDbEntity
  8
0
  6
Continuous
 62
     7
370
    25
100
AcDbCircle
 10
83.4862525283
 20
120.4876734067
 30
0.0
 40
7.488488786722993
100
AcDbArc
 50
306.9816184369
 51
356.644810699
  0
ARC
  5
12E
330
1F
100
AcDbEntity
  8
0
  6
Continuous
 62
     7
370
    25
100
AcDbCircle
 10
53.4874103036
 20
120.3047838605
 30
0.0
 40
6.880246140908518
100
AcDbArc
 50
182.1271772294
 51
224.563098135
  0
LWPOLYLINE
  5
12F
330
1F
100
AcDbEntity
  8
0
  6
Continuous
 62
     7
370
    25
100
AcDbPolyline
 90
       14
 70
   128
 43
0.0
 10
65.2869053398
 20
176.8606713118
 10
64.5817094901
 20
177.0937105531
 10
63.9378348652
 20
177.3675516593
 10
63.364670607
 20
177.6782014104
 10
62.870574741
 20
178.0211298336
 10
62.4627522975
 20
178.3913362601
 10
62.1471502462
 20
178.7834222467
 10
61.9283707755
 20
179.1916702968
 10
61.8096041829
 20
179.6101272345
 10
61.7925823526
 20
180.0326910154
 10
61.8775535013
 20
180.453199708
 10
62.0632785584
 20
180.8655213487
 10
62.3470492342
 20
181.2636433595
 10
62.7247275133
 20
181.641760225
  0
LWPOLYLINE
  5
130
330
1F
100
AcDbEntity
  8
0
  6
Continuous
 62
     7
370
    25
100
AcDbPolyline
 90
       14
 70
   128
 43
0.0
 10
74.8490831663
 20
178.141760225
 10
74.3830046836
 20
177.7891623002
 10
73.8353224712
 20
177.4672249877
 10
73.214022969
 20
177.1806428586
 10
72.5281661227
 20
176.9335949256
 10
71.7877532696
 20
176.7296837039
 10
71.0035812964
 20
176.5718826782
 10
70.1870851962
 20
176.4624929429
 10
69.3501713208
 20
176.4031096466
 10
68.505043759
 20
176.3945987314
 10
67.6640263738
 20
176.4370843058
 10
66.8393830924
 20
176.5299468343
 10
66.0431390708
 20
176.6718321722
 10
65.2869053398
 20
176.8606713118
  0
ARC
  5
131
330
1F
100
AcDbEntity
  8
0
  6
Continuous
 62
     7
370
    25
100
AcDbCircle
 10
63.7744078408
 20
179.790787471
 30
0.0
 40
2.117541845539839
100
AcDbArc
 50
123.8522729151
 51
219.5946564093
  0
LINE
  5
132
330
1F
100
AcDbEntity
  8
0
  6
Continuous
 62
     7
370
    25
100
AcDbLine
 10
62.7247275133
 20
181.641760225
 30
0.0
 11
62.5948237027
 21
181.5493564145
 31
0.0
  0
LWPOLYLINE
  5
133
330
1F
100
AcDbEntity
  8
0
  6
Continuous
 62
     7
370
    25
100
AcDbPolyline
 90
       14
 70
   128
 43
0.0
 10
62.7247275133
 20
181.641760225
 10
63.190805996
 20
181.9943581499
 10
63.7384882084
 20
182.3162954623
 10
64.3597877106
 20
182.6028775914
 10
65.0456445569
 20
182.8499255244
 10
65.78605741
 20
183.0538367462
 10
66.5702293832
 20
183.2116377718
 10
67.3867254834
 20
183.3210275072
 10
68.2236393588
 20
183.3804108035
 10
69.0687669206
 20
183.3889217186
 10
69.9097843058
 20
183.3464361443
 10
70.7344275872
 20
183.2535736157
 10
71.5306716088
 20
183.1116882778
 10
72.2869053398
 20
182.9228491383
  0
LWPOLYLINE
  5
134
330
1F
100
AcDbEntity
  8
0
  6
Continuous
 62
     7
370
    25
100
AcDbPolyline
 90
       14
 70
   128
 43
0.0
 10
72.2869053398
 20
182.9228491383
 10
72.9921011895
 20
182.6898098969
 10
73.6359758144
 20
182.4159687907
 10
74.2091400726
 20
182.1053190396
 10
74.7032359386
 20
181.7623906165
 10
75.1110583821
 20
181.3921841899
 10
75.4266604334
 20
181.0000982033
 10
75.6454399041
 20
180.5918501532
 10
75.7642064967
 20
180.1733932155
 10
75.781228327
 20
179.7508294346
 10
75.6962571783
 20
179.330320742
 10
75.5105321212
 20
178.9179991013
 10
75.2267614454
 20
178.5198770905
 10
74.8490831663
 20
178.141760225
  0
LINE
  5
135
330
1F
100
AcDbEntity
  8
0
  6
Continuous
 62
     7
370
    25
100
AcDbLine
 10
62.5948237027
 20
181.5493564145
 30
0.0
 11
62.9489547862
 21
181.8258836268
 31
0.0
  0
LWPOLYLINE
  5
136
330
1F
100
AcDbEntity
  8
0
  6
Continuous
 62
     7
370
    25
100
AcDbPolyline
 90
       10
 70
   128
 43
0.0
 10
74.6248558934
 20
181.8258836268
 10
74.8300144513
 20
181.6725717429
 10
75.2465759472
 20
181.2944323216
 10
75.5689408996
 20
180.8939444924
 10
75.7924085018
 20
180.4769482699
 10
75.9137200929
 20
180.0495243978
 10
75.9311066768
 20
179.6179056788
 10
75.8443147177
 20
179.1883860856
 10
75.6546098381
 20
178.7672289812
 10
75.4311227505
 20
178.4411676737
  0
LWPOLYLINE
  5
137
330
1F
100
AcDbEntity
  8
0
  6
Continuous
 62
     7
370
    25
100
AcDbPolyline
 90
       22
 70
   128
 43
0.0
 10
83.6175903796
 20
174.7444848212
 10
82.93624435
 20
174.2023068241
 10
82.1757694771
 20
173.6871033928
 10
81.3404186449
 20
173.2017557541
 10
80.4348634741
 20
172.7489781687
 10
79.4641681966
 20
172.3313027526
 10
78.4337613341
 20
171.9510653162
 10
77.3494053398
 20
171.6103923013
 10
76.2171643722
 20
171.3111888898
 10
75.0433703821
 20
171.0551283485
 10
73.8345877016
 20
170.8436426717
 10
72.5975763338
 20
170.6779145732
 10
71.3392541481
 20
170.5588708717
 10
70.0666581925
 20
170.4871773079
 10
68.7869053398
 20
170.4632348212
 10
67.5071524871
 20
170.4871773079
 10
66.2345565315
 20
170.5588708717
 10
64.9762343458
 20
170.6779145732
 10
63.739222978
 20
170.8436426717
 10
62.5304402975
 20
171.0551283485
 10
61.3566463074
 20
171.3111888898
 10
60.2244053398
 20
171.6103923013
  0
LWPOLYLINE
  5
138
330
1F
100
AcDbEntity
  8
0
  6
Continuous
 62
     7
370
    25
100
AcDbPolyline
 90
       22
 70
   128
 43
0.0
 10
60.2244053398
 20
171.6103923013
 10
59.1400493455
 20
171.9510653162
 10
58.109642483
 20
172.3313027526
 10
57.1389472055
 20
172.7489781687
 10
56.2333920347
 20
173.2017557541
 10
55.3980412025
 20
173.6871033928
 10
54.6375663296
 20
174.2023068241
 10
53.9562203
 20
174.7444848213
 10
53.3578134769
 20
175.3106053051
 10
52.8456923942
 20
175.8975023002
 10
52.4227210407
 20
176.5018936404
 10
52.0912648437
 20
177.1203993243
 10
51.8531774407
 20
177.7495604172
 10
51.7097903131
 20
178.385858395
 10
51.6619053398
 20
179.0257348213
 10
51.7097903131
 20
179.6656112477
 10
51.8531774407
 20
180.3019092255
 10
52.0912648437
 20
180.9310703183
 10
52.4227210408
 20
181.5495760022
 10
52.8456923944
 20
182.1539673425
 10
53.3578134771
 20
182.7408643375
 10
53.9562203001
 20
183.3069848213
  0
LINE
  5
139
330
1F
100
AcDbEntity
  8
0
  6
Continuous
 62
     7
370
    25
100
AcDbLine
 10
54.8222457038
 20
183.923010225
 30
0.0
 11
53.9562203001
 21
183.3069848213
 31
0.0
  0
LWPOLYLINE
  5
13A
330
1F
100
AcDbEntity
  8
0
  6
Continuous
 62
     7
370
    25
100
AcDbPolyline
 90
       21
 70
   128
 43
0.0
 10
60.7244053398
 20
172.909430407
 10
59.6536047694
 20
173.2472428293
 10
58.6391140341
 20
173.6260209108
 10
57.6871878067
 20
174.0434293587
 10
56.803695029
 20
174.4968947113
 10
55.9940827276
 20
174.9836212036
 10
55.2633424317
 20
175.5006080052
 10
54.6159793981
 20
176.0446677204
 10
54.0559848353
 20
176.6124460402
 10
53.5868112959
 20
177.2004424225
 10
53.2113513909
 20
177.8050316739
 10
52.9319199553
 20
178.4224863007
 10
52.750239777
 20
179.0489994899
 10
52.6674309746
 20
179.6807085793
 10
52.6840040919
 20
180.3137188722
 10
52.7998569502
 20
180.9441276498
 10
53.014275278
 20
181.5680482322
 10
53.3259371151
 20
182.1816339417
 10
53.7329209625
 20
182.7811018182
 10
54.2327176297
 20
183.362755943
 10
54.8222457038
 20
183.923010225
  0
LWPOLYLINE
  5
13B
330
1F
100
AcDbEntity
  8
0
  6
Continuous
 62
     7
370
    25
100
AcDbPolyline
 90
       21
 70
   128
 43
0.0
 10
82.7515649758
 20
175.860510225
 10
82.0759401313
 20
175.3251099398
 10
81.3183839683
 20
174.8178645722
 10
80.4835670724
 20
174.3419014585
 10
79.5766363673
 20
173.9001550696
 10
78.6031833826
 20
173.4953489189
 10
77.5692097794
 20
173.129978771
 10
76.481090349
 20
172.8062972542
 10
75.3455337094
 20
172.5262999728
 10
74.169540945
 20
172.2917132031
 10
72.9603624421
 20
172.1039832506
 10
71.7254531884
 20
171.9642675328
 10
70.47242681
 20
171.8734274436
 10
69.2090086313
 20
171.8320230424
 10
67.9429880454
 20
171.8403096011
 10
66.6821704903
 20
171.8982360302
 10
65.4343293254
 20
172.0054451941
 10
64.2071579065
 20
172.1612761126
 10
63.0082221534
 20
172.3647680364
 10
61.8449139038
 20
172.61466637
 10
60.7244053398
 20
172.909430407
  0
LINE
  5
13C
330
1F
100
AcDbEntity
  8
0
  6
Continuous
 62
     7
370
    25
100
AcDbLine
 10
82.7515649758
 20
175.860510225
 30
0.0
 11
83.6175903796
 21
174.7444848212
 31
0.0
  0
LINE
  5
13D
330
1F
100
AcDbEntity
  8
0
  6
Continuous
 62
     7
370
    25
100
AcDbLine
 10
83.6175903796
 20
174.3114721193
 30
0.0
 11
83.6175903796
 21
174.7444848212
 31
0.0
  0
LWPOLYLINE
  5
13E
330
1F
100
AcDbEntity
  8
0
  6
Continuous
 62
     7
370
    25
100
AcDbPolyline
 90
       36
 70
   128
 43
0.0
 10
51.6619053398
 20
178.5927221193
 10
51.7097903131
 20
177.952845693
 10
51.8531774407
 20
177.3165477152
 10
52.0912648437
 20
176.6873866223
 10
52.4227210407
 20
176.0688809385
 10
52.8456923943
 20
175.4644895982
 10
53.357813477
 20
174.8775926032
 10
53.9562203
 20
174.3114721193
 10
54.6375663296
 20
173.7692941222
 10
55.3980412025
 20
173.2540906909
 10
56.2333920347
 20
172.7687430522
 10
57.1389472055
 20
172.3159654668
 10
58.109642483
 20
171.8982900507
 10
59.1400493455
 20
171.5180526143
 10
60.2244053398
 20
171.1773795994
 10
61.3566463074
 20
170.8781761879
 10
62.5304402975
 20
170.6221156466
 10
63.739222978
 20
170.4106299698
 10
64.9762343458
 20
170.2449018713
 10
66.2345565315
 20
170.1258581698
 10
67.5071524871
 20
170.054164606
 10
68.7869053398
 20
170.0302221193
 10
70.0666581925
 20
170.054164606
 10
71.3392541481
 20
170.1258581698
 10
72.5975763338
 20
170.2449018713
 10
73.8345877016
 20
170.4106299698
 10
75.0433703821
 20
170.6221156466
 10
76.2171643722
 20
170.8781761879
 10
77.3494053398
 20
171.1773795994
 10
78.4337613341
 20
171.5180526143
 10
79.4641681966
 20
171.8982900507
 10
80.4348634741
 20
172.3159654668
 10
81.3404186449
 20
172.7687430522
 10
82.1757694771
 20
173.2540906909
 10
82.93624435
 20
173.7692941222
 10
83.6175903796
 20
174.3114721193
  0
LWPOLYLINE
  5
13F
330
1F
100
AcDbEntity
  8
0
  6
Continuous
 62
     7
370
    25
100
AcDbPolyline
 90
       21
 70
   128
 43
0.0
 10
54.8222457038
 20
183.923010225
 10
55.4978705483
 20
184.4584105102
 10
56.2554267113
 20
184.9656558779
 10
57.0902436072
 20
185.4416189916
 10
57.9971743123
 20
185.8833653804
 10
58.970627297
 20
186.2881715311
 10
60.0046009002
 20
186.6535416791
 10
61.0927203306
 20
186.9772231959
 10
62.2282769702
 20
187.2572204773
 10
63.4042697347
 20
187.491807247
 10
64.6134482375
 20
187.6795371995
 10
65.8483574912
 20
187.8192529173
 10
67.1013838696
 20
187.9100930064
 10
68.3648020483
 20
187.9514974076
 10
69.6308226342
 20
187.943210849
 10
70.8916401894
 20
187.8852844199
 10
72.1394813542
 20
187.7780752559
 10
73.3666527732
 20
187.6222443374
 10
74.5655885262
 20
187.4187524137
 10
75.7288967758
 20
187.1688540801
 10
76.8494053398
 20
186.874090043
  0
LWPOLYLINE
  5
140
330
1F
100
AcDbEntity
  8
0
  6
Continuous
 62
     7
370
    25
100
AcDbPolyline
 90
       21
 70
   128
 43
0.0
 10
76.8494053398
 20
186.874090043
 10
77.9202059102
 20
186.5362776208
 10
78.9346966455
 20
186.1574995393
 10
79.8866228729
 20
185.7400910913
 10
80.7701156506
 20
185.2866257388
 10
81.579727952
 20
184.7998992464
 10
82.3104682479
 20
184.2829124448
 10
82.9578312815
 20
183.7388527296
 10
83.5178258443
 20
183.1710744098
 10
83.9869993837
 20
182.5830780276
 10
84.3624592887
 20
181.9784887762
 10
84.6418907243
 20
181.3610341493
 10
84.8235709026
 20
180.7345209601
 10
84.906379705
 20
180.1028118708
 10
84.8898065877
 20
179.4698015778
 10
84.7739537295
 20
178.8393928003
 10
84.5595354016
 20
178.2154722178
 10
84.2478735646
 20
177.6018865083
 10
83.8408897171
 20
177.0024186318
 10
83.3410930499
 20
176.420764507
 10
82.7515649758
 20
175.860510225
  0
LWPOLYLINE
  5
141
330
1F
100
AcDbEntity
  8
0
  6
Continuous
 62
     7
370
    25
100
AcDbPolyline
 90
       28
 70
   128
 43
0.0
 10
72.4119053398
 20
183.0311023137
 10
71.6584836436
 20
183.2202936125
 10
70.866228777
 20
183.3644722072
 10
70.0458546279
 20
183.4616883297
 10
69.2084553494
 20
183.5106272988
 10
68.3653553302
 20
183.5106272988
 10
67.5279560517
 20
183.4616883297
 10
66.7075819027
 20
183.3644722072
 10
65.915327036
 20
183.2202936125
 10
65.1619053398
 20
183.0311023137
 10
64.45750555
 20
182.7994567988
 10
63.8116534653
 20
182.5284896757
 10
63.2330831272
 20
182.2218653101
 10
62.7296187071
 20
181.8837302705
 10
62.3080686975
 20
181.5186572533
 10
61.9741338391
 20
181.1315832446
 10
61.7323300281
 20
180.7277427565
 10
61.5859272462
 20
180.3125970387
 10
61.5369053398
 20
179.891760225
 10
61.5859272462
 20
179.4709234113
 10
61.7323300281
 20
179.0557776936
 10
61.9741338391
 20
178.6519372055
 10
62.3080686975
 20
178.2648631968
 10
62.7296187071
 20
177.8997901795
 10
63.2330831272
 20
177.5616551399
 10
63.8116534653
 20
177.2550307743
 10
64.45750555
 20
176.9840636513
 10
65.1619053398
 20
176.7524181363
  0
LWPOLYLINE
  5
142
330
1F
100
AcDbEntity
  8
0
  6
Continuous
 62
     7
370
    25
100
AcDbPolyline
 90
       28
 70
   128
 43
0.0
 10
65.1619053398
 20
176.7524181363
 10
65.915327036
 20
176.5632268376
 10
66.7075819027
 20
176.4190482429
 10
67.5279560517
 20
176.3218321204
 10
68.3653553302
 20
176.2728931513
 10
69.2084553494
 20
176.2728931513
 10
70.0458546279
 20
176.3218321204
 10
70.866228777
 20
176.4190482429
 10
71.6584836436
 20
176.5632268376
 10
72.4119053398
 20
176.7524181363
 10
73.1163051297
 20
176.9840636513
 10
73.7621572144
 20
177.2550307743
 10
74.3407275524
 20
177.5616551399
 10
74.8441919725
 20
177.8997901795
 10
75.2657419822
 20
178.2648631968
 10
75.5996768405
 20
178.6519372055
 10
75.8414806515
 20
179.0557776936
 10
75.9878834334
 20
179.4709234113
 10
76.0369053398
 20
179.891760225
 10
75.9878834334
 20
180.3125970387
 10
75.8414806515
 20
180.7277427565
 10
75.5996768405
 20
181.1315832446
 10
75.2657419822
 20
181.5186572533
 10
74.8441919725
 20
181.8837302705
 10
74.3407275524
 20
182.2218653101
 10
73.7621572144
 20
182.5284896757
 10
73.1163051297
 20
182.7994567988
 10
72.4119053398
 20
183.0311023137
  0
LWPOLYLINE
  5
143
330
1F
100
AcDbEntity
  8
0
  6
Continuous
 62
     7
370
    25
100
AcDbPolyline
 90
        3
 70
   128
 43
0.0
 10
53.9562203001
 20
183.3069848213
 10
54.6375663298
 20
183.8491628185
 10
54.8044013914
 20
183.9692965012
  0
LWPOLYLINE
  5
144
330
1F
100
AcDbEntity
  8
0
  6
Continuous
 62
     7
370
    25
100
AcDbPolyline
 90
       17
 70
   128
 43
0.0
 10
82.7694092882
 20
183.9692965012
 10
82.93624435
 20
183.8491628184
 10
83.6175903796
 20
183.3069848212
 10
84.2159972026
 20
182.7408643374
 10
84.7281182853
 20
182.1539673424
 10
85.1510896389
 20
181.5495760021
 10
85.4825458359
 20
180.9310703182
 10
85.7206332389
 20
180.3019092254
 10
85.8640203665
 20
179.6656112476
 10
85.9119053398
 20
179.0257348212
 10
85.8640203665
 20
178.3858583949
 10
85.7206332389
 20
177.7495604171
 10
85.4825458359
 20
177.1203993242
 10
85.1510896389
 20
176.5018936403
 10
84.7281182853
 20
175.8975023001
 10
84.2159972026
 20
175.310605305
 10
83.6175903796
 20
174.7444848212
  0
ARC
  5
145
330
1F
100
AcDbEntity
  8
0
  6
Continuous
 62
     7
370
    25
100
AcDbCircle
 10
80.2219765123
 20
178.8865609472
 30
0.0
 40
5.697510975757116
100
AcDbArc
 50
306.5826668639
 51
357.0437622721
  0
LINE
  5
146
330
1F
100
AcDbEntity
  8
0
  6
Continuous
 62
     8
370
    25
100
AcDbLine
 10
81.6167068153
 20
157.785076931
 30
0.0
 11
81.564026938
 21
172.8916084416
 31
0.0
  0
LINE
  5
147
330
1F
100
AcDbEntity
  8
0
  6
Continuous
 62
     8
370
    25
100
AcDbLine
 10
52.0241011632
 20
161.7787955072
 30
0.0
 11
52.9942014543
 21
162.2479631065
 31
0.0
  0
LINE
  5
148
330
1F
100
AcDbEntity
  8
0
  6
Continuous
 62
     8
370
    25
100
AcDbLine
 10
49.14869907
 20
117.0649178792
 30
0.0
 11
49.14869907
 21
116.8326946344
 31
0.0
  0
LINE
  5
149
330
1F
100
AcDbEntity
  8
0
  6
Continuous
 62
     8
370
    25
100
AcDbLine
 10
74.8490831663
 20
178.141760225
 30
0.0
 11
74.963843737
 21
177.993871132
 31
0.0
  0
LINE
  5
14A
330
1F
100
AcDbEntity
  8
0
  6
Continuous
 62
     8
370
    25
100
AcDbLine
 10
72.4119053398
 20
182.8858951168
 30
0.0
 11
72.4119053398
 21
183.0311023137
 31
0.0
  0
SPLINE
  5
14B
330
1F
100
AcDbEntity
  8
0
  6
Continuous
 62
     7
370
    25
100
AcDbSpline
210
0.0
220
0.0
230
1.0
 70
     8
 71
     3
 72
    13
 73
     9
 74
     0
 42
0.00000001
 43
0.00000001
 40
0.0
 40
0.0
 40
0.0
 40
0.0
 40
0.1029190385522022
 40
0.3155207753072817
 40
0.5331114679248369
 40
0.7547324276346261
 40
0.9788735376535784
 40
1.0
 40
1.0
 40
1.0
 40
1.0
 10
124.6027830723171
 20
171.5802928813519
 30
0.0
 10
124.6443196546053
 20
171.4998343432015
 30
0.0
 10
124.7716591131892
 20
171.2531711339993
 30
0.0
 10
125.0700206863028
 20
170.8642294738844
 30
0.0
 10
125.490216610046
 20
170.4118220582244
 30
0.0
 10
125.9993350222003
 20
169.9872858907583
 30
0.0
 10
126.3870110949859
 20
169.7014341193616
 30
0.0
 10
126.6217943378174
 20
169.5681356737361
 30
0.0
 10
126.6420177179056
 20
169.556653827338
 30
0.0
  0
SPLINE
  5
14C
330
1F
100
AcDbEntity
  8
0
  6
Continuous
 62
     7
370
    25
100
AcDbSpline
210
0.0
220
0.0
230
1.0
 70
     8
 71
     3
 72
    24
 73
    20
 74
     0
 42
0.00000001
 43
0.00000001
 40
0.0
 40
0.0
 40
0.0
 40
0.0
 40
0.0131176202500057
 40
0.0763609487718731
 40
0.1394890063102795
 40
0.2025326836990706
 40
0.2655228034643835
 40
0.3284896024582746
 40
0.3914629835158746
 40
0.4544631680024693
 40
0.5175209729266039
 40
0.5806686094465966
 40
0.6439399812286526
 40
0.7073703127744101
 40
0.7709942149918464
 40
0.8348405555665243
 40
0.8989211510995889
 40
0.9632085025086756
 40
1.0
 40
1.0
 40
1.0
 40
1.0
 10
130.156341495055
 20
168.1673656324787
 30
0.0
 10
130.2142071438208
 20
168.1522877707575
 30
0.0
 10
130.5510575600428
 20
168.0645157660388
 30
0.0
 10
131.2014218385715
 20
167.944214102502
 30
0.0
 10
132.0996924205896
 20
167.8100488253416
 30
0.0
 10
133.0194654110609
 20
167.7227276994539
 30
0.0
 10
133.9493906639097
 20
167.6782843104209
 30
0.0
 10
134.8831625687521
 20
167.6781458010725
 30
0.0
 10
135.8130273900712
 20
167.7219751978313
 30
0.0
 10
136.7316395619328
 20
167.809575619813
 30
0.0
 10
137.6316672785296
 20
167.9403898206096
 30
0.0
 10
138.506030868075
 20
168.1136712639838
 30
0.0
 10
139.3478656212832
 20
168.328484457622
 30
0.0
 10
140.1506106844634
 20
168.5837436933365
 30
0.0
 10
140.9078660579927
 20
168.8783308210691
 30
0.0
 10
141.6139288967184
 20
169.2109007153298
 30
0.0
 10
142.2615505755301
 20
169.5808252476812
 30
0.0
 10
142.7655518521674
 20
169.9268342831834
 30
0.0
 10
143.0390626272555
 20
170.155049144083
 30
0.0
 10
143.138617292796
 20
170.2381166361806
 30
0.0
  0
SPLINE
  5
14D
330
1F
100
AcDbEntity
  8
0
  6
Continuous
 62
     7
370
    25
100
AcDbSpline
210
0.0
220
0.0
230
1.0
 70
     8
 71
     3
 72
    11
 73
     7
 74
     0
 42
0.00000001
 43
0.00000001
 40
0.0
 40
0.0
 40
0.0
 40
0.0
 40
0.1894557867048879
 40
0.5453293389671819
 40
0.8979370262686863
 40
1.0
 40
1.0
 40
1.0
 40
1.0
 10
143.138617292796
 20
170.2381166361806
 30
0.0
 10
143.2265416039256
 20
170.3168156698707
 30
0.0
 10
143.4796228494307
 20
170.5433428864105
 30
0.0
 10
143.8343434890784
 20
170.9429273614228
 30
0.0
 10
144.1156602396577
 20
171.3202726821844
 30
0.0
 10
144.22429215893
 20
171.5476587889896
 30
0.0
 10
144.2486774946759
 20
171.5987016739495
 30
0.0
  0
LINE
  5
14E
330
1F
100
AcDbEntity
  8
0
  6
Continuous
 62
     7
370
    25
100
AcDbLine
 10
127.3263274259
 20
134.97354058
 30
0.0
 11
130.7904290411
 21
133.97354058
 31
0.0
  0
LINE
  5
14F
330
1F
100
AcDbEntity
  8
0
  6
Continuous
 62
     7
370
    25
100
AcDbLine
 10
123.9203857038
 20
140.1844954615
 30
0.0
 11
123.9203857038
 21
139.3184700577
 31
0.0
  0
LINE
  5
150
330
1F
100
AcDbEntity
  8
0
  6
Continuous
 62
     7
370
    25
100
AcDbLine
 10
144.9203857038
 20
139.3184700577
 30
0.0
 11
144.9203857038
 21
140.1844954615
 31
0.0
  0
LINE
  5
151
330
1F
100
AcDbEntity
  8
0
  6
Continuous
 62
     7
370
    25
100
AcDbLine
 10
123.9203857038
 20
171.828558738
 30
0.0
 11
123.9203857038
 21
171.4047112679
 31
0.0
  0
LINE
  5
152
330
1F
100
AcDbEntity
  8
0
  6
Continuous
 62
     7
370
    25
100
AcDbLine
 10
123.9203857038
 20
170.495384594
 30
0.0
 11
123.9203857038
 21
169.369551569
 31
0.0
  0
LINE
  5
153
330
1F
100
AcDbEntity
  8
0
  6
Continuous
 62
     7
370
    25
100
AcDbLine
 10
123.9203857038
 20
168.4602248951
 30
0.0
 11
123.9203857038
 21
167.3343918701
 31
0.0
  0
LINE
  5
154
330
1F
100
AcDbEntity
  8
0
  6
Continuous
 62
     7
370
    25
100
AcDbLine
 10
123.9203857038
 20
166.4250651962
 30
0.0
 11
123.9203857038
 21
140.1844954615
 31
0.0
  0
LINE
  5
155
330
1F
100
AcDbEntity
  8
0
  6
Continuous
 62
     7
370
    25
100
AcDbLine
 10
144.9203857038
 20
171.4047112679
 30
0.0
 11
144.9203857038
 21
171.828558738
 31
0.0
  0
LINE
  5
156
330
1F
100
AcDbEntity
  8
0
  6
Continuous
 62
     7
370
    25
100
AcDbLine
 10
144.9203857038
 20
169.369551569
 30
0.0
 11
144.9203857038
 21
170.495384594
 31
0.0
  0
LINE
  5
157
330
1F
100
AcDbEntity
  8
0
  6
Continuous
 62
     7
370
    25
100
AcDbLine
 10
144.9203857038
 20
167.3343918701
 30
0.0
 11
144.9203857038
 21
168.4602248951
 31
0.0
  0
LINE
  5
158
330
1F
100
AcDbEntity
  8
0
  6
Continuous
 62
     7
370
    25
100
AcDbLine
 10
144.9203857038
 20
140.1844954615
 30
0.0
 11
144.9203857038
 21
166.4250651962
 31
0.0
  0
LINE
  5
159
330
1F
100
AcDbEntity
  8
0
  6
Continuous
 62
     7
370
    25
100
AcDbLine
 10
127.2703857038
 20
179.7618564145
 30
0.0
 11
127.2703857038
 21
179.291760225
 31
0.0
  0
LINE
  5
15A
330
1F
100
AcDbEntity
  8
0
  6
Continuous
 62
     7
370
    25
100
AcDbLine
 10
140.2583362574
 20
181.8258836268
 30
0.0
 11
140.1358617703
 21
181.9124861672
 31
0.0
  0
LINE
  5
15B
330
1F
100
AcDbEntity
  8
0
  6
Continuous
 62
     7
370
    25
100
AcDbLine
 10
128.7049096373
 20
181.9124861672
 30
0.0
 11
128.5824351502
 21
181.8258836268
 31
0.0
  0
LINE
  5
15C
330
1F
100
AcDbEntity
  8
0
  6
Continuous
 62
     7
370
    25
100
AcDbLine
 10
141.5703857038
 20
179.291760225
 30
0.0
 11
141.5703857038
 21
179.7618564145
 31
0.0
  0
LINE
  5
15D
330
1F
100
AcDbEntity
  8
0
  6
Continuous
 62
     7
370
    25
100
AcDbLine
 10
117.2953857038
 20
179.0257348212
 30
0.0
 11
117.2953857038
 21
178.5927221193
 31
0.0
  0
LINE
  5
15E
330
1F
100
AcDbEntity
  8
0
  6
Continuous
 62
     7
370
    25
100
AcDbLine
 10
148.4028896522
 20
183.9692965012
 30
0.0
 11
147.5863930713
 21
184.5466467704
 31
0.0
  0
LINE
  5
15F
330
1F
100
AcDbEntity
  8
0
  6
Continuous
 62
     7
370
    25
100
AcDbLine
 10
121.2543783364
 20
184.5466467704
 30
0.0
 11
120.4378817554
 21
183.9692965012
 31
0.0
  0
LINE
  5
160
330
1F
100
AcDbEntity
  8
0
  6
Continuous
 62
     7
370
    25
100
AcDbLine
 10
151.5453857038
 20
178.5927221193
 30
0.0
 11
151.5453857038
 21
179.0257348212
 31
0.0
  0
LINE
  5
161
330
1F
100
AcDbEntity
  8
0
  6
Continuous
 62
     7
370
    25
100
AcDbLine
 10
129.6838223859
 20
167.020385626
 30
0.0
 11
130.4942230667
 21
169.9685310122
 31
0.0
  0
LINE
  5
162
330
1F
100
AcDbEntity
  8
0
  6
Continuous
 62
     7
370
    25
100
AcDbLine
 10
126.2197207708
 20
168.020385626
 30
0.0
 11
129.6838223859
 21
167.020385626
 31
0.0
  0
LINE
  5
163
330
1F
100
AcDbEntity
  8
0
  6
Continuous
 62
     7
370
    25
100
AcDbLine
 10
127.0043443326
 20
170.8747567887
 30
0.0
 11
126.2197207708
 21
168.020385626
 31
0.0
  0
LINE
  5
164
330
1F
100
AcDbEntity
  8
0
  6
Continuous
 62
     7
370
    25
100
AcDbLine
 10
130.6426314836
 20
169.9364332306
 30
0.0
 11
130.4942230667
 21
169.9685310122
 31
0.0
  0
LINE
  5
165
330
1F
100
AcDbEntity
  8
0
  6
Continuous
 62
     7
370
    25
100
AcDbLine
 10
129.8322308027
 20
166.9882878444
 30
0.0
 11
130.6426314836
 21
169.9364332306
 31
0.0
  0
LINE
  5
166
330
1F
100
AcDbEntity
  8
0
  6
Continuous
 62
     7
370
    25
100
AcDbLine
 10
129.6838223859
 20
167.020385626
 30
0.0
 11
129.8322308027
 21
166.9882878444
 31
0.0
  0
LINE
  5
167
330
1F
100
AcDbEntity
  8
0
  6
Continuous
 62
     7
370
    25
100
AcDbLine
 10
130.5178504492
 20
170.2555186975
 30
0.0
 11
130.5205748185
 21
170.167839033
 31
0.0
  0
ARC
  5
168
330
1F
100
AcDbEntity
  8
0
  6
Continuous
 62
     7
370
    25
100
AcDbCircle
 10
129.2243444485
 20
170.3325541118
 30
0.0
 40
1.472565742650638
100
AcDbArc
 50
344.3952021684
 51
356.2181899482
  0
ARC
  5
169
330
1F
100
AcDbEntity
  8
0
  6
Continuous
 62
     7
370
    25
100
AcDbCircle
 10
129.8321722044
 20
170.1574609449
 30
0.0
 40
0.6884808376677304
100
AcDbArc
 50
344.0728048486
 51
0.863703293
  0
ARC
  5
16A
330
1F
100
AcDbEntity
  8
0
  6
Continuous
 62
     7
370
    25
100
AcDbCircle
 10
131.0079241105
 20
166.6425257605
 30
0.0
 40
1.376961675176298
100
AcDbArc
 50
164.0728048477
 51
180.863703294
  0
ARC
  5
16B
330
1F
100
AcDbEntity
  8
0
  6
Continuous
 62
     7
370
    25
100
AcDbCircle
 10
130.4942816651
 20
166.7993579117
 30
0.0
 40
0.6884808376697146
100
AcDbArc
 50
164.0728048487
 51
180.863703293
  0
LINE
  5
16C
330
1F
100
AcDbEntity
  8
0
  6
Continuous
 62
     7
370
    25
100
AcDbLine
 10
129.805879051
 20
166.7889798236
 30
0.0
 11
129.6311188824
 21
166.6217695844
 31
0.0
  0
LINE
  5
16D
330
1F
100
AcDbEntity
  8
0
  6
Continuous
 62
     7
370
    25
100
AcDbLine
 10
129.6311188824
 20
166.6217695844
 30
0.0
 11
126.1670172672
 21
167.6217695844
 31
0.0
  0
ARC
  5
16E
330
1F
100
AcDbEntity
  8
0
  6
Continuous
 62
     7
370
    25
100
AcDbCircle
 10
127.5438224955
 20
167.6425257605
 30
0.0
 40
1.37696167533558
100
AcDbArc
 50
164.0728048486
 51
180.863703293
  0
LINE
  5
16F
330
1F
100
AcDbEntity
  8
0
  6
Continuous
 62
     7
370
    25
100
AcDbLine
 10
130.6350537726
 20
134.3116583475
 30
0.0
 11
129.6311188824
 21
166.6217695844
 31
0.0
  0
LINE
  5
170
330
1F
100
AcDbEntity
  8
0
  6
Continuous
 62
     7
370
    25
100
AcDbLine
 10
130.8098139411
 20
134.4788685867
 30
0.0
 11
129.805879051
 21
166.7889798236
 31
0.0
  0
LINE
  5
171
330
1F
100
AcDbEntity
  8
0
  6
Continuous
 62
     7
370
    25
100
AcDbLine
 10
130.6350537726
 20
134.3116583475
 30
0.0
 11
130.8098139411
 21
134.4788685867
 31
0.0
  0
LINE
  5
172
330
1F
100
AcDbEntity
  8
0
  6
Continuous
 62
     7
370
    25
100
AcDbLine
 10
127.1709521574
 20
135.3116583475
 30
0.0
 11
130.6350537726
 21
134.3116583475
 31
0.0
  0
LINE
  5
173
330
1F
100
AcDbEntity
  8
0
  6
Continuous
 62
     7
370
    25
100
AcDbLine
 10
126.1670172672
 20
167.6217695844
 30
0.0
 11
127.1709521574
 21
135.3116583475
 31
0.0
  0
LINE
  5
174
330
1F
100
AcDbEntity
  8
0
  6
Continuous
 62
     7
370
    25
100
AcDbLine
 10
130.9845741097
 20
134.3429699346
 30
0.0
 11
130.9985544794
 21
134.3550772899
 31
0.0
  0
LWPOLYLINE
  5
175
330
1F
100
AcDbEntity
  8
0
  6
Continuous
 62
     7
370
    25
100
AcDbPolyline
 90
        9
 70
   128
 43
0.0
 10
130.9845741097
 20
134.0398610433
 10
130.9185406721
 20
133.9935613966
 10
130.8548790066
 20
133.9706987043
 10
130.7958756967
 20
133.9720941427
 10
130.7436500082
 20
133.9976975909
 10
130.7000777701
 20
134.0465894307
 10
130.6667239989
 20
134.1170135776
 10
130.6447866868
 20
134.206440555
 10
130.6350537726
 20
134.3116583475
  0
LWPOLYLINE
  5
176
330
1F
100
AcDbEntity
  8
0
  6
Continuous
 62
     7
370
    25
100
AcDbPolyline
 90
        9
 70
   128
 43
0.0
 10
130.8098139411
 20
134.4788685867
 10
130.8146803983
 20
134.4262596905
 10
130.8256490543
 20
134.3815462018
 10
130.8423259399
 20
134.3463341283
 10
130.864112059
 20
134.3218882084
 10
130.8902249032
 20
134.3090864843
 10
130.9197265582
 20
134.3083887651
 10
130.9515573909
 20
134.3198201113
 10
130.9845741097
 20
134.3429699346
  0
LINE
  5
177
330
1F
100
AcDbEntity
  8
0
  6
Continuous
 62
     7
370
    25
100
AcDbLine
 10
130.9845741097
 20
134.3429699346
 30
0.0
 11
130.9845741097
 21
134.0398610433
 31
0.0
  0
LWPOLYLINE
  5
178
330
1F
100
AcDbEntity
  8
0
  6
Continuous
 62
     7
370
    25
100
AcDbPolyline
 90
        6
 70
   128
 43
0.0
 10
127.1709521574
 20
135.3116583475
 10
127.1806850716
 20
135.206440555
 10
127.2026223838
 20
135.1170135776
 10
127.235976155
 20
135.0465894307
 10
127.2795483931
 20
134.9976975909
 10
127.3263274259
 20
134.97354058
  0
LINE
  5
179
330
1F
100
AcDbEntity
  8
0
  6
Continuous
 62
     7
370
    25
100
AcDbLine
 10
130.9845741097
 20
134.0398610433
 30
0.0
 11
131.2927863419
 21
134.3067806661
 31
0.0
  0
LWPOLYLINE
  5
17A
330
1F
100
AcDbEntity
  8
0
  6
Continuous
 62
     7
370
    25
100
AcDbPolyline
 90
       10
 70
   128
 43
0.0
 10
123.9203857038
 20
139.3184700577
 10
123.9322786424
 20
139.0686649996
 10
124.0272605641
 20
138.5713171568
 10
124.2163642364
 20
138.0807356463
 10
124.4978771073
 20
137.6013632503
 10
124.8692497526
 20
137.1375412395
 10
125.3271189641
 20
136.6934700577
 10
125.8673382073
 20
136.2731712825
 10
126.4850151731
 20
135.8804512045
 10
127.1643626178
 20
135.523732617
  0
LWPOLYLINE
  5
17B
330
1F
100
AcDbEntity
  8
0
  6
Continuous
 62
     7
370
    25
100
AcDbPolyline
 90
       16
 70
   128
 43
0.0
 10
130.8241636528
 20
134.3859963639
 10
131.462193857
 20
134.2811319462
 10
132.433247638
 20
134.1633443971
 10
133.4222972491
 20
134.0922424642
 10
134.4203857038
 20
134.0684700577
 10
135.4184741585
 20
134.0922424642
 10
136.4075237696
 20
134.1633443971
 10
137.3785775506
 20
134.2811319462
 10
138.3228414882
 20
134.4445384094
 10
139.231764182
 20
134.6520839523
 10
140.0971142871
 20
134.9018890104
 10
140.9110550591
 20
135.1916913103
 10
141.6662153244
 20
135.5188663577
 10
142.3557562345
 20
135.8804512045
 10
142.9734332003
 20
136.2731712825
 10
143.5136524435
 20
136.6934700577
  0
LWPOLYLINE
  5
17C
330
1F
100
AcDbEntity
  8
0
  6
Continuous
 62
     7
370
    25
100
AcDbPolyline
 90
       16
 70
   128
 43
0.0
 10
143.5136524435
 20
137.5594954615
 10
142.9734332003
 20
137.1391966863
 10
142.3557562345
 20
136.7464766083
 10
141.6662153244
 20
136.3848917615
 10
140.9110550591
 20
136.0577167141
 10
140.0971142871
 20
135.7679144141
 10
139.231764182
 20
135.5181093561
 10
138.3228414882
 20
135.3105638132
 10
137.3785775506
 20
135.14715735
 10
136.4075237696
 20
135.0293698009
 10
135.4184741585
 20
134.958267868
 10
134.4203857038
 20
134.9344954615
 10
133.4222972491
 20
134.958267868
 10
132.433247638
 20
135.0293698009
 10
131.462193857
 20
135.14715735
 10
130.7855707389
 20
135.2590990264
  0
LWPOLYLINE
  5
17D
330
1F
100
AcDbEntity
  8
0
  6
Continuous
 62
     7
370
    25
100
AcDbPolyline
 90
       10
 70
   128
 43
0.0
 10
127.1370464036
 20
136.4028632531
 10
126.4850151731
 20
136.7464766083
 10
125.8673382073
 20
137.1391966863
 10
125.3271189641
 20
137.5594954615
 10
124.8692497526
 20
138.0035666432
 10
124.4978771073
 20
138.4673886541
 10
124.2163642364
 20
138.9467610501
 10
124.0272605641
 20
139.4373425606
 10
123.9322786424
 20
139.9346904034
 10
123.9203857038
 20
140.1844954615
  0
LINE
  5
17E
330
1F
100
AcDbEntity
  8
0
  6
Continuous
 62
     7
370
    25
100
AcDbLine
 10
143.5136524435
 20
136.6934700577
 30
0.0
 11
143.5136524435
 21
137.5594954615
 31
0.0
  0
ARC
  5
17F
330
1F
100
AcDbEntity
  8
0
  6
Continuous
 62
     7
370
    25
100
AcDbCircle
 10
141.3920126878
 20
140.3859118209
 30
0.0
 40
3.53411724333112
100
AcDbArc
 50
306.8935996884
 51
356.7328294475
  0
ARC
  5
180
330
1F
100
AcDbEntity
  8
0
  6
Continuous
 62
     7
370
    25
100
AcDbCircle
 10
141.3920126878
 20
139.5198864171
 30
0.0
 40
3.534117243331321
100
AcDbArc
 50
306.8935996884
 51
356.7328294475
  0
LWPOLYLINE
  5
181
330
1F
100
AcDbEntity
  8
0
  6
Continuous
 62
     7
370
    25
100
AcDbPolyline
 90
       17
 70
   128
 43
0.0
 10
143.5136524435
 20
169.9055442929
 10
142.9734332003
 20
169.4852455176
 10
142.3557562345
 20
169.0925254396
 10
141.6662153244
 20
168.7309405928
 10
140.9110550591
 20
168.4037655455
 10
140.0971142871
 20
168.1139632455
 10
139.231764182
 20
167.8641581874
 10
138.3228414882
 20
167.6566126445
 10
137.3785775506
 20
167.4932061814
 10
136.4075237696
 20
167.3754186322
 10
135.4184741585
 20
167.3043166993
 10
134.4203857038
 20
167.2805442929
 10
133.4222972491
 20
167.3043166993
 10
132.433247638
 20
167.3754186322
 10
131.462193857
 20
167.4932061814
 10
130.5179299194
 20
167.6566126445
 10
130.0439018152
 20
167.7583228821
  0
ARC
  5
182
330
1F
100
AcDbEntity
  8
0
  6
Continuous
 62
     7
370
    25
100
AcDbCircle
 10
128.6763304349
 20
173.5574152332
 30
0.0
 40
4.97564481711596
100
AcDbArc
 50
200.8322089626
 51
244.1954713773
  0
ARC
  5
183
330
1F
100
AcDbEntity
  8
0
  6
Continuous
 62
     7
370
    25
100
AcDbCircle
 10
141.0507726144
 20
172.9988515766
 30
0.0
 40
3.95402668227431
100
AcDbArc
 50
308.5266738595
 51
342.1663694277
  0
LINE
  5
184
330
1F
100
AcDbEntity
  8
0
  6
Continuous
 62
     7
370
    25
100
AcDbLine
 10
143.5136524435
 20
169.9055442929
 30
0.0
 11
143.5136524435
 21
168.7797112679
 31
0.0
  0
ARC
  5
185
330
1F
100
AcDbEntity
  8
0
  6
Continuous
 62
     7
370
    25
100
AcDbCircle
 10
128.048551941
 20
171.8503409379
 30
0.0
 40
4.152149116397339
100
AcDbArc
 50
186.161140063
 51
244.2476121625
  0
LWPOLYLINE
  5
186
330
1F
100
AcDbEntity
  8
0
  6
Continuous
 62
     7
370
    25
100
AcDbPolyline
 90
       17
 70
   128
 43
0.0
 10
129.8090132082
 20
166.6881117591
 10
130.5179299194
 20
166.5307796196
 10
131.462193857
 20
166.3673731565
 10
132.433247638
 20
166.2495856073
 10
133.4222972491
 20
166.1784836744
 10
134.4203857038
 20
166.1547112679
 10
135.4184741585
 20
166.1784836744
 10
136.4075237696
 20
166.2495856073
 10
137.3785775506
 20
166.3673731565
 10
138.3228414882
 20
166.5307796196
 10
139.231764182
 20
166.7383251625
 10
140.0971142871
 20
166.9881302206
 10
140.9110550591
 20
167.2779325205
 10
141.6662153244
 20
167.6051075679
 10
142.3557562345
 20
167.9666924147
 10
142.9734332003
 20
168.3594124927
 10
143.5136524435
 20
168.7797112679
  0
LWPOLYLINE
  5
187
330
1F
100
AcDbEntity
  8
0
  6
Continuous
 62
     7
370
    25
100
AcDbPolyline
 90
       17
 70
   128
 43
0.0
 10
143.5136524435
 20
167.870384594
 10
142.9734332003
 20
167.4500858187
 10
142.3557562345
 20
167.0573657407
 10
141.6662153244
 20
166.6957808939
 10
140.9110550591
 20
166.3686058466
 10
140.0971142871
 20
166.0788035466
 10
139.231764182
 20
165.8289984885
 10
138.3228414882
 20
165.6214529456
 10
137.3785775506
 20
165.4580464825
 10
136.4075237696
 20
165.3402589333
 10
135.4184741585
 20
165.2691570005
 10
134.4203857038
 20
165.245384594
 10
133.4222972491
 20
165.2691570005
 10
132.433247638
 20
165.3402589333
 10
131.462193857
 20
165.4580464825
 10
130.5179299194
 20
165.6214529456
 10
129.8374830622
 20
165.7718529867
  0
LWPOLYLINE
  5
188
330
1F
100
AcDbEntity
  8
0
  6
Continuous
 62
     7
370
    25
100
AcDbPolyline
 90
       10
 70
   128
 43
0.0
 10
126.178803413
 20
167.2424504821
 10
125.8673382073
 20
167.4500858187
 10
125.3271189641
 20
167.870384594
 10
124.8692497526
 20
168.3144557757
 10
124.4978771073
 20
168.7782777865
 10
124.2163642364
 20
169.2576501825
 10
124.0272605641
 20
169.748231693
 10
123.9322786424
 20
170.2455795359
 10
123.9322786424
 20
170.745189652
 10
123.9598348101
 20
170.9500479309
  0
ARC
  5
189
330
1F
100
AcDbEntity
  8
0
  6
Continuous
 62
     7
370
    25
100
AcDbCircle
 10
141.4955673506
 20
170.6097073573
 30
0.0
 40
3.402433929471802
100
AcDbArc
 50
306.3794271671
 51
5.7408152122
  0
LWPOLYLINE
  5
18A
330
1F
100
AcDbEntity
  8
0
  6
Continuous
 62
     7
370
    25
100
AcDbPolyline
 90
        3
 70
   128
 43
0.0
 10
125.6351689577
 20
168.5293866461
 10
125.9271086098
 20
168.2312694686
 10
126.2101241607
 20
167.9837999152
  0
LWPOLYLINE
  5
18B
330
1F
100
AcDbEntity
  8
0
  6
Continuous
 62
     7
370
    25
100
AcDbPolyline
 90
       17
 70
   128
 43
0.0
 10
129.8220788717
 20
166.2676133349
 10
130.0362483819
 20
166.2111120494
 10
130.9256073013
 20
166.0113253583
 10
131.8508273762
 20
165.8575511827
 10
132.8024145967
 20
165.751367454
 10
133.7706043903
 20
165.6938637608
 10
134.7454618194
 20
165.6856301689
 10
135.7169835277
 20
165.726751166
 10
136.6752003878
 20
165.816804795
 10
137.6102797979
 20
165.9548669839
 10
138.512626578
 20
166.1395210278
 10
139.3729814291
 20
166.3688721263
 10
140.1825159461
 20
166.6405668268
 10
140.9329232094
 20
166.951817174
 10
141.616503025
 20
167.2994293181
 10
142.226240939
 20
167.6798362882
 10
142.7558802152
 20
168.089134594
  0
LWPOLYLINE
  5
18C
330
1F
100
AcDbEntity
  8
0
  6
Continuous
 62
     7
370
    25
100
AcDbPolyline
 90
        3
 70
   128
 43
0.0
 10
142.7558802152
 20
168.089134594
 10
143.1999860381
 20
168.5231242809
 10
143.2056024499
 20
168.5293866461
  0
LINE
  5
18D
330
1F
100
AcDbEntity
  8
0
  6
Continuous
 62
     7
370
    25
100
AcDbLine
 10
143.5136524435
 20
167.870384594
 30
0.0
 11
143.5136524435
 21
166.744551569
 31
0.0
  0
ARC
  5
18E
330
1F
100
AcDbEntity
  8
0
  6
Continuous
 62
     7
370
    25
100
AcDbCircle
 10
128.0239345225
 20
169.8066270581
 30
0.0
 40
4.126759974864653
100
AcDbArc
 50
186.0797424488
 51
243.5896163021
  0
LWPOLYLINE
  5
18F
330
1F
100
AcDbEntity
  8
0
  6
Continuous
 62
     7
370
    25
100
AcDbPolyline
 90
       17
 70
   128
 43
0.0
 10
129.8727291551
 20
164.6375113136
 10
130.5179299194
 20
164.4956199207
 10
131.462193857
 20
164.3322134576
 10
132.433247638
 20
164.2144259084
 10
133.4222972491
 20
164.1433239755
 10
134.4203857038
 20
164.119551569
 10
135.4184741585
 20
164.1433239755
 10
136.4075237696
 20
164.2144259084
 10
137.3785775506
 20
164.3322134576
 10
138.3228414882
 20
164.4956199207
 10
139.231764182
 20
164.7031654636
 10
140.0971142871
 20
164.9529705217
 10
140.9110550591
 20
165.2427728216
 10
141.6662153244
 20
165.569947869
 10
142.3557562345
 20
165.9315327158
 10
142.9734332003
 20
166.3242527938
 10
143.5136524435
 20
166.744551569
  0
LWPOLYLINE
  5
190
330
1F
100
AcDbEntity
  8
0
  6
Continuous
 62
     7
370
    25
100
AcDbPolyline
 90
        9
 70
   128
 43
0.0
 10
123.9203857038
 20
167.3343918701
 10
123.9322786424
 20
167.0845868121
 10
124.0272605641
 20
166.5872389692
 10
124.2163642364
 20
166.0966574587
 10
124.4978771073
 20
165.6172850627
 10
124.8692497526
 20
165.1534630519
 10
125.3271189641
 20
164.7093918701
 10
125.8673382073
 20
164.2890930949
 10
126.2789618914
 20
164.0190028165
  0
LWPOLYLINE
  5
191
330
1F
100
AcDbEntity
  8
0
  6
Continuous
 62
     7
370
    25
100
AcDbPolyline
 90
       17
 70
   128
 43
0.0
 10
129.9364368382
 20
162.5871768295
 10
130.5179299194
 20
162.4604602218
 10
131.462193857
 20
162.2970537587
 10
132.433247638
 20
162.1792662095
 10
133.4222972491
 20
162.1081642766
 10
134.4203857038
 20
162.0843918701
 10
135.4184741585
 20
162.1081642766
 10
136.4075237696
 20
162.1792662095
 10
137.3785775506
 20
162.2970537587
 10
138.3228414882
 20
162.4604602218
 10
139.231764182
 20
162.6680057647
 10
140.0971142871
 20
162.9178108228
 10
140.9110550591
 20
163.2076131227
 10
141.6662153244
 20
163.5347881701
 10
142.3557562345
 20
163.8963730169
 10
142.9734332003
 20
164.2890930949
 10
143.5136524435
 20
164.7093918701
  0
LWPOLYLINE
  5
192
330
1F
100
AcDbEntity
  8
0
  6
Continuous
 62
     7
370
    25
100
AcDbPolyline
 90
       17
 70
   128
 43
0.0
 10
143.5136524435
 20
165.8352248951
 10
142.9734332003
 20
165.4149261198
 10
142.3557562345
 20
165.0222060419
 10
141.6662153244
 20
164.660621195
 10
140.9110550591
 20
164.3334461477
 10
140.0971142871
 20
164.0436438477
 10
139.231764182
 20
163.7938387896
 10
138.3228414882
 20
163.5862932467
 10
137.3785775506
 20
163.4228867836
 10
136.4075237696
 20
163.3050992344
 10
135.4184741585
 20
163.2339973016
 10
134.4203857038
 20
163.2102248951
 10
133.4222972491
 20
163.2339973016
 10
132.433247638
 20
163.3050992344
 10
131.462193857
 20
163.4228867836
 10
130.5179299194
 20
163.5862932467
 10
129.9011953065
 20
163.721371707
  0
LWPOLYLINE
  5
193
330
1F
100
AcDbEntity
  8
0
  6
Continuous
 62
     7
370
    25
100
AcDbPolyline
 90
       10
 70
   128
 43
0.0
 10
126.2432960776
 20
165.1668525639
 10
125.8673382073
 20
165.4149261198
 10
125.3271189641
 20
165.8352248951
 10
124.8692497526
 20
166.2792960768
 10
124.4978771073
 20
166.7431180877
 10
124.2163642364
 20
167.2224904836
 10
124.0272605641
 20
167.7130719941
 10
123.9322786424
 20
168.210419837
 10
123.9322786424
 20
168.7100299531
 10
123.9598348101
 20
168.9148882321
  0
LINE
  5
194
330
1F
100
AcDbEntity
  8
0
  6
Continuous
 62
     7
370
    25
100
AcDbLine
 10
143.5136524435
 20
165.8352248951
 30
0.0
 11
143.5136524435
 21
164.7093918701
 31
0.0
  0
ARC
  5
195
330
1F
100
AcDbEntity
  8
0
  6
Continuous
 62
     7
370
    25
100
AcDbCircle
 10
141.4955673506
 20
168.5745476584
 30
0.0
 40
3.402433929471767
100
AcDbArc
 50
306.3794271671
 51
5.7408152122
  0
LWPOLYLINE
  5
196
330
1F
100
AcDbEntity
  8
0
  6
Continuous
 62
     7
370
    25
100
AcDbPolyline
 90
        3
 70
   128
 43
0.0
 10
125.6351689577
 20
166.4942269472
 10
125.9271086098
 20
166.1961097697
 10
126.2192353825
 20
165.9412092934
  0
LWPOLYLINE
  5
197
330
1F
100
AcDbEntity
  8
0
  6
Continuous
 62
     7
370
    25
100
AcDbPolyline
 90
       17
 70
   128
 43
0.0
 10
129.8858490042
 20
164.2152690084
 10
130.0362483819
 20
164.1759523506
 10
130.9256073013
 20
163.9761656594
 10
131.8508273762
 20
163.8223914838
 10
132.8024145967
 20
163.7162077551
 10
133.7706043903
 20
163.6587040619
 10
134.7454618194
 20
163.65047047
 10
135.7169835277
 20
163.6915914671
 10
136.6752003878
 20
163.7816450961
 10
137.6102797979
 20
163.919707285
 10
138.512626578
 20
164.1043613289
 10
139.3729814291
 20
164.3337124274
 10
140.1825159461
 20
164.6054071279
 10
140.9329232094
 20
164.9166574751
 10
141.616503025
 20
165.2642696193
 10
142.226240939
 20
165.6446765893
 10
142.7558802152
 20
166.0539748951
  0
LWPOLYLINE
  5
198
330
1F
100
AcDbEntity
  8
0
  6
Continuous
 62
     7
370
    25
100
AcDbPolyline
 90
        3
 70
   128
 43
0.0
 10
142.7558802152
 20
166.0539748951
 10
143.1999860381
 20
166.487964582
 10
143.2056024499
 20
166.4942269472
  0
LWPOLYLINE
  5
199
330
1F
100
AcDbEntity
  8
0
  6
Continuous
 62
     7
370
    25
100
AcDbPolyline
 90
       10
 70
   128
 43
0.0
 10
123.9203857038
 20
140.1844954615
 10
123.9322786424
 20
139.9346904034
 10
124.0272605641
 20
139.4373425606
 10
124.2163642364
 20
138.9467610501
 10
124.4978771073
 20
138.4673886541
 10
124.8692497526
 20
138.0035666432
 10
125.3271189641
 20
137.5594954615
 10
125.8673382073
 20
137.1391966863
 10
126.4850151731
 20
136.7464766083
 10
127.1370464036
 20
136.4028632531
  0
LWPOLYLINE
  5
19A
330
1F
100
AcDbEntity
  8
0
  6
Continuous
 62
     7
370
    25
100
AcDbPolyline
 90
       16
 70
   128
 43
0.0
 10
130.7855707389
 20
135.2590990264
 10
131.462193857
 20
135.14715735
 10
132.433247638
 20
135.0293698009
 10
133.4222972491
 20
134.958267868
 10
134.4203857038
 20
134.9344954615
 10
135.4184741585
 20
134.958267868
 10
136.4075237696
 20
135.0293698009
 10
137.3785775506
 20
135.14715735
 10
138.3228414882
 20
135.3105638132
 10
139.231764182
 20
135.5181093561
 10
140.0971142871
 20
135.7679144141
 10
140.9110550591
 20
136.0577167141
 10
141.6662153244
 20
136.3848917615
 10
142.3557562345
 20
136.7464766083
 10
142.9734332003
 20
137.1391966863
 10
143.5136524435
 20
137.5594954615
  0
LWPOLYLINE
  5
19B
330
1F
100
AcDbEntity
  8
0
  6
Continuous
 62
     7
370
    25
100
AcDbPolyline
 90
       17
 70
   128
 43
0.0
 10
143.5136524435
 20
163.8000651962
 10
142.9734332003
 20
163.3797664209
 10
142.3557562345
 20
162.987046343
 10
141.6662153244
 20
162.6254614961
 10
140.9110550591
 20
162.2982864488
 10
140.0971142871
 20
162.0084841488
 10
139.231764182
 20
161.7586790907
 10
138.3228414882
 20
161.5511335478
 10
137.3785775506
 20
161.3877270847
 10
136.4075237696
 20
161.2699395355
 10
135.4184741585
 20
161.1988376027
 10
134.4203857038
 20
161.1750651962
 10
133.4222972491
 20
161.1988376027
 10
132.433247638
 20
161.2699395355
 10
131.462193857
 20
161.3877270847
 10
130.5179299194
 20
161.5511335478
 10
129.9648993238
 20
161.6711551971
  0
LWPOLYLINE
  5
19C
330
1F
100
AcDbEntity
  8
0
  6
Continuous
 62
     7
370
    25
100
AcDbPolyline
 90
       10
 70
   128
 43
0.0
 10
126.3077633264
 20
163.0920726158
 10
125.8673382073
 20
163.3797664209
 10
125.3271189641
 20
163.8000651962
 10
124.8692497526
 20
164.2441363779
 10
124.4978771073
 20
164.7079583888
 10
124.2163642364
 20
165.1873307848
 10
124.0272605641
 20
165.6779122952
 10
123.9322786424
 20
166.1752601381
 10
123.9322786424
 20
166.6748702543
 10
123.9598348101
 20
166.8797285332
  0
LINE
  5
19D
330
1F
100
AcDbEntity
  8
0
  6
Continuous
 62
     7
370
    25
100
AcDbLine
 10
143.5136524435
 20
137.5594954615
 30
0.0
 11
143.5136524435
 21
163.8000651962
 31
0.0
  0
ARC
  5
19E
330
1F
100
AcDbEntity
  8
0
  6
Continuous
 62
     7
370
    25
100
AcDbCircle
 10
141.4955673506
 20
166.5393879595
 30
0.0
 40
3.402433929471752
100
AcDbArc
 50
306.3794271671
 51
5.7408152122
  0
LWPOLYLINE
  5
19F
330
1F
100
AcDbEntity
  8
0
  6
Continuous
 62
     7
370
    25
100
AcDbPolyline
 90
        3
 70
   128
 43
0.0
 10
125.6351689577
 20
164.4590672483
 10
125.9271086098
 20
164.1609500708
 10
126.2840885138
 20
163.8540103039
  0
LWPOLYLINE
  5
1A0
330
1F
100
AcDbEntity
  8
0
  6
Continuous
 62
     7
370
    25
100
AcDbPolyline
 90
       17
 70
   128
 43
0.0
 10
129.9496094933
 20
162.1632350413
 10
130.0362483819
 20
162.1407926517
 10
130.9256073013
 20
161.9410059605
 10
131.8508273762
 20
161.787231785
 10
132.8024145967
 20
161.6810480562
 10
133.7706043903
 20
161.623544363
 10
134.7454618194
 20
161.6153107711
 10
135.7169835277
 20
161.6564317682
 10
136.6752003878
 20
161.7464853972
 10
137.6102797979
 20
161.8845475861
 10
138.512626578
 20
162.06920163
 10
139.3729814291
 20
162.2985527285
 10
140.1825159461
 20
162.570247429
 10
140.9329232094
 20
162.8814977762
 10
141.616503025
 20
163.2291099204
 10
142.226240939
 20
163.6095168904
 10
142.7558802152
 20
164.0188151962
  0
LWPOLYLINE
  5
1A1
330
1F
100
AcDbEntity
  8
0
  6
Continuous
 62
     7
370
    25
100
AcDbPolyline
 90
        3
 70
   128
 43
0.0
 10
142.7558802152
 20
164.0188151962
 10
143.1999860381
 20
164.4528048831
 10
143.2056024499
 20
164.4590672483
  0
ARC
  5
1A2
330
1F
100
AcDbEntity
  8
0
  6
Continuous
 62
     7
370
    25
100
AcDbCircle
 10
141.3920126878
 20
171.6061276273
 30
0.0
 40
3.534117243331508
100
AcDbArc
 50
306.8935996884
 51
356.7328294475
  0
ARC
  5
1A3
330
1F
100
AcDbEntity
  8
0
  6
Continuous
 62
     7
370
    25
100
AcDbCircle
 10
141.3920126878
 20
169.5709679284
 30
0.0
 40
3.534117243331094
100
AcDbArc
 50
306.8935996884
 51
356.7328294475
  0
ARC
  5
1A4
330
1F
100
AcDbEntity
  8
0
  6
Continuous
 62
     7
370
    25
100
AcDbCircle
 10
141.3920126878
 20
167.5358082295
 30
0.0
 40
3.534117243331207
100
AcDbArc
 50
306.8935996884
 51
356.7328294475
  0
LWPOLYLINE
  5
1A5
330
1F
100
AcDbEntity
  8
0
  6
Continuous
 62
     7
370
    25
100
AcDbPolyline
 90
       14
 70
   128
 43
0.0
 10
130.9203857038
 20
176.8606713118
 10
130.2151898541
 20
177.0937105531
 10
129.5713152292
 20
177.3675516593
 10
128.998150971
 20
177.6782014104
 10
128.504055105
 20
178.0211298336
 10
128.0962326615
 20
178.3913362601
 10
127.7806306102
 20
178.7834222467
 10
127.5618511395
 20
179.1916702968
 10
127.4430845469
 20
179.6101272345
 10
127.4260627166
 20
180.0326910154
 10
127.5110338653
 20
180.453199708
 10
127.6967589224
 20
180.8655213487
 10
127.9805295982
 20
181.2636433595
 10
128.3582078773
 20
181.641760225
  0
LWPOLYLINE
  5
1A6
330
1F
100
AcDbEntity
  8
0
  6
Continuous
 62
     7
370
    25
100
AcDbPolyline
 90
       14
 70
   128
 43
0.0
 10
140.4825635303
 20
178.141760225
 10
140.0164850476
 20
177.7891623002
 10
139.4688028352
 20
177.4672249877
 10
138.847503333
 20
177.1806428586
 10
138.1616464867
 20
176.9335949256
 10
137.4212336336
 20
176.7296837039
 10
136.6370616604
 20
176.5718826782
 10
135.8205655602
 20
176.4624929429
 10
134.9836516848
 20
176.4031096466
 10
134.138524123
 20
176.3945987314
 10
133.2975067378
 20
176.4370843058
 10
132.4728634564
 20
176.5299468343
 10
131.6766194348
 20
176.6718321722
 10
130.9203857038
 20
176.8606713118
  0
ARC
  5
1A7
330
1F
100
AcDbEntity
  8
0
  6
Continuous
 62
     7
370
    25
100
AcDbCircle
 10
129.4078882048
 20
179.790787471
 30
0.0
 40
2.117541845539877
100
AcDbArc
 50
123.8522729151
 51
219.5946564093
  0
LINE
  5
1A8
330
1F
100
AcDbEntity
  8
0
  6
Continuous
 62
     7
370
    25
100
AcDbLine
 10
128.3582078773
 20
181.641760225
 30
0.0
 11
128.2283040668
 21
181.5493564145
 31
0.0
  0
LWPOLYLINE
  5
1A9
330
1F
100
AcDbEntity
  8
0
  6
Continuous
 62
     7
370
    25
100
AcDbPolyline
 90
       14
 70
   128
 43
0.0
 10
128.3582078773
 20
181.641760225
 10
128.82428636
 20
181.9943581499
 10
129.3719685724
 20
182.3162954623
 10
129.9932680746
 20
182.6028775914
 10
130.6791249209
 20
182.8499255244
 10
131.419537774
 20
183.0538367462
 10
132.2037097472
 20
183.2116377718
 10
133.0202058474
 20
183.3210275072
 10
133.8571197228
 20
183.3804108035
 10
134.7022472846
 20
183.3889217186
 10
135.5432646698
 20
183.3464361443
 10
136.3679079512
 20
183.2535736157
 10
137.1641519728
 20
183.1116882778
 10
137.9203857038
 20
182.9228491383
  0
LWPOLYLINE
  5
1AA
330
1F
100
AcDbEntity
  8
0
  6
Continuous
 62
     7
370
    25
100
AcDbPolyline
 90
       14
 70
   128
 43
0.0
 10
137.9203857038
 20
182.9228491383
 10
138.6255815535
 20
182.6898098969
 10
139.2694561784
 20
182.4159687907
 10
139.8426204366
 20
182.1053190396
 10
140.3367163026
 20
181.7623906165
 10
140.7445387461
 20
181.3921841899
 10
141.0601407974
 20
181.0000982033
 10
141.2789202681
 20
180.5918501532
 10
141.3976868608
 20
180.1733932155
 10
141.414708691
 20
179.7508294346
 10
141.3297375423
 20
179.330320742
 10
141.1440124852
 20
178.9179991013
 10
140.8602418094
 20
178.5198770905
 10
140.4825635303
 20
178.141760225
  0
LINE
  5
1AB
330
1F
100
AcDbEntity
  8
0
  6
Continuous
 62
     7
370
    25
100
AcDbLine
 10
128.2283040668
 20
181.5493564145
 30
0.0
 11
128.5824351502
 21
181.8258836268
 31
0.0
  0
LWPOLYLINE
  5
1AC
330
1F
100
AcDbEntity
  8
0
  6
Continuous
 62
     7
370
    25
100
AcDbPolyline
 90
       10
 70
   128
 43
0.0
 10
140.2583362574
 20
181.8258836268
 10
140.4634948153
 20
181.6725717429
 10
140.8800563112
 20
181.2944323216
 10
141.2024212636
 20
180.8939444924
 10
141.4258888658
 20
180.4769482699
 10
141.5472004569
 20
180.0495243978
 10
141.5645870408
 20
179.6179056788
 10
141.4777950818
 20
179.1883860856
 10
141.2880902021
 20
178.7672289812
 10
141.0646031145
 20
178.4411676737
  0
LWPOLYLINE
  5
1AD
330
1F
100
AcDbEntity
  8
0
  6
Continuous
 62
     7
370
    25
100
AcDbPolyline
 90
       22
 70
   128
 43
0.0
 10
149.2510707436
 20
174.7444848212
 10
148.569724714
 20
174.2023068241
 10
147.8092498411
 20
173.6871033928
 10
146.9738990089
 20
173.2017557541
 10
146.0683438381
 20
172.7489781687
 10
145.0976485606
 20
172.3313027526
 10
144.0672416982
 20
171.9510653162
 10
142.9828857038
 20
171.6103923013
 10
141.8506447362
 20
171.3111888898
 10
140.6768507461
 20
171.0551283485
 10
139.4680680656
 20
170.8436426717
 10
138.2310566978
 20
170.6779145732
 10
136.9727345121
 20
170.5588708717
 10
135.7001385565
 20
170.4871773079
 10
134.4203857038
 20
170.4632348212
 10
133.1406328511
 20
170.4871773079
 10
131.8680368955
 20
170.5588708717
 10
130.6097147098
 20
170.6779145732
 10
129.372703342
 20
170.8436426717
 10
128.1639206615
 20
171.0551283485
 10
126.9901266714
 20
171.3111888898
 10
125.8578857038
 20
171.6103923013
  0
LWPOLYLINE
  5
1AE
330
1F
100
AcDbEntity
  8
0
  6
Continuous
 62
     7
370
    25
100
AcDbPolyline
 90
       22
 70
   128
 43
0.0
 10
125.8578857038
 20
171.6103923013
 10
124.7735297095
 20
171.9510653162
 10
123.743122847
 20
172.3313027526
 10
122.7724275695
 20
172.7489781687
 10
121.8668723987
 20
173.2017557541
 10
121.0315215665
 20
173.6871033928
 10
120.2710466936
 20
174.2023068241
 10
119.589700664
 20
174.7444848213
 10
118.9912938409
 20
175.3106053051
 10
118.4791727582
 20
175.8975023002
 10
118.0562014047
 20
176.5018936404
 10
117.7247452077
 20
177.1203993243
 10
117.4866578047
 20
177.7495604172
 10
117.3432706771
 20
178.385858395
 10
117.2953857038
 20
179.0257348213
 10
117.3432706771
 20
179.6656112477
 10
117.4866578047
 20
180.3019092255
 10
117.7247452077
 20
180.9310703183
 10
118.0562014048
 20
181.5495760022
 10
118.4791727584
 20
182.1539673425
 10
118.9912938411
 20
182.7408643375
 10
119.5897006641
 20
183.3069848213
  0
LINE
  5
1AF
330
1F
100
AcDbEntity
  8
0
  6
Continuous
 62
     7
370
    25
100
AcDbLine
 10
120.4557260678
 20
183.923010225
 30
0.0
 11
119.5897006641
 21
183.3069848213
 31
0.0
  0
LWPOLYLINE
  5
1B0
330
1F
100
AcDbEntity
  8
0
  6
Continuous
 62
     7
370
    25
100
AcDbPolyline
 90
       21
 70
   128
 43
0.0
 10
126.3578857038
 20
172.909430407
 10
125.2870851334
 20
173.2472428293
 10
124.2725943981
 20
173.6260209108
 10
123.3206681708
 20
174.0434293587
 10
122.437175393
 20
174.4968947113
 10
121.6275630916
 20
174.9836212036
 10
120.8968227957
 20
175.5006080052
 10
120.2494597621
 20
176.0446677204
 10
119.6894651993
 20
176.6124460402
 10
119.22029166
 20
177.2004424225
 10
118.8448317549
 20
177.8050316739
 10
118.5654003193
 20
178.4224863007
 10
118.383720141
 20
179.0489994899
 10
118.3009113386
 20
179.6807085793
 10
118.3174844559
 20
180.3137188722
 10
118.4333373142
 20
180.9441276498
 10
118.647755642
 20
181.5680482322
 10
118.9594174791
 20
182.1816339417
 10
119.3664013265
 20
182.7811018182
 10
119.8661979937
 20
183.362755943
 10
120.4557260678
 20
183.923010225
  0
LWPOLYLINE
  5
1B1
330
1F
100
AcDbEntity
  8
0
  6
Continuous
 62
     7
370
    25
100
AcDbPolyline
 90
       21
 70
   128
 43
0.0
 10
148.3850453398
 20
175.860510225
 10
147.7094204953
 20
175.3251099398
 10
146.9518643323
 20
174.8178645722
 10
146.1170474364
 20
174.3419014585
 10
145.2101167313
 20
173.9001550696
 10
144.2366637466
 20
173.4953489189
 10
143.2026901434
 20
173.129978771
 10
142.114570713
 20
172.8062972542
 10
140.9790140734
 20
172.5262999728
 10
139.803021309
 20
172.2917132031
 10
138.5938428061
 20
172.1039832506
 10
137.3589335524
 20
171.9642675328
 10
136.105907174
 20
171.8734274436
 10
134.8424889953
 20
171.8320230424
 10
133.5764684094
 20
171.8403096011
 10
132.3156508543
 20
171.8982360302
 10
131.0678096894
 20
172.0054451941
 10
129.8406382705
 20
172.1612761126
 10
128.6417025174
 20
172.3647680364
 10
127.4783942678
 20
172.61466637
 10
126.3578857038
 20
172.909430407
  0
LINE
  5
1B2
330
1F
100
AcDbEntity
  8
0
  6
Continuous
 62
     7
370
    25
100
AcDbLine
 10
148.3850453398
 20
175.860510225
 30
0.0
 11
149.2510707436
 21
174.7444848212
 31
0.0
  0
LINE
  5
1B3
330
1F
100
AcDbEntity
  8
0
  6
Continuous
 62
     7
370
    25
100
AcDbLine
 10
149.2510707436
 20
174.3114721193
 30
0.0
 11
149.2510707436
 21
174.7444848212
 31
0.0
  0
LWPOLYLINE
  5
1B4
330
1F
100
AcDbEntity
  8
0
  6
Continuous
 62
     7
370
    25
100
AcDbPolyline
 90
       36
 70
   128
 43
0.0
 10
117.2953857038
 20
178.5927221193
 10
117.3432706771
 20
177.952845693
 10
117.4866578047
 20
177.3165477152
 10
117.7247452077
 20
176.6873866223
 10
118.0562014047
 20
176.0688809385
 10
118.4791727583
 20
175.4644895982
 10
118.991293841
 20
174.8775926032
 10
119.589700664
 20
174.3114721193
 10
120.2710466937
 20
173.7692941222
 10
121.0315215665
 20
173.2540906909
 10
121.8668723987
 20
172.7687430522
 10
122.7724275695
 20
172.3159654668
 10
123.743122847
 20
171.8982900507
 10
124.7735297095
 20
171.5180526143
 10
125.8578857038
 20
171.1773795994
 10
126.9901266714
 20
170.8781761879
 10
128.1639206615
 20
170.6221156466
 10
129.372703342
 20
170.4106299698
 10
130.6097147098
 20
170.2449018713
 10
131.8680368955
 20
170.1258581698
 10
133.1406328511
 20
170.054164606
 10
134.4203857038
 20
170.0302221193
 10
135.7001385565
 20
170.054164606
 10
136.9727345121
 20
170.1258581698
 10
138.2310566978
 20
170.2449018713
 10
139.4680680656
 20
170.4106299698
 10
140.6768507461
 20
170.6221156466
 10
141.8506447362
 20
170.8781761879
 10
142.9828857038
 20
171.1773795994
 10
144.0672416982
 20
171.5180526143
 10
145.0976485606
 20
171.8982900507
 10
146.0683438381
 20
172.3159654668
 10
146.9738990089
 20
172.7687430522
 10
147.8092498411
 20
173.2540906909
 10
148.569724714
 20
173.7692941222
 10
149.2510707436
 20
174.3114721193
  0
LWPOLYLINE
  5
1B5
330
1F
100
AcDbEntity
  8
0
  6
Continuous
 62
     7
370
    25
100
AcDbPolyline
 90
       21
 70
   128
 43
0.0
 10
120.4557260678
 20
183.923010225
 10
121.1313509123
 20
184.4584105102
 10
121.8889070753
 20
184.9656558779
 10
122.7237239712
 20
185.4416189916
 10
123.6306546763
 20
185.8833653804
 10
124.604107661
 20
186.2881715311
 10
125.6380812642
 20
186.6535416791
 10
126.7262006946
 20
186.9772231959
 10
127.8617573342
 20
187.2572204773
 10
129.0377500987
 20
187.491807247
 10
130.2469286015
 20
187.6795371995
 10
131.4818378553
 20
187.8192529173
 10
132.7348642336
 20
187.9100930064
 10
133.9982824123
 20
187.9514974076
 10
135.2643029982
 20
187.943210849
 10
136.5251205534
 20
187.8852844199
 10
137.7729617182
 20
187.7780752559
 10
139.0001331372
 20
187.6222443374
 10
140.1990688902
 20
187.4187524137
 10
141.3623771398
 20
187.1688540801
 10
142.4828857038
 20
186.874090043
  0
LWPOLYLINE
  5
1B6
330
1F
100
AcDbEntity
  8
0
  6
Continuous
 62
     7
370
    25
100
AcDbPolyline
 90
       21
 70
   128
 43
0.0
 10
142.4828857038
 20
186.874090043
 10
143.5536862742
 20
186.5362776208
 10
144.5681770095
 20
186.1574995393
 10
145.5201032369
 20
185.7400910913
 10
146.4035960146
 20
185.2866257388
 10
147.213208316
 20
184.7998992464
 10
147.9439486119
 20
184.2829124448
 10
148.5913116455
 20
183.7388527296
 10
149.1513062083
 20
183.1710744098
 10
149.6204797477
 20
182.5830780276
 10
149.9959396527
 20
181.9784887762
 10
150.2753710883
 20
181.3610341493
 10
150.4570512666
 20
180.7345209601
 10
150.539860069
 20
180.1028118708
 10
150.5232869517
 20
179.4698015778
 10
150.4074340935
 20
178.8393928003
 10
150.1930157656
 20
178.2154722178
 10
149.8813539286
 20
177.6018865083
 10
149.4743700811
 20
177.0024186318
 10
148.974573414
 20
176.420764507
 10
148.3850453398
 20
175.860510225
  0
LWPOLYLINE
  5
1B7
330
1F
100
AcDbEntity
  8
0
  6
Continuous
 62
     7
370
    25
100
AcDbPolyline
 90
       28
 70
   128
 43
0.0
 10
138.0453857038
 20
183.0311023137
 10
137.2919640076
 20
183.2202936125
 10
136.499709141
 20
183.3644722072
 10
135.6793349919
 20
183.4616883297
 10
134.8419357134
 20
183.5106272988
 10
133.9988356942
 20
183.5106272988
 10
133.1614364157
 20
183.4616883297
 10
132.3410622667
 20
183.3644722072
 10
131.5488074
 20
183.2202936125
 10
130.7953857038
 20
183.0311023137
 10
130.090985914
 20
182.7994567988
 10
129.4451338293
 20
182.5284896757
 10
128.8665634912
 20
182.2218653101
 10
128.3630990711
 20
181.8837302705
 10
127.9415490615
 20
181.5186572533
 10
127.6076142031
 20
181.1315832446
 10
127.3658103921
 20
180.7277427565
 10
127.2194076102
 20
180.3125970387
 10
127.1703857038
 20
179.891760225
 10
127.2194076102
 20
179.4709234113
 10
127.3658103921
 20
179.0557776936
 10
127.6076142031
 20
178.6519372055
 10
127.9415490615
 20
178.2648631968
 10
128.3630990711
 20
177.8997901795
 10
128.8665634912
 20
177.5616551399
 10
129.4451338293
 20
177.2550307743
 10
130.090985914
 20
176.9840636513
 10
130.7953857038
 20
176.7524181363
  0
LWPOLYLINE
  5
1B8
330
1F
100
AcDbEntity
  8
0
  6
Continuous
 62
     7
370
    25
100
AcDbPolyline
 90
       28
 70
   128
 43
0.0
 10
130.7953857038
 20
176.7524181363
 10
131.5488074
 20
176.5632268376
 10
132.3410622667
 20
176.4190482429
 10
133.1614364157
 20
176.3218321204
 10
133.9988356942
 20
176.2728931513
 10
134.8419357134
 20
176.2728931513
 10
135.6793349919
 20
176.3218321204
 10
136.499709141
 20
176.4190482429
 10
137.2919640076
 20
176.5632268376
 10
138.0453857038
 20
176.7524181363
 10
138.7497854937
 20
176.9840636513
 10
139.3956375784
 20
177.2550307743
 10
139.9742079164
 20
177.5616551399
 10
140.4776723366
 20
177.8997901795
 10
140.8992223462
 20
178.2648631968
 10
141.2331572045
 20
178.6519372055
 10
141.4749610155
 20
179.0557776936
 10
141.6213637974
 20
179.4709234113
 10
141.6703857038
 20
179.891760225
 10
141.6213637974
 20
180.3125970387
 10
141.4749610155
 20
180.7277427565
 10
141.2331572045
 20
181.1315832446
 10
140.8992223462
 20
181.5186572533
 10
140.4776723366
 20
181.8837302705
 10
139.9742079164
 20
182.2218653101
 10
139.3956375784
 20
182.5284896757
 10
138.7497854937
 20
182.7994567988
 10
138.0453857038
 20
183.0311023137
  0
ARC
  5
1B9
330
1F
100
AcDbEntity
  8
0
  6
Continuous
 62
     7
370
    25
100
AcDbCircle
 10
130.2089424213
 20
176.8767619741
 30
0.0
 40
7.481110368058403
100
AcDbArc
 50
226.9684143957
 51
243.0701867611
  0
LWPOLYLINE
  5
1BA
330
1F
100
AcDbEntity
  8
0
  6
Continuous
 62
     7
370
    25
100
AcDbPolyline
 90
       17
 70
   128
 43
0.0
 10
130.3807330992
 20
168.9836767341
 10
130.5179299194
 20
168.9556507502
 10
131.462193857
 20
168.7922442871
 10
132.433247638
 20
168.6744567379
 10
133.4222972491
 20
168.603354805
 10
134.4203857038
 20
168.5795823985
 10
135.4184741585
 20
168.603354805
 10
136.4075237696
 20
168.6744567379
 10
137.3785775506
 20
168.7922442871
 10
138.3228414882
 20
168.9556507502
 10
139.231764182
 20
169.1631962931
 10
140.0971142871
 20
169.4130013512
 10
140.9110550591
 20
169.7028036511
 10
141.6662153244
 20
170.0299786985
 10
142.3557562345
 20
170.3915635453
 10
142.9734332003
 20
170.7842836233
 10
143.5136524435
 20
171.2045823985
  0
LWPOLYLINE
  5
1BB
330
1F
100
AcDbEntity
  8
0
  6
Continuous
 62
     7
370
    25
100
AcDbPolyline
 90
        3
 70
   128
 43
0.0
 10
119.5897006641
 20
183.3069848213
 10
120.2710466938
 20
183.8491628185
 10
120.4378817554
 20
183.9692965012
  0
LWPOLYLINE
  5
1BC
330
1F
100
AcDbEntity
  8
0
  6
Continuous
 62
     7
370
    25
100
AcDbPolyline
 90
       17
 70
   128
 43
0.0
 10
148.4028896522
 20
183.9692965012
 10
148.569724714
 20
183.8491628184
 10
149.2510707436
 20
183.3069848212
 10
149.8494775666
 20
182.7408643374
 10
150.3615986493
 20
182.1539673424
 10
150.7845700029
 20
181.5495760021
 10
151.1160261999
 20
180.9310703182
 10
151.3541136029
 20
180.3019092254
 10
151.4975007305
 20
179.6656112476
 10
151.5453857038
 20
179.0257348212
 10
151.4975007305
 20
178.3858583949
 10
151.3541136029
 20
177.7495604171
 10
151.1160261999
 20
177.1203993242
 10
150.7845700029
 20
176.5018936403
 10
150.3615986493
 20
175.8975023001
 10
149.8494775666
 20
175.310605305
 10
149.2510707436
 20
174.7444848212
  0
ARC
  5
1BD
330
1F
100
AcDbEntity
  8
0
  6
Continuous
 62
     7
370
    25
100
AcDbCircle
 10
145.8554568763
 20
178.8865609472
 30
0.0
 40
5.697510975757056
100
AcDbArc
 50
306.5826668639
 51
357.0437622721
  0
LINE
  5
1BE
330
1F
100
AcDbEntity
  8
0
  6
Continuous
 62
     7
370
    25
100
AcDbLine
 10
143.5136524435
 20
171.2045823985
 30
0.0
 11
143.736949413
 21
171.4082376971
 31
0.0
  0
LWPOLYLINE
  5
1BF
330
1F
100
AcDbEntity
  8
0
  6
Continuous
 62
     8
370
    25
100
AcDbPolyline
 90
        3
 70
   128
 43
0.0
 10
143.2135906592
 20
170.9603688036
 10
143.2477043987
 20
170.8803961139
 10
143.2971460926
 20
170.6175633457
  0
ARC
  5
1C0
330
1F
100
AcDbEntity
  8
0
  6
Continuous
 62
     8
370
    25
100
AcDbCircle
 10
129.4981659822
 20
175.035551879
 30
0.0
 40
5.928841431355678
100
AcDbArc
 50
216.1271831955
 51
241.9461130739
  0
LWPOLYLINE
  5
1C1
330
1F
100
AcDbEntity
  8
0
  6
Continuous
 62
     8
370
    25
100
AcDbPolyline
 90
       16
 70
   128
 43
0.0
 10
130.2475018662
 20
168.498996681
 10
131.1256311845
 20
168.327046432
 10
132.0928540077
 20
168.1889438269
 10
133.0824922336
 20
168.0989084312
 10
134.0850151049
 20
168.0578073349
 10
135.0907677784
 20
168.0660363641
 10
136.0900643061
 20
168.1235162688
 10
137.0732809161
 20
168.229693486
 10
138.030948695
 20
168.3835454711
 10
138.9538447786
 20
168.5835905453
 10
139.833081173
 20
168.8279021654
 10
140.6601903512
 20
169.1141274767
 10
141.4272067995
 20
169.4395099731
 10
142.1267437305
 20
169.8009160433
 10
142.7520642209
 20
170.1948651492
 10
143.2971460926
 20
170.6175633457
  0
LWPOLYLINE
  5
1C2
330
1F
100
AcDbEntity
  8
0
  6
Continuous
 62
     8
370
    25
100
AcDbPolyline
 90
        3
 70
   128
 43
0.0
 10
143.2971460926
 20
170.6175633457
 10
143.2477043987
 20
170.3832757528
 10
143.1383838401
 20
170.2379146097
  0
ARC
  5
1C3
330
1F
100
AcDbEntity
  8
0
  6
Continuous
 62
     8
370
    25
100
AcDbCircle
 10
140.3402287481
 20
174.1301623929
 30
0.0
 40
4.591482576319394
100
AcDbArc
 50
310.0907820945
 51
325.6589840104
  0
LINE
  5
1C4
330
1F
100
AcDbEntity
  8
0
  6
Continuous
 62
     8
370
    25
100
AcDbLine
 10
130.4942230667
 20
169.9685310122
 30
0.0
 11
128.3629909441
 21
170.5837647321
 31
0.0
  0
LINE
  5
1C5
330
1F
100
AcDbEntity
  8
0
  6
Continuous
 62
     8
370
    25
100
AcDbLine
 10
129.9853051386
 20
170.3223580799
 30
0.0
 11
130.5205748185
 21
170.167839033
 31
0.0
  0
LINE
  5
1C6
330
1F
100
AcDbEntity
  8
0
  6
Continuous
 62
     8
370
    25
100
AcDbLine
 10
130.6020342745
 20
170.2457793053
 30
0.0
 11
130.5205748185
 21
170.167839033
 31
0.0
  0
LINE
  5
1C7
330
1F
100
AcDbEntity
  8
0
  6
Continuous
 62
     8
370
    25
100
AcDbLine
 10
130.8547388285
 20
134.3804501519
 30
0.0
 11
130.9845741097
 21
134.3429699346
 31
0.0
  0
LINE
  5
1C8
330
1F
100
AcDbEntity
  8
0
  6
Continuous
 62
     8
370
    25
100
AcDbLine
 10
142.7558802152
 20
168.2121601231
 30
0.0
 11
142.7558802152
 21
168.089134594
 31
0.0
  0
LINE
  5
1C9
330
1F
100
AcDbEntity
  8
0
  6
Continuous
 62
     8
370
    25
100
AcDbLine
 10
142.7558802152
 20
166.1770004242
 30
0.0
 11
142.7558802152
 21
166.0539748951
 31
0.0
  0
LINE
  5
1CA
330
1F
100
AcDbEntity
  8
0
  6
Continuous
 62
     8
370
    25
100
AcDbLine
 10
142.7558802152
 20
164.1418407253
 30
0.0
 11
142.7558802152
 21
164.0188151962
 31
0.0
  0
LINE
  5
1CB
330
1F
100
AcDbEntity
  8
0
  6
Continuous
 62
     8
370
    25
100
AcDbLine
 10
140.4825635303
 20
178.141760225
 30
0.0
 11
140.597324101
 21
177.993871132
 31
0.0
  0
LINE
  5
1CC
330
1F
100
AcDbEntity
  8
0
  6
Continuous
 62
     8
370
    25
100
AcDbLine
 10
143.5136524435
 20
171.3370669973
 30
0.0
 11
143.5136524435
 21
171.2045823985
 31
0.0
  0
LINE
  5
1CD
330
1F
100
AcDbEntity
  8
0
  6
Continuous
 62
     8
370
    25
100
AcDbLine
 10
138.0453857038
 20
182.8858951168
 30
0.0
 11
138.0453857038
 21
183.0311023137
 31
0.0
  0
ENDSEC
  0
SECTION
  2
OBJECTS
  0
DICTIONARY
  5
C
330
0
100
AcDbDictionary
281
     1
  3
ACAD_GROUP
350
D
  3
ACAD_LAYOUT
350
1A
  3
ACAD_MLINESTYLE
350
17
  3
ACAD_PLOTSETTINGS
350
19
  3
ACAD_PLOTSTYLENAME
350
E
  3
ACAD_SCALELIST
350
47
  3
DWGPROPS
350
1CE
  0
DICTIONARY
  5
D
102
{ACAD_REACTORS
330
C
102
}
330
C
100
AcDbDictionary
281
     1
  0
DICTIONARY
  5
1A
102
{ACAD_REACTORS
330
C
102
}
330
C
100
AcDbDictionary
281
     1
  3
Layout1
350
1E
  3
Layout2
350
26
  3
Model
350
22
  0
DICTIONARY
  5
17
102
{ACAD_REACTORS
330
C
102
}
330
C
100
AcDbDictionary
281
     1
  3
Standard
350
18
  0
DICTIONARY
  5
19
102
{ACAD_REACTORS
330
C
102
}
330
C
100
AcDbDictionary
281
     1
  0
ACDBDICTIONARYWDFLT
  5
E
102
{ACAD_REACTORS
330
C
102
}
330
C
100
AcDbDictionary
281
     1
  3
Normal
350
F
100
AcDbDictionaryWithDefault
340
F
  0
DICTIONARY
  5
47
102
{ACAD_REACTORS
330
C
102
}
330
C
100
AcDbDictionary
281
     1
  3
A0
350
48
  3
A1
350
49
  3
A2
350
4A
  3
A3
350
4B
  3
A4
350
4C
  3
A5
350
4D
  3
A6
350
4E
  3
A7
350
4F
  3
A8
350
50
  3
A9
350
51
  3
B0
350
52
  3
B1
350
53
  3
B2
350
54
  3
B3
350
55
  3
B4
350
56
  3
B5
350
57
  3
B6
350
58
  3
B7
350
59
  3
B8
350
5A
  3
B9
350
5B
  3
C0
350
5C
  3
C1
350
5D
  3
C2
350
5E
  3
C3
350
5F
  3
C4
350
60
  3
C5
350
61
  3
C6
350
62
  3
C7
350
63
  3
C8
350
64
  3
C9
350
65
  3
D0
350
66
  3
D1
350
67
  3
D2
350
68
  0
XRECORD
  5
1CE
102
{ACAD_REACTORS
330
C
102
}
330
C
100
AcDbXrecord
280
     1
  1
DWGPROPS COOKIE
  2

  3

  4

  6

  7

  8
9128
  9

300
=
301
=
302
=
303
=
304
=
305
=
306
=
307
=
308
=
309
=
 40
0.0
 41
2460018.229710648
 42
2460018.229711019
  1

 90
        0
  0
LAYOUT
  5
1E
102
{ACAD_REACTORS
330
1A
102
}
330
1A
100
AcDbPlotSettings
  1

  2
none_device
  4

  6

 40
0.0
 41
0.0
 42
0.0
 43
0.0
 44
0.0
 45
0.0
 46
0.0
 47
0.0
 48
0.0
 49
0.0
140
0.0
141
0.0
142
1.0
143
1.0
 70
   688
 72
     1
 73
     0
 74
     5
  7

 75
    16
147
1.0
148
0.0
149
0.0
100
AcDbLayout
  1
Layout1
 70
     1
 71
     1
 10
0.0
 20
0.0
 11
420.0
 21
297.0
 12
0.0
 22
0.0
 32
0.0
 14
1.0000000000E+20
 24
1.0000000000E+20
 34
1.0000000000E+20
 15
-1.0000000000E+20
 25
-1.0000000000E+20
 35
-1.0000000000E+20
146
0.0
 13
0.0
 23
0.0
 33
0.0
 16
1.0
 26
0.0
 36
0.0
 17
0.0
 27
1.0
 37
0.0
 76
     0
330
1B
  0
LAYOUT
  5
26
102
{ACAD_REACTORS
330
1A
102
}
330
1A
100
AcDbPlotSettings
  1

  2
none_device
  4

  6

 40
0.0
 41
0.0
 42
0.0
 43
0.0
 44
0.0
 45
0.0
 46
0.0
 47
0.0
 48
0.0
 49
0.0
140
0.0
141
0.0
142
1.0
143
1.0
 70
   688
 72
     1
 73
     0
 74
     5
  7

 75
    16
147
1.0
148
0.0
149
0.0
100
AcDbLayout
  1
Layout2
 70
     1
 71
     2
 10
0.0
 20
0.0
 11
0.0
 21
0.0
 12
0.0
 22
0.0
 32
0.0
 14
0.0
 24
0.0
 34
0.0
 15
0.0
 25
0.0
 35
0.0
146
0.0
 13
0.0
 23
0.0
 33
0.0
 16
1.0
 26
0.0
 36
0.0
 17
0.0
 27
1.0
 37
0.0
 76
     0
330
23
  0
LAYOUT
  5
22
102
{ACAD_REACTORS
330
1A
102
}
330
1A
100
AcDbPlotSettings
  1

  2
none_device
  4
Letter_(8.50_x_11.00_Inches)
  6

 40
6.35
 41
6.35
 42
6.35000508
 43
6.35000508
 44
215.9
 45
279.4
 46
0.0
 47
0.0
 48
0.0
 49
0.0
140
0.0
141
0.0
142
1.0
143
1.0
 70
  1712
 72
     1
 73
     0
 74
     0
  7

 75
     0
147
1.0
148
0.0
149
0.0
100
AcDbLayout
  1
Model
 70
     1
 71
     0
 10
0.0
 20
0.0
 11
210.0
 21
297.0
 12
0.0
 22
0.0
 32
0.0
 14
0.0
 24
0.0
 34
0.0
 15
210.0
 25
297.0
 35
0.0
146
0.0
 13
0.0
 23
0.0
 33
0.0
 16
1.0
 26
0.0
 36
0.0
 17
0.0
 27
1.0
 37
0.0
 76
     0
330
1F
331
29
  0
MLINESTYLE
  5
18
102
{ACAD_REACTORS
330
17
102
}
330
17
100
AcDbMlineStyle
  2
Standard
 70
     0
  3

 62
   256
 51
90.0
 52
90.0
 71
     2
 49
0.5
 62
   256
  6
BYLAYER
 49
-0.5
 62
   256
  6
BYLAYER
  0
ACDBPLACEHOLDER
  5
F
102
{ACAD_REACTORS
330
E
102
}
330
E
  0
SCALE
  5
48
102
{ACAD_REACTORS
330
47
102
}
330
47
100
AcDbScale
 70
     0
300
1:1
140
1.0
141
1.0
290
     1
  0
SCALE
  5
49
102
{ACAD_REACTORS
330
47
102
}
330
47
100
AcDbScale
 70
     0
300
1:2
140
1.0
141
2.0
290
     0
  0
SCALE
  5
4A
102
{ACAD_REACTORS
330
47
102
}
330
47
100
AcDbScale
 70
     0
300
1:4
140
1.0
141
4.0
290
     0
  0
SCALE
  5
4B
102
{ACAD_REACTORS
330
47
102
}
330
47
100
AcDbScale
 70
     0
300
1:5
140
1.0
141
5.0
290
     0
  0
SCALE
  5
4C
102
{ACAD_REACTORS
330
47
102
}
330
47
100
AcDbScale
 70
     0
300
1:8
140
1.0
141
8.0
290
     0
  0
SCALE
  5
4D
102
{ACAD_REACTORS
330
47
102
}
330
47
100
AcDbScale
 70
     0
300
1:10
140
1.0
141
10.0
290
     0
  0
SCALE
  5
4E
102
{ACAD_REACTORS
330
47
102
}
330
47
100
AcDbScale
 70
     0
300
1:16
140
1.0
141
16.0
290
     0
  0
SCALE
  5
4F
102
{ACAD_REACTORS
330
47
102
}
330
47
100
AcDbScale
 70
     0
300
1:20
140
1.0
141
20.0
290
     0
  0
SCALE
  5
50
102
{ACAD_REACTORS
330
47
102
}
330
47
100
AcDbScale
 70
     0
300
1:30
140
1.0
141
30.0
290
     0
  0
SCALE
  5
51
102
{ACAD_REACTORS
330
47
102
}
330
47
100
AcDbScale
 70
     0
300
1:40
140
1.0
141
40.0
290
     0
  0
SCALE
  5
52
102
{ACAD_REACTORS
330
47
102
}
330
47
100
AcDbScale
 70
     0
300
1:50
140
1.0
141
50.0
290
     0
  0
SCALE
  5
53
102
{ACAD_REACTORS
330
47
102
}
330
47
100
AcDbScale
 70
     0
300
1:100
140
1.0
141
100.0
290
     0
  0
SCALE
  5
54
102
{ACAD_REACTORS
330
47
102
}
330
47
100
AcDbScale
 70
     0
300
2:1
140
2.0
141
1.0
290
     0
  0
SCALE
  5
55
102
{ACAD_REACTORS
330
47
102
}
330
47
100
AcDbScale
 70
     0
300
4:1
140
4.0
141
1.0
290
     0
  0
SCALE
  5
56
102
{ACAD_REACTORS
330
47
102
}
330
47
100
AcDbScale
 70
     0
300
8:1
140
8.0
141
1.0
290
     0
  0
SCALE
  5
57
102
{ACAD_REACTORS
330
47
102
}
330
47
100
AcDbScale
 70
     0
300
10:1
140
10.0
141
1.0
290
     0
  0
SCALE
  5
58
102
{ACAD_REACTORS
330
47
102
}
330
47
100
AcDbScale
 70
     0
300
100:1
140
100.0
141
1.0
290
     0
  0
SCALE
  5
59
102
{ACAD_REACTORS
330
47
102
}
330
47
100
AcDbScale
 70
     0
300
1/128" = 1'-0"
140
0.0078125
141
12.0
290
     0
  0
SCALE
  5
5A
102
{ACAD_REACTORS
330
47
102
}
330
47
100
AcDbScale
 70
     0
300
1/64" = 1'-0"
140
0.015625
141
12.0
290
     0
  0
SCALE
  5
5B
102
{ACAD_REACTORS
330
47
102
}
330
47
100
AcDbScale
 70
     0
300
1/32" = 1'-0"
140
0.03125
141
12.0
290
     0
  0
SCALE
  5
5C
102
{ACAD_REACTORS
330
47
102
}
330
47
100
AcDbScale
 70
     0
300
1/16" = 1'-0"
140
0.0625
141
12.0
290
     0
  0
SCALE
  5
5D
102
{ACAD_REACTORS
330
47
102
}
330
47
100
AcDbScale
 70
     0
300
3/32" = 1'-0"
140
0.09375
141
12.0
290
     0
  0
SCALE
  5
5E
102
{ACAD_REACTORS
330
47
102
}
330
47
100
AcDbScale
 70
     0
300
1/8" = 1'-0"
140
0.125
141
12.0
290
     0
  0
SCALE
  5
5F
102
{ACAD_REACTORS
330
47
102
}
330
47
100
AcDbScale
 70
     0
300
3/16" = 1'-0"
140
0.1875
141
12.0
290
     0
  0
SCALE
  5
60
102
{ACAD_REACTORS
330
47
102
}
330
47
100
AcDbScale
 70
     0
300
1/4" = 1'-0"
140
0.25
141
12.0
290
     0
  0
SCALE
  5
61
102
{ACAD_REACTORS
330
47
102
}
330
47
100
AcDbScale
 70
     0
300
3/8" = 1'-0"
140
0.375
141
12.0
290
     0
  0
SCALE
  5
62
102
{ACAD_REACTORS
330
47
102
}
330
47
100
AcDbScale
 70
     0
300
1/2" = 1'-0"
140
0.5
141
12.0
290
     0
  0
SCALE
  5
63
102
{ACAD_REACTORS
330
47
102
}
330
47
100
AcDbScale
 70
     0
300
3/4" = 1'-0"
140
0.75
141
12.0
290
     0
  0
SCALE
  5
64
102
{ACAD_REACTORS
330
47
102
}
330
47
100
AcDbScale
 70
     0
300
1" = 1'-0"
140
1.0
141
12.0
290
     0
  0
SCALE
  5
65
102
{ACAD_REACTORS
330
47
102
}
330
47
100
AcDbScale
 70
     0
300
1-1/2" = 1'-0"
140
1.5
141
12.0
290
     0
  0
SCALE
  5
66
102
{ACAD_REACTORS
330
47
102
}
330
47
100
AcDbScale
 70
     0
300
3" = 1'-0"
140
3.0
141
12.0
290
     0
  0
SCALE
  5
67
102
{ACAD_REACTORS
330
47
102
}
330
47
100
AcDbScale
 70
     0
300
6" = 1'-0"
140
6.0
141
12.0
290
     0
  0
SCALE
  5
68
102
{ACAD_REACTORS
330
47
102
}
330
47
100
AcDbScale
 70
     0
300
1'-0" = 1'-0"
140
12.0
141
12.0
290
     0
  0
ENDSEC
  0
EOF
