  0
SECTION
  2
HEADER
  9
$ACADVER
  1
AC1015
  9
$ACADMAINTVER
 70
     6
  9
$DWGCODEPAGE
  3
DOS932
  9
$INSBASE
 10
0.0
 20
0.0
 30
0.0
  9
$EXTMIN
 10
0.0
 20
0.0
 30
0.0
  9
$EXTMAX
 10
210.0
 20
297.0
 30
0.0
  9
$LIMMIN
 10
0.0
 20
0.0
  9
$LIMMAX
 10
210.0
 20
297.0
  9
$ORTHOMODE
 70
     0
  9
$REGENMODE
 70
     1
  9
$FILLMODE
 70
     1
  9
$QTEXTMODE
 70
     0
  9
$MIRRTEXT
 70
     1
  9
$LTSCALE
 40
1.0
  9
$ATTMODE
 70
     1
  9
$TEXTSIZE
 40
3.5
  9
$TRACEWID
 40
1.0
  9
$TEXTSTYLE
  7
Standard
  9
$CLAYER
  8
0
  9
$CELTYPE
  6
ByLayer
  9
$CECOLOR
 62
   256
  9
$CELTSCALE
 40
1.0
  9
$DISPSILH
 70
     0
  9
$DIMSCALE
 40
1.0
  9
$DIMASZ
 40
1.5
  9
$DIMEXO
 40
1.0
  9
$DIMDLI
 40
3.75
  9
$DIMRND
 40
0.0
  9
$DIMDLE
 40
0.0
  9
$DIMEXE
 40
1.0
  9
$DIMTP
 40
0.0
  9
$DIMTM
 40
0.0
  9
$DIMTXT
 40
3.5
  9
$DIMCEN
 40
2.5
  9
$DIMTSZ
 40
0.0
  9
$DIMTOL
 70
     0
  9
$DIMLIM
 70
     0
  9
$DIMTIH
 70
     1
  9
$DIMTOH
 70
     1
  9
$DIMSE1
 70
     0
  9
$DIMSE2
 70
     0
  9
$DIMTAD
 70
     1
  9
$DIMZIN
 70
     0
  9
$DIMBLK
  1

  9
$DIMASO
 70
     1
  9
$DIMSHO
 70
     1
  9
$DIMPOST
  1

  9
$DIMAPOST
  1

  9
$DIMALT
 70
     0
  9
$DIMALTD
 70
     3
  9
$DIMALTF
 40
0.0393700787
  9
$DIMLFAC
 40
5.0
  9
$DIMTOFL
 70
     1
  9
$DIMTVP
 40
0.0
  9
$DIMTIX
 70
     0
  9
$DIMSOXD
 70
     0
  9
$DIMSAH
 70
     0
  9
$DIMBLK1
  1

  9
$DIMBLK2
  1

  9
$DIMSTYLE
  2
ISO-25
  9
$DIMCLRD
 70
     0
  9
$DIMCLRE
 70
     0
  9
$DIMCLRT
 70
     0
  9
$DIMTFAC
 40
1.0
  9
$DIMGAP
 40
1.5
  9
$DIMJUST
 70
     0
  9
$DIMSD1
 70
     0
  9
$DIMSD2
 70
     0
  9
$DIMTOLJ
 70
     0
  9
$DIMTZIN
 70
     0
  9
$DIMALTZ
 70
     0
  9
$DIMALTTZ
 70
     0
  9
$DIMUPT
 70
     0
  9
$DIMDEC
 70
     1
  9
$DIMTDEC
 70
     1
  9
$DIMALTU
 70
     2
  9
$DIMALTTD
 70
     3
  9
$DIMTXSTY
  7
Standard
  9
$DIMAUNIT
 70
     0
  9
$DIMADEC
 70
     2
  9
$DIMALTRND
 40
0.0
  9
$DIMAZIN
 70
     0
  9
$DIMDSEP
 70
    44
  9
$DIMATFIT
 70
     3
  9
$DIMFRAC
 70
     0
  9
$DIMLDRBLK
  1

  9
$DIMLUNIT
 70
     2
  9
$DIMLWD
 70
    -2
  9
$DIMLWE
 70
    -2
  9
$DIMTMOVE
 70
     0
  9
$LUNITS
 70
     2
  9
$LUPREC
 70
     2
  9
$SKETCHINC
 40
1.0
  9
$FILLETRAD
 40
10.0
  9
$AUNITS
 70
     0
  9
$AUPREC
 70
     2
  9
$MENU
  1
.
  9
$ELEVATION
 40
0.0
  9
$PELEVATION
 40
0.0
  9
$THICKNESS
 40
0.0
  9
$LIMCHECK
 70
     0
  9
$CHAMFERA
 40
0.0
  9
$CHAMFERB
 40
0.0
  9
$CHAMFERC
 40
0.0
  9
$CHAMFERD
 40
0.0
  9
$SKPOLY
 70
     0
  9
$TDCREATE
 40
2460018.604947315
  9
$TDUCREATE
 40
2460018.229947315
  9
$TDUPDATE
 40
2460018.604947604
  9
$TDUUPDATE
 40
2460018.229947604
  9
$TDINDWG
 40
0.0000000116
  9
$TDUSRTIMER
 40
0.0000000116
  9
$USRTIMER
 70
     1
  9
$ANGBASE
 50
0.0
  9
$ANGDIR
 70
     0
  9
$PDMODE
 70
     0
  9
$PDSIZE
 40
-1.0
  9
$PLINEWID
 40
0.0
  9
$SPLFRAME
 70
     0
  9
$SPLINETYPE
 70
     6
  9
$SPLINESEGS
 70
     8
  9
$HANDSEED
  5
195
  9
$SURFTAB1
 70
     6
  9
$SURFTAB2
 70
     6
  9
$SURFTYPE
 70
     6
  9
$SURFU
 70
     6
  9
$SURFV
 70
     6
  9
$UCSBASE
  2

  9
$UCSNAME
  2

  9
$UCSORG
 10
0.0
 20
0.0
 30
0.0
  9
$UCSXDIR
 10
1.0
 20
0.0
 30
0.0
  9
$UCSYDIR
 10
0.0
 20
1.0
 30
0.0
  9
$UCSORTHOREF
  2

  9
$UCSORTHOVIEW
 70
     0
  9
$UCSORGTOP
 10
0.0
 20
0.0
 30
0.0
  9
$UCSORGBOTTOM
 10
0.0
 20
0.0
 30
0.0
  9
$UCSORGLEFT
 10
0.0
 20
0.0
 30
0.0
  9
$UCSORGRIGHT
 10
0.0
 20
0.0
 30
0.0
  9
$UCSORGFRONT
 10
0.0
 20
0.0
 30
0.0
  9
$UCSORGBACK
 10
0.0
 20
0.0
 30
0.0
  9
$PUCSBASE
  2

  9
$PUCSNAME
  2

  9
$PUCSORG
 10
0.0
 20
0.0
 30
0.0
  9
$PUCSXDIR
 10
1.0
 20
0.0
 30
0.0
  9
$PUCSYDIR
 10
0.0
 20
1.0
 30
0.0
  9
$PUCSORTHOREF
  2

  9
$PUCSORTHOVIEW
 70
     0
  9
$PUCSORGTOP
 10
0.0
 20
0.0
 30
0.0
  9
$PUCSORGBOTTOM
 10
0.0
 20
0.0
 30
0.0
  9
$PUCSORGLEFT
 10
0.0
 20
0.0
 30
0.0
  9
$PUCSORGRIGHT
 10
0.0
 20
0.0
 30
0.0
  9
$PUCSORGFRONT
 10
0.0
 20
0.0
 30
0.0
  9
$PUCSORGBACK
 10
0.0
 20
0.0
 30
0.0
  9
$USERI1
 70
     0
  9
$USERI2
 70
     0
  9
$USERI3
 70
     0
  9
$USERI4
 70
     0
  9
$USERI5
 70
     0
  9
$USERR1
 40
0.0
  9
$USERR2
 40
0.0
  9
$USERR3
 40
0.0
  9
$USERR4
 40
0.0
  9
$USERR5
 40
0.0
  9
$WORLDVIEW
 70
     1
  9
$SHADEDGE
 70
     3
  9
$SHADEDIF
 70
    70
  9
$TILEMODE
 70
     1
  9
$MAXACTVP
 70
    64
  9
$PINSBASE
 10
0.0
 20
0.0
 30
0.0
  9
$PLIMCHECK
 70
     0
  9
$PEXTMIN
 10
1.0000000000E+20
 20
1.0000000000E+20
 30
1.0000000000E+20
  9
$PEXTMAX
 10
-1.0000000000E+20
 20
-1.0000000000E+20
 30
-1.0000000000E+20
  9
$PLIMMIN
 10
0.0
 20
0.0
  9
$PLIMMAX
 10
420.0
 20
297.0
  9
$UNITMODE
 70
     0
  9
$VISRETAIN
 70
     1
  9
$PLINEGEN
 70
     0
  9
$PSLTSCALE
 70
     1
  9
$TREEDEPTH
 70
  3020
  9
$CMLSTYLE
  2
Standard
  9
$CMLJUST
 70
     0
  9
$CMLSCALE
 40
20.0
  9
$PROXYGRAPHICS
 70
     1
  9
$MEASUREMENT
 70
     1
  9
$CELWEIGHT
370
    -1
  9
$ENDCAPS
280
     0
  9
$JOINSTYLE
280
     0
  9
$LWDISPLAY
290
     1
  9
$INSUNITS
 70
     4
  9
$HYPERLINKBASE
  1

  9
$STYLESHEET
  1

  9
$XEDIT
290
     1
  9
$CEPSNTYPE
380
     0
  9
$PSTYLEMODE
290
     1
  9
$FINGERPRINTGUID
  2
{081b12b4-49dd-4bdc-9993-99a80b3aaa56}
  9
$VERSIONGUID
  2
{FAEB1C32-E019-11D5-929B-00C0DF256EC4}
  9
$EXTNAMES
290
     1
  9
$PSVPSCALE
 40
0.0
  9
$OLESTARTUP
290
     0
  0
ENDSEC
  0
SECTION
  2
CLASSES
  0
CLASS
  1
ACDBDICTIONARYWDFLT
  2
AcDbDictionaryWithDefault
  3
ObjectDBX Classes
 90
        0
280
     0
281
     0
  0
CLASS
  1
VISUALSTYLE
  2
AcDbVisualStyle
  3
ObjectDBX Classes
 90
     4095
280
     0
281
     0
  0
CLASS
  1
MATERIAL
  2
AcDbMaterial
  3
ObjectDBX Classes
 90
     1153
280
     0
281
     0
  0
CLASS
  1
SCALE
  2
AcDbScale
  3
ObjectDBX Classes
 90
     1153
280
     0
281
     0
  0
CLASS
  1
TABLESTYLE
  2
AcDbTableStyle
  3
ObjectDBX Classes
 90
     4095
280
     0
281
     0
  0
CLASS
  1
MLEADERSTYLE
  2
AcDbMLeaderStyle
  3
ACDB_MLEADERSTYLE_CLASS
 90
     4095
280
     0
281
     0
  0
CLASS
  1
SUN
  2
AcDbSun
  3
SCENEOE
 90
     1153
280
     0
281
     0
  0
CLASS
  1
ACDBPLACEHOLDER
  2
AcDbPlaceHolder
  3
ObjectDBX Classes
 90
        0
280
     0
281
     0
  0
CLASS
  1
LAYOUT
  2
AcDbLayout
  3
ObjectDBX Classes
 90
        0
280
     0
281
     0
  0
ENDSEC
  0
SECTION
  2
TABLES
  0
TABLE
  2
VPORT
  5
8
330
0
100
AcDbSymbolTable
 70
     1
  0
VPORT
  5
29
330
8
100
AcDbSymbolTableRecord
100
AcDbViewportTableRecord
  2
*Active
 70
     0
 10
0.0
 20
0.0
 11
1.0
 21
1.0
 12
105.0
 22
148.5
 13
0.0
 23
0.0
 14
10.0
 24
10.0
 15
10.0
 25
10.0
 16
0.0
 26
0.0
 36
1.0
 17
0.0
 27
0.0
 37
0.0
 40
297.0
 41
0.7070707071
 42
50.0
 43
0.0
 44
0.0
 50
0.0
 51
0.0
 71
     0
 72
  2000
 73
     1
 74
     3
 75
     0
 76
     0
 77
     0
 78
     0
281
     0
 65
     1
110
0.0
120
0.0
130
0.0
111
1.0
121
0.0
131
0.0
112
0.0
122
1.0
132
0.0
 79
     0
146
0.0
  0
ENDTAB
  0
TABLE
  2
LTYPE
  5
5
330
0
100
AcDbSymbolTable
 70
     6
  0
LTYPE
  5
14
330
5
100
AcDbSymbolTableRecord
100
AcDbLinetypeTableRecord
  2
ByBlock
 70
     0
  3

 72
    65
 73
     0
 40
0.0
  0
LTYPE
  5
15
330
5
100
AcDbSymbolTableRecord
100
AcDbLinetypeTableRecord
  2
ByLayer
 70
     0
  3

 72
    65
 73
     0
 40
0.0
  0
LTYPE
  5
16
330
5
100
AcDbSymbolTableRecord
100
AcDbLinetypeTableRecord
  2
Continuous
 70
     0
  3
Solid line
 72
    65
 73
     0
 40
0.0
  0
LTYPE
  5
6E
330
5
100
AcDbSymbolTableRecord
100
AcDbLinetypeTableRecord
  2
HIDDEN
 70
     0
  3
Hidden __ __ __ __ __ __ __ __ __ __ __ __ __ __
 72
    65
 73
     2
 40
1.905
 49
1.27
 74
     0
 49
-0.635
 74
     0
  0
LTYPE
  5
6F
330
5
100
AcDbSymbolTableRecord
100
AcDbLinetypeTableRecord
  2
PHANTOM
 70
     0
  3
Phantom ______  __  __  ______  __  __  ______
 72
    65
 73
     6
 40
12.7
 49
6.35
 74
     0
 49
-1.27
 74
     0
 49
1.27
 74
     0
 49
-1.27
 74
     0
 49
1.27
 74
     0
 49
-1.27
 74
     0
  0
LTYPE
  5
70
330
5
100
AcDbSymbolTableRecord
100
AcDbLinetypeTableRecord
  2
CENTER
 70
     0
  3
Center ____ _ ____ _ ____ _ ____ _ ____ _ ____
 72
    65
 73
     4
 40
10.16
 49
6.35
 74
     0
 49
-1.27
 74
     0
 49
1.27
 74
     0
 49
-1.27
 74
     0
  0
LTYPE
  5
71
330
5
100
AcDbSymbolTableRecord
100
AcDbLinetypeTableRecord
  2
CENTERX2
 70
     0
  3
Center (2x) ________  __  ________  __  _____
 72
    65
 73
     4
 40
20.32
 49
12.7
 74
     0
 49
-2.54
 74
     0
 49
2.54
 74
     0
 49
-2.54
 74
     0
  0
LTYPE
  5
72
330
5
100
AcDbSymbolTableRecord
100
AcDbLinetypeTableRecord
  2
DOT2
 70
     0
  3
Dot (.5x) ........................................
 72
    65
 73
     2
 40
0.635
 49
0.0
 74
     0
 49
-0.635
 74
     0
  0
ENDTAB
  0
TABLE
  2
LAYER
  5
2
330
0
100
AcDbSymbolTable
 70
     2
  0
LAYER
  5
10
330
2
100
AcDbSymbolTableRecord
100
AcDbLayerTableRecord
  2
0
 70
     0
 62
     7
  6
Continuous
370
    -3
390
F
  0
LAYER
  5
73
330
2
100
AcDbSymbolTableRecord
100
AcDbLayerTableRecord
  2
FORMAT
 70
     0
 62
     7
  6
Continuous
370
    -3
390
F
  0
ENDTAB
  0
TABLE
  2
STYLE
  5
3
330
0
100
AcDbSymbolTable
 70
     2
  0
STYLE
  5
11
330
3
100
AcDbSymbolTableRecord
100
AcDbTextStyleTableRecord
  2
Standard
 70
     0
 40
0.0
 41
1.0
 50
0.0
 71
     0
 42
3.5
  3
txt
  4
bigfont
  0
STYLE
  5
74
330
3
100
AcDbSymbolTableRecord
100
AcDbTextStyleTableRecord
  2
SLDTEXTSTYLE0
 70
     0
 40
0.0
 41
0.7
 50
0.0
 71
     0
 42
3.5
  3
TXT
  4
bigfont
  0
ENDTAB
  0
TABLE
  2
VIEW
  5
6
330
0
100
AcDbSymbolTable
 70
     0
  0
ENDTAB
  0
TABLE
  2
UCS
  5
7
330
0
100
AcDbSymbolTable
 70
     0
  0
ENDTAB
  0
TABLE
  2
APPID
  5
9
330
0
100
AcDbSymbolTable
 70
     1
  0
APPID
  5
12
330
9
100
AcDbSymbolTableRecord
100
AcDbRegAppTableRecord
  2
ACAD
 70
     0
  0
ENDTAB
  0
TABLE
  2
DIMSTYLE
  5
A
330
0
100
AcDbSymbolTable
 70
     1
100
AcDbDimStyleTable
  0
DIMSTYLE
105
27
330
A
100
AcDbSymbolTableRecord
100
AcDbDimStyleTableRecord
  2
ISO-25
 70
     0
 41
2.5
 42
0.625
 43
3.75
 44
1.25
 73
     0
 74
     0
 77
     1
 78
     8
140
2.5
141
2.5
143
0.0393700787
147
0.625
171
     3
172
     1
178
     0
271
     2
272
     2
274
     3
278
    44
283
     0
284
     8
340
11
  0
ENDTAB
  0
TABLE
  2
BLOCK_RECORD
  5
1
330
0
100
AcDbSymbolTable
 70
     1
  0
BLOCK_RECORD
  5
1F
330
1
100
AcDbSymbolTableRecord
100
AcDbBlockTableRecord
  2
*Model_Space
340
22
  0
BLOCK_RECORD
  5
1B
330
1
100
AcDbSymbolTableRecord
100
AcDbBlockTableRecord
  2
*Paper_Space
340
1E
  0
BLOCK_RECORD
  5
23
330
1
100
AcDbSymbolTableRecord
100
AcDbBlockTableRecord
  2
*Paper_Space0
340
26
  0
ENDTAB
  0
ENDSEC
  0
SECTION
  2
BLOCKS
  0
BLOCK
  5
20
330
1F
100
AcDbEntity
  8
0
100
AcDbBlockBegin
  2
*Model_Space
 70
     0
 10
0.0
 20
0.0
 30
0.0
  3
*Model_Space
  1

  0
ENDBLK
  5
21
330
1F
100
AcDbEntity
  8
0
100
AcDbBlockEnd
  0
BLOCK
  5
1C
330
1B
100
AcDbEntity
 67
     1
  8
0
100
AcDbBlockBegin
  2
*Paper_Space
 70
     0
 10
0.0
 20
0.0
 30
0.0
  3
*Paper_Space
  1

  0
ENDBLK
  5
1D
330
1B
100
AcDbEntity
 67
     1
  8
0
100
AcDbBlockEnd
  0
BLOCK
  5
24
330
23
100
AcDbEntity
  8
0
100
AcDbBlockBegin
  2
*Paper_Space0
 70
     0
 10
0.0
 20
0.0
 30
0.0
  3
*Paper_Space0
  1

  0
ENDBLK
  5
25
330
23
100
AcDbEntity
  8
0
100
AcDbBlockEnd
  0
ENDSEC
  0
SECTION
  2
ENTITIES
  0
MTEXT
  5
75
330
1F
100
AcDbEntity
  8
0
  6
Continuous
 62
     7
370
     0
100
AcDbMText
 10
153.6266823862
 20
117.3614402662
 30
0.0
 40
3.5
 41
0.0
 71
     1
 72
     1
  1
HHA-W/W16S
  7
SLDTEXTSTYLE0
 73
     1
 44
1.0
  0
LINE
  5
76
330
1F
100
AcDbEntity
  8
0
  6
Continuous
 62
     7
370
    25
100
AcDbLine
 10
36.4446275625
 20
159.2985560038
 30
0.0
 11
36.8243957887
 21
124.4368463907
 31
0.0
  0
LINE
  5
77
330
1F
100
AcDbEntity
  8
0
  6
Continuous
 62
     7
370
    25
100
AcDbLine
 10
51.1944082719
 20
154.5533309717
 30
0.0
 11
51.1944082719
 21
153.9784199941
 31
0.0
  0
SPLINE
  5
78
330
1F
100
AcDbEntity
  8
0
  6
Continuous
 62
     7
370
    25
100
AcDbSpline
210
0.0
220
0.0
230
1.0
 70
     8
 71
     3
 72
    27
 73
    23
 74
     0
 42
0.00000001
 43
0.00000001
 40
0.0
 40
0.0
 40
0.0
 40
0.0
 40
0.0551740050953731
 40
0.1050203731509029
 40
0.1488874824989301
 40
0.2066278639563351
 40
0.2625454636504923
 40
0.3169215467297379
 40
0.3710936505025283
 40
0.4248513284011474
 40
0.4790358129597159
 40
0.5329922912239123
 40
0.5870792353661666
 40
0.6408096030748365
 40
0.6934745592776186
 40
0.7280242719361854
 40
0.7629942970757934
 40
0.8068916685657711
 40
0.8466522867816323
 40
0.8918076567293003
 40
0.9428310396308546
 40
1.0
 40
1.0
 40
1.0
 40
1.0
 10
48.01194209201692
 20
128.7147029437195
 30
0.0
 10
48.14641934544341
 20
128.9453546232659
 30
0.0
 10
48.40238864313612
 20
129.3843861094153
 30
0.0
 10
48.90250155907912
 20
129.9071094465109
 30
0.0
 10
49.50569541743688
 20
130.3683740299643
 30
0.0
 10
50.25457699283992
 20
130.7505936966334
 30
0.0
 10
51.15584358170489
 20
131.0333920733055
 30
0.0
 10
52.12497530323164
 20
131.1891993532199
 30
0.0
 10
53.14541969905076
 20
131.224411486178
 30
0.0
 10
54.20610267386185
 20
131.1406794015886
 30
0.0
 10
55.28077995552611
 20
130.9416621100119
 30
0.0
 10
56.34616605314037
 20
130.6310523580682
 30
0.0
 10
57.37046913661885
 20
130.2155934877276
 30
0.0
 10
58.32554440948872
 20
129.707381204613
 30
0.0
 10
59.09239388266996
 20
129.1827700471634
 30
0.0
 10
59.69468528664906
 20
128.6779660190211
 30
0.0
 10
60.20210953960104
 20
128.1737039511783
 30
0.0
 10
60.66513935116431
 20
127.6065070694177
 30
0.0
 10
61.0833317768531
 20
126.9501807910635
 30
0.0
 10
61.42368862376861
 20
126.218923916935
 30
0.0
 10
61.68207611855787
 20
125.354495777053
 30
0.0
 10
61.71756185896691
 20
124.7230000648986
 30
0.0
 10
61.73631256558612
 20
124.3893169940817
 30
0.0
  0
LINE
  5
79
330
1F
100
AcDbEntity
  8
0
  6
Continuous
 62
     7
370
    25
100
AcDbLine
 10
61.726241286
 20
124.4494622564
 30
0.0
 11
61.7612044819
 21
112.8848562175
 31
0.0
  0
SPLINE
  5
7A
330
1F
100
AcDbEntity
  8
0
  6
Continuous
 62
     7
370
    25
100
AcDbSpline
210
0.0
220
0.0
230
1.0
 70
     8
 71
     3
 72
    24
 73
    20
 74
     0
 42
0.00000001
 43
0.00000001
 40
0.0
 40
0.0
 40
0.0
 40
0.0
 40
0.0125354158572841
 40
0.0764944844976917
 40
0.1404728077408918
 40
0.2044698789749045
 40
0.268492466700787
 40
0.3325475785424496
 40
0.3966424501708959
 40
0.4607844603621645
 40
0.524980919799259
 40
0.5892386542797112
 40
0.653563260200315
 40
0.7179578510320712
 40
0.7824210415048273
 40
0.8469438533101021
 40
0.9115052384620499
 40
0.9760510292568884
 40
0.9999999999999999
 40
0.9999999999999999
 40
0.9999999999999999
 40
0.9999999999999999
 10
62.3591591480648
 20
112.4246450522983
 30
0.0
 10
62.45844864257941
 20
112.4286243517214
 30
0.0
 10
63.06433988586974
 20
112.4529071087917
 30
0.0
 10
64.17085909716292
 20
112.5316852396723
 30
0.0
 10
65.66758375797112
 20
112.6814441176491
 30
0.0
 10
67.14189931249716
 20
112.882326018279
 30
0.0
 10
68.58804016024972
 20
113.1310337073851
 30
0.0
 10
69.99994196468727
 20
113.4273498351028
 30
0.0
 10
71.37181493335723
 20
113.7700313064074
 30
0.0
 10
72.69800275369641
 20
114.1579221168467
 30
0.0
 10
73.97304175341748
 20
114.5896709479537
 30
0.0
 10
75.19166643756914
 20
115.0638219882765
 30
0.0
 10
76.34879827154775
 20
115.578812159943
 30
0.0
 10
77.43961441511867
 20
116.1329627718903
 30
0.0
 10
78.4592610589806
 20
116.7245640910082
 30
0.0
 10
79.40384943815755
 20
117.3515419193372
 30
0.0
 10
80.2665433369839
 20
118.0125589502501
 30
0.0
 10
80.88748550925858
 20
118.5581067559095
 30
0.0
 10
81.21086672401786
 20
118.8853257395347
 30
0.0
 10
81.29838204262597
 20
118.9738796576338
 30
0.0
  0
SPLINE
  5
7B
330
1F
100
AcDbEntity
  8
0
  6
Continuous
 62
     7
370
    25
100
AcDbSpline
210
0.0
220
0.0
230
1.0
 70
     8
 71
     3
 72
    13
 73
     9
 74
     0
 42
0.00000001
 43
0.00000001
 40
0.0
 40
0.0
 40
0.0
 40
0.0
 40
0.1568988221672864
 40
0.3079886142334798
 40
0.4468828413334781
 40
0.572544180235607
 40
0.7963446518899012
 40
1.0
 40
1.0
 40
1.0
 40
1.0
 10
61.77043430746765
 20
112.8801721291654
 30
0.0
 10
61.77814928664591
 20
112.830461761284
 30
0.0
 10
61.79329360521458
 20
112.7328815047508
 30
0.0
 10
61.86242466759377
 20
112.6153874025299
 30
0.0
 10
61.94777857726049
 20
112.5318455203563
 30
0.0
 10
62.06392908761131
 20
112.4631255844323
 30
0.0
 10
62.20621928903358
 20
112.4231381063779
 30
0.0
 10
62.30956314641719
 20
112.4230143614583
 30
0.0
 10
62.35879988218581
 20
112.4229554049218
 30
0.0
  0
LINE
  5
7C
330
1F
100
AcDbEntity
  8
0
  6
Continuous
 62
     7
370
    25
100
AcDbLine
 10
47.6507190628
 20
114.9536415377
 30
0.0
 11
61.7606650931
 21
113.0632672157
 31
0.0
  0
SPLINE
  5
7D
330
1F
100
AcDbEntity
  8
0
  6
Continuous
 62
     7
370
    25
100
AcDbSpline
210
0.0
220
0.0
230
1.0
 70
     8
 71
     3
 72
    12
 73
     8
 74
     0
 42
0.00000001
 43
0.00000001
 40
0.0
 40
0.0
 40
0.0
 40
0.0
 40
0.2068091913567706
 40
0.4438875462537395
 40
0.7126456191879085
 40
0.8560325161857257
 40
1.0
 40
1.0
 40
1.0
 40
1.0
 10
47.06668403671765
 20
114.4656731226505
 30
0.0
 10
47.09264845327937
 20
114.4580465068395
 30
0.0
 10
47.14837751000977
 20
114.4416770226964
 30
0.0
 10
47.26060965178716
 20
114.4460792185045
 30
0.0
 10
47.36295373068592
 20
114.4925205345619
 30
0.0
 10
47.43641711749315
 20
114.5610721532045
 30
0.0
 10
47.46375224856457
 20
114.6073511580759
 30
0.0
 10
47.47744742881192
 20
114.6305374128527
 30
0.0
  0
SPLINE
  5
7E
330
1F
100
AcDbEntity
  8
0
  6
Continuous
 62
     7
370
    25
100
AcDbSpline
210
0.0
220
0.0
230
1.0
 70
     8
 71
     3
 72
    23
 73
    19
 74
     0
 42
0.00000001
 43
0.00000001
 40
0.0
 40
0.0
 40
0.0
 40
0.0
 40
0.0230535090977158
 40
0.088087367826077
 40
0.1531588038910066
 40
0.218521215529454
 40
0.2843749379426138
 40
0.3508189175282277
 40
0.4178478344778267
 40
0.4853767179369417
 40
0.5532798406837466
 40
0.6214272699021121
 40
0.6897083474369143
 40
0.7580407150021088
 40
0.8263574310210066
 40
0.8946304526558954
 40
0.9628465857524763
 40
1.0
 40
1.0
 40
1.0
 40
1.0
 10
36.8354013501292
 20
124.5136851335629
 30
0.0
 10
36.8322416439034
 20
124.4192323400152
 30
0.0
 10
36.82016841880981
 20
124.0583285863968
 30
0.0
 10
36.90159327436439
 20
123.431655504715
 30
0.0
 10
37.07882413606112
 20
122.6398569634559
 30
0.0
 10
37.36025015118341
 20
121.8576819870792
 30
0.0
 10
37.73673662789744
 20
121.0873519895235
 30
0.0
 10
38.2099863669354
 20
120.3313771284876
 30
0.0
 10
38.77829449879037
 20
119.5928214552282
 30
0.0
 10
39.43992680374636
 20
118.8751548660574
 30
0.0
 10
40.1920031892554
 20
118.1819779600955
 30
0.0
 10
41.03091434299587
 20
117.5167613738226
 30
0.0
 10
41.95239366852498
 20
116.8826099653436
 30
0.0
 10
42.95199629656776
 20
116.2824707631842
 30
0.0
 10
44.02417093936166
 20
115.7182453913275
 30
0.0
 10
45.1665544440628
 20
115.1940461720219
 30
0.0
 10
46.1828881940741
 20
114.7785222740264
 30
0.0
 10
46.83454343615791
 20
114.551591751125
 30
0.0
 10
47.06431776627479
 20
114.4715758078541
 30
0.0
  0
LINE
  5
7F
330
1F
100
AcDbEntity
  8
0
  6
Continuous
 62
     7
370
    25
100
AcDbLine
 10
47.4742333036
 20
114.6243146277
 30
0.0
 11
47.7195027177
 21
115.0819935851
 31
0.0
  0
LINE
  5
80
330
1F
100
AcDbEntity
  8
0
  6
Continuous
 62
     7
370
    25
100
AcDbLine
 10
82.285204896
 20
118.9706263498
 30
0.0
 11
83.2816582196
 21
120.8300335654
 31
0.0
  0
LINE
  5
81
330
1F
100
AcDbEntity
  8
0
  6
Continuous
 62
     7
370
    25
100
AcDbLine
 10
83.6181229783
 20
121.4578853525
 30
0.0
 11
84.6145763019
 21
123.3172925681
 31
0.0
  0
LINE
  5
82
330
1F
100
AcDbEntity
  8
0
  6
Continuous
 62
     7
370
    25
100
AcDbLine
 10
94.0810558252
 20
175.2560801379
 30
0.0
 11
94.0810558252
 21
175.6890928398
 31
0.0
  0
LINE
  5
83
330
1F
100
AcDbEntity
  8
0
  6
Continuous
 62
     7
370
    25
100
AcDbLine
 10
26.5810558252
 20
175.6890928398
 30
0.0
 11
26.5810558252
 21
175.2560801379
 31
0.0
  0
LINE
  5
84
330
1F
100
AcDbEntity
  8
0
  6
Continuous
 62
     7
370
    25
100
AcDbLine
 10
43.4560558252
 20
175.1694775975
 30
0.0
 11
43.4560558252
 21
175.0932256896
 31
0.0
  0
LINE
  5
85
330
1F
100
AcDbEntity
  8
0
  6
Continuous
 62
     7
370
    25
100
AcDbLine
 10
77.2060558252
 20
175.1694775975
 30
0.0
 11
77.2060558252
 21
176.1221055417
 31
0.0
  0
LINE
  5
86
330
1F
100
AcDbEntity
  8
0
  6
Continuous
 62
     7
370
    25
100
AcDbLine
 10
43.4560558252
 20
176.1221055417
 30
0.0
 11
43.4560558252
 21
175.1694775975
 31
0.0
  0
LINE
  5
87
330
1F
100
AcDbEntity
  8
0
  6
Continuous
 62
     7
370
    25
100
AcDbLine
 10
77.2060558252
 20
175.0932256896
 30
0.0
 11
77.2060558252
 21
175.1694775975
 31
0.0
  0
LWPOLYLINE
  5
88
330
1F
100
AcDbEntity
  8
0
  6
Continuous
 62
     7
370
    25
100
AcDbPolyline
 90
       50
 70
   128
 43
0.0
 10
28.5843317832
 20
169.5287768327
 10
28.6000338958
 20
169.2080139141
 10
28.7207851766
 20
168.2690949313
 10
28.9525686859
 20
167.335401633
 10
29.2945702757
 20
166.4102136508
 10
29.745588653
 20
165.4967807414
 10
30.3040395992
 20
164.5983113711
 10
30.967961535
 20
163.7179614464
 10
31.7350224104
 20
162.8588232285
 10
32.6025278961
 20
162.0239144716
 10
33.5674308474
 20
161.2161678234
 10
34.6263420076
 20
160.4384205232
 10
35.7755419126
 20
159.693404437
 10
37.0109939557
 20
158.9837364608
 10
38.3283585667
 20
158.3119093293
 10
39.7230084543
 20
157.6802828599
 10
41.1900448599
 20
157.0910756634
 10
42.7243147646
 20
156.5463573517
 10
44.3204289894
 20
156.0480412678
 10
45.9727811249
 20
155.597877765
 10
47.6755672239
 20
155.1974480591
 10
49.4228061882
 20
154.848158674
 10
51.2083607772
 20
154.5512365014
 10
53.0259591653
 20
154.3077244912
 10
54.8692169718
 20
154.1184779884
 10
56.7316596865
 20
153.9841617281
 10
58.6067454115
 20
153.9052475011
 10
60.4878878396
 20
153.8820124965
 10
62.3684793895
 20
153.9145383281
 10
64.2419144149
 20
154.0027107478
 10
66.1016124069
 20
154.1462200466
 10
67.9410411084
 20
154.344562143
 10
69.753739459
 20
154.597040353
 10
71.5333402897
 20
154.9027678379
 10
73.2735926877
 20
155.2606707185
 10
74.9683839529
 20
155.6694918481
 10
76.6117610693
 20
156.1277952275
 10
78.1979516146
 20
156.6339710493
 10
79.7213840369
 20
157.1862413526
 10
81.1767072242
 20
157.7826662677
 10
82.5588093006
 20
158.4211508303
 10
83.8628355823
 20
159.0994523402
 10
85.0842056293
 20
159.8151882386
 10
86.2186293349
 20
160.565844477
 10
87.2621219944
 20
161.3487843479
 10
88.2110183017
 20
162.1612577467
 10
89.0619852241
 20
163.0004108307
 10
89.812033709
 20
163.8632960442
 10
90.458529184
 20
164.7468824714
 10
90.9992008099
 20
165.6480664828
  0
LWPOLYLINE
  5
89
330
1F
100
AcDbEntity
  8
0
  6
Continuous
 62
     7
370
    25
100
AcDbPolyline
 90
        3
 70
   128
 43
0.0
 10
34.0754809813
 20
178.6260824724
 10
34.3414606948
 20
178.8402563043
 10
34.7785823876
 20
179.1761126265
  0
LINE
  5
8A
330
1F
100
AcDbEntity
  8
0
  6
Continuous
 62
     7
370
    25
100
AcDbLine
 10
83.2859031784
 20
169.8311709247
 30
0.0
 11
83.3041975432
 21
169.9773283309
 31
0.0
  0
LINE
  5
8B
330
1F
100
AcDbEntity
  8
0
  6
Continuous
 62
     7
370
    25
100
AcDbLine
 10
62.0277165012
 20
112.7795684785
 30
0.0
 11
61.9925401632
 21
124.3006296103
 31
0.0
  0
SPLINE
  5
8C
330
1F
100
AcDbEntity
  8
0
  6
Continuous
 62
     7
370
    25
100
AcDbSpline
210
0.0
220
0.0
230
1.0
 70
     8
 71
     3
 72
    23
 73
    19
 74
     0
 42
0.00000001
 43
0.00000001
 40
0.0
 40
0.0
 40
0.0
 40
0.0
 40
0.0626045570794036
 40
0.1245735530802533
 40
0.1870370370662519
 40
0.2492899996930991
 40
0.3119855610500146
 40
0.3747175613621345
 40
0.4373763642069996
 40
0.5003407515117065
 40
0.5629152443297776
 40
0.6257377052366554
 40
0.6883353581106417
 40
0.7508310027580354
 40
0.8134026290111032
 40
0.8755637636261651
 40
0.9379107898375167
 40
1.0
 40
1.0
 40
1.0
 40
1.0
 10
61.9925368966195
 20
124.3006602866942
 30
0.0
 10
61.95991071836375
 20
124.7356143009408
 30
0.0
 10
61.89498958261331
 20
125.6011066789557
 30
0.0
 10
61.40178119733685
 20
126.8301932104777
 30
0.0
 10
60.65463090798222
 20
127.9527279135434
 30
0.0
 10
59.65858063284759
 20
128.9478933303425
 30
0.0
 10
58.46533320565788
 20
129.7948402712042
 30
0.0
 10
57.11772199095986
 20
130.4769906966461
 30
0.0
 10
55.67024705699482
 20
130.9771307823185
 30
0.0
 10
54.18626518182617
 20
131.2783080563497
 30
0.0
 10
52.72783044890135
 20
131.369655292546
 30
0.0
 10
51.35864105543465
 20
131.2462597639229
 30
0.0
 10
50.12574971644819
 20
130.9091026298528
 30
0.0
 10
49.06715669811539
 20
130.3632886021027
 30
0.0
 10
48.20964229768168
 20
129.6164736392713
 30
0.0
 10
47.5809030487524
 20
128.6754774269823
 30
0.0
 10
47.17767775482537
 20
127.5684327090932
 30
0.0
 10
47.12905244116889
 20
126.719051393766
 30
0.0
 10
47.10479015707214
 20
126.2952406411087
 30
0.0
  0
LINE
  5
8D
330
1F
100
AcDbEntity
  8
0
  6
Continuous
 62
     7
370
    25
100
AcDbLine
 10
47.1047901571
 20
126.2952406411
 30
0.0
 11
47.1388794104
 21
114.7740037458
 31
0.0
  0
LWPOLYLINE
  5
8E
330
1F
100
AcDbEntity
  8
0
  6
Continuous
 62
     7
370
    25
100
AcDbPolyline
 90
        3
 70
   128
 43
0.0
 10
81.8684825574
 20
158.1057277247
 10
81.6659094187
 20
139.2265020017
 10
81.4524677399
 20
119.3417601718
  0
LWPOLYLINE
  5
8F
330
1F
100
AcDbEntity
  8
0
  6
Continuous
 62
     7
370
    25
100
AcDbPolyline
 90
       16
 70
   128
 43
0.0
 10
62.027718579
 20
112.7780147841
 10
63.6543253287
 20
112.8654082783
 10
65.2648359345
 20
113.0091577116
 10
66.8514499424
 20
113.2085668385
 10
68.4064826408
 20
113.4626698276
 10
69.9224022814
 20
113.7702359396
 10
71.3918665582
 20
114.1297754885
 10
72.8077581706
 20
114.5395470564
 10
74.1632192951
 20
114.9975659287
 10
75.4516848015
 20
115.5016137062
 10
76.6669140505
 20
116.0492490507
 10
77.80302112
 20
116.6378195087
 10
78.8545033138
 20
117.264474359
 10
79.8162678132
 20
117.92617842
 10
80.6836563443
 20
118.6197267503
 10
81.4524677399
 20
119.3417601719
  0
LWPOLYLINE
  5
90
330
1F
100
AcDbEntity
  8
0
  6
Continuous
 62
     7
370
    25
100
AcDbPolyline
 90
       14
 70
   128
 43
0.0
 10
51.1944082719
 20
153.9784199941
 10
51.235812898
 20
153.7576499606
 10
51.3925729142
 20
153.5035482152
 10
51.658488545
 20
153.2732585238
 10
52.0202256702
 20
153.0783285729
 10
52.4596452798
 20
152.9285329643
 10
52.9547130398
 20
152.8313830754
 10
53.4806041855
 20
152.7917504072
 10
54.010948339
 20
152.8116223072
 10
54.5191518297
 20
152.8900023153
 10
54.9797312127
 20
153.0229601307
 10
55.3695911144
 20
153.2038286932
 10
55.6691823315
 20
153.4235384981
 10
55.8634821094
 20
153.6710723781
  0
LINE
  5
91
330
1F
100
AcDbEntity
  8
0
  6
Continuous
 62
     7
370
    25
100
AcDbLine
 10
55.8634821094
 20
153.6710723781
 30
0.0
 11
56.0539667477
 21
154.0265215522
 31
0.0
  0
ARC
  5
92
330
1F
100
AcDbEntity
  8
0
  6
Continuous
 62
     7
370
    25
100
AcDbCircle
 10
83.4524580221
 20
169.8358001858
 30
0.0
 40
8.630784452909522
100
AcDbArc
 50
330.9738380585
 51
357.9613840838
  0
LINE
  5
93
330
1F
100
AcDbEntity
  8
0
  6
Continuous
 62
     7
370
    25
100
AcDbLine
 10
81.6241455836
 20
118.6753679148
 30
0.0
 11
81.073358121
 21
118.7491594427
 31
0.0
  0
SPLINE
  5
94
330
1F
100
AcDbEntity
  8
0
  6
Continuous
 62
     7
370
    25
100
AcDbSpline
210
0.0
220
0.0
230
1.0
 70
     8
 71
     3
 72
     9
 73
     5
 74
     0
 42
0.00000001
 43
0.00000001
 40
0.0
 40
0.0
 40
0.0
 40
0.0
 40
0.5986370100375097
 40
0.9999999999999999
 40
0.9999999999999999
 40
0.9999999999999999
 40
0.9999999999999999
 10
81.45246773991491
 20
119.3417601718314
 30
0.0
 10
81.44338892424473
 20
119.2577968820523
 30
0.0
 10
81.42822311338112
 20
119.1175394499669
 30
0.0
 10
81.32968789826145
 20
119.0203222669233
 30
0.0
 10
81.29013950970442
 20
118.9813028876612
 30
0.0
  0
LINE
  5
95
330
1F
100
AcDbEntity
  8
0
  6
Continuous
 62
     7
370
    25
100
AcDbLine
 10
82.3485899532
 20
158.3190448826
 30
0.0
 11
82.3485899532
 21
119.2278298258
 31
0.0
  0
ARC
  5
96
330
1F
100
AcDbEntity
  8
0
  6
Continuous
 62
     7
370
    25
100
AcDbCircle
 10
81.7554051536
 20
119.2544605927
 30
0.0
 40
0.5937822869386254
100
AcDbArc
 50
257.2288926646
 51
357.4294576104
  0
LINE
  5
97
330
1F
100
AcDbEntity
  8
0
  6
Continuous
 62
     7
370
    25
100
AcDbLine
 10
83.3450432769
 20
121.0872370413
 30
0.0
 11
83.3450432769
 21
158.8204245189
 31
0.0
  0
LINE
  5
98
330
1F
100
AcDbEntity
  8
0
  6
Continuous
 62
     7
370
    25
100
AcDbLine
 10
83.3450432769
 20
121.0872370413
 30
0.0
 11
82.3485899532
 21
119.2278298258
 31
0.0
  0
SPLINE
  5
99
330
1F
100
AcDbEntity
  8
0
  6
Continuous
 62
     7
370
    25
100
AcDbSpline
210
0.0
220
0.0
230
1.0
 70
     8
 71
     3
 72
     9
 73
     5
 74
     0
 42
0.00000001
 43
0.00000001
 40
0.0
 40
0.0
 40
0.0
 40
0.0
 40
0.7322251081937796
 40
1.0
 40
1.0
 40
1.0
 40
1.0
 10
61.72650230566785
 20
124.4291457301363
 30
0.0
 10
61.72702838074335
 20
124.4193492740589
 30
0.0
 10
61.72774684159592
 20
124.405970251723
 30
0.0
 10
61.73724753113719
 20
124.3936383729421
 30
0.0
 10
61.73979157725118
 20
124.3903362054359
 30
0.0
  0
SPLINE
  5
9A
330
1F
100
AcDbEntity
  8
0
  6
Continuous
 62
     7
370
    25
100
AcDbSpline
210
0.0
220
0.0
230
1.0
 70
     8
 71
     3
 72
    15
 73
    11
 74
     0
 42
0.00000001
 43
0.00000001
 40
0.0
 40
0.0
 40
0.0
 40
0.0
 40
0.1249999999999828
 40
0.2499999999999837
 40
0.3749999999999839
 40
0.4999999999999848
 40
0.6249999999999849
 40
0.749999999999981
 40
0.8749999999999845
 40
1.0
 40
1.0
 40
1.0
 40
1.0
 10
47.1047571015763
 20
126.2952167212696
 30
0.0
 10
47.12203329901737
 20
126.2904327544126
 30
0.0
 10
47.15658569389954
 20
126.2808648206985
 30
0.0
 10
47.21494295980231
 20
126.2746888946238
 30
0.0
 10
47.27422411482192
 20
126.2750329580304
 30
0.0
 10
47.33190574722263
 20
126.2824139147321
 30
0.0
 10
47.38481146493314
 20
126.2962821777582
 30
0.0
 10
47.42984324192751
 20
126.3159817125621
 30
0.0
 10
47.46576987256277
 20
126.3402741703405
 30
0.0
 10
47.47941640277062
 20
126.3591034666684
 30
0.0
 10
47.48623966787454
 20
126.3685181148323
 30
0.0
  0
ELLIPSE
  5
9B
330
1F
100
AcDbEntity
  8
0
  6
Continuous
 62
     7
370
    25
100
AcDbEllipse
 10
54.768191864
 20
125.7096357822
 30
0.0
 11
6.581978909729388
 21
-3.328407856695734
 31
0.0
210
0.0
220
0.0
230
1.0
 40
0.818903549
 41
3.122128590292091
 42
3.543792655307309
  0
LINE
  5
9C
330
1F
100
AcDbEntity
  8
0
  6
Continuous
 62
     7
370
    25
100
AcDbLine
 10
47.4861312032
 20
126.3685315351
 30
0.0
 11
47.644504656
 21
126.6625594796
 31
0.0
  0
LINE
  5
9D
330
1F
100
AcDbEntity
  8
0
  6
Continuous
 62
     7
370
    25
100
AcDbLine
 10
83.6815080355
 20
159.0002059557
 30
0.0
 11
83.6815080355
 21
121.7150888284
 31
0.0
  0
LINE
  5
9E
330
1F
100
AcDbEntity
  8
0
  6
Continuous
 62
     7
370
    25
100
AcDbLine
 10
84.6779613591
 20
123.5744960441
 30
0.0
 11
84.6779613591
 21
159.5674776905
 31
0.0
  0
LINE
  5
9F
330
1F
100
AcDbEntity
  8
0
  6
Continuous
 62
     7
370
    25
100
AcDbLine
 10
84.6779613591
 20
123.5744960441
 30
0.0
 11
83.6815080355
 21
121.7150888284
 31
0.0
  0
SPLINE
  5
A0
330
1F
100
AcDbEntity
  8
0
  6
Continuous
 62
     7
370
    25
100
AcDbSpline
210
0.0
220
0.0
230
1.0
 70
     8
 71
     3
 72
     9
 73
     5
 74
     0
 42
0.00000001
 43
0.00000001
 40
0.0
 40
0.0
 40
0.0
 40
0.0
 40
0.5599955014799199
 40
1.0
 40
1.0
 40
1.0
 40
1.0
 10
47.76537428898994
 20
115.3065164513442
 30
0.0
 10
47.76539539198424
 20
115.3023696756942
 30
0.0
 10
47.76543307620533
 20
115.2949646596914
 30
0.0
 10
47.76525007072312
 20
115.2875927901249
 30
0.0
 10
47.76516954748769
 20
115.2843491343531
 30
0.0
  0
LINE
  5
A1
330
1F
100
AcDbEntity
  8
0
  6
Continuous
 62
     7
370
    25
100
AcDbLine
 10
47.765374289
 20
115.3065164514
 30
0.0
 11
47.644504656
 21
126.6625594796
 31
0.0
  0
ARC
  5
A2
330
1F
100
AcDbEntity
  8
0
  6
Continuous
 62
     7
370
    25
100
AcDbCircle
 10
83.1345000072
 20
121.7165150355
 30
0.0
 40
0.5470098875222117
100
AcDbArc
 50
292.6374373978
 51
359.8506137834
  0
SPLINE
  5
A3
330
1F
100
AcDbEntity
  8
0
  6
Continuous
 62
     7
370
    25
100
AcDbSpline
210
0.0
220
0.0
230
1.0
 70
     8
 71
     3
 72
     9
 73
     5
 74
     0
 42
0.00000001
 43
0.00000001
 40
0.0
 40
0.0
 40
0.0
 40
0.0
 40
0.2906430491660927
 40
1.0
 40
1.0
 40
1.0
 40
1.0
 10
61.77558073744566
 20
112.8680702291177
 30
0.0
 10
61.77268993536357
 20
112.871786716704
 30
0.0
 10
61.76274370719683
 20
112.8845738368397
 30
0.0
 10
61.76190331953266
 20
112.8984515739569
 30
0.0
 10
61.76130718470168
 20
112.9082958432427
 30
0.0
  0
LINE
  5
A4
330
1F
100
AcDbEntity
  8
0
  6
Continuous
 62
     7
370
    25
100
AcDbLine
 10
35.9841502913
 20
125.4394869082
 30
0.0
 11
35.9841502913
 21
159.5674776905
 31
0.0
  0
LINE
  5
A5
330
1F
100
AcDbEntity
  8
0
  6
Continuous
 62
     7
370
    25
100
AcDbLine
 10
36.8217715131
 20
124.6777478904
 30
0.0
 11
36.708594661
 21
124.6929107135
 31
0.0
  0
ARC
  5
A6
330
1F
100
AcDbEntity
  8
0
  6
Continuous
 62
     7
370
    25
100
AcDbCircle
 10
36.7927611564
 20
125.4993545535
 30
0.0
 40
0.8108240660447616
100
AcDbArc
 50
184.2343190277
 51
264.0417560482
  0
LINE
  5
A7
330
1F
100
AcDbEntity
  8
0
  6
Continuous
 62
     7
370
    25
100
AcDbLine
 10
62.358835765
 20
112.4312225827
 30
0.0
 11
62.3977893242
 21
112.4270480652
 31
0.0
  0
LINE
  5
A8
330
1F
100
AcDbEntity
  8
0
  6
Continuous
 62
     7
370
    25
100
AcDbLine
 10
47.520586818
 20
114.8476564152
 30
0.0
 11
47.4862440131
 21
126.3685256239
 31
0.0
  0
SPLINE
  5
A9
330
1F
100
AcDbEntity
  8
0
  6
Continuous
 62
     7
370
    25
100
AcDbSpline
210
0.0
220
0.0
230
1.0
 70
     8
 71
     3
 72
    15
 73
    11
 74
     0
 42
0.00000001
 43
0.00000001
 40
0.0
 40
0.0
 40
0.0
 40
0.0
 40
0.1249999999999922
 40
0.2499999999999902
 40
0.374999999999986
 40
0.499999999999979
 40
0.6249999999999795
 40
0.749999999999977
 40
0.874999999999975
 40
1.0
 40
1.0
 40
1.0
 40
1.0
 10
47.52058681800192
 20
114.8476564152318
 30
0.0
 10
47.51374677297114
 20
114.8382216041617
 30
0.0
 10
47.50006668290956
 20
114.8193519820214
 30
0.0
 10
47.46409061892547
 20
114.7950073283331
 30
0.0
 10
47.41901427813796
 20
114.7752616472897
 30
0.0
 10
47.36607203795417
 20
114.761353306838
 30
0.0
 10
47.30836489143487
 20
114.7539372174425
 30
0.0
 10
47.24907215544071
 20
114.7535615723024
 30
0.0
 10
47.19071758802932
 20
114.7597079403216
 30
0.0
 10
47.15618089685657
 20
114.7692557268474
 30
0.0
 10
47.1389125512702
 20
114.7740296201103
 30
0.0
  0
LINE
  5
AA
330
1F
100
AcDbEntity
  8
0
  6
Continuous
 62
     7
370
    25
100
AcDbLine
 10
47.765374289
 20
115.3065164514
 30
0.0
 11
47.5206903923
 21
114.8476413582
 31
0.0
  0
SPLINE
  5
AB
330
1F
100
AcDbEntity
  8
0
  6
Continuous
 62
     7
370
    25
100
AcDbSpline
210
0.0
220
0.0
230
1.0
 70
     8
 71
     3
 72
    10
 73
     6
 74
     0
 42
0.00000001
 43
0.00000001
 40
0.0
 40
0.0
 40
0.0
 40
0.0
 40
0.4473962252981389
 40
0.9175989707122159
 40
1.0
 40
1.0
 40
1.0
 40
1.0
 10
47.76516954757491
 20
115.2843491347788
 30
0.0
 10
47.76220696731302
 20
115.2486806281695
 30
0.0
 10
47.75613078596582
 20
115.1755253731608
 30
0.0
 10
47.73740014344412
 20
115.1096628813349
 30
0.0
 10
47.7208145089138
 20
115.0861920478341
 30
0.0
 10
47.71834135650469
 20
115.0826922149932
 30
0.0
  0
LINE
  5
AC
330
1F
100
AcDbEntity
  8
0
  6
Continuous
 62
     7
370
    25
100
AcDbLine
 10
47.0670372106
 20
114.4789801455
 30
0.0
 11
47.0750538854
 21
114.4772559372
 31
0.0
  0
ARC
  5
AD
330
1F
100
AcDbEntity
  8
0
  6
Continuous
 62
     7
370
    25
100
AcDbCircle
 10
82.8061028728
 20
121.0836411397
 30
0.0
 40
0.5389524001882521
100
AcDbArc
 50
331.9295714705
 51
0.3822814743
  0
ARC
  5
AE
330
1F
100
AcDbEntity
  8
0
  6
Continuous
 62
     7
370
    25
100
AcDbCircle
 10
84.1390209535
 20
123.5709001427
 30
0.0
 40
0.5389524017200286
100
AcDbArc
 50
331.9295715115
 51
0.3822814365
  0
LWPOLYLINE
  5
AF
330
1F
100
AcDbEntity
  8
0
  6
Continuous
 62
     7
370
    25
100
AcDbPolyline
 90
       55
 70
   128
 43
0.0
 10
68.8073795524
 20
191.9391409471
 10
70.6323965892
 20
191.6659538302
 10
72.4225571497
 20
191.3401712509
 10
74.1718038973
 20
190.9628955544
 10
75.8742179345
 20
190.5354033222
 10
77.5240388312
 20
190.0591410528
 10
79.1156841157
 20
189.5357202669
 10
80.6437681643
 20
188.9669120547
 10
82.1031204241
 20
188.3546410832
 10
83.4888029091
 20
187.7009790836
 10
84.7961269084
 20
187.0081378411
 10
86.0206688514
 20
186.2784617112
 10
87.1582852757
 20
185.5144196869
 10
88.2051268476
 20
184.7185970446
 10
89.1576513864
 20
183.8936865963
 10
90.0126358507
 20
183.0424795777
 10
90.7671872437
 20
182.1678562039
 10
91.4187524023
 20
181.2727759236
 10
91.9651266362
 20
180.3602674052
 10
92.4044611881
 20
179.4334182886
 10
92.7352694888
 20
178.4953647378
 10
92.9564321877
 20
177.5492808291
 10
93.0672009404
 20
176.5983678111
 10
93.0672009404
 20
175.6458432722
 10
92.9564321877
 20
174.6949302542
 10
92.7352694888
 20
173.7488463455
 10
92.4044611881
 20
172.8107927947
 10
91.9651266362
 20
171.8839436781
 10
91.4187524023
 20
170.9714351597
 10
90.7671872437
 20
170.0763548794
 10
90.0126358507
 20
169.2017315057
 10
89.1576513864
 20
168.350524487
 10
88.2051268476
 20
167.5256140387
 10
87.1582852757
 20
166.7297913964
 10
86.0206688514
 20
165.9657493721
 10
84.7961269084
 20
165.2360732422
 10
83.4888029091
 20
164.5432319997
 10
82.1031204241
 20
163.8895700001
 10
80.6437681643
 20
163.2772990286
 10
79.1156841157
 20
162.7084908164
 10
77.5240388312
 20
162.1850700305
 10
75.8742179345
 20
161.7088077611
 10
74.1718038973
 20
161.2813155289
 10
72.4225571497
 20
160.9040398324
 10
70.6323965892
 20
160.5782572531
 10
68.8073795523
 20
160.3050701362
 10
66.9536813191
 20
160.0854028602
 10
65.0775742176
 20
159.9199987099
 10
63.1854064002
 20
159.8094173604
 10
61.2835803641
 20
159.7540329841
 10
59.3785312864
 20
159.7540329841
 10
57.4767052503
 20
159.8094173604
 10
55.5845374329
 20
159.9199987099
 10
53.7084303314
 20
160.0854028602
 10
51.8547320981
 20
160.3050701362
  0
LINE
  5
B0
330
1F
100
AcDbEntity
  8
0
  6
Continuous
 62
     7
370
    25
100
AcDbLine
 10
69.0661985975
 20
191.9890911584
 30
0.0
 11
68.8073795524
 21
191.9391409471
 31
0.0
  0
LWPOLYLINE
  5
B1
330
1F
100
AcDbEntity
  8
0
  6
Continuous
 62
     7
370
    25
100
AcDbPolyline
 90
       56
 70
   128
 43
0.0
 10
69.0661985975
 20
191.9890911584
 10
70.9130475296
 20
191.7131680983
 10
72.7253802042
 20
191.3849778354
 10
74.4972851689
 20
191.0055908581
 10
76.222982838
 20
190.5762446478
 10
77.8968443443
 20
190.0983396426
 10
79.5134098996
 20
189.5734346694
 10
81.067406603
 20
189.003241859
 10
82.5537656402
 20
188.3896210618
 10
83.9676388171
 20
187.7345737815
 10
85.3044143732
 20
187.040236646
 10
86.5597320244
 20
186.3088744387
 10
87.7294971856
 20
185.5428727113
 10
88.8098943259
 20
184.744730002
 10
89.7973994144
 20
183.9170496865
 10
90.6887914147
 20
183.062531486
 10
91.4811627915
 20
182.1839626612
 10
92.171928994
 20
181.284208921
 10
92.7588368864
 20
180.3662050752
 10
93.2399720972
 20
179.4329454613
 10
93.6137652632
 20
178.4874741784
 10
93.878997149
 20
177.5328751572
 10
94.0348026232
 20
176.5722621014
 10
94.0806734808
 20
175.6087683309
 10
94.0164601004
 20
174.6455365623
 10
93.842371933
 20
173.6857086574
 10
93.5589768178
 20
172.7324153753
 10
93.1671991308
 20
171.7887661605
 10
92.6683167694
 20
170.8578390007
 10
92.0639569842
 20
169.9426703867
 10
91.3560910711
 20
169.0462454083
 10
90.5470279417
 20
168.1714880175
 10
89.6394065918
 20
167.3212514911
 10
88.6361874934
 20
166.4983091239
 10
87.5406429388
 20
165.7053451828
 10
86.3563463666
 20
164.9449461515
 10
85.0871607061
 20
164.2195922935
 10
83.7372257771
 20
163.5316495623
 10
82.3109447868
 20
162.8833618841
 10
80.8129699672
 20
162.2768438386
 10
79.2481874009
 20
161.7140737615
 10
77.6217010833
 20
161.196887292
 10
75.9388162749
 20
160.7269713847
 10
74.2050221959
 20
160.3058588077
 10
72.4259741224
 20
159.9349231426
 10
70.6074749394
 20
159.6153743046
 10
68.7554562131
 20
159.3482545955
 10
66.8759588439
 20
159.1344353042
 10
64.9751133614
 20
158.9746138649
 10
63.0591199284
 20
158.8693115819
 10
61.1342281174
 20
158.8188719293
 10
59.2067165253
 20
158.8234594308
 10
57.2828722944
 20
158.883059123
 10
55.3689706045
 20
158.9974766039
 10
53.4712542052
 20
159.1663386676
 10
51.5959130533
 20
159.3890945211
  0
LINE
  5
B2
330
1F
100
AcDbEntity
  8
0
  6
Continuous
 62
     7
370
    25
100
AcDbLine
 10
51.5959130533
 20
159.3890945211
 30
0.0
 11
51.8547320981
 21
160.3050701362
 31
0.0
  0
LWPOLYLINE
  5
B3
330
1F
100
AcDbEntity
  8
0
  6
Continuous
 62
     7
370
    25
100
AcDbPolyline
 90
       34
 70
   128
 43
0.0
 10
51.595913053
 20
158.9560818192
 10
53.4712542052
 20
158.7333259657
 10
55.3689706045
 20
158.564463902
 10
57.2828722944
 20
158.4500464211
 10
59.2067165253
 20
158.3904467289
 10
61.1342281174
 20
158.3858592274
 10
63.0591199284
 20
158.43629888
 10
64.9751133614
 20
158.541601163
 10
66.8759588439
 20
158.7014226023
 10
68.7554562131
 20
158.9152418936
 10
70.6074749394
 20
159.1823616027
 10
72.4259741224
 20
159.5019104407
 10
74.2050221959
 20
159.8728461058
 10
75.9388162749
 20
160.2939586828
 10
77.6217010833
 20
160.7638745901
 10
79.2481874009
 20
161.2810610596
 10
80.8129699672
 20
161.8438311367
 10
82.3109447868
 20
162.4503491822
 10
83.7372257771
 20
163.0986368604
 10
85.0871607061
 20
163.7865795916
 10
86.3563463666
 20
164.5119334496
 10
87.5406429388
 20
165.2723324809
 10
88.6361874934
 20
166.065296422
 10
89.6394065918
 20
166.8882387892
 10
90.5470279417
 20
167.7384753156
 10
91.3560910711
 20
168.6132327064
 10
92.0639569842
 20
169.5096576848
 10
92.6683167694
 20
170.4248262988
 10
93.1671991308
 20
171.3557534586
 10
93.5589768178
 20
172.2994026734
 10
93.842371933
 20
173.2526959555
 10
94.0164601004
 20
174.2125238604
 10
94.0806734808
 20
175.175755629
 10
94.0810558252
 20
175.2560801379
  0
LINE
  5
B4
330
1F
100
AcDbEntity
  8
0
  6
Continuous
 62
     7
370
    25
100
AcDbLine
 10
51.5959130533
 20
159.3890945211
 30
0.0
 11
51.595913053
 21
158.9560818192
 31
0.0
  0
LWPOLYLINE
  5
B5
330
1F
100
AcDbEntity
  8
0
  6
Continuous
 62
     7
370
    25
100
AcDbPolyline
 90
       55
 70
   128
 43
0.0
 10
51.8547320981
 20
160.3050701362
 10
50.0297150613
 20
160.5782572531
 10
48.2395545008
 20
160.9040398324
 10
46.4903077532
 20
161.2813155289
 10
44.787893716
 20
161.7088077611
 10
43.1380728193
 20
162.1850700305
 10
41.5464275347
 20
162.7084908164
 10
40.0183434862
 20
163.2772990286
 10
38.5589912264
 20
163.8895700001
 10
37.1733087414
 20
164.5432319997
 10
35.8659847421
 20
165.2360732422
 10
34.6414427991
 20
165.9657493721
 10
33.5038263748
 20
166.7297913964
 10
32.4569848029
 20
167.5256140387
 10
31.5044602641
 20
168.350524487
 10
30.6494757998
 20
169.2017315057
 10
29.8949244068
 20
170.0763548794
 10
29.2433592482
 20
170.9714351597
 10
28.6969850143
 20
171.8839436781
 10
28.2576504624
 20
172.8107927947
 10
27.9268421617
 20
173.7488463455
 10
27.7056794627
 20
174.6949302542
 10
27.5949107101
 20
175.6458432722
 10
27.5949107101
 20
176.5983678111
 10
27.7056794627
 20
177.5492808291
 10
27.9268421617
 20
178.4953647378
 10
28.2576504624
 20
179.4334182886
 10
28.6969850143
 20
180.3602674052
 10
29.2433592482
 20
181.2727759236
 10
29.8949244068
 20
182.1678562039
 10
30.6494757998
 20
183.0424795777
 10
31.5044602641
 20
183.8936865963
 10
32.4569848029
 20
184.7185970446
 10
33.5038263748
 20
185.5144196869
 10
34.6414427991
 20
186.2784617112
 10
35.8659847421
 20
187.0081378411
 10
37.1733087414
 20
187.7009790836
 10
38.5589912264
 20
188.3546410832
 10
40.0183434862
 20
188.9669120547
 10
41.5464275347
 20
189.5357202669
 10
43.1380728193
 20
190.0591410528
 10
44.787893716
 20
190.5354033222
 10
46.4903077532
 20
190.9628955544
 10
48.2395545008
 20
191.3401712509
 10
50.0297150613
 20
191.6659538302
 10
51.8547320981
 20
191.9391409471
 10
53.7084303314
 20
192.1588082231
 10
55.5845374329
 20
192.3242123734
 10
57.4767052503
 20
192.4347937229
 10
59.3785312864
 20
192.4901780993
 10
61.2835803641
 20
192.4901780993
 10
63.1854064002
 20
192.4347937229
 10
65.0775742176
 20
192.3242123734
 10
66.9536813191
 20
192.1588082231
 10
68.8073795524
 20
191.9391409471
  0
LWPOLYLINE
  5
B6
330
1F
100
AcDbEntity
  8
0
  6
Continuous
 62
     7
370
    25
100
AcDbPolyline
 90
       14
 70
   128
 43
0.0
 10
83.7547571128
 20
172.9839246198
 10
83.6870143074
 20
172.745242628
 10
83.7354806636
 20
172.5053903438
 10
83.8973394931
 20
172.2783071102
 10
84.163184149
 20
172.0771901793
 10
84.5175647061
 20
171.9137277361
 10
84.9398858547
 20
171.7974196237
 10
85.4056038246
 20
171.7350252467
 10
85.8876527802
 20
171.7301707396
 10
86.3580177885
 20
171.7831382287
 10
86.7893629448
 20
171.890849436
 10
87.1566200365
 20
172.0470445777
 10
87.4384454165
 20
172.2426461599
 10
87.6184604179
 20
172.4662865296
  0
LWPOLYLINE
  5
B7
330
1F
100
AcDbEntity
  8
0
  6
Continuous
 62
     7
370
    25
100
AcDbPolyline
 90
       14
 70
   128
 43
0.0
 10
87.6184604179
 20
172.4662865296
 10
87.6862032233
 20
172.7049685214
 10
87.637736867
 20
172.9448208056
 10
87.4758780375
 20
173.1719040392
 10
87.2100333817
 20
173.3730209701
 10
86.8556528246
 20
173.5364834132
 10
86.433331676
 20
173.6527915257
 10
85.9676137061
 20
173.7151859026
 10
85.4855647505
 20
173.7200404097
 10
85.0151997422
 20
173.6670729207
 10
84.5838545859
 20
173.5593617134
 10
84.2165974941
 20
173.4031665717
 10
83.9347721142
 20
173.2075649895
 10
83.7547571128
 20
172.9839246198
  0
LWPOLYLINE
  5
B8
330
1F
100
AcDbEntity
  8
0
  6
Continuous
 62
     7
370
    25
100
AcDbPolyline
 90
       14
 70
   128
 43
0.0
 10
33.0436512326
 20
179.7779245537
 10
32.9759084272
 20
179.5392425619
 10
33.0243747835
 20
179.2993902777
 10
33.1862336129
 20
179.0723070441
 10
33.4520782688
 20
178.8711901132
 10
33.8064588259
 20
178.7077276701
 10
34.2287799745
 20
178.5914195576
 10
34.6944979444
 20
178.5290251807
 10
35.1765469
 20
178.5241706736
 10
35.6469119083
 20
178.5771381626
 10
36.0782570646
 20
178.6848493699
 10
36.4455141563
 20
178.8410445116
 10
36.7273395363
 20
179.0366460938
 10
36.9073545377
 20
179.2602864635
  0
LWPOLYLINE
  5
B9
330
1F
100
AcDbEntity
  8
0
  6
Continuous
 62
     7
370
    25
100
AcDbPolyline
 90
       14
 70
   128
 43
0.0
 10
36.9073545377
 20
179.2602864635
 10
36.9750973431
 20
179.4989684554
 10
36.9266309868
 20
179.7388207395
 10
36.7647721574
 20
179.9659039731
 10
36.4989275015
 20
180.167020904
 10
36.1445469444
 20
180.3304833472
 10
35.7222257958
 20
180.4467914596
 10
35.2565078259
 20
180.5091858366
 10
34.7744588703
 20
180.5140403437
 10
34.304093862
 20
180.4610728546
 10
33.8727487057
 20
180.3533616473
 10
33.505491614
 20
180.1971665056
 10
33.223666234
 20
180.0015649234
 10
33.0436512326
 20
179.7779245537
  0
LWPOLYLINE
  5
BA
330
1F
100
AcDbEntity
  8
0
  6
Continuous
 62
     7
370
    25
100
AcDbPolyline
 90
       40
 70
   128
 43
0.0
 10
55.9311320585
 20
167.9117360182
 10
57.2667201824
 20
167.7613363326
 10
58.6221816988
 20
167.6651594436
 10
59.9887259197
 20
167.6238290953
 10
61.3574902814
 20
167.6376133308
 10
62.7195978218
 20
167.706422754
 10
64.0662147508
 20
167.8298111095
 10
65.3886077408
 20
168.0069781763
 10
66.6782005659
 20
168.2367749582
 10
67.9266297218
 20
168.5177111348
 10
69.1257986663
 20
168.8479647271
 10
70.2679303286
 20
169.2253939139
 10
71.3456175467
 20
169.6475509221
 10
72.3518711054
 20
170.1116979016
 10
73.2801650643
 20
170.6148246809
 10
74.1244790807
 20
171.15366829
 10
74.8793374544
 20
171.7247341211
 10
75.539844639
 20
172.3243185934
 10
76.1017169921
 20
172.9485331713
 10
76.5613105559
 20
173.5933295839
 10
76.9156446896
 20
174.2545260789
 10
77.1624214006
 20
174.9278345434
 10
77.300040247
 20
175.6088883136
 10
77.327608718
 20
176.2932704944
 10
77.2449480213
 20
176.9765426049
 10
77.0525942433
 20
177.6542733631
 10
76.7517948722
 20
178.322067425
 10
76.3445007071
 20
178.97559389
 10
75.8333532071
 20
179.610614388
 10
75.2216673599
 20
180.2230105675
 10
74.5134101829
 20
180.8088108043
 10
73.7131749956
 20
181.364215959
 10
72.8261516304
 20
181.8856240161
 10
71.8580927741
 20
182.3696534442
 10
70.8152766599
 20
182.8131651268
 10
69.7044663505
 20
183.2132827205
 10
68.532865877
 20
183.567411309
 10
67.3080735179
 20
183.8732542326
 10
66.0380325219
 20
184.1288279826
 10
64.730979592
 20
184.3324750651
  0
LWPOLYLINE
  5
BB
330
1F
100
AcDbEntity
  8
0
  6
Continuous
 62
     7
370
    25
100
AcDbPolyline
 90
       40
 70
   128
 43
0.0
 10
64.730979592
 20
184.3324750651
 10
63.3953914681
 20
184.4828747507
 10
62.0399299516
 20
184.5790516397
 10
60.6733857308
 20
184.620381988
 10
59.3046213691
 20
184.6065977526
 10
57.9425138287
 20
184.5377883293
 10
56.5958968997
 20
184.4143999739
 10
55.2735039097
 20
184.237232907
 10
53.9839110846
 20
184.0074361251
 10
52.7354819287
 20
183.7264999485
 10
51.5363129842
 20
183.3962463562
 10
50.3941813219
 20
183.0188171694
 10
49.3164941038
 20
182.5966601612
 10
48.3102405451
 20
182.1325131817
 10
47.3819465862
 20
181.6293864024
 10
46.5376325698
 20
181.0905427933
 10
45.7827741961
 20
180.5194769622
 10
45.1222670115
 20
179.9198924899
 10
44.5603946583
 20
179.295677912
 10
44.1008010946
 20
178.6508814994
 10
43.7464669608
 20
177.9896850044
 10
43.4996902499
 20
177.3163765399
 10
43.3620714034
 20
176.6353227697
 10
43.3345029325
 20
175.9509405889
 10
43.4171636292
 20
175.2676684785
 10
43.6095174071
 20
174.5899377202
 10
43.9103167783
 20
173.9221436583
 10
44.3176109434
 20
173.2686171933
 10
44.8287584434
 20
172.6335966953
 10
45.4404442906
 20
172.0212005158
 10
46.1487014676
 20
171.435400279
 10
46.9489366549
 20
170.8799951243
 10
47.8359600201
 20
170.3585870672
 10
48.8040188764
 20
169.8745576391
 10
49.8468349906
 20
169.4310459565
 10
50.9576453
 20
169.0309283629
 10
52.1292457735
 20
168.6767997743
 10
53.3540381325
 20
168.3709568507
 10
54.6240791286
 20
168.1153831007
 10
55.9311320585
 20
167.9117360182
  0
LWPOLYLINE
  5
BC
330
1F
100
AcDbEntity
  8
0
  6
Continuous
 62
     7
370
    25
100
AcDbPolyline
 90
       11
 70
   128
 43
0.0
 10
87.7245194274
 20
175.0447899206
 10
87.765399063
 20
175.2392617964
 10
87.6840876777
 20
175.4305317922
 10
87.4885445964
 20
175.5998770682
 10
87.1979109383
 20
175.7307209287
 10
86.8406359509
 20
175.8102554652
 10
86.4516921993
 20
175.830695283
 10
86.0691522076
 20
175.7900395903
 10
85.7304616557
 20
175.6922680497
 10
85.4687739346
 20
175.5469512206
 10
85.3097048617
 20
175.368313727
  0
LWPOLYLINE
  5
BD
330
1F
100
AcDbEntity
  8
0
  6
Continuous
 62
     7
370
    25
100
AcDbPolyline
 90
       11
 70
   128
 43
0.0
 10
85.3097048617
 20
175.368313727
 10
85.2688252261
 20
175.1738418511
 10
85.3501366114
 20
174.9825718553
 10
85.5456796927
 20
174.8132265794
 10
85.8363133508
 20
174.6823827188
 10
86.1935883382
 20
174.6028481823
 10
86.5825320899
 20
174.5824083645
 10
86.9650720815
 20
174.6230640572
 10
87.3037626334
 20
174.7208355979
 10
87.5654503545
 20
174.8661524269
 10
87.7245194274
 20
175.0447899206
  0
LWPOLYLINE
  5
BE
330
1F
100
AcDbEntity
  8
0
  6
Continuous
 62
     7
370
    25
100
AcDbPolyline
 90
       11
 70
   128
 43
0.0
 10
85.1318068235
 20
170.2067223369
 10
85.172686459
 20
170.4011942127
 10
85.0913750737
 20
170.5924642085
 10
84.8958319924
 20
170.7618094845
 10
84.6051983344
 20
170.892653345
 10
84.247923347
 20
170.9721878815
 10
83.8589795953
 20
170.9926276993
 10
83.4764396037
 20
170.9519720066
 10
83.1377490518
 20
170.854200466
 10
82.8760613307
 20
170.7088836369
 10
82.7169922577
 20
170.5302461432
  0
LWPOLYLINE
  5
BF
330
1F
100
AcDbEntity
  8
0
  6
Continuous
 62
     7
370
    25
100
AcDbPolyline
 90
       11
 70
   128
 43
0.0
 10
82.7169922577
 20
170.5302461432
 10
82.6761126222
 20
170.3357742674
 10
82.7574240075
 20
170.1445042716
 10
82.9529670888
 20
169.9751589956
 10
83.2436007468
 20
169.8443151351
 10
83.6008757342
 20
169.7647805986
 10
83.9898194859
 20
169.7443407808
 10
84.3723594775
 20
169.7849964735
 10
84.7110500294
 20
169.8827680141
 10
84.9727377505
 20
170.0280848432
 10
85.1318068235
 20
170.2067223369
  0
LWPOLYLINE
  5
C0
330
1F
100
AcDbEntity
  8
0
  6
Continuous
 62
     7
370
    25
100
AcDbPolyline
 90
       11
 70
   128
 43
0.0
 10
37.9451193928
 20
181.7139649401
 10
37.9859990283
 20
181.9084368159
 10
37.904687643
 20
182.0997068117
 10
37.7091445617
 20
182.2690520877
 10
37.4185109037
 20
182.3998959482
 10
37.0612359163
 20
182.4794304847
 10
36.6722921646
 20
182.4998703025
 10
36.289752173
 20
182.4592146098
 10
35.9510616211
 20
182.3614430692
 10
35.6893739
 20
182.2161262401
 10
35.530304827
 20
182.0374887465
  0
LWPOLYLINE
  5
C1
330
1F
100
AcDbEntity
  8
0
  6
Continuous
 62
     7
370
    25
100
AcDbPolyline
 90
       11
 70
   128
 43
0.0
 10
35.530304827
 20
182.0374887465
 10
35.4894251914
 20
181.8430168706
 10
35.5707365768
 20
181.6517468748
 10
35.7662796581
 20
181.4824015989
 10
36.0569133161
 20
181.3515577383
 10
36.4141883035
 20
181.2720232018
 10
36.8031320552
 20
181.251583384
 10
37.1856720468
 20
181.2922390767
 10
37.5243625987
 20
181.3900106174
 10
37.7860503198
 20
181.5353274464
 10
37.9451193928
 20
181.7139649401
  0
LWPOLYLINE
  5
C2
330
1F
100
AcDbEntity
  8
0
  6
Continuous
 62
     7
370
    25
100
AcDbPolyline
 90
       11
 70
   128
 43
0.0
 10
35.3524067888
 20
176.8758973564
 10
35.3932864244
 20
177.0703692322
 10
35.311975039
 20
177.261639228
 10
35.1164319577
 20
177.430984504
 10
34.8257982997
 20
177.5618283645
 10
34.4685233123
 20
177.641362901
 10
34.0795795606
 20
177.6618027188
 10
33.697039569
 20
177.6211470261
 10
33.3583490171
 20
177.5233754855
 10
33.096661296
 20
177.3780586564
 10
32.9375922231
 20
177.1994211627
  0
LWPOLYLINE
  5
C3
330
1F
100
AcDbEntity
  8
0
  6
Continuous
 62
     7
370
    25
100
AcDbPolyline
 90
       11
 70
   128
 43
0.0
 10
32.9375922231
 20
177.1994211627
 10
32.8967125875
 20
177.0049492869
 10
32.9780239728
 20
176.8136792911
 10
33.1735670541
 20
176.6443340151
 10
33.4642007122
 20
176.5134901546
 10
33.8214756995
 20
176.4339556181
 10
34.2104194512
 20
176.4135158003
 10
34.5929594429
 20
176.454171493
 10
34.9316499947
 20
176.5519430336
 10
35.1933377159
 20
176.6972598627
 10
35.3524067888
 20
176.8758973564
  0
LWPOLYLINE
  5
C4
330
1F
100
AcDbEntity
  8
0
  6
Continuous
 62
     7
370
    25
100
AcDbPolyline
 90
       56
 70
   128
 43
0.0
 10
51.5959130533
 20
159.3890945211
 10
49.7490641212
 20
159.6650175812
 10
47.9367314465
 20
159.993207844
 10
46.1648264818
 20
160.3725948214
 10
44.4391288127
 20
160.8019410317
 10
42.7652673064
 20
161.2798460368
 10
41.1487017511
 20
161.8047510101
 10
39.5947050477
 20
162.3749438205
 10
38.1083460104
 20
162.9885646176
 10
36.6944728336
 20
163.643611898
 10
35.3576972775
 20
164.3379490335
 10
34.1023796262
 20
165.0693112407
 10
32.932614465
 20
165.8353129682
 10
31.8522173247
 20
166.6334556774
 10
30.8647122362
 20
167.4611359929
 10
29.9733202359
 20
168.3156541934
 10
29.1809488591
 20
169.1942230182
 10
28.4901826566
 20
170.0939767584
 10
27.9032747642
 20
171.0119806042
 10
27.4221395534
 20
171.9452402181
 10
27.0483463873
 20
172.890711501
 10
26.7831145015
 20
173.8453105222
 10
26.6273090273
 20
174.805923578
 10
26.5814381697
 20
175.7694173485
 10
26.64565155
 20
176.7326491171
 10
26.8197397175
 20
177.692477022
 10
27.1031348327
 20
178.6457703041
 10
27.4949125197
 20
179.5894195189
 10
27.993794881
 20
180.5203466787
 10
28.5981546662
 20
181.4355152928
 10
29.3060205793
 20
182.3319402711
 10
30.1150837086
 20
183.2066976619
 10
31.0227050586
 20
184.0569341883
 10
32.0259241569
 20
184.8798765555
 10
33.1214687115
 20
185.6728404966
 10
34.3057652837
 20
186.4332395279
 10
35.5749509442
 20
187.158593386
 10
36.9248858732
 20
187.8465361172
 10
38.3511668635
 20
188.4948237954
 10
39.8491416831
 20
189.1013418409
 10
41.4139242494
 20
189.6641119179
 10
43.0404105669
 20
190.1812983875
 10
44.7232953754
 20
190.6512142948
 10
46.4570894543
 20
191.0723268718
 10
48.2361375279
 20
191.4432625369
 10
50.0546367109
 20
191.7628113749
 10
51.9066554371
 20
192.029931084
 10
53.7861528064
 20
192.2437503753
 10
55.6869982889
 20
192.4035718146
 10
57.6029917218
 20
192.5088740976
 10
59.5278835328
 20
192.5593137502
 10
61.4553951249
 20
192.5547262487
 10
63.3792393559
 20
192.4951265566
 10
65.2931410457
 20
192.3807090757
 10
67.190857445
 20
192.2118470119
 10
69.0661985975
 20
191.9890911584
  0
LWPOLYLINE
  5
C5
330
1F
100
AcDbEntity
  8
0
  6
Continuous
 62
     7
370
    25
100
AcDbPolyline
 90
       24
 70
   128
 43
0.0
 10
26.5810558252
 20
175.2560801379
 10
26.6273090273
 20
174.3729108763
 10
26.7831145015
 20
173.4122978204
 10
27.0483463873
 20
172.4576987992
 10
27.4221395533
 20
171.5122275163
 10
27.9032747641
 20
170.5789679025
 10
28.4901826565
 20
169.6609640566
 10
29.180948859
 20
168.7612103164
 10
29.9733202358
 20
167.8826414916
 10
30.8647122361
 20
167.0281232911
 10
31.8522173246
 20
166.2004429757
 10
32.9326144649
 20
165.4023002664
 10
34.1023796261
 20
164.6362985389
 10
35.3576972773
 20
163.9049363317
 10
36.6944728334
 20
163.2105991962
 10
38.1083460103
 20
162.5555519158
 10
39.5947050475
 20
161.9419311187
 10
41.1487017509
 20
161.3717383083
 10
42.7652673062
 20
160.846833335
 10
44.4391288125
 20
160.3689283298
 10
46.1648264816
 20
159.9395821195
 10
47.9367314463
 20
159.5601951422
 10
49.7490641209
 20
159.2320048793
 10
51.595913053
 20
158.9560818192
  0
LWPOLYLINE
  5
C6
330
1F
100
AcDbEntity
  8
0
  6
Continuous
 62
     7
370
    25
100
AcDbPolyline
 90
        3
 70
   128
 43
0.0
 10
77.2022932289
 20
176.3002722263
 10
77.2449480213
 20
176.1105172011
 10
77.3089826716
 20
175.6890928398
  0
LWPOLYLINE
  5
C7
330
1F
100
AcDbEntity
  8
0
  6
Continuous
 62
     7
370
    25
100
AcDbPolyline
 90
        3
 70
   128
 43
0.0
 10
43.3531289789
 20
175.6890928398
 10
43.3620714034
 20
175.769297366
 10
43.4598184216
 20
176.3002722263
  0
ARC
  5
C8
330
1F
100
AcDbEntity
  8
0
  6
Continuous
 62
     7
370
    25
100
AcDbCircle
 10
83.9243995406
 20
168.0359253884
 30
0.0
 40
2.102564047809879
100
AcDbArc
 50
64.6143514901
 51
115.3856485099
  0
LINE
  5
C9
330
1F
100
AcDbEntity
  8
0
  6
Continuous
 62
     7
370
    25
100
AcDbLine
 10
84.5999422108
 20
172.0046658838
 30
0.0
 11
83.7547571128
 21
172.9839246198
 31
0.0
  0
LINE
  5
CA
330
1F
100
AcDbEntity
  8
0
  6
Continuous
 62
     7
370
    25
100
AcDbLine
 10
84.5642250164
 20
171.8974198372
 30
0.0
 11
84.5999422108
 21
172.0046658838
 31
0.0
  0
LWPOLYLINE
  5
CB
330
1F
100
AcDbEntity
  8
0
  6
Continuous
 62
     7
370
    25
100
AcDbPolyline
 90
       10
 70
   128
 43
0.0
 10
84.5999422108
 20
172.0046658838
 10
84.7431043764
 20
172.1654396281
 10
84.9786233254
 20
172.2962247742
 10
85.2834448221
 20
172.3842191608
 10
85.6277308146
 20
172.4208092842
 10
85.9777801911
 20
172.4024134482
 10
86.2993276797
 20
172.3308323654
 10
86.560897972
 20
172.2130728909
 10
86.7368867451
 20
172.0606621425
 10
86.8089925143
 20
171.8974198372
  0
ARC
  5
CC
330
1F
100
AcDbEntity
  8
0
  6
Continuous
 62
     7
370
    25
100
AcDbCircle
 10
86.5171121446
 20
172.8739929721
 30
0.0
 40
2.102564047809789
100
AcDbArc
 50
64.61435149
 51
115.38564851
  0
ARC
  5
CD
330
1F
100
AcDbEntity
  8
0
  6
Continuous
 62
     7
370
    25
100
AcDbCircle
 10
34.1449995059
 20
174.7051004079
 30
0.0
 40
2.102564047809914
100
AcDbArc
 50
64.61435149
 51
115.38564851
  0
LINE
  5
CE
330
1F
100
AcDbEntity
  8
0
  6
Continuous
 62
     7
370
    25
100
AcDbLine
 10
33.8888363306
 20
178.7986658177
 30
0.0
 11
33.0436512326
 21
179.7779245537
 31
0.0
  0
LINE
  5
CF
330
1F
100
AcDbEntity
  8
0
  6
Continuous
 62
     7
370
    25
100
AcDbLine
 10
33.8531191362
 20
178.6914197711
 30
0.0
 11
33.8888363306
 21
178.7986658177
 31
0.0
  0
LWPOLYLINE
  5
D0
330
1F
100
AcDbEntity
  8
0
  6
Continuous
 62
     7
370
    25
100
AcDbPolyline
 90
       10
 70
   128
 43
0.0
 10
33.8888363306
 20
178.7986658177
 10
34.0319984962
 20
178.959439562
 10
34.2675174452
 20
179.0902247082
 10
34.5723389419
 20
179.1782190947
 10
34.9166249344
 20
179.2148092181
 10
35.2666743109
 20
179.1964133821
 10
35.5882217995
 20
179.1248322993
 10
35.8497920918
 20
179.0070728248
 10
36.025780865
 20
178.8546620765
 10
36.0978866341
 20
178.6914197711
  0
ARC
  5
D1
330
1F
100
AcDbEntity
  8
0
  6
Continuous
 62
     7
370
    25
100
AcDbCircle
 10
36.7377121099
 20
179.5431679916
 30
0.0
 40
2.102564047809794
100
AcDbArc
 50
64.61435149
 51
115.38564851
  0
LINE
  5
D2
330
1F
100
AcDbEntity
  8
0
  6
Continuous
 62
     7
370
    25
100
AcDbLine
 10
84.3818024721
 20
170.0051571125
 30
0.0
 11
84.7953737981
 21
169.9201808153
 31
0.0
  0
ARC
  5
D3
330
1F
100
AcDbEntity
  8
0
  6
Continuous
 62
     7
370
    25
100
AcDbCircle
 10
83.9317318551
 20
166.7104823397
 30
0.0
 40
3.325273735939497
100
AcDbArc
 50
82.2212309636
 51
105.2559614408
  0
LINE
  5
D4
330
1F
100
AcDbEntity
  8
0
  6
Continuous
 62
     7
370
    25
100
AcDbLine
 10
86.1395420943
 20
172.3578551074
 30
0.0
 11
86.2886193879
 21
172.3342665056
 31
0.0
  0
ARC
  5
D5
330
1F
100
AcDbEntity
  8
0
  6
Continuous
 62
     7
370
    25
100
AcDbCircle
 10
85.6872772659
 20
168.9826005227
 30
0.0
 40
3.40542023633929
100
AcDbArc
 50
82.368151538
 51
100.1936948063
  0
LWPOLYLINE
  5
D6
330
1F
100
AcDbEntity
  8
0
  6
Continuous
 62
     7
370
    25
100
AcDbPolyline
 90
        3
 70
   128
 43
0.0
 10
36.0642850545
 20
181.3491824479
 10
36.2360526755
 20
181.467846763
 10
36.292225369
 20
181.5061270367
  0
LINE
  5
D7
330
1F
100
AcDbEntity
  8
0
  6
Continuous
 62
     7
370
    25
100
AcDbLine
 10
86.9699929232
 20
174.8347862439
 30
0.0
 11
87.3753327695
 21
174.7521408427
 31
0.0
  0
ARC
  5
D8
330
1F
100
AcDbEntity
  8
0
  6
Continuous
 62
     7
370
    25
100
AcDbCircle
 10
86.5197747292
 20
171.5349018235
 30
0.0
 40
3.330455465952512
100
AcDbArc
 50
82.2308460266
 51
104.9810709872
  0
LINE
  5
D9
330
1F
100
AcDbEntity
  8
0
  6
Continuous
 62
     7
370
    25
100
AcDbLine
 10
34.5979853852
 20
176.6749239048
 30
0.0
 11
35.0151043188
 21
176.5889339497
 31
0.0
  0
ARC
  5
DA
330
1F
100
AcDbEntity
  8
0
  6
Continuous
 62
     7
370
    25
100
AcDbCircle
 10
34.1478932662
 20
173.3794912615
 30
0.0
 40
3.326027543762573
100
AcDbArc
 50
82.2226310034
 51
105.2162646394
  0
LINE
  5
DB
330
1F
100
AcDbEntity
  8
0
  6
Continuous
 62
     7
370
    25
100
AcDbLine
 10
35.4284362141
 20
179.1518550413
 30
0.0
 11
35.5775135055
 21
179.1282664399
 31
0.0
  0
ARC
  5
DC
330
1F
100
AcDbEntity
  8
0
  6
Continuous
 62
     7
370
    25
100
AcDbCircle
 10
34.9761713858
 20
175.7766004562
 30
0.0
 40
3.405420236855433
100
AcDbArc
 50
82.368151539
 51
100.1936947648
  0
LINE
  5
DD
330
1F
100
AcDbEntity
  8
0
  6
Continuous
 62
     7
370
    25
100
AcDbLine
 10
37.1861758362
 20
181.5045530362
 30
0.0
 11
37.5950645221
 21
181.4209063179
 31
0.0
  0
ARC
  5
DE
330
1F
100
AcDbEntity
  8
0
  6
Continuous
 62
     7
370
    25
100
AcDbCircle
 10
36.7359368927
 20
178.203934583
 30
0.0
 40
3.331185566744392
100
AcDbArc
 50
82.2321991199
 51
104.9419526572
  0
LWPOLYLINE
  5
DF
330
1F
100
AcDbEntity
  8
0
  6
Continuous
 62
     7
370
    25
100
AcDbPolyline
 90
       39
 70
   128
 43
0.0
 10
44.0310575066
 20
178.3058912347
 10
44.4474014512
 20
178.9714540956
 10
44.972246861
 20
179.6175530166
 10
45.6020085097
 20
180.2397744871
 10
46.3323844866
 20
180.8338681034
 10
47.1583855832
 20
181.3957756037
 10
48.0743693744
 20
181.9216585901
 10
49.0740787623
 20
182.4079247485
 10
50.1506847178
 20
182.8512523879
 10
51.2968329309
 20
183.2486131312
 10
52.5046940468
 20
183.5972926014
 10
53.7660171496
 20
183.8949089643
 10
55.0721861233
 20
184.1394291983
 10
56.4142785096
 20
184.3291829822
 10
57.7831264565
 20
184.4628741053
 10
59.1693793445
 20
184.5395893218
 10
60.5635676608
 20
184.5588045888
 10
61.9561676855
 20
184.5203886466
 10
63.3376665484
 20
184.424603915
 10
64.6986272113
 20
184.272104701
 10
66.0297529331
 20
184.0639327287
 10
67.3219507752
 20
183.8015100238
 10
68.5663937161
 20
183.4866291994
 10
69.7545809487
 20
183.121441211
 10
70.8783959493
 20
182.7084406627
 10
71.9301619221
 20
182.2504487671
 10
72.9026942389
 20
181.7505940732
 10
73.7893495178
 20
181.2122910954
 10
74.5840710043
 20
180.6392169888
 10
75.2814299448
 20
180.0352864309
 10
75.8766626705
 20
179.4046248795
 10
76.3657031384
 20
178.7515403926
 10
76.7452107063
 20
178.0804941995
 10
77.0125929526
 20
177.396070226
 10
77.1660233855
 20
176.702943782
 10
77.2044539195
 20
176.0058496239
 10
77.1276220351
 20
175.3095496115
 10
76.936052572
 20
174.6188001801
 10
76.6310541439
 20
173.9383198486
  0
LWPOLYLINE
  5
E0
330
1F
100
AcDbEntity
  8
0
  6
Continuous
 62
     7
370
    25
100
AcDbPolyline
 90
       39
 70
   128
 43
0.0
 10
76.6310541439
 20
173.9383198486
 10
76.2147101993
 20
173.2727569877
 10
75.6898647894
 20
172.6266580667
 10
75.0601031408
 20
172.0044365962
 10
74.3297271639
 20
171.4103429799
 10
73.5037260673
 20
170.8484354796
 10
72.5877422761
 20
170.3225524932
 10
71.5880328882
 20
169.8362863348
 10
70.5114269326
 20
169.3929586954
 10
69.3652787196
 20
168.9955979521
 10
68.1574176037
 20
168.6469184819
 10
66.8960945009
 20
168.349302119
 10
65.5899255271
 20
168.1047818851
 10
64.2478331409
 20
167.9150281011
 10
62.878985194
 20
167.781336978
 10
61.492732306
 20
167.7046217615
 10
60.0985439897
 20
167.6854064945
 10
58.705943965
 20
167.7238224367
 10
57.3244451021
 20
167.8196071683
 10
55.9634844391
 20
167.9721063823
 10
54.6323587174
 20
168.1802783547
 10
53.3401608753
 20
168.4427010596
 10
52.0957179344
 20
168.7575818839
 10
50.9075307018
 20
169.1227698723
 10
49.7837157011
 20
169.5357704206
 10
48.7319497284
 20
169.9937623162
 10
47.7594174116
 20
170.4936170102
 10
46.8727621327
 20
171.031919988
 10
46.0780406462
 20
171.6049940945
 10
45.3806817057
 20
172.2089246525
 10
44.78544898
 20
172.8395862038
 10
44.2964085121
 20
173.4926706907
 10
43.9169009442
 20
174.1637168838
 10
43.6495186979
 20
174.8481408573
 10
43.496088265
 20
175.5412673013
 10
43.457657731
 20
176.2383614594
 10
43.5344896154
 20
176.9346614718
 10
43.7260590785
 20
177.6254109032
 10
44.0310575066
 20
178.3058912347
  0
ARC
  5
E1
330
1F
100
AcDbEntity
  8
0
  6
Continuous
 62
     7
370
    25
100
AcDbCircle
 10
72.8739644693
 20
175.6669184585
 30
0.0
 40
4.457969851512984
100
AcDbArc
 50
3.0690967087
 51
19.1314486441
  0
LWPOLYLINE
  5
E2
330
1F
100
AcDbEntity
  8
0
  6
Continuous
 62
     7
370
    25
100
AcDbPolyline
 90
        3
 70
   128
 43
0.0
 10
43.5763947239
 20
177.1279579637
 10
43.4171636292
 20
176.543529903
 10
43.3365714259
 20
175.9055991907
  0
LINE
  5
E3
330
1F
100
AcDbEntity
  8
0
  6
Continuous
 62
     8
370
    25
100
AcDbLine
 10
90.9992008099
 20
165.6480664828
 30
0.0
 11
90.9992008099
 21
168.2110928561
 31
0.0
  0
LWPOLYLINE
  5
E4
330
1F
100
AcDbEntity
  8
0
  6
Continuous
 62
     8
370
    25
100
AcDbPolyline
 90
       15
 70
   128
 43
0.0
 10
36.8243957887
 20
124.4368463907
 10
36.8816818367
 20
123.6783195703
 10
37.0528910219
 20
122.8648245882
 10
37.3368475904
 20
122.0592537355
 10
37.7321762036
 20
121.2655087802
 10
38.2369620943
 20
120.4874342123
 10
38.8487603408
 20
119.7287986223
 10
39.564607709
 20
118.9932764484
 10
40.3810370049
 20
118.2844301792
 10
41.2940938673
 20
117.6056930994
 10
42.2993559214
 20
116.96035266
 10
43.3919541981
 20
116.3515345562
 10
44.5665967166
 20
115.7821875878
 10
45.8175941166
 20
115.2550693768
 10
47.1388872141
 20
114.7727330111
  0
LINE
  5
E5
330
1F
100
AcDbEntity
  8
0
  6
Continuous
 62
     8
370
    25
100
AcDbLine
 10
55.8634821094
 20
153.6710723781
 30
0.0
 11
55.8634821094
 21
154.0397637157
 31
0.0
  0
SPLINE
  5
E6
330
1F
100
AcDbEntity
  8
0
  6
Continuous
 62
     8
370
    25
100
AcDbSpline
210
0.0
220
0.0
230
1.0
 70
     8
 71
     3
 72
    13
 73
     9
 74
     0
 42
0.00000001
 43
0.00000001
 40
0.0
 40
0.0
 40
0.0
 40
0.0
 40
0.1143164195775836
 40
0.2914531356620665
 40
0.4685898517465565
 40
0.6457265678310489
 40
0.8228632839155395
 40
1.0
 40
1.0
 40
1.0
 40
1.0
 10
61.73979157725118
 20
124.3903362054359
 30
0.0
 10
61.74358484336066
 20
124.3841801763882
 30
0.0
 10
61.75325588892081
 20
124.3684851959488
 30
0.0
 10
61.78304657774277
 20
124.3464306213678
 30
0.0
 10
61.82546726396411
 20
124.3255106392585
 30
0.0
 10
61.87670516240464
 20
124.3103927470925
 30
0.0
 10
61.93341902430064
 20
124.301142469471
 30
0.0
 10
61.97283311310449
 20
124.3008018127501
 30
0.0
 10
61.99254015750641
 20
124.3006314843896
 30
0.0
  0
SPLINE
  5
E7
330
1F
100
AcDbEntity
  8
0
  6
Continuous
 62
     8
370
    25
100
AcDbSpline
210
0.0
220
0.0
230
1.0
 70
     8
 71
     3
 72
    11
 73
     7
 74
     0
 42
0.00000001
 43
0.00000001
 40
0.0
 40
0.0
 40
0.0
 40
0.0
 40
0.4711094332937381
 40
0.7012050520329294
 40
0.9445142647694843
 40
0.9999999999999999
 40
0.9999999999999999
 40
0.9999999999999999
 40
0.9999999999999999
 10
47.48613572273758
 20
126.3685399686282
 30
0.0
 10
47.50746424942221
 20
126.7793366883742
 30
0.0
 10
47.53920988983342
 20
127.3907715586772
 30
0.0
 10
47.75337383642655
 20
128.1251776300333
 30
0.0
 10
47.90190371335417
 20
128.5187090152102
 30
0.0
 10
48.01785155351111
 20
128.7175649202643
 30
0.0
 10
48.03938287859966
 20
128.754492137983
 30
0.0
  0
LINE
  5
E8
330
1F
100
AcDbEntity
  8
0
  6
Continuous
 62
     8
370
    25
100
AcDbLine
 10
61.7596184856
 20
113.409448489
 30
0.0
 11
47.7651695476
 21
115.2843491347
 31
0.0
  0
SPLINE
  5
E9
330
1F
100
AcDbEntity
  8
0
  6
Continuous
 62
     8
370
    25
100
AcDbSpline
210
0.0
220
0.0
230
1.0
 70
     8
 71
     3
 72
    13
 73
     9
 74
     0
 42
0.00000001
 43
0.00000001
 40
0.0
 40
0.0
 40
0.0
 40
0.0
 40
0.1785396886745984
 40
0.3570793773492382
 40
0.5356190660238779
 40
0.7141587546985141
 40
0.8926984433731602
 40
1.0
 40
1.0
 40
1.0
 40
1.0
 10
62.02771650117217
 20
112.7795684784882
 30
0.0
 10
62.00800369388098
 20
112.7797360834513
 30
0.0
 10
61.9685780792986
 20
112.7800712933775
 30
0.0
 10
61.91182849208558
 20
112.7893200137163
 30
0.0
 10
61.86053213523843
 20
112.8044402265095
 30
0.0
 10
61.81808665125264
 20
112.8253802387681
 30
0.0
 10
61.78863211776036
 20
112.8470575947336
 30
0.0
 10
61.7791428869166
 20
112.8623351924664
 30
0.0
 10
61.77558073744566
 20
112.8680702291177
 30
0.0
  0
SPLINE
  5
EA
330
1F
100
AcDbEntity
  8
0
  6
Continuous
 62
     8
370
    25
100
AcDbSpline
210
0.0
220
0.0
230
1.0
 70
     8
 71
     3
 72
    12
 73
     8
 74
     0
 42
0.00000001
 43
0.00000001
 40
0.0
 40
0.0
 40
0.0
 40
0.0
 40
0.1533378944667826
 40
0.3166696979386207
 40
0.4938179933980463
 40
0.687686760174441
 40
1.0
 40
1.0
 40
1.0
 40
1.0
 10
62.02771963286663
 20
112.779539350228
 30
0.0
 10
62.03031866935514
 20
112.74212014213
 30
0.0
 10
62.03568613642914
 20
112.6648429017799
 30
0.0
 10
62.07251496055879
 20
112.5695236108498
 30
0.0
 10
62.12959990183008
 20
112.4934961750859
 30
0.0
 10
62.2205828099142
 20
112.429087410247
 30
0.0
 10
62.30608258348123
 20
112.430407864909
 30
0.0
 10
62.35883576502225
 20
112.4312225826748
 30
0.0
  0
SPLINE
  5
EB
330
1F
100
AcDbEntity
  8
0
  6
Continuous
 62
     8
370
    25
100
AcDbSpline
210
0.0
220
0.0
230
1.0
 70
     8
 71
     3
 72
    10
 73
     6
 74
     0
 42
0.00000001
 43
0.00000001
 40
0.0
 40
0.0
 40
0.0
 40
0.0
 40
0.1299323915524722
 40
0.5807722919148852
 40
1.0
 40
1.0
 40
1.0
 40
1.0
 10
47.47433025506766
 20
114.6301544186167
 30
0.0
 10
47.47841386794732
 20
114.6364114427786
 30
0.0
 10
47.49666681613885
 20
114.6643791128848
 30
0.0
 10
47.51463677162788
 20
114.7361232762453
 30
0.0
 10
47.51872199490253
 20
114.8113801003438
 30
0.0
 10
47.52069039227052
 20
114.8476413581797
 30
0.0
  0
SPLINE
  5
EC
330
1F
100
AcDbEntity
  8
0
  6
Continuous
 62
     8
370
    25
100
AcDbSpline
210
0.0
220
0.0
230
1.0
 70
     8
 71
     3
 72
    12
 73
     8
 74
     0
 42
0.00000001
 43
0.00000001
 40
0.0
 40
0.0
 40
0.0
 40
0.0
 40
0.1914596397166776
 40
0.4228537679479125
 40
0.6322066227496668
 40
0.8230045949953471
 40
1.0
 40
1.0
 40
1.0
 40
1.0
 10
47.07505388544475
 20
114.4772559371612
 30
0.0
 10
47.08153319631932
 20
114.473315305247
 30
0.0
 10
47.09584326720984
 20
114.4646121077715
 30
0.0
 10
47.11265405733694
 20
114.5083119590877
 30
0.0
 10
47.12761281850062
 20
114.5742456260625
 30
0.0
 10
47.13781861709339
 20
114.6628235424879
 30
0.0
 10
47.13853531996766
 20
114.7378830511854
 30
0.0
 10
47.13888022317513
 20
114.7740043871396
 30
0.0
  0
LINE
  5
ED
330
1F
100
AcDbEntity
  8
0
  6
Continuous
 62
     8
370
    25
100
AcDbLine
 10
64.730979592
 20
184.3324750651
 30
0.0
 11
64.730979592
 21
184.2677530888
 31
0.0
  0
LINE
  5
EE
330
1F
100
AcDbEntity
  8
0
  6
Continuous
 62
     8
370
    25
100
AcDbLine
 10
82.7169922577
 20
170.2067223369
 30
0.0
 11
82.7169922577
 21
170.5302461432
 31
0.0
  0
LINE
  5
EF
330
1F
100
AcDbEntity
  8
0
  6
Continuous
 62
     8
370
    25
100
AcDbLine
 10
87.1345474325
 20
172.0352734183
 30
0.0
 11
87.6184604179
 21
172.4662865296
 31
0.0
  0
LINE
  5
F0
330
1F
100
AcDbEntity
  8
0
  6
Continuous
 62
     8
370
    25
100
AcDbLine
 10
85.3097048617
 20
175.0447899206
 30
0.0
 11
85.3097048617
 21
175.368313727
 31
0.0
  0
LINE
  5
F1
330
1F
100
AcDbEntity
  8
0
  6
Continuous
 62
     8
370
    25
100
AcDbLine
 10
32.9375922231
 20
176.8758973564
 30
0.0
 11
32.9375922231
 21
177.1994211627
 31
0.0
  0
LINE
  5
F2
330
1F
100
AcDbEntity
  8
0
  6
Continuous
 62
     8
370
    25
100
AcDbLine
 10
36.4234415524
 20
178.8292733522
 30
0.0
 11
36.9073545377
 21
179.2602864635
 31
0.0
  0
LINE
  5
F3
330
1F
100
AcDbEntity
  8
0
  6
Continuous
 62
     8
370
    25
100
AcDbLine
 10
35.530304827
 20
181.7139649401
 30
0.0
 11
35.530304827
 21
182.0374887465
 31
0.0
  0
LINE
  5
F4
330
1F
100
AcDbEntity
  8
0
  6
Continuous
 62
     8
370
    25
100
AcDbLine
 10
84.3818024721
 20
170.0051571125
 30
0.0
 11
84.3818024721
 21
170.0841122034
 31
0.0
  0
LINE
  5
F5
330
1F
100
AcDbEntity
  8
0
  6
Continuous
 62
     8
370
    25
100
AcDbLine
 10
86.1395420943
 20
172.3578551074
 30
0.0
 11
86.1395420943
 21
172.373977345
 31
0.0
  0
LINE
  5
F6
330
1F
100
AcDbEntity
  8
0
  6
Continuous
 62
     8
370
    25
100
AcDbLine
 10
86.9699929232
 20
174.8347862439
 30
0.0
 11
86.9699929232
 21
174.9230637579
 31
0.0
  0
LINE
  5
F7
330
1F
100
AcDbEntity
  8
0
  6
Continuous
 62
     8
370
    25
100
AcDbLine
 10
34.5979853852
 20
176.6749239048
 30
0.0
 11
34.5979853852
 21
176.7541507639
 31
0.0
  0
LINE
  5
F8
330
1F
100
AcDbEntity
  8
0
  6
Continuous
 62
     8
370
    25
100
AcDbLine
 10
35.4284362141
 20
179.1518550413
 30
0.0
 11
35.4284362141
 21
179.1679772789
 31
0.0
  0
LINE
  5
F9
330
1F
100
AcDbEntity
  8
0
  6
Continuous
 62
     8
370
    25
100
AcDbLine
 10
37.1861758362
 20
181.5045530362
 30
0.0
 11
37.1861758362
 21
181.5930924503
 31
0.0
  0
LINE
  5
FA
330
1F
100
AcDbEntity
  8
0
  6
Continuous
 62
     8
370
    25
100
AcDbLine
 10
43.4568012129
 20
175.0901739455
 30
0.0
 11
43.4560558252
 21
175.1694775975
 31
0.0
  0
LINE
  5
FB
330
1F
100
AcDbEntity
  8
0
  6
Continuous
 62
     8
370
    25
100
AcDbLine
 10
77.2060558252
 20
175.1694775975
 30
0.0
 11
77.2053104376
 21
175.0901739455
 31
0.0
  0
LINE
  5
FC
330
1F
100
AcDbEntity
  8
0
  6
Continuous
 62
     8
370
    25
100
AcDbLine
 10
76.6310541439
 20
173.9383198486
 30
0.0
 11
76.6310541439
 21
173.7080811625
 31
0.0
  0
LINE
  5
FD
330
1F
100
AcDbEntity
  8
0
  6
Continuous
 62
     7
370
    25
100
AcDbLine
 10
180.1101334951
 20
175.2560801379
 30
0.0
 11
180.1101334951
 21
175.6890928398
 31
0.0
  0
LINE
  5
FE
330
1F
100
AcDbEntity
  8
0
  6
Continuous
 62
     7
370
    25
100
AcDbLine
 10
112.6101334951
 20
175.6890928398
 30
0.0
 11
112.6101334951
 21
175.2560801379
 31
0.0
  0
LINE
  5
FF
330
1F
100
AcDbEntity
  8
0
  6
Continuous
 62
     7
370
    25
100
AcDbLine
 10
128.9685563948
 20
160.2826701334
 30
0.0
 11
128.9685563948
 21
154.471470447
 31
0.0
  0
SPLINE
  5
100
330
1F
100
AcDbEntity
  8
0
  6
Continuous
 62
     7
370
    25
100
AcDbSpline
210
0.0
220
0.0
230
1.0
 70
     8
 71
     3
 72
    45
 73
    41
 74
     0
 42
0.00000001
 43
0.00000001
 40
0.0
 40
0.0
 40
0.0
 40
0.0
 40
0.0114572890894706
 40
0.0353594113832267
 40
0.0592854352149513
 40
0.0834727420362912
 40
0.1081254601375275
 40
0.1333895416029388
 40
0.1593272772372981
 40
0.1859020706658192
 40
0.2129892973369535
 40
0.2404169372217167
 40
0.268016700481036
 40
0.2956463854341543
 40
0.3232199891081266
 40
0.3507062757173827
 40
0.3780967445248615
 40
0.4053957642705129
 40
0.432614250499703
 40
0.4597660433752582
 40
0.4868660099186662
 40
0.5139291586594822
 40
0.5409703206298004
 40
0.5680041362741014
 40
0.5950439516167243
 40
0.6221008932775698
 40
0.6491900233229878
 40
0.6763269334092717
 40
0.7035278581097109
 40
0.7308095852221641
 40
0.7581889639741367
 40
0.78568166122268
 40
0.8132995667995521
 40
0.8410458979500303
 40
0.8689067228320936
 40
0.8968361776824906
 40
0.9247016256378733
 40
0.9523336765135605
 40
0.9795224883622703
 40
1.0
 40
1.0
 40
1.0
 40
1.0
 10
128.9810825859194
 20
154.4570517060356
 30
0.0
 10
128.9787766043378
 20
154.3353774995203
 30
0.0
 10
128.9716598989158
 20
153.9598673514123
 30
0.0
 10
129.0666300252473
 20
153.3337547331687
 30
0.0
 10
129.2579190882639
 20
152.5893786396489
 30
0.0
 10
129.5489819749663
 20
151.8622017834525
 30
0.0
 10
129.9322170240473
 20
151.1533822661832
 30
0.0
 10
130.4099184033412
 20
150.4644151933814
 30
0.0
 10
130.9819953268113
 20
149.7978204629076
 30
0.0
 10
131.6478204047022
 20
149.157435654843
 30
0.0
 10
132.4043840673879
 20
148.5481064857731
 30
0.0
 10
133.2463317369476
 20
147.9749081964706
 30
0.0
 10
134.1663983330516
 20
147.4424052654093
 30
0.0
 10
135.1564795090407
 20
146.9541039513541
 30
0.0
 10
136.2086121989601
 20
146.5123515259561
 30
0.0
 10
137.3155077748198
 20
146.118600133687
 30
0.0
 10
138.4704505584358
 20
145.7738095552758
 30
0.0
 10
139.6669068175551
 20
145.4787400762404
 30
0.0
 10
140.8983843136722
 20
145.2340379145346
 30
0.0
 10
142.1583430573469
 20
145.0402605305549
 30
0.0
 10
143.4401539879946
 20
144.8978715811162
 30
0.0
 10
144.7370931730329
 20
144.807224559836
 30
0.0
 10
146.0423596993085
 20
144.7685456226598
 30
0.0
 10
147.3490882067846
 20
144.7819207094518
 30
0.0
 10
148.6503520608687
 20
144.8472836368377
 30
0.0
 10
149.9392689970105
 20
144.9644112944405
 30
0.0
 10
151.209070052523
 20
145.1329393506696
 30
0.0
 10
152.4531772275799
 20
145.352396728958
 30
0.0
 10
153.6651804171417
 20
145.6222341231542
 30
0.0
 10
154.8388587526768
 20
145.941865062969
 30
0.0
 10
155.9681801929404
 20
146.3107138757689
 30
0.0
 10
157.0472642073295
 20
146.7282642634321
 30
0.0
 10
158.0702979190149
 20
147.1940890466234
 30
0.0
 10
159.0313559013192
 20
147.7078396026399
 30
0.0
 10
159.9242096113076
 20
148.269082090785
 30
0.0
 10
160.741390150252
 20
148.87679012899
 30
0.0
 10
161.4753965391179
 20
149.5284478366023
 30
0.0
 10
162.1154210615644
 20
150.2207411446563
 30
0.0
 10
162.6212405505041
 20
150.8902938114154
 30
0.0
 10
162.8792422900314
 20
151.3412342506894
 30
0.0
 10
162.9900801570472
 20
151.5349588222055
 30
0.0
  0
LINE
  5
101
330
1F
100
AcDbEntity
  8
0
  6
Continuous
 62
     7
370
    25
100
AcDbLine
 10
163.7517105955
 20
154.471470447
 30
0.0
 11
163.7517105955
 21
159.6204041071
 31
0.0
  0
SPLINE
  5
102
330
1F
100
AcDbEntity
  8
0
  6
Continuous
 62
     7
370
    25
100
AcDbSpline
210
0.0
220
0.0
230
1.0
 70
     8
 71
     3
 72
    12
 73
     8
 74
     0
 42
0.00000001
 43
0.00000001
 40
0.0
 40
0.0
 40
0.0
 40
0.0
 40
0.0871588295197377
 40
0.3537388089094651
 40
0.6143565122757972
 40
0.8688544142941813
 40
1.0
 40
1.0
 40
1.0
 40
1.0
 10
162.9860205363254
 20
151.5365534625352
 30
0.0
 10
163.0294388085717
 20
151.6164232431631
 30
0.0
 10
163.2056542074467
 20
151.9405790541444
 30
0.0
 10
163.4421386550501
 20
152.5303630168205
 30
0.0
 10
163.649456974806
 20
153.3038747362587
 30
0.0
 10
163.748996723069
 20
153.9590965756348
 30
0.0
 10
163.7416744769155
 20
154.3522050038228
 30
0.0
 10
163.7391844043717
 20
154.4858891880544
 30
0.0
  0
LINE
  5
103
330
1F
100
AcDbEntity
  8
0
  6
Continuous
 62
     7
370
    25
100
AcDbLine
 10
163.4928174847
 20
159.7803352464
 30
0.0
 11
163.5581372111
 21
159.7341472249
 31
0.0
  0
LINE
  5
104
330
1F
100
AcDbEntity
  8
0
  6
Continuous
 62
     7
370
    25
100
AcDbLine
 10
166.6716865013
 20
160.2855167319
 30
0.0
 11
166.6716865013
 21
161.0544891425
 31
0.0
  0
LINE
  5
105
330
1F
100
AcDbEntity
  8
0
  6
Continuous
 62
     7
370
    25
100
AcDbLine
 10
166.2852357914
 20
159.7341472249
 30
0.0
 11
166.3505555179
 21
159.7803352464
 31
0.0
  0
LINE
  5
106
330
1F
100
AcDbEntity
  8
0
  6
Continuous
 62
     7
370
    25
100
AcDbLine
 10
141.3161335612
 20
156.888516765
 30
0.0
 11
141.3161335612
 21
157.6585946131
 31
0.0
  0
LINE
  5
107
330
1F
100
AcDbEntity
  8
0
  6
Continuous
 62
     7
370
    25
100
AcDbLine
 10
137.8161335612
 20
157.6573240497
 30
0.0
 11
137.8161335612
 21
156.888516765
 31
0.0
  0
LINE
  5
108
330
1F
100
AcDbEntity
  8
0
  6
Continuous
 62
     7
370
    25
100
AcDbLine
 10
140.9296828514
 20
156.3371472579
 30
0.0
 11
140.9950025778
 21
156.3833352794
 31
0.0
  0
LINE
  5
109
330
1F
100
AcDbEntity
  8
0
  6
Continuous
 62
     7
370
    25
100
AcDbLine
 10
138.1372645446
 20
156.3833352794
 30
0.0
 11
138.2025842711
 21
156.3371472579
 31
0.0
  0
LINE
  5
10A
330
1F
100
AcDbEntity
  8
0
  6
Continuous
 62
     7
370
    25
100
AcDbLine
 10
138.1359683113
 20
157.2487125666
 30
0.0
 11
138.1374435395
 21
157.2476694228
 31
0.0
  0
LINE
  5
10B
330
1F
100
AcDbEntity
  8
0
  6
Continuous
 62
     7
370
    25
100
AcDbLine
 10
166.3498786389
 20
160.6446611908
 30
0.0
 11
166.3510299722
 21
160.6454753064
 31
0.0
  0
SPLINE
  5
10C
330
1F
100
AcDbEntity
  8
0
  6
Continuous
 62
     7
370
    25
100
AcDbSpline
210
0.0
220
0.0
230
1.0
 70
     8
 71
     3
 72
     9
 73
     5
 74
     0
 42
0.00000001
 43
0.00000001
 40
0.0
 40
0.0
 40
0.0
 40
0.0
 40
0.5476032925115837
 40
0.9999999999999999
 40
0.9999999999999999
 40
0.9999999999999999
 40
0.9999999999999999
 10
141.8200454426797
 20
145.1376858947038
 30
0.0
 10
141.9063788552611
 20
145.0728892020284
 30
0.0
 10
142.0640357097066
 20
144.954561402394
 30
0.0
 10
142.238104552006
 20
144.8625474462693
 30
0.0
 10
142.3168527231386
 20
144.8209206354755
 30
0.0
  0
LINE
  5
10D
330
1F
100
AcDbEntity
  8
0
  6
Continuous
 62
     7
370
    25
100
AcDbLine
 10
151.7351334951
 20
144.2956719526
 30
0.0
 11
151.7351334951
 21
145.2350187403
 31
0.0
  0
LINE
  5
10E
330
1F
100
AcDbEntity
  8
0
  6
Continuous
 62
     7
370
    25
100
AcDbLine
 10
140.9851334951
 20
145.2298761868
 30
0.0
 11
140.9851334951
 21
144.2956719526
 31
0.0
  0
SPLINE
  5
10F
330
1F
100
AcDbEntity
  8
0
  6
Continuous
 62
     7
370
    25
100
AcDbSpline
210
0.0
220
0.0
230
1.0
 70
     8
 71
     3
 72
    21
 73
    17
 74
     0
 42
0.00000001
 43
0.00000001
 40
0.0
 40
0.0
 40
0.0
 40
0.0
 40
0.0438187812745113
 40
0.1239251044970229
 40
0.2039555494357607
 40
0.2844413366609687
 40
0.3659720488170612
 40
0.4493152132052063
 40
0.5351765810831434
 40
0.6135233547128564
 40
0.6877257429258703
 40
0.7575471082184255
 40
0.8240478601510206
 40
0.8883985021290636
 40
0.9515707684624779
 40
1.0
 40
1.0
 40
1.0
 40
1.0
 10
145.2210428657323
 20
140.6833832413746
 30
0.0
 10
145.3503150231722
 20
140.6679241819164
 30
0.0
 10
145.7159131788793
 20
140.6242039892717
 30
0.0
 10
146.3301440238432
 20
140.5987754297067
 30
0.0
 10
147.0540657148239
 20
140.6255621907191
 30
0.0
 10
147.7694022076909
 20
140.7134273812965
 30
0.0
 10
148.4678265895702
 20
140.8632196667055
 30
0.0
 10
149.1422974407465
 20
141.0795135192411
 30
0.0
 10
149.759122339285
 20
141.3583794869274
 30
0.0
 10
150.2996271812152
 20
141.6919913344366
 30
0.0
 10
150.7502335193578
 20
142.0648787683432
 30
0.0
 10
151.1184214013433
 20
142.4771859750647
 30
0.0
 10
151.4050012725774
 20
142.9235980330568
 30
0.0
 10
151.6043341929059
 20
143.399061353184
 30
0.0
 10
151.7203053386083
 20
143.858060609921
 30
0.0
 10
151.7231704033259
 20
144.1571346452944
 30
0.0
 10
151.7244136920381
 20
144.2869171839008
 30
0.0
  0
SPLINE
  5
110
330
1F
100
AcDbEntity
  8
0
  6
Continuous
 62
     7
370
    25
100
AcDbSpline
210
0.0
220
0.0
230
1.0
 70
     8
 71
     3
 72
     9
 73
     5
 74
     0
 42
0.00000001
 43
0.00000001
 40
0.0
 40
0.0
 40
0.0
 40
0.0
 40
0.7398580871154238
 40
1.0
 40
1.0
 40
1.0
 40
1.0
 10
150.3939680506382
 20
144.8173354338856
 30
0.0
 10
150.498011517197
 20
144.8710920047551
 30
0.0
 10
150.6386377648121
 20
144.9437499533612
 30
0.0
 10
150.7651113814347
 20
145.0386088945277
 30
0.0
 10
150.7980124699923
 20
145.0632856809369
 30
0.0
  0
SPLINE
  5
111
330
1F
100
AcDbEntity
  8
0
  6
Continuous
 62
     7
370
    25
100
AcDbSpline
210
0.0
220
0.0
230
1.0
 70
     8
 71
     3
 72
    19
 73
    15
 74
     0
 42
0.00000001
 43
0.00000001
 40
0.0
 40
0.0
 40
0.0
 40
0.0
 40
0.0258178030233971
 40
0.1127998405860173
 40
0.1981008393504914
 40
0.2834262202625826
 40
0.3706435313253283
 40
0.461685675209159
 40
0.558265583793583
 40
0.6610021769904753
 40
0.7683369839803118
 40
0.8767433234839558
 40
0.978404944275878
 40
1.0
 40
1.0
 40
1.0
 40
1.0
 10
140.995853298253
 20
144.3044267212547
 30
0.0
 10
140.9925610154927
 20
144.2522353407936
 30
0.0
 10
140.9781767950313
 20
144.0242074411834
 30
0.0
 10
141.0534481574117
 20
143.6250840880226
 30
0.0
 10
141.2143581167325
 20
143.1317272527695
 30
0.0
 10
141.46222348188
 20
142.6767083347537
 30
0.0
 10
141.7820865036354
 20
142.2606280201414
 30
0.0
 10
142.1759705099365
 20
141.8822773951547
 30
0.0
 10
142.6462292222933
 20
141.5418554265895
 30
0.0
 10
143.1946546406949
 20
141.2435488647363
 30
0.0
 10
143.8137089552449
 20
140.9954661643966
 30
0.0
 10
144.4740466159437
 20
140.8091683819154
 30
0.0
 10
144.9798826488648
 20
140.7146792809936
 30
0.0
 10
145.2541972727035
 20
140.6791383580654
 30
0.0
 10
145.3022582764169
 20
140.6729114482312
 30
0.0
  0
LINE
  5
112
330
1F
100
AcDbEntity
  8
0
  6
Continuous
 62
     7
370
    25
100
AcDbLine
 10
129.4851334951
 20
176.1221055417
 30
0.0
 11
129.4851334951
 21
175.1694775975
 31
0.0
  0
LINE
  5
113
330
1F
100
AcDbEntity
  8
0
  6
Continuous
 62
     7
370
    25
100
AcDbLine
 10
163.2351334951
 20
175.0932256896
 30
0.0
 11
163.2351334951
 21
175.1694775975
 31
0.0
  0
LINE
  5
114
330
1F
100
AcDbEntity
  8
0
  6
Continuous
 62
     7
370
    25
100
AcDbLine
 10
129.4851334951
 20
175.1694775975
 30
0.0
 11
129.4851334951
 21
175.0932256896
 31
0.0
  0
LINE
  5
115
330
1F
100
AcDbEntity
  8
0
  6
Continuous
 62
     7
370
    25
100
AcDbLine
 10
163.2351334951
 20
175.1694775975
 30
0.0
 11
163.2351334951
 21
176.1221055417
 31
0.0
  0
LWPOLYLINE
  5
116
330
1F
100
AcDbEntity
  8
0
  6
Continuous
 62
     7
370
    25
100
AcDbPolyline
 90
       55
 70
   128
 43
0.0
 10
154.8364572223
 20
191.9391409471
 10
156.6614742591
 20
191.6659538302
 10
158.4516348196
 20
191.3401712509
 10
160.2008815672
 20
190.9628955544
 10
161.9032956044
 20
190.5354033222
 10
163.5531165011
 20
190.0591410528
 10
165.1447617856
 20
189.5357202669
 10
166.6728458342
 20
188.9669120547
 10
168.132198094
 20
188.3546410832
 10
169.517880579
 20
187.7009790836
 10
170.8252045783
 20
187.0081378411
 10
172.0497465213
 20
186.2784617112
 10
173.1873629456
 20
185.5144196869
 10
174.2342045175
 20
184.7185970446
 10
175.1867290563
 20
183.8936865963
 10
176.0417135206
 20
183.0424795777
 10
176.7962649136
 20
182.1678562039
 10
177.4478300722
 20
181.2727759236
 10
177.9942043061
 20
180.3602674052
 10
178.433538858
 20
179.4334182886
 10
178.7643471587
 20
178.4953647378
 10
178.9855098577
 20
177.5492808291
 10
179.0962786103
 20
176.5983678111
 10
179.0962786103
 20
175.6458432722
 10
178.9855098577
 20
174.6949302542
 10
178.7643471587
 20
173.7488463455
 10
178.433538858
 20
172.8107927947
 10
177.9942043061
 20
171.8839436781
 10
177.4478300722
 20
170.9714351597
 10
176.7962649136
 20
170.0763548794
 10
176.0417135206
 20
169.2017315057
 10
175.1867290563
 20
168.350524487
 10
174.2342045175
 20
167.5256140387
 10
173.1873629456
 20
166.7297913964
 10
172.0497465213
 20
165.9657493721
 10
170.8252045783
 20
165.2360732422
 10
169.517880579
 20
164.5432319997
 10
168.132198094
 20
163.8895700001
 10
166.6728458342
 20
163.2772990286
 10
165.1447617856
 20
162.7084908164
 10
163.5531165011
 20
162.1850700305
 10
161.9032956044
 20
161.7088077611
 10
160.2008815672
 20
161.2813155289
 10
158.4516348196
 20
160.9040398324
 10
156.6614742591
 20
160.5782572531
 10
154.8364572223
 20
160.3050701362
 10
152.982758989
 20
160.0854028602
 10
151.1066518875
 20
159.9199987099
 10
149.2144840701
 20
159.8094173604
 10
147.312658034
 20
159.7540329841
 10
145.4076089563
 20
159.7540329841
 10
143.5057829202
 20
159.8094173604
 10
141.6136151028
 20
159.9199987099
 10
139.7375080013
 20
160.0854028602
 10
137.883809768
 20
160.3050701362
  0
LINE
  5
117
330
1F
100
AcDbEntity
  8
0
  6
Continuous
 62
     7
370
    25
100
AcDbLine
 10
155.0952762674
 20
191.9890911584
 30
0.0
 11
154.8364572223
 21
191.9391409471
 31
0.0
  0
LWPOLYLINE
  5
118
330
1F
100
AcDbEntity
  8
0
  6
Continuous
 62
     7
370
    25
100
AcDbPolyline
 90
       56
 70
   128
 43
0.0
 10
155.0952762674
 20
191.9890911584
 10
156.9421251995
 20
191.7131680983
 10
158.7544578741
 20
191.3849778354
 10
160.5263628388
 20
191.0055908581
 10
162.2520605079
 20
190.5762446478
 10
163.9259220142
 20
190.0983396426
 10
165.5424875695
 20
189.5734346694
 10
167.0964842729
 20
189.003241859
 10
168.5828433101
 20
188.3896210618
 10
169.996716487
 20
187.7345737815
 10
171.3334920431
 20
187.040236646
 10
172.5888096943
 20
186.3088744387
 10
173.7585748555
 20
185.5428727113
 10
174.8389719958
 20
184.744730002
 10
175.8264770843
 20
183.9170496865
 10
176.7178690846
 20
183.062531486
 10
177.5102404614
 20
182.1839626612
 10
178.2010066639
 20
181.284208921
 10
178.7879145563
 20
180.3662050752
 10
179.2690497671
 20
179.4329454613
 10
179.6428429331
 20
178.4874741784
 10
179.9080748189
 20
177.5328751572
 10
180.0638802931
 20
176.5722621014
 10
180.1097511507
 20
175.6087683309
 10
180.0455377703
 20
174.6455365623
 10
179.8714496029
 20
173.6857086574
 10
179.5880544877
 20
172.7324153753
 10
179.1962768007
 20
171.7887661605
 10
178.6973944393
 20
170.8578390007
 10
178.0930346541
 20
169.9426703867
 10
177.385168741
 20
169.0462454083
 10
176.5761056116
 20
168.1714880175
 10
175.6684842617
 20
167.3212514911
 10
174.6652651633
 20
166.4983091239
 10
173.5697206087
 20
165.7053451828
 10
172.3854240366
 20
164.9449461515
 10
171.1162383761
 20
164.2195922935
 10
169.766303447
 20
163.5316495623
 10
168.3400224567
 20
162.8833618841
 10
166.8420476371
 20
162.2768438386
 10
165.2772650708
 20
161.7140737615
 10
163.6507787532
 20
161.196887292
 10
161.9678939448
 20
160.7269713847
 10
160.2340998658
 20
160.3058588077
 10
158.4550517923
 20
159.9349231426
 10
156.6365526093
 20
159.6153743046
 10
154.784533883
 20
159.3482545955
 10
152.9050365138
 20
159.1344353042
 10
151.0041910313
 20
158.9746138649
 10
149.0881975983
 20
158.8693115819
 10
147.1633057873
 20
158.8188719293
 10
145.2357941952
 20
158.8234594308
 10
143.3119499643
 20
158.883059123
 10
141.3980482744
 20
158.9974766039
 10
139.5003318751
 20
159.1663386676
 10
137.6249907232
 20
159.3890945211
  0
LINE
  5
119
330
1F
100
AcDbEntity
  8
0
  6
Continuous
 62
     7
370
    25
100
AcDbLine
 10
137.6249907232
 20
159.3890945211
 30
0.0
 11
137.883809768
 21
160.3050701362
 31
0.0
  0
LWPOLYLINE
  5
11A
330
1F
100
AcDbEntity
  8
0
  6
Continuous
 62
     7
370
    25
100
AcDbPolyline
 90
       34
 70
   128
 43
0.0
 10
137.6249907229
 20
158.9560818192
 10
139.5003318751
 20
158.7333259657
 10
141.3980482744
 20
158.564463902
 10
143.3119499643
 20
158.4500464211
 10
145.2357941952
 20
158.3904467289
 10
147.1633057873
 20
158.3858592274
 10
149.0881975983
 20
158.43629888
 10
151.0041910313
 20
158.541601163
 10
152.9050365138
 20
158.7014226023
 10
154.784533883
 20
158.9152418936
 10
156.6365526093
 20
159.1823616027
 10
158.4550517923
 20
159.5019104407
 10
160.2340998658
 20
159.8728461058
 10
161.9678939448
 20
160.2939586828
 10
163.6507787532
 20
160.7638745901
 10
165.2772650708
 20
161.2810610596
 10
166.8420476371
 20
161.8438311367
 10
168.3400224567
 20
162.4503491822
 10
169.766303447
 20
163.0986368604
 10
171.1162383761
 20
163.7865795916
 10
172.3854240366
 20
164.5119334496
 10
173.5697206087
 20
165.2723324809
 10
174.6652651633
 20
166.065296422
 10
175.6684842617
 20
166.8882387892
 10
176.5761056116
 20
167.7384753156
 10
177.385168741
 20
168.6132327064
 10
178.0930346541
 20
169.5096576848
 10
178.6973944393
 20
170.4248262988
 10
179.1962768007
 20
171.3557534586
 10
179.5880544877
 20
172.2994026734
 10
179.8714496029
 20
173.2526959555
 10
180.0455377703
 20
174.2125238604
 10
180.1097511507
 20
175.175755629
 10
180.1101334951
 20
175.2560801379
  0
LINE
  5
11B
330
1F
100
AcDbEntity
  8
0
  6
Continuous
 62
     7
370
    25
100
AcDbLine
 10
137.6249907232
 20
159.3890945211
 30
0.0
 11
137.6249907229
 21
158.9560818192
 31
0.0
  0
LWPOLYLINE
  5
11C
330
1F
100
AcDbEntity
  8
0
  6
Continuous
 62
     7
370
    25
100
AcDbPolyline
 90
       55
 70
   128
 43
0.0
 10
137.883809768
 20
160.3050701362
 10
136.0587927312
 20
160.5782572531
 10
134.2686321707
 20
160.9040398324
 10
132.5193854231
 20
161.2813155289
 10
130.8169713859
 20
161.7088077611
 10
129.1671504892
 20
162.1850700305
 10
127.5755052046
 20
162.7084908164
 10
126.0474211561
 20
163.2772990286
 10
124.5880688963
 20
163.8895700001
 10
123.2023864113
 20
164.5432319997
 10
121.895062412
 20
165.2360732422
 10
120.670520469
 20
165.9657493721
 10
119.5329040447
 20
166.7297913964
 10
118.4860624728
 20
167.5256140387
 10
117.533537934
 20
168.350524487
 10
116.6785534697
 20
169.2017315057
 10
115.9240020767
 20
170.0763548794
 10
115.2724369181
 20
170.9714351597
 10
114.7260626842
 20
171.8839436781
 10
114.2867281323
 20
172.8107927947
 10
113.9559198316
 20
173.7488463455
 10
113.7347571326
 20
174.6949302542
 10
113.62398838
 20
175.6458432722
 10
113.62398838
 20
176.5983678111
 10
113.7347571326
 20
177.5492808291
 10
113.9559198316
 20
178.4953647378
 10
114.2867281323
 20
179.4334182886
 10
114.7260626842
 20
180.3602674052
 10
115.2724369181
 20
181.2727759236
 10
115.9240020767
 20
182.1678562039
 10
116.6785534697
 20
183.0424795777
 10
117.533537934
 20
183.8936865963
 10
118.4860624728
 20
184.7185970446
 10
119.5329040447
 20
185.5144196869
 10
120.670520469
 20
186.2784617112
 10
121.895062412
 20
187.0081378411
 10
123.2023864113
 20
187.7009790836
 10
124.5880688963
 20
188.3546410832
 10
126.0474211561
 20
188.9669120547
 10
127.5755052046
 20
189.5357202669
 10
129.1671504892
 20
190.0591410528
 10
130.8169713859
 20
190.5354033222
 10
132.5193854231
 20
190.9628955544
 10
134.2686321707
 20
191.3401712509
 10
136.0587927312
 20
191.6659538302
 10
137.883809768
 20
191.9391409471
 10
139.7375080013
 20
192.1588082231
 10
141.6136151028
 20
192.3242123734
 10
143.5057829202
 20
192.4347937229
 10
145.4076089563
 20
192.4901780993
 10
147.312658034
 20
192.4901780993
 10
149.2144840701
 20
192.4347937229
 10
151.1066518875
 20
192.3242123734
 10
152.982758989
 20
192.1588082231
 10
154.8364572223
 20
191.9391409471
  0
LWPOLYLINE
  5
11D
330
1F
100
AcDbEntity
  8
0
  6
Continuous
 62
     7
370
    25
100
AcDbPolyline
 90
       14
 70
   128
 43
0.0
 10
169.7838347827
 20
172.9839246198
 10
169.7160919773
 20
172.745242628
 10
169.7645583335
 20
172.5053903438
 10
169.926417163
 20
172.2783071102
 10
170.1922618189
 20
172.0771901793
 10
170.546642376
 20
171.9137277361
 10
170.9689635246
 20
171.7974196237
 10
171.4346814945
 20
171.7350252467
 10
171.9167304501
 20
171.7301707396
 10
172.3870954584
 20
171.7831382287
 10
172.8184406147
 20
171.890849436
 10
173.1856977064
 20
172.0470445777
 10
173.4675230864
 20
172.2426461599
 10
173.6475380878
 20
172.4662865296
  0
LWPOLYLINE
  5
11E
330
1F
100
AcDbEntity
  8
0
  6
Continuous
 62
     7
370
    25
100
AcDbPolyline
 90
       14
 70
   128
 43
0.0
 10
173.6475380878
 20
172.4662865296
 10
173.7152808932
 20
172.7049685214
 10
173.6668145369
 20
172.9448208056
 10
173.5049557074
 20
173.1719040392
 10
173.2391110516
 20
173.3730209701
 10
172.8847304945
 20
173.5364834132
 10
172.4624093459
 20
173.6527915257
 10
171.996691376
 20
173.7151859026
 10
171.5146424204
 20
173.7200404097
 10
171.0442774121
 20
173.6670729207
 10
170.6129322558
 20
173.5593617134
 10
170.245675164
 20
173.4031665717
 10
169.9638497841
 20
173.2075649895
 10
169.7838347827
 20
172.9839246198
  0
LWPOLYLINE
  5
11F
330
1F
100
AcDbEntity
  8
0
  6
Continuous
 62
     7
370
    25
100
AcDbPolyline
 90
       14
 70
   128
 43
0.0
 10
119.0727289025
 20
179.7779245537
 10
119.0049860971
 20
179.5392425619
 10
119.0534524534
 20
179.2993902777
 10
119.2153112828
 20
179.0723070441
 10
119.4811559387
 20
178.8711901132
 10
119.8355364958
 20
178.7077276701
 10
120.2578576444
 20
178.5914195576
 10
120.7235756143
 20
178.5290251807
 10
121.2056245699
 20
178.5241706736
 10
121.6759895782
 20
178.5771381626
 10
122.1073347345
 20
178.6848493699
 10
122.4745918263
 20
178.8410445116
 10
122.7564172062
 20
179.0366460938
 10
122.9364322076
 20
179.2602864635
  0
LWPOLYLINE
  5
120
330
1F
100
AcDbEntity
  8
0
  6
Continuous
 62
     7
370
    25
100
AcDbPolyline
 90
       14
 70
   128
 43
0.0
 10
122.9364322076
 20
179.2602864635
 10
123.004175013
 20
179.4989684554
 10
122.9557086568
 20
179.7388207395
 10
122.7938498273
 20
179.9659039731
 10
122.5280051714
 20
180.167020904
 10
122.1736246143
 20
180.3304833472
 10
121.7513034657
 20
180.4467914596
 10
121.2855854958
 20
180.5091858366
 10
120.8035365402
 20
180.5140403437
 10
120.3331715319
 20
180.4610728546
 10
119.9018263756
 20
180.3533616473
 10
119.5345692839
 20
180.1971665056
 10
119.2527439039
 20
180.0015649234
 10
119.0727289025
 20
179.7779245537
  0
LWPOLYLINE
  5
121
330
1F
100
AcDbEntity
  8
0
  6
Continuous
 62
     7
370
    25
100
AcDbPolyline
 90
       40
 70
   128
 43
0.0
 10
141.9602097284
 20
167.9117360182
 10
143.2957978523
 20
167.7613363326
 10
144.6512593687
 20
167.6651594436
 10
146.0178035896
 20
167.6238290953
 10
147.3865679513
 20
167.6376133308
 10
148.7486754917
 20
167.706422754
 10
150.0952924207
 20
167.8298111095
 10
151.4176854107
 20
168.0069781763
 10
152.7072782358
 20
168.2367749582
 10
153.9557073917
 20
168.5177111348
 10
155.1548763362
 20
168.8479647271
 10
156.2970079985
 20
169.2253939139
 10
157.3746952166
 20
169.6475509221
 10
158.3809487753
 20
170.1116979016
 10
159.3092427342
 20
170.6148246809
 10
160.1535567506
 20
171.15366829
 10
160.9084151243
 20
171.7247341211
 10
161.5689223089
 20
172.3243185934
 10
162.130794662
 20
172.9485331713
 10
162.5903882258
 20
173.5933295839
 10
162.9447223595
 20
174.2545260789
 10
163.1914990705
 20
174.9278345434
 10
163.3291179169
 20
175.6088883136
 10
163.3566863879
 20
176.2932704944
 10
163.2740256912
 20
176.9765426049
 10
163.0816719132
 20
177.6542733631
 10
162.7808725421
 20
178.322067425
 10
162.373578377
 20
178.97559389
 10
161.862430877
 20
179.610614388
 10
161.2507450298
 20
180.2230105675
 10
160.5424878528
 20
180.8088108043
 10
159.7422526655
 20
181.364215959
 10
158.8552293003
 20
181.8856240161
 10
157.887170444
 20
182.3696534442
 10
156.8443543298
 20
182.8131651268
 10
155.7335440204
 20
183.2132827205
 10
154.5619435469
 20
183.567411309
 10
153.3371511878
 20
183.8732542326
 10
152.0671101918
 20
184.1288279826
 10
150.7600572619
 20
184.3324750651
  0
LWPOLYLINE
  5
122
330
1F
100
AcDbEntity
  8
0
  6
Continuous
 62
     7
370
    25
100
AcDbPolyline
 90
       40
 70
   128
 43
0.0
 10
150.7600572619
 20
184.3324750651
 10
149.424469138
 20
184.4828747507
 10
148.0690076215
 20
184.5790516397
 10
146.7024634007
 20
184.620381988
 10
145.333699039
 20
184.6065977526
 10
143.9715914986
 20
184.5377883293
 10
142.6249745696
 20
184.4143999739
 10
141.3025815796
 20
184.237232907
 10
140.0129887545
 20
184.0074361251
 10
138.7645595986
 20
183.7264999485
 10
137.5653906541
 20
183.3962463562
 10
136.4232589918
 20
183.0188171694
 10
135.3455717737
 20
182.5966601612
 10
134.339318215
 20
182.1325131817
 10
133.4110242561
 20
181.6293864024
 10
132.5667102397
 20
181.0905427933
 10
131.811851866
 20
180.5194769622
 10
131.1513446814
 20
179.9198924899
 10
130.5894723282
 20
179.295677912
 10
130.1298787645
 20
178.6508814994
 10
129.7755446307
 20
177.9896850044
 10
129.5287679198
 20
177.3163765399
 10
129.3911490733
 20
176.6353227697
 10
129.3635806024
 20
175.9509405889
 10
129.4462412991
 20
175.2676684785
 10
129.638595077
 20
174.5899377202
 10
129.9393944482
 20
173.9221436583
 10
130.3466886133
 20
173.2686171933
 10
130.8578361133
 20
172.6335966953
 10
131.4695219605
 20
172.0212005158
 10
132.1777791375
 20
171.435400279
 10
132.9780143248
 20
170.8799951243
 10
133.86503769
 20
170.3585870672
 10
134.8330965463
 20
169.8745576391
 10
135.8759126605
 20
169.4310459565
 10
136.9867229699
 20
169.0309283629
 10
138.1583234434
 20
168.6767997743
 10
139.3831158024
 20
168.3709568507
 10
140.6531567985
 20
168.1153831007
 10
141.9602097284
 20
167.9117360182
  0
LWPOLYLINE
  5
123
330
1F
100
AcDbEntity
  8
0
  6
Continuous
 62
     7
370
    25
100
AcDbPolyline
 90
       11
 70
   128
 43
0.0
 10
173.7535970973
 20
175.0447899206
 10
173.7944767329
 20
175.2392617964
 10
173.7131653476
 20
175.4305317922
 10
173.5176222663
 20
175.5998770682
 10
173.2269886082
 20
175.7307209287
 10
172.8697136208
 20
175.8102554652
 10
172.4807698692
 20
175.830695283
 10
172.0982298775
 20
175.7900395903
 10
171.7595393257
 20
175.6922680497
 10
171.4978516045
 20
175.5469512206
 10
171.3387825316
 20
175.368313727
  0
LWPOLYLINE
  5
124
330
1F
100
AcDbEntity
  8
0
  6
Continuous
 62
     7
370
    25
100
AcDbPolyline
 90
       11
 70
   128
 43
0.0
 10
171.3387825316
 20
175.368313727
 10
171.297902896
 20
175.1738418511
 10
171.3792142813
 20
174.9825718553
 10
171.5747573626
 20
174.8132265794
 10
171.8653910207
 20
174.6823827188
 10
172.2226660081
 20
174.6028481823
 10
172.6116097598
 20
174.5824083645
 10
172.9941497514
 20
174.6230640572
 10
173.3328403033
 20
174.7208355979
 10
173.5945280244
 20
174.8661524269
 10
173.7535970973
 20
175.0447899206
  0
LWPOLYLINE
  5
125
330
1F
100
AcDbEntity
  8
0
  6
Continuous
 62
     7
370
    25
100
AcDbPolyline
 90
       11
 70
   128
 43
0.0
 10
171.1608844934
 20
170.2067223369
 10
171.2017641289
 20
170.4011942127
 10
171.1204527436
 20
170.5924642085
 10
170.9249096623
 20
170.7618094845
 10
170.6342760043
 20
170.892653345
 10
170.2770010169
 20
170.9721878815
 10
169.8880572652
 20
170.9926276993
 10
169.5055172736
 20
170.9519720066
 10
169.1668267217
 20
170.854200466
 10
168.9051390006
 20
170.7088836369
 10
168.7460699276
 20
170.5302461432
  0
LWPOLYLINE
  5
126
330
1F
100
AcDbEntity
  8
0
  6
Continuous
 62
     7
370
    25
100
AcDbPolyline
 90
       11
 70
   128
 43
0.0
 10
168.7460699276
 20
170.5302461432
 10
168.7051902921
 20
170.3357742674
 10
168.7865016774
 20
170.1445042716
 10
168.9820447587
 20
169.9751589956
 10
169.2726784167
 20
169.8443151351
 10
169.6299534041
 20
169.7647805986
 10
170.0188971558
 20
169.7443407808
 10
170.4014371474
 20
169.7849964735
 10
170.7401276993
 20
169.8827680141
 10
171.0018154204
 20
170.0280848432
 10
171.1608844934
 20
170.2067223369
  0
LWPOLYLINE
  5
127
330
1F
100
AcDbEntity
  8
0
  6
Continuous
 62
     7
370
    25
100
AcDbPolyline
 90
       11
 70
   128
 43
0.0
 10
123.9741970627
 20
181.7139649401
 10
124.0150766982
 20
181.9084368159
 10
123.9337653129
 20
182.0997068117
 10
123.7382222316
 20
182.2690520877
 10
123.4475885736
 20
182.3998959482
 10
123.0903135862
 20
182.4794304847
 10
122.7013698345
 20
182.4998703025
 10
122.3188298429
 20
182.4592146098
 10
121.980139291
 20
182.3614430692
 10
121.7184515699
 20
182.2161262401
 10
121.5593824969
 20
182.0374887465
  0
LWPOLYLINE
  5
128
330
1F
100
AcDbEntity
  8
0
  6
Continuous
 62
     7
370
    25
100
AcDbPolyline
 90
       11
 70
   128
 43
0.0
 10
121.5593824969
 20
182.0374887465
 10
121.5185028614
 20
181.8430168706
 10
121.5998142467
 20
181.6517468748
 10
121.795357328
 20
181.4824015989
 10
122.085990986
 20
181.3515577383
 10
122.4432659734
 20
181.2720232018
 10
122.8322097251
 20
181.251583384
 10
123.2147497167
 20
181.2922390767
 10
123.5534402686
 20
181.3900106174
 10
123.8151279897
 20
181.5353274464
 10
123.9741970627
 20
181.7139649401
  0
LWPOLYLINE
  5
129
330
1F
100
AcDbEntity
  8
0
  6
Continuous
 62
     7
370
    25
100
AcDbPolyline
 90
       11
 70
   128
 43
0.0
 10
121.3814844587
 20
176.8758973564
 10
121.4223640943
 20
177.0703692322
 10
121.3410527089
 20
177.261639228
 10
121.1455096276
 20
177.430984504
 10
120.8548759696
 20
177.5618283645
 10
120.4976009822
 20
177.641362901
 10
120.1086572305
 20
177.6618027188
 10
119.7261172389
 20
177.6211470261
 10
119.387426687
 20
177.5233754855
 10
119.1257389659
 20
177.3780586564
 10
118.966669893
 20
177.1994211627
  0
LWPOLYLINE
  5
12A
330
1F
100
AcDbEntity
  8
0
  6
Continuous
 62
     7
370
    25
100
AcDbPolyline
 90
       11
 70
   128
 43
0.0
 10
118.966669893
 20
177.1994211627
 10
118.9257902574
 20
177.0049492869
 10
119.0071016427
 20
176.8136792911
 10
119.202644724
 20
176.6443340151
 10
119.4932783821
 20
176.5134901546
 10
119.8505533694
 20
176.4339556181
 10
120.2394971211
 20
176.4135158003
 10
120.6220371128
 20
176.454171493
 10
120.9607276646
 20
176.5519430336
 10
121.2224153858
 20
176.6972598627
 10
121.3814844587
 20
176.8758973564
  0
LWPOLYLINE
  5
12B
330
1F
100
AcDbEntity
  8
0
  6
Continuous
 62
     7
370
    25
100
AcDbPolyline
 90
       56
 70
   128
 43
0.0
 10
137.6249907232
 20
159.3890945211
 10
135.7781417911
 20
159.6650175812
 10
133.9658091164
 20
159.993207844
 10
132.1939041517
 20
160.3725948214
 10
130.4682064826
 20
160.8019410317
 10
128.7943449763
 20
161.2798460368
 10
127.177779421
 20
161.8047510101
 10
125.6237827176
 20
162.3749438205
 10
124.1374236803
 20
162.9885646176
 10
122.7235505035
 20
163.643611898
 10
121.3867749474
 20
164.3379490335
 10
120.1314572961
 20
165.0693112407
 10
118.9616921349
 20
165.8353129682
 10
117.8812949946
 20
166.6334556774
 10
116.8937899061
 20
167.4611359929
 10
116.0023979058
 20
168.3156541934
 10
115.210026529
 20
169.1942230182
 10
114.5192603265
 20
170.0939767584
 10
113.9323524341
 20
171.0119806042
 10
113.4512172233
 20
171.9452402181
 10
113.0774240572
 20
172.890711501
 10
112.8121921714
 20
173.8453105222
 10
112.6563866972
 20
174.805923578
 10
112.6105158396
 20
175.7694173485
 10
112.6747292199
 20
176.7326491171
 10
112.8488173874
 20
177.692477022
 10
113.1322125026
 20
178.6457703041
 10
113.5239901896
 20
179.5894195189
 10
114.0228725509
 20
180.5203466787
 10
114.6272323361
 20
181.4355152928
 10
115.3350982492
 20
182.3319402711
 10
116.1441613785
 20
183.2066976619
 10
117.0517827285
 20
184.0569341883
 10
118.0550018269
 20
184.8798765555
 10
119.1505463814
 20
185.6728404966
 10
120.3348429536
 20
186.4332395279
 10
121.6040286141
 20
187.158593386
 10
122.9539635431
 20
187.8465361172
 10
124.3802445334
 20
188.4948237954
 10
125.878219353
 20
189.1013418409
 10
127.4430019193
 20
189.6641119179
 10
129.0694882368
 20
190.1812983875
 10
130.7523730453
 20
190.6512142948
 10
132.4861671242
 20
191.0723268718
 10
134.2652151978
 20
191.4432625369
 10
136.0837143808
 20
191.7628113749
 10
137.935733107
 20
192.029931084
 10
139.8152304763
 20
192.2437503753
 10
141.7160759588
 20
192.4035718146
 10
143.6320693917
 20
192.5088740976
 10
145.5569612027
 20
192.5593137502
 10
147.4844727948
 20
192.5547262487
 10
149.4083170258
 20
192.4951265566
 10
151.3222187156
 20
192.3807090757
 10
153.2199351149
 20
192.2118470119
 10
155.0952762674
 20
191.9890911584
  0
LWPOLYLINE
  5
12C
330
1F
100
AcDbEntity
  8
0
  6
Continuous
 62
     7
370
    25
100
AcDbPolyline
 90
       24
 70
   128
 43
0.0
 10
112.6101334951
 20
175.2560801379
 10
112.6563866972
 20
174.3729108763
 10
112.8121921714
 20
173.4122978204
 10
113.0774240572
 20
172.4576987992
 10
113.4512172232
 20
171.5122275163
 10
113.932352434
 20
170.5789679025
 10
114.5192603264
 20
169.6609640566
 10
115.2100265289
 20
168.7612103164
 10
116.0023979057
 20
167.8826414916
 10
116.893789906
 20
167.0281232911
 10
117.8812949945
 20
166.2004429757
 10
118.9616921348
 20
165.4023002664
 10
120.131457296
 20
164.6362985389
 10
121.3867749472
 20
163.9049363317
 10
122.7235505033
 20
163.2105991962
 10
124.1374236802
 20
162.5555519158
 10
125.6237827174
 20
161.9419311187
 10
127.1777794208
 20
161.3717383083
 10
128.7943449761
 20
160.846833335
 10
130.4682064824
 20
160.3689283298
 10
132.1939041515
 20
159.9395821195
 10
133.9658091162
 20
159.5601951422
 10
135.7781417908
 20
159.2320048793
 10
137.6249907229
 20
158.9560818192
  0
LWPOLYLINE
  5
12D
330
1F
100
AcDbEntity
  8
0
  6
Continuous
 62
     7
370
    25
100
AcDbPolyline
 90
        3
 70
   128
 43
0.0
 10
163.2313708988
 20
176.3002722263
 10
163.2740256912
 20
176.1105172011
 10
163.3380603415
 20
175.6890928398
  0
LWPOLYLINE
  5
12E
330
1F
100
AcDbEntity
  8
0
  6
Continuous
 62
     7
370
    25
100
AcDbPolyline
 90
        3
 70
   128
 43
0.0
 10
129.3822066488
 20
175.6890928398
 10
129.3911490733
 20
175.769297366
 10
129.4888960915
 20
176.3002722263
  0
ARC
  5
12F
330
1F
100
AcDbEntity
  8
0
  6
Continuous
 62
     7
370
    25
100
AcDbCircle
 10
169.9534772105
 20
168.0359253884
 30
0.0
 40
2.102564047809891
100
AcDbArc
 50
64.6143514901
 51
115.3856485099
  0
LINE
  5
130
330
1F
100
AcDbEntity
  8
0
  6
Continuous
 62
     7
370
    25
100
AcDbLine
 10
170.6290198807
 20
172.0046658838
 30
0.0
 11
169.7838347827
 21
172.9839246198
 31
0.0
  0
LINE
  5
131
330
1F
100
AcDbEntity
  8
0
  6
Continuous
 62
     7
370
    25
100
AcDbLine
 10
170.5933026863
 20
171.8974198372
 30
0.0
 11
170.6290198807
 21
172.0046658838
 31
0.0
  0
LWPOLYLINE
  5
132
330
1F
100
AcDbEntity
  8
0
  6
Continuous
 62
     7
370
    25
100
AcDbPolyline
 90
       10
 70
   128
 43
0.0
 10
170.6290198807
 20
172.0046658838
 10
170.7721820463
 20
172.1654396281
 10
171.0077009953
 20
172.2962247742
 10
171.312522492
 20
172.3842191608
 10
171.6568084845
 20
172.4208092842
 10
172.006857861
 20
172.4024134482
 10
172.3284053496
 20
172.3308323654
 10
172.5899756419
 20
172.2130728909
 10
172.765964415
 20
172.0606621425
 10
172.8380701842
 20
171.8974198372
  0
ARC
  5
133
330
1F
100
AcDbEntity
  8
0
  6
Continuous
 62
     7
370
    25
100
AcDbCircle
 10
172.5461898145
 20
172.8739929721
 30
0.0
 40
2.102564047809795
100
AcDbArc
 50
64.61435149
 51
115.38564851
  0
ARC
  5
134
330
1F
100
AcDbEntity
  8
0
  6
Continuous
 62
     7
370
    25
100
AcDbCircle
 10
120.1740771758
 20
174.7051004079
 30
0.0
 40
2.102564047809995
100
AcDbArc
 50
64.61435149
 51
115.38564851
  0
LINE
  5
135
330
1F
100
AcDbEntity
  8
0
  6
Continuous
 62
     7
370
    25
100
AcDbLine
 10
119.9179140005
 20
178.7986658177
 30
0.0
 11
119.0727289025
 21
179.7779245537
 31
0.0
  0
LINE
  5
136
330
1F
100
AcDbEntity
  8
0
  6
Continuous
 62
     7
370
    25
100
AcDbLine
 10
119.8821968061
 20
178.6914197711
 30
0.0
 11
119.9179140005
 21
178.7986658177
 31
0.0
  0
LWPOLYLINE
  5
137
330
1F
100
AcDbEntity
  8
0
  6
Continuous
 62
     7
370
    25
100
AcDbPolyline
 90
       10
 70
   128
 43
0.0
 10
119.9179140005
 20
178.7986658177
 10
120.0610761661
 20
178.959439562
 10
120.2965951151
 20
179.0902247082
 10
120.6014166118
 20
179.1782190947
 10
120.9457026043
 20
179.2148092181
 10
121.2957519808
 20
179.1964133821
 10
121.6172994694
 20
179.1248322993
 10
121.8788697617
 20
179.0070728248
 10
122.0548585349
 20
178.8546620765
 10
122.126964304
 20
178.6914197711
  0
ARC
  5
138
330
1F
100
AcDbEntity
  8
0
  6
Continuous
 62
     7
370
    25
100
AcDbCircle
 10
122.7667897798
 20
179.5431679916
 30
0.0
 40
2.102564047809796
100
AcDbArc
 50
64.61435149
 51
115.38564851
  0
LWPOLYLINE
  5
139
330
1F
100
AcDbEntity
  8
0
  6
Continuous
 62
     7
370
    25
100
AcDbPolyline
 90
       32
 70
   128
 43
0.0
 10
122.7864212841
 20
163.1798370073
 10
123.3183361728
 20
162.8582835714
 10
124.543759463
 20
162.1805480797
 10
125.8487883361
 20
161.5410436881
 10
127.2286608834
 20
160.9421038789
 10
128.6783420994
 20
160.3859141183
 10
130.1925422548
 20
159.8745038827
 10
131.7657361972
 20
159.4097392523
 10
133.3921835127
 20
158.993316103
 10
135.0659494713
 20
158.6267539177
 10
136.7809266827
 20
158.3113902421
 10
138.5308573808
 20
158.0483758039
 10
140.3093562584
 20
157.8386703144
 10
142.109933766
 20
157.6830389661
 10
143.9260197915
 20
157.582049641
 10
145.7509876339
 20
157.5360708381
 10
147.5781781835
 20
157.5452703292
 10
149.4009242201
 20
157.6096145462
 10
151.2125747411
 20
157.7288687041
 10
153.0065192302
 20
157.9025976575
 10
154.7762117786
 20
158.1301674881
 10
156.51519497
 20
158.4107478184
 10
158.2171234434
 20
158.7433148412
 10
159.8757870463
 20
159.1266550554
 10
161.4851334951
 20
159.5593696943
 10
163.0392904592
 20
160.0398798289
 10
164.5325869883
 20
160.56643213
 10
165.9595742054
 20
161.1371052653
 10
167.3150451888
 20
161.7498169104
 10
168.5940539719
 20
162.402331347
 10
169.7919335904
 20
163.0922676206
 10
169.9338457062
 20
163.1798370073
  0
LINE
  5
13A
330
1F
100
AcDbEntity
  8
0
  6
Continuous
 62
     7
370
    25
100
AcDbLine
 10
170.410880142
 20
170.0051571125
 30
0.0
 11
170.824451468
 21
169.9201808153
 31
0.0
  0
ARC
  5
13B
330
1F
100
AcDbEntity
  8
0
  6
Continuous
 62
     7
370
    25
100
AcDbCircle
 10
169.960809525
 20
166.7104823397
 30
0.0
 40
3.325273735939696
100
AcDbArc
 50
82.2212309636
 51
105.2559614408
  0
LINE
  5
13C
330
1F
100
AcDbEntity
  8
0
  6
Continuous
 62
     7
370
    25
100
AcDbLine
 10
172.1686197642
 20
172.3578551074
 30
0.0
 11
172.3176970578
 21
172.3342665056
 31
0.0
  0
ARC
  5
13D
330
1F
100
AcDbEntity
  8
0
  6
Continuous
 62
     7
370
    25
100
AcDbCircle
 10
171.7163549358
 20
168.9826005227
 30
0.0
 40
3.405420236339429
100
AcDbArc
 50
82.368151538
 51
100.1936948063
  0
LWPOLYLINE
  5
13E
330
1F
100
AcDbEntity
  8
0
  6
Continuous
 62
     7
370
    25
100
AcDbPolyline
 90
        3
 70
   128
 43
0.0
 10
122.0933627244
 20
181.3491824479
 10
122.2651303454
 20
181.467846763
 10
122.3213030389
 20
181.5061270367
  0
LINE
  5
13F
330
1F
100
AcDbEntity
  8
0
  6
Continuous
 62
     7
370
    25
100
AcDbLine
 10
172.9990705931
 20
174.8347862439
 30
0.0
 11
173.4044104394
 21
174.7521408427
 31
0.0
  0
ARC
  5
140
330
1F
100
AcDbEntity
  8
0
  6
Continuous
 62
     7
370
    25
100
AcDbCircle
 10
172.5488523991
 20
171.5349018235
 30
0.0
 40
3.330455465952827
100
AcDbArc
 50
82.2308460266
 51
104.9810709872
  0
LINE
  5
141
330
1F
100
AcDbEntity
  8
0
  6
Continuous
 62
     7
370
    25
100
AcDbLine
 10
120.6270630551
 20
176.6749239048
 30
0.0
 11
121.0441819887
 21
176.5889339497
 31
0.0
  0
ARC
  5
142
330
1F
100
AcDbEntity
  8
0
  6
Continuous
 62
     7
370
    25
100
AcDbCircle
 10
120.1769709361
 20
173.3794912615
 30
0.0
 40
3.32602754376257
100
AcDbArc
 50
82.2226310034
 51
105.2162646394
  0
LINE
  5
143
330
1F
100
AcDbEntity
  8
0
  6
Continuous
 62
     7
370
    25
100
AcDbLine
 10
121.457513884
 20
179.1518550413
 30
0.0
 11
121.6065911754
 21
179.1282664399
 31
0.0
  0
ARC
  5
144
330
1F
100
AcDbEntity
  8
0
  6
Continuous
 62
     7
370
    25
100
AcDbCircle
 10
121.0052490557
 20
175.7766004562
 30
0.0
 40
3.405420236855547
100
AcDbArc
 50
82.368151539
 51
100.1936947648
  0
LINE
  5
145
330
1F
100
AcDbEntity
  8
0
  6
Continuous
 62
     7
370
    25
100
AcDbLine
 10
123.2152535061
 20
181.5045530362
 30
0.0
 11
123.624142192
 21
181.4209063179
 31
0.0
  0
ARC
  5
146
330
1F
100
AcDbEntity
  8
0
  6
Continuous
 62
     7
370
    25
100
AcDbCircle
 10
122.7650145626
 20
178.203934583
 30
0.0
 40
3.331185566744507
100
AcDbArc
 50
82.2321991199
 51
104.9419526572
  0
LWPOLYLINE
  5
147
330
1F
100
AcDbEntity
  8
0
  6
Continuous
 62
     7
370
    25
100
AcDbPolyline
 90
        3
 70
   128
 43
0.0
 10
172.1686197642
 20
172.118108104
 10
172.4896916431
 20
172.1785295531
 10
172.5984499953
 20
172.2077754164
  0
ARC
  5
148
330
1F
100
AcDbEntity
  8
0
  6
Continuous
 62
     7
370
    25
100
AcDbCircle
 10
171.7152804023
 20
175.358299204
 30
0.0
 40
3.271751051251209
100
AcDbArc
 50
254.3541975548
 51
277.964626115
  0
LWPOLYLINE
  5
149
330
1F
100
AcDbEntity
  8
0
  6
Continuous
 62
     7
370
    25
100
AcDbPolyline
 90
        3
 70
   128
 43
0.0
 10
172.1479142406
 20
172.0874631047
 10
172.4543085479
 20
172.1451224305
 10
172.6216565379
 20
172.1925629939
  0
ARC
  5
14A
330
1F
100
AcDbEntity
  8
0
  6
Continuous
 62
     7
370
    25
100
AcDbCircle
 10
171.7153903493
 20
175.1522355778
 30
0.0
 40
3.09514252148336
100
AcDbArc
 50
252.9856378258
 51
278.0329636375
  0
ARC
  5
14B
330
1F
100
AcDbEntity
  8
0
  6
Continuous
 62
     7
370
    25
100
AcDbCircle
 10
164.9216865013
 20
162.4594889732
 30
0.0
 40
3.054565632798827
100
AcDbArc
 50
246.1019429181
 51
293.8980570819
  0
ARC
  5
14C
330
1F
100
AcDbEntity
  8
0
  6
Continuous
 62
     7
370
    25
100
AcDbCircle
 10
164.0557603339
 20
160.5472845651
 30
0.0
 40
0.955654888421927
100
AcDbArc
 50
208.0727774155
 51
247.1232659074
  0
ARC
  5
14D
330
1F
100
AcDbEntity
  8
0
  6
Continuous
 62
     7
370
    25
100
AcDbCircle
 10
164.9216865013
 20
162.2908253527
 30
0.0
 40
2.914928346727997
100
AcDbArc
 50
246.1019429181
 51
293.8980570819
  0
LINE
  5
14E
330
1F
100
AcDbEntity
  8
0
  6
Continuous
 62
     7
370
    25
100
AcDbLine
 10
163.5581372111
 20
159.7341472249
 30
0.0
 11
163.7408181767
 21
159.6258005373
 31
0.0
  0
LINE
  5
14F
330
1F
100
AcDbEntity
  8
0
  6
Continuous
 62
     7
370
    25
100
AcDbLine
 10
166.1591233684
 20
159.6667982984
 30
0.0
 11
166.1025548259
 21
159.6258005373
 31
0.0
  0
ARC
  5
150
330
1F
100
AcDbEntity
  8
0
  6
Continuous
 62
     7
370
    25
100
AcDbCircle
 10
165.9050551152
 20
160.3989451488
 30
0.0
 40
0.7749772176151867
100
AcDbArc
 50
289.1377028622
 51
351.5837526623
  0
LINE
  5
151
330
1F
100
AcDbEntity
  8
0
  6
Continuous
 62
     7
370
    25
100
AcDbLine
 10
166.1025548259
 20
159.6258005373
 30
0.0
 11
166.2852357914
 21
159.7341472249
 31
0.0
  0
LWPOLYLINE
  5
152
330
1F
100
AcDbEntity
  8
0
  6
Continuous
 62
     7
370
    25
100
AcDbPolyline
 90
        3
 70
   128
 43
0.0
 10
141.2565037572
 20
156.6620501005
 10
141.3123866769
 20
156.8312890269
 10
141.3161335612
 20
156.888516765
  0
ARC
  5
153
330
1F
100
AcDbEntity
  8
0
  6
Continuous
 62
     7
370
    25
100
AcDbCircle
 10
139.6424161499
 20
158.2317437699
 30
0.0
 40
2.251492176276029
100
AcDbArc
 50
256.4053596717
 51
315.7988678323
  0
LWPOLYLINE
  5
154
330
1F
100
AcDbEntity
  8
0
  6
Continuous
 62
     7
370
    25
100
AcDbPolyline
 90
        8
 70
   128
 43
0.0
 10
137.8161335612
 20
156.888516765
 10
137.8311050538
 20
156.7743063468
 10
137.9090058346
 20
156.6072572328
 10
138.0505891046
 20
156.451016765
 10
138.2504138981
 20
156.3115891768
 10
138.5008010604
 20
156.1943325922
 10
138.7921283533
 20
156.1037531161
 10
139.1132002323
 20
156.043331667
  0
ARC
  5
155
330
1F
100
AcDbEntity
  8
0
  6
Continuous
 62
     7
370
    25
100
AcDbCircle
 10
139.6105364489
 20
158.5064334234
 30
0.0
 40
2.538887492356217
100
AcDbArc
 50
259.1795380743
 51
301.303851551
  0
LINE
  5
156
330
1F
100
AcDbEntity
  8
0
  6
Continuous
 62
     7
370
    25
100
AcDbLine
 10
139.1132002323
 20
156.043331667
 30
0.0
 11
139.1339057559
 21
156.0126866677
 31
0.0
  0
ARC
  5
157
330
1F
100
AcDbEntity
  8
0
  6
Continuous
 62
     7
370
    25
100
AcDbCircle
 10
139.3364816975
 20
158.0930025474
 30
0.0
 40
2.090155776858104
100
AcDbArc
 50
237.1464068812
 51
264.4382161334
  0
LINE
  5
158
330
1F
100
AcDbEntity
  8
0
  6
Continuous
 62
     7
370
    25
100
AcDbLine
 10
141.2552075239
 20
157.5274273877
 30
0.0
 11
141.3029798467
 21
157.652207543
 31
0.0
  0
ARC
  5
159
330
1F
100
AcDbEntity
  8
0
  6
Continuous
 62
     7
370
    25
100
AcDbCircle
 10
139.6411199167
 20
159.0971210571
 30
0.0
 40
2.251492176275769
100
AcDbArc
 50
256.4053596717
 51
315.7988678323
  0
ARC
  5
15A
330
1F
100
AcDbEntity
  8
0
  6
Continuous
 62
     7
370
    25
100
AcDbCircle
 10
139.088637773
 20
158.3502765848
 30
0.0
 40
1.441755371460899
100
AcDbArc
 50
208.8946065489
 51
270.924646751
  0
LINE
  5
15B
330
1F
100
AcDbEntity
  8
0
  6
Continuous
 62
     7
370
    25
100
AcDbLine
 10
166.6125311516
 20
160.9241901275
 30
0.0
 11
166.660589982
 21
161.0502021752
 31
0.0
  0
ARC
  5
15C
330
1F
100
AcDbEntity
  8
0
  6
Continuous
 62
     7
370
    25
100
AcDbCircle
 10
164.9984435443
 20
162.4938837969
 30
0.0
 40
2.25149217627593
100
AcDbArc
 50
256.4053596717
 51
315.7988678323
  0
LWPOLYLINE
  5
15D
330
1F
100
AcDbEntity
  8
0
  6
Continuous
 62
     7
370
    25
100
AcDbPolyline
 90
        3
 70
   128
 43
0.0
 10
164.0550133768
 20
160.3906312863
 10
164.1481557477
 20
160.3658931431
 10
164.4692276267
 20
160.3054716939
  0
LWPOLYLINE
  5
15E
330
1F
100
AcDbEntity
  8
0
  6
Continuous
 62
     7
370
    25
100
AcDbPolyline
 90
       11
 70
   128
 43
0.0
 10
137.1366263984
 20
158.2532354727
 10
137.2051290022
 20
158.1377885962
 10
137.4480268299
 20
157.885597328
 10
137.797070375
 20
157.6667539471
 10
138.2347571367
 20
157.4922321746
 10
138.7391396731
 20
157.3707832607
 10
139.2849261377
 20
157.3084971612
 10
139.8447485182
 20
157.3084971612
 10
140.3905349828
 20
157.3707832607
 10
140.8949175192
 20
157.4922321746
 10
141.3326042809
 20
157.6667539471
  0
LINE
  5
15F
330
1F
100
AcDbEntity
  8
0
  6
Continuous
 62
     7
370
    25
100
AcDbLine
 10
141.3326042809
 20
157.6667539471
 30
0.0
 11
141.4559958755
 21
157.7330924175
 31
0.0
  0
LWPOLYLINE
  5
160
330
1F
100
AcDbEntity
  8
0
  6
Continuous
 62
     7
370
    25
100
AcDbPolyline
 90
        9
 70
   128
 43
0.0
 10
164.8765647121
 20
160.6976080825
 10
165.0156389413
 20
160.6982742824
 10
165.5692085684
 20
160.7399928806
 10
166.0903325263
 20
160.8422559215
 10
166.5528794838
 20
160.9999355095
 10
166.933655405
 20
161.2051249315
 10
167.2135665953
 20
161.447535133
 10
167.3785771387
 20
161.7150106545
 10
167.4027993545
 20
161.7921317396
  0
LWPOLYLINE
  5
161
330
1F
100
AcDbEntity
  8
0
  6
Continuous
 62
     7
370
    25
100
AcDbPolyline
 90
        9
 70
   128
 43
0.0
 10
164.8787902508
 20
160.6984695296
 10
165.015164487
 20
160.6991596262
 10
165.568734114
 20
160.7408782243
 10
166.089858072
 20
160.8431412653
 10
166.5524050295
 20
161.0008208533
 10
166.9331809507
 20
161.2060102752
 10
167.213092141
 20
161.4484204768
 10
167.3781026844
 20
161.7158959982
 10
167.4020057214
 20
161.7917475195
  0
LWPOLYLINE
  5
162
330
1F
100
AcDbEntity
  8
0
  6
Continuous
 62
     7
370
    25
100
AcDbPolyline
 90
       11
 70
   128
 43
0.0
 10
137.1383782787
 20
158.2529550657
 10
137.2064252354
 20
158.1384367128
 10
137.4493230631
 20
157.8862454446
 10
137.7983666082
 20
157.6674020637
 10
138.2360533699
 20
157.4928802912
 10
138.7404359063
 20
157.3714313773
 10
139.2862223709
 20
157.3091452779
 10
139.8460447515
 20
157.3091452779
 10
140.3918312161
 20
157.3714313773
 10
140.8962137525
 20
157.4928802912
 10
141.3339005142
 20
157.6674020637
  0
LINE
  5
163
330
1F
100
AcDbEntity
  8
0
  6
Continuous
 62
     7
370
    25
100
AcDbLine
 10
141.3339005142
 20
157.6674020637
 30
0.0
 11
141.4561488525
 21
157.7330798511
 31
0.0
  0
LINE
  5
164
330
1F
100
AcDbEntity
  8
0
  6
Continuous
 62
     7
370
    25
100
AcDbLine
 10
150.0998427928
 20
144.8045286902
 30
0.0
 11
150.09984256
 21
144.994730066
 31
0.0
  0
SPLINE
  5
165
330
1F
100
AcDbEntity
  8
0
  6
Continuous
 62
     7
370
    25
100
AcDbSpline
210
0.0
220
0.0
230
1.0
 70
     8
 71
     3
 72
    11
 73
     7
 74
     0
 42
0.00000001
 43
0.00000001
 40
0.0
 40
0.0
 40
0.0
 40
0.0
 40
0.245856692401841
 40
0.493050578230282
 40
0.7448960676983126
 40
1.0
 40
1.0
 40
1.0
 40
1.0
 10
145.4674427741462
 20
144.1838999150465
 30
0.0
 10
145.8320730580404
 20
144.0994589430749
 30
0.0
 10
146.5633168186149
 20
143.9301177319402
 30
0.0
 10
147.7573621762806
 20
143.9896255912463
 30
0.0
 10
148.9680370590043
 20
144.242375516917
 30
0.0
 10
149.720954949832
 20
144.616348717267
 30
0.0
 10
150.0998336039981
 20
144.8045371831927
 30
0.0
  0
LINE
  5
166
330
1F
100
AcDbEntity
  8
0
  6
Continuous
 62
     7
370
    25
100
AcDbLine
 10
145.4674368508
 20
144.7942696324
 30
0.0
 11
145.467437084
 21
144.1838958594
 31
0.0
  0
SPLINE
  5
167
330
1F
100
AcDbEntity
  8
0
  6
Continuous
 62
     7
370
    25
100
AcDbSpline
210
0.0
220
0.0
230
1.0
 70
     8
 71
     3
 72
    10
 73
     6
 74
     0
 42
0.00000001
 43
0.00000001
 40
0.0
 40
0.0
 40
0.0
 40
0.0
 40
0.4394861972239574
 40
0.8789723944479112
 40
1.0
 40
1.0
 40
1.0
 40
1.0
 10
144.968983533182
 20
143.9857201967206
 30
0.0
 10
144.5293280307806
 20
144.0652510766105
 30
0.0
 10
143.6500170259778
 20
144.2243128363903
 30
0.0
 10
142.7525626977889
 20
144.5412964582203
 30
0.0
 10
142.4002731345244
 20
144.7824946580096
 30
0.0
 10
142.3242058510931
 20
144.8345748038318
 30
0.0
  0
SPLINE
  5
168
330
1F
100
AcDbEntity
  8
0
  6
Continuous
 62
     7
370
    25
100
AcDbSpline
210
0.0
220
0.0
230
1.0
 70
     8
 71
     3
 72
    10
 73
     6
 74
     0
 42
0.00000001
 43
0.00000001
 40
0.0
 40
0.0
 40
0.0
 40
0.0
 40
0.268440902608124
 40
0.6387508827815277
 40
1.0
 40
1.0
 40
1.0
 40
1.0
 10
141.8263053152387
 20
145.1462164409677
 30
0.0
 10
142.0389649927606
 20
145.0012432552953
 30
0.0
 10
142.5449853325424
 20
144.6562818525126
 30
0.0
 10
143.3540340621662
 20
144.3646732335984
 30
0.0
 10
143.8979957929733
 20
144.3603126365475
 30
0.0
 10
144.1666079881538
 20
144.35815934252
 30
0.0
  0
LINE
  5
169
330
1F
100
AcDbEntity
  8
0
  6
Continuous
 62
     7
370
    25
100
AcDbLine
 10
144.1666034675
 20
144.3580692018
 30
0.0
 11
144.8072192245
 21
144.2526216648
 31
0.0
  0
LINE
  5
16A
330
1F
100
AcDbEntity
  8
0
  6
Continuous
 62
     7
370
    25
100
AcDbLine
 10
144.8072192245
 20
144.2527265179
 30
0.0
 11
145.4674323229
 21
144.1838946267
 31
0.0
  0
LINE
  5
16B
330
1F
100
AcDbEntity
  8
0
  6
Continuous
 62
     7
370
    25
100
AcDbLine
 10
150.0998442865
 20
144.8045293275
 30
0.0
 11
150.6027741823
 21
145.0291929564
 31
0.0
  0
ARC
  5
16C
330
1F
100
AcDbEntity
  8
0
  6
Continuous
 62
     7
370
    25
100
AcDbCircle
 10
149.0571616263
 20
146.5379766238
 30
0.0
 40
2.159916412412571
100
AcDbArc
 50
300.7272240596
 51
315.6896583544
  0
SPLINE
  5
16D
330
1F
100
AcDbEntity
  8
0
  6
Continuous
 62
     7
370
    25
100
AcDbSpline
210
0.0
220
0.0
230
1.0
 70
     8
 71
     3
 72
    11
 73
     7
 74
     0
 42
0.00000001
 43
0.00000001
 40
0.0
 40
0.0
 40
0.0
 40
0.0
 40
0.2500000000000015
 40
0.5000000000000016
 40
0.750000000000002
 40
0.9999999999999999
 40
0.9999999999999999
 40
0.9999999999999999
 40
0.9999999999999999
 10
150.1608324440233
 20
144.6812717389213
 30
0.0
 10
149.8038616025922
 20
144.5278673940502
 30
0.0
 10
149.0899199197299
 20
144.2210587043079
 30
0.0
 10
147.7652920829483
 20
143.9595620218529
 30
0.0
 10
146.3566341402934
 20
143.8548675063428
 30
0.0
 10
145.4315337355525
 20
143.9420859907394
 30
0.0
 10
144.968983533182
 20
143.9856952329377
 30
0.0
  0
LINE
  5
16E
330
1F
100
AcDbEntity
  8
0
  6
Continuous
 62
     7
370
    25
100
AcDbLine
 10
144.1666079882
 20
144.3581593425
 30
0.0
 11
144.166606248
 21
144.8558707678
 31
0.0
  0
ARC
  5
16F
330
1F
100
AcDbEntity
  8
0
  6
Continuous
 62
     7
370
    25
100
AcDbCircle
 10
146.2932209161
 20
151.5841212658
 30
0.0
 40
9.972686678757608
100
AcDbArc
 50
262.3693611813
 51
262.6016495531
  0
LINE
  5
170
330
1F
100
AcDbEntity
  8
0
  6
Continuous
 62
     7
370
    25
100
AcDbLine
 10
144.9689823305
 20
141.6997461333
 30
0.0
 11
144.9689862767
 21
143.9857198292
 31
0.0
  0
LWPOLYLINE
  5
171
330
1F
100
AcDbEntity
  8
0
  6
Continuous
 62
     7
370
    25
100
AcDbPolyline
 90
       39
 70
   128
 43
0.0
 10
162.6601318138
 20
173.9383198486
 10
162.2437878692
 20
173.2727569877
 10
161.7189424594
 20
172.6266580667
 10
161.0891808107
 20
172.0044365962
 10
160.3588048338
 20
171.4103429799
 10
159.5328037372
 20
170.8484354796
 10
158.616819946
 20
170.3225524932
 10
157.6171105581
 20
169.8362863348
 10
156.5405046025
 20
169.3929586954
 10
155.3943563895
 20
168.9955979521
 10
154.1864952736
 20
168.6469184819
 10
152.9251721708
 20
168.349302119
 10
151.6190031971
 20
168.1047818851
 10
150.2769108108
 20
167.9150281011
 10
148.9080628639
 20
167.781336978
 10
147.5218099759
 20
167.7046217615
 10
146.1276216596
 20
167.6854064945
 10
144.7350216349
 20
167.7238224367
 10
143.353522772
 20
167.8196071683
 10
141.992562109
 20
167.9721063823
 10
140.6614363873
 20
168.1802783547
 10
139.3692385452
 20
168.4427010596
 10
138.1247956043
 20
168.7575818839
 10
136.9366083717
 20
169.1227698723
 10
135.812793371
 20
169.5357704206
 10
134.7610273983
 20
169.9937623162
 10
133.7884950815
 20
170.4936170102
 10
132.9018398026
 20
171.031919988
 10
132.1071183161
 20
171.6049940945
 10
131.4097593756
 20
172.2089246525
 10
130.8145266499
 20
172.8395862038
 10
130.325486182
 20
173.4926706907
 10
129.9459786141
 20
174.1637168838
 10
129.6785963678
 20
174.8481408573
 10
129.5251659349
 20
175.5412673013
 10
129.4867354009
 20
176.2383614594
 10
129.5635672853
 20
176.9346614718
 10
129.7551367484
 20
177.6254109032
 10
130.0601351765
 20
178.3058912347
  0
LWPOLYLINE
  5
172
330
1F
100
AcDbEntity
  8
0
  6
Continuous
 62
     7
370
    25
100
AcDbPolyline
 90
       39
 70
   128
 43
0.0
 10
130.0601351765
 20
178.3058912347
 10
130.4764791211
 20
178.9714540956
 10
131.0013245309
 20
179.6175530166
 10
131.6310861796
 20
180.2397744871
 10
132.3614621565
 20
180.8338681034
 10
133.1874632531
 20
181.3957756037
 10
134.1034470443
 20
181.9216585901
 10
135.1031564322
 20
182.4079247485
 10
136.1797623877
 20
182.8512523879
 10
137.3259106008
 20
183.2486131312
 10
138.5337717167
 20
183.5972926014
 10
139.7950948195
 20
183.8949089643
 10
141.1012637932
 20
184.1394291983
 10
142.4433561795
 20
184.3291829822
 10
143.8122041264
 20
184.4628741053
 10
145.1984570144
 20
184.5395893218
 10
146.5926453307
 20
184.5588045888
 10
147.9852453554
 20
184.5203886466
 10
149.3667442183
 20
184.424603915
 10
150.7277048813
 20
184.272104701
 10
152.058830603
 20
184.0639327287
 10
153.3510284451
 20
183.8015100238
 10
154.595471386
 20
183.4866291994
 10
155.7836586186
 20
183.121441211
 10
156.9074736192
 20
182.7084406627
 10
157.959239592
 20
182.2504487671
 10
158.9317719088
 20
181.7505940732
 10
159.8184271877
 20
181.2122910954
 10
160.6131486742
 20
180.6392169888
 10
161.3105076147
 20
180.0352864309
 10
161.9057403404
 20
179.4046248795
 10
162.3947808083
 20
178.7515403926
 10
162.7742883762
 20
178.0804941995
 10
163.0416706225
 20
177.396070226
 10
163.1951010554
 20
176.702943782
 10
163.2335315894
 20
176.0058496239
 10
163.156699705
 20
175.3095496115
 10
162.9651302419
 20
174.6188001801
 10
162.6601318138
 20
173.9383198486
  0
ARC
  5
173
330
1F
100
AcDbEntity
  8
0
  6
Continuous
 62
     7
370
    25
100
AcDbCircle
 10
158.9030421392
 20
175.6669184585
 30
0.0
 40
4.45796985151395
100
AcDbArc
 50
3.0690967087
 51
19.1314486441
  0
LWPOLYLINE
  5
174
330
1F
100
AcDbEntity
  8
0
  6
Continuous
 62
     7
370
    25
100
AcDbPolyline
 90
        3
 70
   128
 43
0.0
 10
129.6054723938
 20
177.1279579637
 10
129.4462412991
 20
176.543529903
 10
129.3656490958
 20
175.9055991907
  0
LINE
  5
175
330
1F
100
AcDbEntity
  8
0
  6
Continuous
 62
     8
370
    25
100
AcDbLine
 10
150.7600572619
 20
184.3324750651
 30
0.0
 11
150.7600572619
 21
184.2677530888
 31
0.0
  0
LINE
  5
176
330
1F
100
AcDbEntity
  8
0
  6
Continuous
 62
     8
370
    25
100
AcDbLine
 10
168.7460699276
 20
170.2067223369
 30
0.0
 11
168.7460699276
 21
170.5302461432
 31
0.0
  0
LINE
  5
177
330
1F
100
AcDbEntity
  8
0
  6
Continuous
 62
     8
370
    25
100
AcDbLine
 10
173.1636251024
 20
172.0352734183
 30
0.0
 11
173.6475380878
 21
172.4662865296
 31
0.0
  0
LINE
  5
178
330
1F
100
AcDbEntity
  8
0
  6
Continuous
 62
     8
370
    25
100
AcDbLine
 10
171.3387825316
 20
175.0447899206
 30
0.0
 11
171.3387825316
 21
175.368313727
 31
0.0
  0
LINE
  5
179
330
1F
100
AcDbEntity
  8
0
  6
Continuous
 62
     8
370
    25
100
AcDbLine
 10
118.966669893
 20
176.8758973564
 30
0.0
 11
118.966669893
 21
177.1994211627
 31
0.0
  0
LINE
  5
17A
330
1F
100
AcDbEntity
  8
0
  6
Continuous
 62
     8
370
    25
100
AcDbLine
 10
122.4525192223
 20
178.8292733522
 30
0.0
 11
122.9364322076
 21
179.2602864635
 31
0.0
  0
LINE
  5
17B
330
1F
100
AcDbEntity
  8
0
  6
Continuous
 62
     8
370
    25
100
AcDbLine
 10
121.5593824969
 20
181.7139649401
 30
0.0
 11
121.5593824969
 21
182.0374887465
 31
0.0
  0
LINE
  5
17C
330
1F
100
AcDbEntity
  8
0
  6
Continuous
 62
     8
370
    25
100
AcDbLine
 10
163.1591069763
 20
160.0796794159
 30
0.0
 11
163.1591069763
 21
152.2208347581
 31
0.0
  0
LWPOLYLINE
  5
17D
330
1F
100
AcDbEntity
  8
0
  6
Continuous
 62
     8
370
    25
100
AcDbPolyline
 90
       37
 70
   128
 43
0.0
 10
128.9685563948
 20
154.471470447
 10
129.0002863841
 20
153.9464318005
 10
129.1410751358
 20
153.2496906738
 10
129.3935360885
 20
152.5608732578
 10
129.7560319359
 20
151.8844467977
 10
130.2262117535
 20
151.2247981787
 10
130.8010262446
 20
150.5862054752
 10
131.4767475168
 20
149.9728102059
 10
132.2489932583
 20
149.3885904746
 10
133.1127551592
 20
148.8373351704
 10
134.0624313919
 20
148.3226193954
 10
135.0918629419
 20
147.847781279
 10
136.1943735503
 20
147.4159003286
 10
137.3628130129
 20
147.0297774579
 10
138.5896035514
 20
146.6919168218
 10
139.8667889584
 20
146.4045095762
 10
141.1860861964
 20
146.1694196674
 10
142.5389391166
 20
145.9881717437
 10
143.9165739487
 20
145.8619412674
 10
145.310056202
 20
145.7915468915
 10
146.7103486096
 20
145.7774451507
 10
148.1083697378
 20
145.8197275001
 10
149.495052883
 20
145.9181197225
 10
150.8614048731
 20
146.0719837065
 10
152.198564391
 20
146.2803215851
 10
153.4978594442
 20
146.5417822073
 10
154.7508636056
 20
146.8546699007
 10
155.9494506624
 20
147.2169554684
 10
157.0858473177
 20
147.6262893495
 10
158.1526836031
 20
148.0800168567
 10
159.1430406758
 20
148.5751953931
 10
160.0504956903
 20
149.1086135358
 10
160.8691634525
 20
149.6768118634
 10
161.5937345879
 20
150.2761053918
 10
162.2195099746
 20
150.9026074725
 10
162.742431219
 20
151.5522549991
 10
163.1591069763
 20
152.2208347581
  0
LINE
  5
17E
330
1F
100
AcDbEntity
  8
0
  6
Continuous
 62
     8
370
    25
100
AcDbLine
 10
170.410880142
 20
170.0051571125
 30
0.0
 11
170.410880142
 21
170.0841122034
 31
0.0
  0
LINE
  5
17F
330
1F
100
AcDbEntity
  8
0
  6
Continuous
 62
     8
370
    25
100
AcDbLine
 10
172.1686197642
 20
172.3578551074
 30
0.0
 11
172.1686197642
 21
172.373977345
 31
0.0
  0
ARC
  5
180
330
1F
100
AcDbEntity
  8
0
  6
Continuous
 62
     8
370
    25
100
AcDbCircle
 10
161.7219133667
 20
152.2112487393
 30
0.0
 40
1.437225578443654
100
AcDbArc
 50
331.945548137
 51
0.3821546883
  0
LINE
  5
181
330
1F
100
AcDbEntity
  8
0
  6
Continuous
 62
     8
370
    25
100
AcDbLine
 10
172.9990705931
 20
174.8347862439
 30
0.0
 11
172.9990705931
 21
174.9230637579
 31
0.0
  0
ARC
  5
182
330
1F
100
AcDbEntity
  8
0
  6
Continuous
 62
     8
370
    25
100
AcDbCircle
 10
159.0506740851
 20
154.5059412517
 30
0.0
 40
4.701162888960788
100
AcDbArc
 50
330.9172294821
 51
359.5798806875
  0
LINE
  5
183
330
1F
100
AcDbEntity
  8
0
  6
Continuous
 62
     8
370
    25
100
AcDbLine
 10
120.6270630551
 20
176.6749239048
 30
0.0
 11
120.6270630551
 21
176.7541507639
 31
0.0
  0
LINE
  5
184
330
1F
100
AcDbEntity
  8
0
  6
Continuous
 62
     8
370
    25
100
AcDbLine
 10
121.457513884
 20
179.1518550413
 30
0.0
 11
121.457513884
 21
179.1679772789
 31
0.0
  0
LINE
  5
185
330
1F
100
AcDbEntity
  8
0
  6
Continuous
 62
     8
370
    25
100
AcDbLine
 10
123.2152535061
 20
181.5045530362
 30
0.0
 11
123.2152535061
 21
181.5930924503
 31
0.0
  0
LINE
  5
186
330
1F
100
AcDbEntity
  8
0
  6
Continuous
 62
     8
370
    25
100
AcDbLine
 10
166.1591233684
 20
159.6667982984
 30
0.0
 11
166.1591233683
 21
160.5314490472
 31
0.0
  0
LINE
  5
187
330
1F
100
AcDbEntity
  8
0
  6
Continuous
 62
     8
370
    25
100
AcDbLine
 10
139.1132002323
 20
156.043331667
 30
0.0
 11
139.1132002322
 21
156.9079824158
 31
0.0
  0
LINE
  5
188
330
1F
100
AcDbEntity
  8
0
  6
Continuous
 62
     8
370
    25
100
AcDbLine
 10
139.111903999
 20
156.9087089541
 30
0.0
 11
139.1119039989
 21
157.3213234483
 31
0.0
  0
LINE
  5
189
330
1F
100
AcDbEntity
  8
0
  6
Continuous
 62
     8
370
    25
100
AcDbLine
 10
139.111903999
 20
156.9087089541
 30
0.0
 11
139.1123149504
 21
156.9081007294
 31
0.0
  0
LINE
  5
18A
330
1F
100
AcDbEntity
  8
0
  6
Continuous
 62
     8
370
    25
100
AcDbLine
 10
164.4692276267
 20
160.3054716939
 30
0.0
 11
164.4692276265
 21
160.5426912011
 31
0.0
  0
LINE
  5
18B
330
1F
100
AcDbEntity
  8
0
  6
Continuous
 62
     8
370
    25
100
AcDbLine
 10
164.4692276267
 20
160.3054716939
 30
0.0
 11
164.4696385781
 21
160.3048634692
 31
0.0
  0
LINE
  5
18C
330
1F
100
AcDbEntity
  8
0
  6
Continuous
 62
     8
370
    25
100
AcDbLine
 10
141.3326042809
 20
157.6667539471
 30
0.0
 11
141.3326042809
 21
157.7433596968
 31
0.0
  0
LINE
  5
18D
330
1F
100
AcDbEntity
  8
0
  6
Continuous
 62
     8
370
    25
100
AcDbLine
 10
141.3339005142
 20
157.6674020637
 30
0.0
 11
141.3339005142
 21
157.7432504755
 31
0.0
  0
LWPOLYLINE
  5
18E
330
1F
100
AcDbEntity
  8
0
  6
Continuous
 62
     8
370
    25
100
AcDbPolyline
 90
       14
 70
   128
 43
0.0
 10
145.00906751
 20
141.6944585
 10
145.7975759083
 20
141.622932068
 10
146.5985893974
 20
141.6108179629
 10
147.3943022511
 20
141.6583854691
 10
148.1670265705
 20
141.7645772085
 10
148.8995854693
 20
141.9270326453
 10
149.5756948978
 20
142.1421405582
 10
150.1803256215
 20
142.405119314
 10
150.700037306
 20
142.7101231586
 10
151.1232772818
 20
143.0503721626
 10
151.4406373487
 20
143.4183029319
 10
151.6450629108
 20
143.8057367345
 10
151.7320097928
 20
144.2040613056
 10
151.7351334951
 20
144.2956719526
  0
LWPOLYLINE
  5
18F
330
1F
100
AcDbEntity
  8
0
  6
Continuous
 62
     8
370
    25
100
AcDbPolyline
 90
       10
 70
   128
 43
0.0
 10
140.9851334951
 20
144.2956719526
 10
141.0207219146
 20
143.98692085
 10
141.1718764791
 20
143.5934230409
 10
141.4383608273
 20
143.2155355253
 10
141.8142512775
 20
142.8616583662
 10
142.2911921597
 20
142.5396579002
 10
142.8585815532
 20
142.2566918768
 10
143.5038069573
 20
142.0190503487
 10
144.2125256541
 20
141.8320158503
 10
144.9689835332
 20
141.6997459722
  0
LWPOLYLINE
  5
190
330
1F
100
AcDbEntity
  8
0
  6
Continuous
 62
     8
370
    25
100
AcDbPolyline
 90
        7
 70
   128
 43
0.0
 10
144.9689811277
 20
141.6997462944
 10
144.9789273985
 20
141.3803999385
 10
145.0083839811
 20
141.1104458718
 10
145.0562188757
 20
140.9002582777
 10
145.1205938141
 20
140.7579145474
 10
145.1990349035
 20
140.6888848709
 10
145.2211499572
 20
140.6833689524
  0
LINE
  5
191
330
1F
100
AcDbEntity
  8
0
  6
Continuous
 62
     8
370
    25
100
AcDbLine
 10
162.6601318138
 20
173.9383198486
 30
0.0
 11
162.6601318138
 21
173.7080811625
 31
0.0
  0
LINE
  5
192
330
1F
100
AcDbEntity
  8
0
  6
Continuous
 62
     8
370
    25
100
AcDbLine
 10
163.2351334951
 20
175.1694775975
 30
0.0
 11
163.2343881075
 21
175.0901739455
 31
0.0
  0
LINE
  5
193
330
1F
100
AcDbEntity
  8
0
  6
Continuous
 62
     8
370
    25
100
AcDbLine
 10
129.4858788828
 20
175.0901739455
 30
0.0
 11
129.4851334951
 21
175.1694775975
 31
0.0
  0
ENDSEC
  0
SECTION
  2
OBJECTS
  0
DICTIONARY
  5
C
330
0
100
AcDbDictionary
281
     1
  3
ACAD_GROUP
350
D
  3
ACAD_LAYOUT
350
1A
  3
ACAD_MLINESTYLE
350
17
  3
ACAD_PLOTSETTINGS
350
19
  3
ACAD_PLOTSTYLENAME
350
E
  3
ACAD_SCALELIST
350
47
  3
DWGPROPS
350
194
  0
DICTIONARY
  5
D
102
{ACAD_REACTORS
330
C
102
}
330
C
100
AcDbDictionary
281
     1
  0
DICTIONARY
  5
1A
102
{ACAD_REACTORS
330
C
102
}
330
C
100
AcDbDictionary
281
     1
  3
Layout1
350
1E
  3
Layout2
350
26
  3
Model
350
22
  0
DICTIONARY
  5
17
102
{ACAD_REACTORS
330
C
102
}
330
C
100
AcDbDictionary
281
     1
  3
Standard
350
18
  0
DICTIONARY
  5
19
102
{ACAD_REACTORS
330
C
102
}
330
C
100
AcDbDictionary
281
     1
  0
ACDBDICTIONARYWDFLT
  5
E
102
{ACAD_REACTORS
330
C
102
}
330
C
100
AcDbDictionary
281
     1
  3
Normal
350
F
100
AcDbDictionaryWithDefault
340
F
  0
DICTIONARY
  5
47
102
{ACAD_REACTORS
330
C
102
}
330
C
100
AcDbDictionary
281
     1
  3
A0
350
48
  3
A1
350
49
  3
A2
350
4A
  3
A3
350
4B
  3
A4
350
4C
  3
A5
350
4D
  3
A6
350
4E
  3
A7
350
4F
  3
A8
350
50
  3
A9
350
51
  3
B0
350
52
  3
B1
350
53
  3
B2
350
54
  3
B3
350
55
  3
B4
350
56
  3
B5
350
57
  3
B6
350
58
  3
B7
350
59
  3
B8
350
5A
  3
B9
350
5B
  3
C0
350
5C
  3
C1
350
5D
  3
C2
350
5E
  3
C3
350
5F
  3
C4
350
60
  3
C5
350
61
  3
C6
350
62
  3
C7
350
63
  3
C8
350
64
  3
C9
350
65
  3
D0
350
66
  3
D1
350
67
  3
D2
350
68
  0
XRECORD
  5
194
102
{ACAD_REACTORS
330
C
102
}
330
C
100
AcDbXrecord
280
     1
  1
DWGPROPS COOKIE
  2

  3

  4

  6

  7

  8
9128
  9

300
=
301
=
302
=
303
=
304
=
305
=
306
=
307
=
308
=
309
=
 40
0.0
 41
2460018.229947315
 42
2460018.229947604
  1

 90
        0
  0
LAYOUT
  5
1E
102
{ACAD_REACTORS
330
1A
102
}
330
1A
100
AcDbPlotSettings
  1

  2
none_device
  4

  6

 40
0.0
 41
0.0
 42
0.0
 43
0.0
 44
0.0
 45
0.0
 46
0.0
 47
0.0
 48
0.0
 49
0.0
140
0.0
141
0.0
142
1.0
143
1.0
 70
   688
 72
     1
 73
     0
 74
     5
  7

 75
    16
147
1.0
148
0.0
149
0.0
100
AcDbLayout
  1
Layout1
 70
     1
 71
     1
 10
0.0
 20
0.0
 11
420.0
 21
297.0
 12
0.0
 22
0.0
 32
0.0
 14
1.0000000000E+20
 24
1.0000000000E+20
 34
1.0000000000E+20
 15
-1.0000000000E+20
 25
-1.0000000000E+20
 35
-1.0000000000E+20
146
0.0
 13
0.0
 23
0.0
 33
0.0
 16
1.0
 26
0.0
 36
0.0
 17
0.0
 27
1.0
 37
0.0
 76
     0
330
1B
  0
LAYOUT
  5
26
102
{ACAD_REACTORS
330
1A
102
}
330
1A
100
AcDbPlotSettings
  1

  2
none_device
  4

  6

 40
0.0
 41
0.0
 42
0.0
 43
0.0
 44
0.0
 45
0.0
 46
0.0
 47
0.0
 48
0.0
 49
0.0
140
0.0
141
0.0
142
1.0
143
1.0
 70
   688
 72
     1
 73
     0
 74
     5
  7

 75
    16
147
1.0
148
0.0
149
0.0
100
AcDbLayout
  1
Layout2
 70
     1
 71
     2
 10
0.0
 20
0.0
 11
0.0
 21
0.0
 12
0.0
 22
0.0
 32
0.0
 14
0.0
 24
0.0
 34
0.0
 15
0.0
 25
0.0
 35
0.0
146
0.0
 13
0.0
 23
0.0
 33
0.0
 16
1.0
 26
0.0
 36
0.0
 17
0.0
 27
1.0
 37
0.0
 76
     0
330
23
  0
LAYOUT
  5
22
102
{ACAD_REACTORS
330
1A
102
}
330
1A
100
AcDbPlotSettings
  1

  2
none_device
  4
Letter_(8.50_x_11.00_Inches)
  6

 40
6.35
 41
6.35
 42
6.35000508
 43
6.35000508
 44
215.9
 45
279.4
 46
0.0
 47
0.0
 48
0.0
 49
0.0
140
0.0
141
0.0
142
1.0
143
1.0
 70
  1712
 72
     1
 73
     0
 74
     0
  7

 75
     0
147
1.0
148
0.0
149
0.0
100
AcDbLayout
  1
Model
 70
     1
 71
     0
 10
0.0
 20
0.0
 11
210.0
 21
297.0
 12
0.0
 22
0.0
 32
0.0
 14
0.0
 24
0.0
 34
0.0
 15
210.0
 25
297.0
 35
0.0
146
0.0
 13
0.0
 23
0.0
 33
0.0
 16
1.0
 26
0.0
 36
0.0
 17
0.0
 27
1.0
 37
0.0
 76
     0
330
1F
331
29
  0
MLINESTYLE
  5
18
102
{ACAD_REACTORS
330
17
102
}
330
17
100
AcDbMlineStyle
  2
Standard
 70
     0
  3

 62
   256
 51
90.0
 52
90.0
 71
     2
 49
0.5
 62
   256
  6
BYLAYER
 49
-0.5
 62
   256
  6
BYLAYER
  0
ACDBPLACEHOLDER
  5
F
102
{ACAD_REACTORS
330
E
102
}
330
E
  0
SCALE
  5
48
102
{ACAD_REACTORS
330
47
102
}
330
47
100
AcDbScale
 70
     0
300
1:1
140
1.0
141
1.0
290
     1
  0
SCALE
  5
49
102
{ACAD_REACTORS
330
47
102
}
330
47
100
AcDbScale
 70
     0
300
1:2
140
1.0
141
2.0
290
     0
  0
SCALE
  5
4A
102
{ACAD_REACTORS
330
47
102
}
330
47
100
AcDbScale
 70
     0
300
1:4
140
1.0
141
4.0
290
     0
  0
SCALE
  5
4B
102
{ACAD_REACTORS
330
47
102
}
330
47
100
AcDbScale
 70
     0
300
1:5
140
1.0
141
5.0
290
     0
  0
SCALE
  5
4C
102
{ACAD_REACTORS
330
47
102
}
330
47
100
AcDbScale
 70
     0
300
1:8
140
1.0
141
8.0
290
     0
  0
SCALE
  5
4D
102
{ACAD_REACTORS
330
47
102
}
330
47
100
AcDbScale
 70
     0
300
1:10
140
1.0
141
10.0
290
     0
  0
SCALE
  5
4E
102
{ACAD_REACTORS
330
47
102
}
330
47
100
AcDbScale
 70
     0
300
1:16
140
1.0
141
16.0
290
     0
  0
SCALE
  5
4F
102
{ACAD_REACTORS
330
47
102
}
330
47
100
AcDbScale
 70
     0
300
1:20
140
1.0
141
20.0
290
     0
  0
SCALE
  5
50
102
{ACAD_REACTORS
330
47
102
}
330
47
100
AcDbScale
 70
     0
300
1:30
140
1.0
141
30.0
290
     0
  0
SCALE
  5
51
102
{ACAD_REACTORS
330
47
102
}
330
47
100
AcDbScale
 70
     0
300
1:40
140
1.0
141
40.0
290
     0
  0
SCALE
  5
52
102
{ACAD_REACTORS
330
47
102
}
330
47
100
AcDbScale
 70
     0
300
1:50
140
1.0
141
50.0
290
     0
  0
SCALE
  5
53
102
{ACAD_REACTORS
330
47
102
}
330
47
100
AcDbScale
 70
     0
300
1:100
140
1.0
141
100.0
290
     0
  0
SCALE
  5
54
102
{ACAD_REACTORS
330
47
102
}
330
47
100
AcDbScale
 70
     0
300
2:1
140
2.0
141
1.0
290
     0
  0
SCALE
  5
55
102
{ACAD_REACTORS
330
47
102
}
330
47
100
AcDbScale
 70
     0
300
4:1
140
4.0
141
1.0
290
     0
  0
SCALE
  5
56
102
{ACAD_REACTORS
330
47
102
}
330
47
100
AcDbScale
 70
     0
300
8:1
140
8.0
141
1.0
290
     0
  0
SCALE
  5
57
102
{ACAD_REACTORS
330
47
102
}
330
47
100
AcDbScale
 70
     0
300
10:1
140
10.0
141
1.0
290
     0
  0
SCALE
  5
58
102
{ACAD_REACTORS
330
47
102
}
330
47
100
AcDbScale
 70
     0
300
100:1
140
100.0
141
1.0
290
     0
  0
SCALE
  5
59
102
{ACAD_REACTORS
330
47
102
}
330
47
100
AcDbScale
 70
     0
300
1/128" = 1'-0"
140
0.0078125
141
12.0
290
     0
  0
SCALE
  5
5A
102
{ACAD_REACTORS
330
47
102
}
330
47
100
AcDbScale
 70
     0
300
1/64" = 1'-0"
140
0.015625
141
12.0
290
     0
  0
SCALE
  5
5B
102
{ACAD_REACTORS
330
47
102
}
330
47
100
AcDbScale
 70
     0
300
1/32" = 1'-0"
140
0.03125
141
12.0
290
     0
  0
SCALE
  5
5C
102
{ACAD_REACTORS
330
47
102
}
330
47
100
AcDbScale
 70
     0
300
1/16" = 1'-0"
140
0.0625
141
12.0
290
     0
  0
SCALE
  5
5D
102
{ACAD_REACTORS
330
47
102
}
330
47
100
AcDbScale
 70
     0
300
3/32" = 1'-0"
140
0.09375
141
12.0
290
     0
  0
SCALE
  5
5E
102
{ACAD_REACTORS
330
47
102
}
330
47
100
AcDbScale
 70
     0
300
1/8" = 1'-0"
140
0.125
141
12.0
290
     0
  0
SCALE
  5
5F
102
{ACAD_REACTORS
330
47
102
}
330
47
100
AcDbScale
 70
     0
300
3/16" = 1'-0"
140
0.1875
141
12.0
290
     0
  0
SCALE
  5
60
102
{ACAD_REACTORS
330
47
102
}
330
47
100
AcDbScale
 70
     0
300
1/4" = 1'-0"
140
0.25
141
12.0
290
     0
  0
SCALE
  5
61
102
{ACAD_REACTORS
330
47
102
}
330
47
100
AcDbScale
 70
     0
300
3/8" = 1'-0"
140
0.375
141
12.0
290
     0
  0
SCALE
  5
62
102
{ACAD_REACTORS
330
47
102
}
330
47
100
AcDbScale
 70
     0
300
1/2" = 1'-0"
140
0.5
141
12.0
290
     0
  0
SCALE
  5
63
102
{ACAD_REACTORS
330
47
102
}
330
47
100
AcDbScale
 70
     0
300
3/4" = 1'-0"
140
0.75
141
12.0
290
     0
  0
SCALE
  5
64
102
{ACAD_REACTORS
330
47
102
}
330
47
100
AcDbScale
 70
     0
300
1" = 1'-0"
140
1.0
141
12.0
290
     0
  0
SCALE
  5
65
102
{ACAD_REACTORS
330
47
102
}
330
47
100
AcDbScale
 70
     0
300
1-1/2" = 1'-0"
140
1.5
141
12.0
290
     0
  0
SCALE
  5
66
102
{ACAD_REACTORS
330
47
102
}
330
47
100
AcDbScale
 70
     0
300
3" = 1'-0"
140
3.0
141
12.0
290
     0
  0
SCALE
  5
67
102
{ACAD_REACTORS
330
47
102
}
330
47
100
AcDbScale
 70
     0
300
6" = 1'-0"
140
6.0
141
12.0
290
     0
  0
SCALE
  5
68
102
{ACAD_REACTORS
330
47
102
}
330
47
100
AcDbScale
 70
     0
300
1'-0" = 1'-0"
140
12.0
141
12.0
290
     0
  0
ENDSEC
  0
EOF
