  0
SECTION
  2
HEADER
  9
$ACADVER
  1
AC1014
  9
$ACADMAINTVER
 70
               0
  9
$DWGCODEPAGE
  3
ANSI_932
  9
$INSBASE
 10
0.0
 20
0.0
 30
0.0
  9
$EXTMIN
 10
262.45522313849978
 20
79.883333333333326
 30
0.0
  9
$EXTMAX
 10
280.02355620268503
 20
84.116666666666674
 30
0.0
  9
$LIMMIN
 10
0.0
 20
0.0
  9
$LIMMAX
 10
0.0
 20
0.0
  9
$ORTHOMODE
 70
               0
  9
$REGENMODE
 70
               1
  9
$FILLMODE
 70
               1
  9
$QTEXTMODE
 70
               0
  9
$MIRRTEXT
 70
               1
  9
$DRAGMODE
 70
               2
  9
$LTSCALE
 40
12.699999999999999
  9
$OSMODE
 70
               0
  9
$ATTMODE
 70
               1
  9
$TEXTSIZE
 40
0.2
  9
$TRACEWID
 40
1.0
  9
$TEXTSTYLE
  7
STANDARD
  9
$CLAYER
  8
0
  9
$CELTYPE
  6
CONTINUOUS
  9
$CECOLOR
 62
             256
  9
$CELTSCALE
 40
1.0
  9
$DELOBJ
 70
               1
  9
$DISPSILH
 70
               0
  9
$DIMSCALE
 40
1.0
  9
$DIMASZ
 40
0.18
  9
$DIMEXO
 40
0.0625
  9
$DIMDLI
 40
0.38
  9
$DIMRND
 40
0.0
  9
$DIMDLE
 40
0.0
  9
$DIMEXE
 40
0.18
  9
$DIMTP
 40
0.0
  9
$DIMTM
 40
0.0
  9
$DIMTXT
 40
0.18
  9
$DIMCEN
 40
0.09
  9
$DIMTSZ
 40
0.0
  9
$DIMTOL
 70
               0
  9
$DIMLIM
 70
               0
  9
$DIMTIH
 70
               1
  9
$DIMTOH
 70
               1
  9
$DIMSE1
 70
               0
  9
$DIMSE2
 70
               0
  9
$DIMTAD
 70
               0
  9
$DIMZIN
 70
               0
  9
$DIMBLK
  1

  9
$DIMASO
 70
               1
  9
$DIMSHO
 70
               1
  9
$DIMPOST
  1

  9
$DIMAPOST
  1

  9
$DIMALT
 70
               0
  9
$DIMALTD
 70
               2
  9
$DIMALTF
 40
25.399999999999999
  9
$DIMLFAC
 40
1.0
  9
$DIMTOFL
 70
               0
  9
$DIMTVP
 40
0.0
  9
$DIMTIX
 70
               0
  9
$DIMSOXD
 70
               0
  9
$DIMSAH
 70
               0
  9
$DIMBLK1
  1

  9
$DIMBLK2
  1

  9
$DIMSTYLE
  2
STANDARD
  9
$DIMCLRD
 70
               0
  9
$DIMCLRE
 70
               0
  9
$DIMCLRT
 70
               0
  9
$DIMTFAC
 40
1.0
  9
$DIMGAP
 40
0.09
  9
$DIMJUST
 70
               0
  9
$DIMSD1
 70
               0
  9
$DIMSD2
 70
               0
  9
$DIMTOLJ
 70
               1
  9
$DIMTZIN
 70
               0
  9
$DIMALTZ
 70
               0
  9
$DIMALTTZ
 70
               0
  9
$DIMFIT
 70
               3
  9
$DIMUPT
 70
               0
  9
$DIMUNIT
 70
               2
  9
$DIMDEC
 70
               4
  9
$DIMTDEC
 70
               4
  9
$DIMALTU
 70
               2
  9
$DIMALTTD
 70
               2
  9
$DIMTXSTY
  7
STANDARD
  9
$DIMAUNIT
 70
               0
  9
$LUNITS
 70
               2
  9
$LUPREC
 70
               4
  9
$SKETCHINC
 40
0.1
  9
$FILLETRAD
 40
0.0
  9
$AUNITS
 70
               0
  9
$AUPREC
 70
               0
  9
$MENU
  1
acad
  9
$ELEVATION
 40
0.0
  9
$PELEVATION
 40
0.0
  9
$THICKNESS
 40
0.0
  9
$LIMCHECK
 70
               0
  9
$BLIPMODE
 70
               0
  9
$CHAMFERA
 40
0.0
  9
$CHAMFERB
 40
0.0
  9
$CHAMFERC
 40
0.0
  9
$CHAMFERD
 40
0.0
  9
$SKPOLY
 70
               0
  9
$TDCREATE
 40
2458461.649537037
  9
$TDUPDATE
 40
2458461.649537037
  9
$TDINDWG
 40
0.0000000000
  9
$TDUSRTIMER
 40
0.0000000000
  9
$USRTIMER
 70
               1
  9
$ANGBASE
 50
0.0
  9
$ANGDIR
 70
               0
  9
$PDMODE
 70
               1
  9
$PDSIZE
 40
-2.0
  9
$PLINEWID
 40
0.0
  9
$COORDS
 70
               0
  9
$SPLFRAME
 70
               0
  9
$SPLINETYPE
 70
               6
  9
$SPLINESEGS
 70
               8
  9
$ATTDIA
 70
               0
  9
$ATTREQ
 70
               1
  9
$HANDLING
 70
               1
  9
$HANDSEED
  5
47C
  9
$SURFTAB1
 70
               6
  9
$SURFTAB2
 70
               6
  9
$SURFTYPE
 70
               6
  9
$SURFU
 70
               6
  9
$SURFV
 70
               6
  9
$UCSNAME
  2

  9
$UCSORG
 10
0.0
 20
0.0
 30
0.0
  9
$UCSXDIR
 10
1.0
 20
0.0
 30
0.0
  9
$UCSYDIR
 10
0.0
 20
1.0
 30
0.0
  9
$PUCSNAME
  2

  9
$PUCSORG
 10
0.0
 20
0.0
 30
0.0
  9
$PUCSXDIR
 10
1.0
 20
0.0
 30
0.0
  9
$PUCSYDIR
 10
0.0
 20
1.0
 30
0.0
  9
$USERI1
 70
               0
  9
$USERI2
 70
               0
  9
$USERI3
 70
               0
  9
$USERI4
 70
               0
  9
$USERI5
 70
               0
  9
$USERR1
 40
0.0
  9
$USERR2
 40
0.0
  9
$USERR3
 40
0.0
  9
$USERR4
 40
0.0
  9
$USERR5
 40
0.0
  9
$WORLDVIEW
 70
               1
  9
$SHADEDGE
 70
               3
  9
$SHADEDIF
 70
              70
  9
$TILEMODE
 70
               1
  9
$MAXACTVP
 70
              16
  9
$PINSBASE
 10
0.0
 20
0.0
 30
0.0
  9
$PLIMCHECK
 70
               0
  9
$PEXTMIN
 10
1.0000000000000000E+20
 20
1.0000000000000000E+20
 30
1.0000000000000000E+20
  9
$PEXTMAX
 10
-1.0000000000000000E+20
 20
-1.0000000000000000E+20
 30
-1.0000000000000000E+20
  9
$PLIMMIN
 10
0.0
 20
0.0
  9
$PLIMMAX
 10
12.0
 20
9.0
  9
$UNITMODE
 70
               0
  9
$VISRETAIN
 70
               0
  9
$PLINEGEN
 70
               1
  9
$PSLTSCALE
 70
               0
  9
$TREEDEPTH
 70
            3020
  9
$PICKSTYLE
 70
               1
  9
$CMLSTYLE
  2
STANDARD
  9
$CMLJUST
 70
               0
  9
$CMLSCALE
 40
1.0
  9
$PROXYGRAPHICS
 70
               0
  9
$MEASUREMENT
 70
               1
  0
ENDSEC
  0
SECTION
  2
CLASSES
  0
CLASS
  1
LWPOLYLINE
  2
AcDbPolyline
  3
"AutoCAD"
 90
        0
280
               0
281
               1
  0
CLASS
  1
IMAGE
  2
AcDbRasterImage
  3
ISM
 90
      127
280
               0
281
               1
  0
CLASS
  1
OLE2FRAME
  2
AcDbOle2Frame
  3
""
 90
        0
280
               0
281
               1
  0
CLASS
  1
HATCH
  2
AcDbHatch
  3
"ACAD_SEDONA"
 90
        0
280
               0
281
               1
  0
CLASS
  1
DICTIONARYVAR
  2
AcDbDictionaryVar
  3
"AutoCAD"
 90
        0
280
               0
281
               0
  0
CLASS
  1
RASTERVARIABLES
  2
AcDbRasterVariables
  3
ISM
 90
        0
280
               0
281
               0
  0
CLASS
  1
IMAGEDEF
  2
AcDbRasterImageDef
  3
ISM
 90
        0
280
               0
281
               0
  0
CLASS
  1
IMAGEDEF_REACTOR
  2
AcDbRasterImageDefReactor
  3
ISM
 90
        1
280
               0
281
               0
  0
CLASS
  1
IDBUFFER
  2
AcDbIdBuffer
  3
"Acad"
 90
        0
280
               0
281
               0
  0
CLASS
  1
SPATIAL_FILTER
  2
AcDbSpatialFilter
  3
"Acad"
 90
        0
280
               0
281
               0
  0
CLASS
  1
XRECORD
  2
AcDbXrecord
  3
"<Built In>"
 90
        0
280
               0
281
               0
  0
CLASS
  1
SORTENTSTABLE
  2
AcDbSortentsTable
  3
"AutoCAD"
 90
        0
280
               0
281
               0
  0
CLASS
  1
LAYER_INDEX
  2
AcDbLayerIndex
  3
"Acad"
 90
        0
280
               0
281
               0
  0
CLASS
  1
SPATIAL_INDEX
  2
AcDbSpatialIndex
  3
"Acad"
 90
        0
280
               0
281
               0
  0
CLASS
  1
OBJECT_PTR
  2
CAseDLPNTableRecord
  3
"ASE-LPNTableRecord"
 90
        1
280
               0
281
               0
  0
CLASS
  1
LAYOUT
  2
AcDbLayout
  3
"AutoCAD 2000"
 90
        1
280
               0
281
               0
  0
CLASS
  1
PLOTSETTINGS
  2
AcDbPlotSettings
  3
"AutoCAD 2000"
 90
        1
280
               0
281
               0
  0
CLASS
  1
ACDBDICTIONARYWDFLT
  2
AcDbDictionaryWithDefault
  3
"AutoCAD 2000"
 90
        1
280
               0
281
               0
  0
CLASS
  1
ACDBPLACEHOLDER
  2
AcDbPlaceHolder
  3
"AutoCAD 2000"
 90
        1
280
               0
281
               0
  0
ENDSEC
  0
SECTION
  2
TABLES
  0
TABLE
  2
VPORT
  5
7
100
AcDbSymbolTable
 70
               1
  0
VPORT
  5
15
100
AcDbSymbolTableRecord
100
AcDbViewportTableRecord
  2
*ACTIVE
 70
               0
 10
0.0
 20
0.0
 11
1.0
 21
1.0
 12
271.2393896705924
 22
82.0
 13
0.0
 23
0.0
 14
1.0
 24
1.0
 15
0.0
 25
0.0
 16
0.0
 26
0.0
 36
1.0
 17
0.0
 27
0.0
 37
0.0
 40
4.2333333333333485
 41
0.688564
 42
50.0
 43
0.0
 44
0.0
 50
0.0
 51
0.0
 71
               0
 72
             100
 73
               1
 74
               1
 75
               0
 76
               0
 77
               0
 78
               0
  0
ENDTAB
  0
TABLE
  2
LTYPE
  5
4
100
AcDbSymbolTable
 70
              13
  0
LTYPE
  5
11
100
AcDbSymbolTableRecord
100
AcDbLinetypeTableRecord
  2
BYBLOCK
 70
              64
  3

 72
              65
 73
               0
 40
0.0
  0
LTYPE
  5
12
100
AcDbSymbolTableRecord
100
AcDbLinetypeTableRecord
  2
BYLAYER
 70
              64
  3

 72
              65
 73
               0
 40
0.0
  0
LTYPE
  5
13
100
AcDbSymbolTableRecord
100
AcDbLinetypeTableRecord
  2
CONTINUOUS
 70
              64
  3
Solid line
 72
              65
 73
               0
 40
0.0
  0
LTYPE
  5
21
100
AcDbSymbolTableRecord
100
AcDbLinetypeTableRecord
  2
STYLE_01
 70
               0
  3

 72
              65
 73
               2
 40
0.15
 49
0.1
 74
               0
 49
-0.05
 74
               0
  0
LTYPE
  5
22
100
AcDbSymbolTableRecord
100
AcDbLinetypeTableRecord
  2
STYLE_02
 70
               0
  3

 72
              65
 73
               6
 40
0.9999999999999999
 49
0.4999999999999999
 74
               0
 49
-0.1
 74
               0
 49
0.1
 74
               0
 49
-0.1
 74
               0
 49
0.1
 74
               0
 49
-0.1
 74
               0
  0
LTYPE
  5
23
100
AcDbSymbolTableRecord
100
AcDbLinetypeTableRecord
  2
STYLE_03
 70
               0
  3

 72
              65
 73
               4
 40
0.7999999999999999
 49
0.4999999999999999
 74
               0
 49
-0.1
 74
               0
 49
0.1
 74
               0
 49
-0.1
 74
               0
  0
LTYPE
  5
24
100
AcDbSymbolTableRecord
100
AcDbLinetypeTableRecord
  2
STYLE_04
 70
               0
  3

 72
              65
 73
               4
 40
1.5999999999999999
 49
0.9999999999999999
 74
               0
 49
-0.2000000000000001
 74
               0
 49
0.2
 74
               0
 49
-0.2
 74
               0
  0
LTYPE
  5
25
100
AcDbSymbolTableRecord
100
AcDbLinetypeTableRecord
  2
STYLE_05
 70
               0
  3

 72
              65
 73
               2
 40
0.05
 49
0.0002
 74
               0
 49
-0.0498
 74
               0
  0
LTYPE
  5
26
100
AcDbSymbolTableRecord
100
AcDbLinetypeTableRecord
  2
STYLE_06
 70
               0
  3

 72
              65
 73
               4
 40
0.416656
 49
0.25
 74
               0
 49
-0.083312
 74
               0
 49
0.027772
 74
               0
 49
-0.055572
 74
               0
  0
LTYPE
  5
27
100
AcDbSymbolTableRecord
100
AcDbLinetypeTableRecord
  2
STYLE_07
 70
               0
  3

 72
              65
 73
               6
 40
0.75
 49
0.25
 74
               0
 49
-0.083312
 74
               0
 49
0.2500000000000001
 74
               0
 49
-0.083344
 74
               0
 49
0.027772
 74
               0
 49
-0.055572
 74
               0
  0
LTYPE
  5
28
100
AcDbSymbolTableRecord
100
AcDbLinetypeTableRecord
  2
STYLE_08
 70
               0
  3

 72
              65
 73
               6
 40
0.5
 49
0.25
 74
               0
 49
-0.083312
 74
               0
 49
0.027772
 74
               0
 49
-0.055572
 74
               0
 49
0.027772
 74
               0
 49
-0.055572
 74
               0
  0
LTYPE
  5
29
100
AcDbSymbolTableRecord
100
AcDbLinetypeTableRecord
  2
STYLE_09
 70
               0
  3

 72
              65
 73
               4
 40
2.0
 49
1.5
 74
               0
 49
-0.1111139999999999
 74
               0
 49
0.2777720000000001
 74
               0
 49
-0.1111139999999999
 74
               0
  0
LTYPE
  5
2A
100
AcDbSymbolTableRecord
100
AcDbLinetypeTableRecord
  2
STYLE_10
 70
               0
  3

 72
              65
 73
               6
 40
2.375
 49
1.5
 74
               0
 49
-0.1111139999999999
 74
               0
 49
0.2777720000000001
 74
               0
 49
-0.1111139999999999
 74
               0
 49
0.25
 74
               0
 49
-0.125
 74
               0
  0
ENDTAB
  0
TABLE
  2
LAYER
  5
2
100
AcDbSymbolTable
 70
               6
  0
LAYER
  5
14
100
AcDbSymbolTableRecord
100
AcDbLayerTableRecord
  2
0
 70
               0
 62
               7
  6
CONTINUOUS
  0
LAYER
  5
2B
100
AcDbSymbolTableRecord
100
AcDbLayerTableRecord
  2
DEFPOINTS
 70
               0
 62
               7
  6
CONTINUOUS
  0
LAYER
  5
2C
100
AcDbSymbolTableRecord
100
AcDbLayerTableRecord
  2
__
 70
               0
 62
               7
  6
CONTINUOUS
  0
LAYER
  5
2D
100
AcDbSymbolTableRecord
100
AcDbLayerTableRecord
  2
__-1
 70
               0
 62
               7
  6
CONTINUOUS
  0
LAYER
  5
2E
100
AcDbSymbolTableRecord
100
AcDbLayerTableRecord
  2
_____1
 70
               0
 62
              19
  6
CONTINUOUS
  0
LAYER
  5
2F
100
AcDbSymbolTableRecord
100
AcDbLayerTableRecord
  2
FORMAT
 70
               0
 62
               7
  6
CONTINUOUS
  0
ENDTAB
  0
TABLE
  2
STYLE
  5
3
100
AcDbSymbolTable
 70
               2
  0
STYLE
  5
17
100
AcDbSymbolTableRecord
100
AcDbTextStyleTableRecord
  2
STANDARD
 70
               0
 40
0.0
 41
1.0
 50
0.0
 71
               0
 42
0.0
  3
txt
  4
BIGFONT.SHX
  0
STYLE
  5
20
100
AcDbSymbolTableRecord
100
AcDbTextStyleTableRecord
  2
________
 70
               0
 40
0.0
 41
1.0
 50
0.0
 71
               0
 42
0.0
  3
ＭＳ Ｐゴシック
  4

1001
ACAD
1000
ＭＳ Ｐゴシック
1071
        0
  0
ENDTAB
  0
TABLE
  2
VIEW
  5
5
100
AcDbSymbolTable
 70
               0
  0
ENDTAB
  0
TABLE
  2
UCS
  5
6
100
AcDbSymbolTable
 70
               0
  0
ENDTAB
  0
TABLE
  2
APPID
  5
8
100
AcDbSymbolTable
 70
               1
  0
APPID
  5
16
100
AcDbSymbolTableRecord
100
AcDbRegAppTableRecord
  2
ACAD
 70
               0
  0
ENDTAB
  0
TABLE
  2
DIMSTYLE
  5
9
100
AcDbSymbolTable
 70
               1
  0
DIMSTYLE
105
18
100
AcDbSymbolTableRecord
100
AcDbDimStyleTableRecord
  2
STANDARD
 70
               0
  3

  4

  5

  6

  7

 40
1.0
 41
0.18
 42
0.0625
 43
0.38
 44
0.18
 45
0.0
 46
0.0
 47
0.0
 48
0.0
 71
               0
 72
               0
 73
               1
 74
               1
 75
               0
 76
               0
 77
               0
 78
               0
140
0.18
141
0.09
142
0.0
143
25.399999999999999
144
1.0
145
0.0
146
1.0
147
0.09
170
               0
171
               2
172
               0
173
               0
174
               0
175
               0
176
               0
177
               0
178
               0
270
               2
271
               4
272
               4
273
               2
274
               2
275
               0
280
               0
281
               0
282
               0
283
               1
284
               0
285
               0
286
               0
287
               0
288
               0
340
17
  0
ENDTAB
  0
TABLE
  2
BLOCK_RECORD
  5
1
100
AcDbSymbolTable
 70
               3
  0
BLOCK_RECORD
  5
A
100
AcDbSymbolTableRecord
100
AcDbBlockTableRecord
  2
*MODEL_SPACE
  0
BLOCK_RECORD
  5
B
100
AcDbSymbolTableRecord
100
AcDbBlockTableRecord
  2
*PAPER_SPACE
  0
BLOCK_RECORD
  5
1D
100
AcDbSymbolTableRecord
100
AcDbBlockTableRecord
  2
*U0
  0
BLOCK_RECORD
  5
1E
100
AcDbSymbolTableRecord
100
AcDbBlockTableRecord
  2
*U1
  0
BLOCK_RECORD
  5
1F
100
AcDbSymbolTableRecord
100
AcDbBlockTableRecord
  2
*U2
  0
ENDTAB
  0
ENDSEC
  0
SECTION
  2
BLOCKS
  0
BLOCK
  5
D
100
AcDbEntity
  8
0
100
AcDbBlockBegin
  2
*MODEL_SPACE
 70
               0
 10
0.0
 20
0.0
 30
0.0
  3
*MODEL_SPACE
  1

  0
ENDBLK
  5
E
100
AcDbEntity
  8
0
100
AcDbBlockEnd
  0
BLOCK
  5
F
100
AcDbEntity
 67
               1
  8
0
100
AcDbBlockBegin
  2
*PAPER_SPACE
 70
               0
 10
0.0
 20
0.0
 30
0.0
  3
*PAPER_SPACE
  1

  0
ENDBLK
  5
10
100
AcDbEntity
 67
               1
  8
0
100
AcDbBlockEnd
  0
BLOCK
  5
30
100
AcDbEntity
  8
__
100
AcDbBlockBegin
  2
*U0
 70
               1
 10
0.0
 20
0.0
 30
0.0
  3
*U0
  1

  0
SPLINE
  5
31
100
AcDbEntity
  8
0
  6
CONTINUOUS
 62
               7
100
AcDbSpline
210
0.0
220
0.0
230
1.0
 70
               8
 71
               2
 72
              14
 73
              11
 74
               0
 42
0.000001
 43
0.000001
 40
0.0
 40
0.0
 40
0.0
 40
1.0
 40
1.0
 40
2.0
 40
3.0
 40
4.0
 40
5.0
 40
6.0
 40
6.0
 40
7.0
 40
7.0
 40
7.0
 10
43.604949195414804
 20
-36.3929228549339
 30
0.0
 10
43.607306717906724
 20
-36.393714713874758
 30
0.0
 10
43.609664240398644
 20
-36.394506572815615
 30
0.0
 10
43.680381916762627
 20
-36.418357932252661
 30
0.0
 10
44.23007334570093
 20
-36.598168110423359
 30
0.0
 10
45.363355232269271
 20
-36.712858288237371
 30
0.0
 10
46.245609268345106
 20
-36.524785418553563
 30
0.0
 10
46.573231830733505
 20
-36.391033440713954
 30
0.0
 10
46.656061331735373
 20
-36.355679817678777
 30
0.0
 10
46.658824171043477
 20
-36.354506251515787
 30
0.0
 10
46.661587010351582
 20
-36.353332685352797
 30
0.0
  0
LINE
  5
32
100
AcDbEntity
  8
0
  6
CONTINUOUS
 62
               7
100
AcDbLine
 10
46.653988022500016
 20
-36.362258257199997
 30
0.0
 11
47.570019711300006
 21
-35.963627714599994
 31
0.0
  0
LINE
  5
33
100
AcDbEntity
  8
0
  6
CONTINUOUS
 62
               7
100
AcDbLine
 10
61.083762635500022
 20
-2.5329136672000061
 30
0.0
 11
60.438083436999989
 21
-2.2949177364000093
 31
0.0
  0
LINE
  5
34
100
AcDbEntity
  8
0
  6
CONTINUOUS
 62
               7
100
AcDbLine
 10
48.746141009899986
 20
-35.451813683500006
 30
0.0
 11
77.457337416500025
 21
-22.957529980999993
 31
0.0
  0
LINE
  5
35
100
AcDbEntity
  8
0
  6
CONTINUOUS
 62
               7
100
AcDbLine
 10
21.990141461500002
 20
-28.719565736700005
 30
0.0
 11
43.604949195399996
 21
-36.392922854899993
 31
0.0
  0
SPLINE
  5
36
100
AcDbEntity
  8
0
  6
CONTINUOUS
 62
               7
100
AcDbSpline
210
0.0
220
0.0
230
1.0
 70
               8
 71
               2
 72
              14
 73
              11
 74
               0
 42
0.000001
 43
0.000001
 40
0.0
 40
0.0
 40
0.0
 40
1.0
 40
1.0
 40
2.0
 40
3.0
 40
4.0
 40
5.0
 40
6.0
 40
6.0
 40
7.0
 40
7.0
 40
7.0
 10
18.183343830238812
 20
10.763063707031591
 30
0.0
 10
18.180139706491786
 20
10.761386448844704
 30
0.0
 10
18.176935582744761
 20
10.759709190657816
 30
0.0
 10
17.92625289079578
 20
10.637049040444083
 30
0.0
 10
17.249502867061381
 20
10.144695114854244
 30
0.0
 10
16.516825594789907
 20
9.1846222807220101
 30
0.0
 10
16.027616861984569
 20
7.9321890299654569
 30
0.0
 10
15.855718479989832
 20
6.6358196231093416
 30
0.0
 10
15.875033249597607
 20
6.0245214711902406
 30
0.0
 10
15.875057732458302
 20
6.0236810319977678
 30
0.0
 10
15.875082215318997
 20
6.022840592805295
 30
0.0
  0
LINE
  5
37
100
AcDbEntity
  8
0
  6
CONTINUOUS
 62
               7
100
AcDbLine
 10
19.056685728699989
 20
11.218127280200008
 30
0.0
 11
18.175805947700013
 21
10.765300736099988
 31
0.0
  0
LINE
  5
38
100
AcDbEntity
  8
0
  6
CONTINUOUS
 62
               7
100
AcDbLine
 10
58.764867066199997
 20
-23.347755909300005
 30
0.0
 11
59.284430727299991
 21
-23.539265930699997
 31
0.0
  0
LINE
  5
39
100
AcDbEntity
  8
0
  6
CONTINUOUS
 62
               7
100
AcDbLine
 10
47.792509935999988
 20
25.990113477300014
 30
0.0
 11
20.187493625799988
 21
11.799432292599988
 31
0.0
  0
LINE
  5
3A
100
AcDbEntity
  8
0
  6
CONTINUOUS
 62
               7
100
AcDbLine
 10
15.875082215300012
 20
6.0228405928000086
 30
0.0
 11
16.744731857599987
 21
-20.785146701499997
 31
0.0
  0
SPLINE
  5
3B
100
AcDbEntity
  8
0
  6
CONTINUOUS
 62
               7
100
AcDbSpline
210
0.0
220
0.0
230
1.0
 70
               8
 71
               2
 72
              15
 73
              12
 74
               0
 42
0.000001
 43
0.000001
 40
0.0
 40
0.0
 40
0.0
 40
1.0
 40
1.0
 40
2.0
 40
3.0
 40
4.0
 40
5.0
 40
6.0
 40
7.0
 40
7.0
 40
8.0
 40
8.0
 40
8.0
 10
16.744731857570798
 20
-20.7851467015157
 30
0.0
 10
16.744914323517648
 20
-20.7892155585238
 30
0.0
 10
16.745096789464498
 20
-20.7932844155319
 30
0.0
 10
16.774075932103869
 20
-21.603495694888167
 30
0.0
 10
17.186942422454024
 20
-23.410537512383655
 30
0.0
 10
18.054797138788103
 20
-25.289970345186646
 30
0.0
 10
19.269429663746905
 20
-26.924138419833099
 30
0.0
 10
20.578220308707728
 20
-28.03246891533432
 30
0.0
 10
21.580826076805153
 20
-28.568377186809798
 30
0.0
 10
21.979805158292038
 20
-28.715611843552196
 30
0.0
 10
21.984973309875571
 20
-28.717588790149996
 30
0.0
 10
21.990141461459103
 20
-28.719565736747796
 30
0.0
  0
LINE
  5
3C
100
AcDbEntity
  8
0
  6
CONTINUOUS
 62
               7
100
AcDbLine
 10
79.315288795599997
 20
-6.9734792106000043
 30
0.0
 11
80.098219839000024
 21
-6.6024939046999975
 31
0.0
  0
LINE
  5
3D
100
AcDbEntity
  8
0
  6
CONTINUOUS
 62
               7
100
AcDbLine
 10
84.823229561000005
 20
7.7882536113000072
 30
0.0
 11
84.793377331800002
 21
8.1134628791000125
 31
0.0
  0
SPLINE
  5
3E
100
AcDbEntity
  8
0
  6
CONTINUOUS
 62
               7
100
AcDbSpline
210
0.0
220
0.0
230
1.0
 70
               8
 71
               2
 72
              14
 73
              11
 74
               0
 42
0.000001
 43
0.000001
 40
0.0
 40
0.0
 40
0.0
 40
1.0
 40
1.0
 40
2.0
 40
3.0
 40
4.0
 40
5.0
 40
6.0
 40
6.0
 40
7.0
 40
7.0
 40
7.0
 10
46.617497568344561
 20
-5.0659980299972744
 30
0.0
 10
46.614650015803534
 20
-4.9782188271137358
 30
0.0
 10
46.611802463262507
 20
-4.8904396242301971
 30
0.0
 10
46.538336177626036
 20
-3.9674775816693568
 30
0.0
 10
46.069237763052797
 20
-2.3262467486280798
 30
0.0
 10
45.235943619479769
 20
-0.7135863995638374
 30
0.0
 10
44.129043543360353
 20
0.6464518572512361
 30
0.0
 10
42.909547598177511
 20
1.5935135675612173
 30
0.0
 10
42.178563126072902
 20
1.908214658978153
 30
0.0
 10
42.107788301667483
 20
1.9333400502968772
 30
0.0
 10
42.037013477262064
 20
1.9584654416156013
 30
0.0
  0
SPLINE
  5
3F
100
AcDbEntity
  8
0
  6
CONTINUOUS
 62
               7
100
AcDbSpline
210
0.0
220
0.0
230
1.0
 70
               8
 71
               2
 72
              14
 73
              11
 74
               0
 42
0.000001
 43
0.000001
 40
0.0
 40
0.0
 40
0.0
 40
1.0
 40
1.0
 40
2.0
 40
3.0
 40
4.0
 40
5.0
 40
6.0
 40
6.0
 40
7.0
 40
7.0
 40
7.0
 10
48.018051378060818
 20
-5.0106367081672829
 30
0.0
 10
48.014183990598525
 20
-4.8980893736259787
 30
0.0
 10
48.010316603136232
 20
-4.7855420390846746
 30
0.0
 10
47.908020308185087
 20
-3.5950192256514697
 30
0.0
 10
47.411596220035449
 20
-2.0134808009292442
 30
0.0
 10
46.71596064463472
 20
-0.4274668985149788
 30
0.0
 10
45.355370755427487
 20
1.4176816250788136
 30
0.0
 10
43.79494349325924
 20
2.7065175953690073
 30
0.0
 10
42.855382597761661
 20
3.1198768860391795
 30
0.0
 10
42.764767934810436
 20
3.1522237807246398
 30
0.0
 10
42.674153271859211
 20
3.1845706754101002
 30
0.0
  0
SPLINE
  5
40
100
AcDbEntity
  8
0
  6
CONTINUOUS
 62
               7
100
AcDbSpline
210
0.0
220
0.0
230
1.0
 70
               8
 71
               2
 72
              14
 73
              11
 74
               0
 42
0.000001
 43
0.000001
 40
0.0
 40
0.0
 40
0.0
 40
1.0
 40
1.0
 40
2.0
 40
3.0
 40
4.0
 40
5.0
 40
6.0
 40
6.0
 40
7.0
 40
7.0
 40
7.0
 10
48.928154223668685
 20
-4.5721259807968124
 30
0.0
 10
48.924499864574358
 20
-4.45947600376293
 30
0.0
 10
48.920845505480031
 20
-4.3468260267290475
 30
0.0
 10
48.82061451747893
 20
-3.1553080958131261
 30
0.0
 10
48.32582933685012
 20
-1.5729800037115638
 30
0.0
 10
47.63123119045963
 20
0.0135337584186175
 30
0.0
 10
46.270158959250807
 20
1.8584498773528821
 30
0.0
 10
44.707525458489187
 20
3.1462228257060758
 30
0.0
 10
43.765911500046371
 20
3.5585928983668111
 30
0.0
 10
43.675083808726086
 20
3.5908371505591674
 30
0.0
 10
43.584256117405801
 20
3.6230814027515237
 30
0.0
  0
SPLINE
  5
41
100
AcDbEntity
  8
0
  6
CONTINUOUS
 62
               7
100
AcDbSpline
210
0.0
220
0.0
230
1.0
 70
               8
 71
               2
 72
              16
 73
              13
 74
               0
 42
0.000001
 43
0.000001
 40
0.0
 40
0.0
 40
0.0
 40
1.0
 40
1.0
 40
2.0
 40
3.0
 40
4.0
 40
5.0
 40
6.0
 40
7.0
 40
8.0
 40
8.0
 40
9.0
 40
9.0
 40
9.0
 10
43.260989335603114
 20
-35.772050002676679
 30
0.0
 10
43.331764160002933
 20
-35.797175393998053
 30
0.0
 10
43.402538984402753
 20
-35.822300785319428
 30
0.0
 10
43.836913571431666
 20
-35.942365981266477
 30
0.0
 10
44.731680635000401
 20
-36.040755351122272
 30
0.0
 10
45.868181349793986
 20
-35.695202718906188
 30
0.0
 10
46.548443565562991
 20
-35.069740177540041
 30
0.0
 10
47.105463869724929
 20
-34.279489430935882
 30
0.0
 10
47.386267732341366
 20
-33.278085704498821
 30
0.0
 10
47.482516995583978
 20
-32.579785036633595
 30
0.0
 10
47.492842315346138
 20
-32.049543730265682
 30
0.0
 10
47.489994762801416
 20
-31.961764527383885
 30
0.0
 10
47.487147210256694
 20
-31.873985324502087
 30
0.0
  0
LINE
  5
42
100
AcDbEntity
  8
0
  6
CONTINUOUS
 62
               7
100
AcDbLine
 10
21.64618160149999
 20
-28.098692884499997
 30
0.0
 11
43.2609893355
 21
-35.772050002699999
 31
0.0
  0
SPLINE
  5
43
100
AcDbEntity
  8
0
  6
CONTINUOUS
 62
               7
100
AcDbSpline
210
0.0
220
0.0
230
1.0
 70
               8
 71
               2
 72
              14
 73
              11
 74
               0
 42
0.000001
 43
0.000001
 40
0.0
 40
0.0
 40
0.0
 40
1.0
 40
1.0
 40
2.0
 40
3.0
 40
4.0
 40
5.0
 40
6.0
 40
6.0
 40
7.0
 40
7.0
 40
7.0
 10
17.065697510355392
 20
-21.074229412902653
 30
0.0
 10
17.068545062896419
 20
-21.162008615786199
 30
0.0
 10
17.071392615437446
 20
-21.249787818669745
 30
0.0
 10
17.14485890107386
 20
-22.172749861230528
 30
0.0
 10
17.613957315647099
 20
-23.813980694271862
 30
0.0
 10
18.447251459220126
 20
-25.426641043336033
 30
0.0
 10
19.554151535339429
 20
-26.786679300151064
 30
0.0
 10
20.773647480522357
 20
-27.733741010461131
 30
0.0
 10
21.504631952626966
 20
-28.048442101878123
 30
0.0
 10
21.575406777032384
 20
-28.073567493196848
 30
0.0
 10
21.646181601437803
 20
-28.098692884515572
 30
0.0
  0
LINE
  5
44
100
AcDbEntity
  8
0
  6
CONTINUOUS
 62
               7
100
AcDbLine
 10
16.196047868300013
 20
5.7337578814999972
 30
0.0
 11
17.065697510500001
 21
-21.074229412899996
 31
0.0
  0
SPLINE
  5
45
100
AcDbEntity
  8
0
  6
CONTINUOUS
 62
               7
100
AcDbSpline
210
0.0
220
0.0
230
1.0
 70
               8
 71
               2
 72
              16
 73
              13
 74
               0
 42
0.000001
 43
0.000001
 40
0.0
 40
0.0
 40
0.0
 40
1.0
 40
1.0
 40
2.0
 40
3.0
 40
4.0
 40
5.0
 40
6.0
 40
7.0
 40
8.0
 40
8.0
 40
9.0
 40
9.0
 40
9.0
 10
20.422205743096896
 20
9.6318225596766922
 30
0.0
 10
20.351430918697076
 20
9.6569479509980738
 30
0.0
 10
20.280656094297257
 20
9.6820733423194554
 30
0.0
 10
19.846281507268429
 20
9.8021385382664903
 30
0.0
 10
18.951514443699494
 20
9.9005279081222
 30
0.0
 10
17.815013728906081
 20
9.5549752759062585
 30
0.0
 10
17.134751513137076
 20
8.9295127345401113
 30
0.0
 10
16.57773120897491
 20
8.1392619879358961
 30
0.0
 10
16.296927346358643
 20
7.1378582614989057
 30
0.0
 10
16.200678083116003
 20
6.4395575936335945
 30
0.0
 10
16.190352763353815
 20
5.9093162872657103
 30
0.0
 10
16.193200315898522
 20
5.8215370843839196
 30
0.0
 10
16.19604786844323
 20
5.7337578815021288
 30
0.0
  0
LINE
  5
46
100
AcDbEntity
  8
0
  6
CONTINUOUS
 62
               7
100
AcDbLine
 10
42.037013477199991
 20
1.9584654415999978
 30
0.0
 11
20.42220574320001
 21
9.631822559800014
 31
0.0
  0
LINE
  5
47
100
AcDbEntity
  8
0
  6
CONTINUOUS
 62
               7
100
AcDbLine
 10
47.487147210499984
 20
-31.873985324399996
 30
0.0
 11
46.617497568200008
 21
-5.0659980300000029
 31
0.0
  0
SPLINE
  5
48
100
AcDbEntity
  8
0
  6
CONTINUOUS
 62
               7
100
AcDbSpline
210
0.0
220
0.0
230
1.0
 70
               8
 71
               2
 72
              14
 73
              11
 74
               0
 42
0.000001
 43
0.000001
 40
0.0
 40
0.0
 40
0.0
 40
1.0
 40
1.0
 40
2.0
 40
3.0
 40
4.0
 40
5.0
 40
6.0
 40
6.0
 40
7.0
 40
7.0
 40
7.0
 10
78.770934678468677
 20
9.8068856082031743
 30
0.0
 10
78.76728031937435
 20
9.9195355852370568
 30
0.0
 10
78.763625960280024
 20
10.032185562270939
 30
0.0
 10
78.663394972278866
 20
11.223703493186775
 30
0.0
 10
78.168609791650169
 20
12.80603158528848
 30
0.0
 10
77.474011645259452
 20
14.392545347418604
 30
0.0
 10
76.112939414050743
 20
16.237461466353011
 30
0.0
 10
74.550305913289321
 20
17.525234414706063
 30
0.0
 10
73.608691954846336
 20
17.937604487366826
 30
0.0
 10
73.517864263526064
 20
17.969848739559183
 30
0.0
 10
73.427036572205793
 20
18.002092991751539
 30
0.0
  0
SPLINE
  5
49
100
AcDbEntity
  8
0
  6
CONTINUOUS
 62
               7
100
AcDbSpline
210
0.0
220
0.0
230
1.0
 70
               8
 71
               2
 72
              14
 73
              11
 74
               0
 42
0.000001
 43
0.000001
 40
0.0
 40
0.0
 40
0.0
 40
1.0
 40
1.0
 40
2.0
 40
3.0
 40
4.0
 40
5.0
 40
6.0
 40
6.0
 40
7.0
 40
7.0
 40
7.0
 10
50.102522898968687
 20
-4.0062852469968107
 30
0.0
 10
50.09886853987436
 20
-3.8936352699629282
 30
0.0
 10
50.095214180780033
 20
-3.7809852929290457
 30
0.0
 10
49.994983192778932
 20
-2.5894673620131243
 30
0.0
 10
49.500198012150122
 20
-1.007139269911562
 30
0.0
 10
48.805599865759575
 20
0.5793744922186761
 30
0.0
 10
47.444527634550866
 20
2.4242906111529976
 30
0.0
 10
45.881894133789217
 20
3.7120635595060492
 30
0.0
 10
44.940280175346402
 20
4.1244336321668129
 30
0.0
 10
44.849452484026116
 20
4.1566778843591692
 30
0.0
 10
44.758624792705831
 20
4.1889221365515255
 30
0.0
  0
SPLINE
  5
4A
100
AcDbEntity
  8
0
  6
CONTINUOUS
 62
               7
100
AcDbSpline
210
0.0
220
0.0
230
1.0
 70
               8
 71
               2
 72
              14
 73
              11
 74
               0
 42
0.000001
 43
0.000001
 40
0.0
 40
0.0
 40
0.0
 40
1.0
 40
1.0
 40
2.0
 40
3.0
 40
4.0
 40
5.0
 40
6.0
 40
6.0
 40
7.0
 40
7.0
 40
7.0
 10
49.331531916144627
 20
-3.7799756257973058
 30
0.0
 10
49.3286843636036
 20
-3.6921964229137672
 30
0.0
 10
49.325836811062572
 20
-3.6044172200302285
 30
0.0
 10
49.252370525426102
 20
-2.6814551774693598
 30
0.0
 10
48.78327211085292
 20
-1.0402243444281112
 30
0.0
 10
47.949977967279779
 20
0.5724360046361596
 30
0.0
 10
46.843077891160362
 20
1.9324742614511479
 30
0.0
 10
45.623581945977605
 20
2.8795359717612143
 30
0.0
 10
44.892597473872911
 20
3.19423706317815
 30
0.0
 10
44.821822649467492
 20
3.2193624544968742
 30
0.0
 10
44.751047825062074
 20
3.2444878458155983
 30
0.0
  0
LINE
  5
4B
100
AcDbEntity
  8
0
  6
CONTINUOUS
 62
               7
100
AcDbLine
 10
44.751047825000001
 20
3.2444878457999948
 30
0.0
 11
23.136240090999991
 21
10.917844964000011
 31
0.0
  0
SPLINE
  5
4C
100
AcDbEntity
  8
0
  6
CONTINUOUS
 62
               7
100
AcDbSpline
210
0.0
220
0.0
230
1.0
 70
               8
 71
               2
 72
              10
 73
               7
 74
               0
 42
0.000001
 43
0.000001
 40
0.0
 40
0.0
 40
0.0
 40
1.0
 40
1.0
 40
2.0
 40
2.0
 40
3.0
 40
3.0
 40
3.0
 10
23.13624009089682
 20
10.917844963876689
 30
0.0
 10
23.133897798403453
 20
10.918676488588815
 30
0.0
 10
23.131555505910086
 20
10.919508013300941
 30
0.0
 10
22.882908518400825
 20
11.007112567050058
 30
0.0
 10
22.636949815590185
 20
11.060131007443715
 30
0.0
 10
22.634633863431247
 20
11.06062388381163
 30
0.0
 10
22.63231791127231
 20
11.061116760179544
 30
0.0
  0
SPLINE
  5
4D
100
AcDbEntity
  8
0
  6
CONTINUOUS
 62
               7
100
AcDbSpline
210
0.0
220
0.0
230
1.0
 70
               8
 71
               2
 72
              12
 73
               9
 74
               0
 42
0.000001
 43
0.000001
 40
0.0
 40
0.0
 40
0.0
 40
1.0
 40
1.0
 40
2.0
 40
3.0
 40
4.0
 40
4.0
 40
5.0
 40
5.0
 40
5.0
 10
49.62558631473911
 20
-33.245367111547964
 30
0.0
 10
49.635622078803806
 20
-33.227893800567813
 30
0.0
 10
49.645657842868502
 20
-33.210420489587662
 30
0.0
 10
49.821544531028223
 20
-32.887893578340069
 30
0.0
 10
50.049172930844406
 20
-32.220641545974971
 30
0.0
 10
50.214556779969712
 20
-31.291447768221502
 30
0.0
 10
50.202810074138085
 20
-30.638163870405648
 30
0.0
 10
50.201995816097423
 20
-30.613063395303833
 30
0.0
 10
50.20118155805676
 20
-30.587962920202017
 30
0.0
  0
LINE
  5
4E
100
AcDbEntity
  8
0
  6
CONTINUOUS
 62
               7
100
AcDbLine
 10
50.201181558299993
 20
-30.587962920199999
 30
0.0
 11
49.331531916000017
 21
-3.7799756258000059
 31
0.0
  0
LINE
  5
4F
100
AcDbEntity
  8
0
  6
CONTINUOUS
 62
               7
100
AcDbLine
 10
23.066497896800001
 20
11.889727916200002
 30
0.0
 11
44.758624792599988
 21
4.1889221364999969
 31
0.0
  0
LINE
  5
50
100
AcDbEntity
  8
0
  6
CONTINUOUS
 62
               7
100
AcDbLine
 10
50.102522898799975
 20
-4.0062852469999939
 30
0.0
 11
50.975283398300007
 21
-30.910168425999998
 31
0.0
  0
SPLINE
  5
51
100
AcDbEntity
  8
0
  6
CONTINUOUS
 62
               7
100
AcDbSpline
210
0.0
220
0.0
230
1.0
 70
               8
 71
               2
 72
              15
 73
              12
 74
               0
 42
0.000001
 43
0.000001
 40
0.0
 40
0.0
 40
0.0
 40
1.0
 40
1.0
 40
2.0
 40
3.0
 40
4.0
 40
5.0
 40
6.0
 40
7.0
 40
7.0
 40
8.0
 40
8.0
 40
8.0
 10
48.129969340406831
 20
-35.646199631396598
 30
0.0
 10
48.182074516079581
 20
-35.635507517078494
 30
0.0
 10
48.234179691752331
 20
-35.62481540276039
 30
0.0
 10
48.751900541060309
 20
-35.483212441332981
 30
0.0
 10
49.511615033967985
 20
-35.016824776014801
 30
0.0
 10
50.149693747402353
 20
-34.313316908992263
 30
0.0
 10
50.623229281286513
 20
-33.403510528512527
 30
0.0
 10
50.907725000548453
 20
-32.342647294208817
 30
0.0
 10
50.978219543088358
 20
-31.487146359577707
 30
0.0
 10
50.979963941872882
 20
-31.054451770484135
 30
0.0
 10
50.977623669969518
 20
-30.982310098301589
 30
0.0
 10
50.975283398066153
 20
-30.910168426119043
 30
0.0
  0
SPLINE
  5
52
100
AcDbEntity
  8
0
  6
CONTINUOUS
 62
               7
100
AcDbSpline
210
0.0
220
0.0
230
1.0
 70
               8
 71
               2
 72
              13
 73
              10
 74
               0
 42
0.000001
 43
0.000001
 40
0.0
 40
0.0
 40
0.0
 40
1.0
 40
1.0
 40
2.0
 40
3.0
 40
4.0
 40
5.0
 40
5.0
 40
6.0
 40
6.0
 40
6.0
 10
23.066497896663009
 20
11.889727916156176
 30
0.0
 10
23.033261156298792
 20
11.901527113328044
 30
0.0
 10
23.000024415934575
 20
11.913326310499912
 30
0.0
 10
22.66614607907826
 20
12.021377194288391
 30
0.0
 10
21.859590604354054
 20
12.177746703977931
 30
0.0
 10
20.832303885563817
 20
12.084492218412777
 30
0.0
 10
20.039556976931976
 20
11.743110537738318
 30
0.0
 10
19.69860921981865
 20
11.487397100622019
 30
0.0
 10
19.675002761453385
 20
11.468264327609617
 30
0.0
 10
19.65139630308812
 20
11.449131554597216
 30
0.0
  0
LINE
  5
53
100
AcDbEntity
  8
0
  6
CONTINUOUS
 62
               7
100
AcDbLine
 10
48.018051377999996
 20
-5.0106367081999963
 30
0.0
 11
48.887701020300028
 21
-31.818624002500002
 31
0.0
  0
LINE
  5
54
100
AcDbEntity
  8
0
  6
CONTINUOUS
 62
               7
100
AcDbLine
 10
48.928154223499973
 20
-4.5721259809000117
 30
0.0
 11
49.799162099800014
 21
-31.421982457200002
 31
0.0
  0
LINE
  5
55
100
AcDbEntity
  8
0
  6
CONTINUOUS
 62
               7
100
AcDbLine
 10
21.059345537899986
 20
10.857927793599998
 30
0.0
 11
42.674153271800009
 21
3.1845706754000105
 31
0.0
  0
LINE
  5
56
100
AcDbEntity
  8
0
  6
CONTINUOUS
 62
               7
100
AcDbLine
 10
79.686479804899989
 20
-18.415884723599987
 30
0.0
 11
78.770934678300023
 21
9.8068856081000035
 31
0.0
  0
POLYLINE
  5
57
100
AcDbEntity
  8
0
  6
CONTINUOUS
 62
               7
100
AcDb2dPolyline
 66
               1
 10
0.0
 20
0.0
 30
0.0
 75
               5
  0
VERTEX
  5
58
100
AcDbEntity
  8
0
  6
CONTINUOUS
 62
               7
100
AcDbVertex
100
AcDb2dVertex
 10
60.881305266399977
 20
-2.091708992000008
 30
0.0
  0
VERTEX
  5
59
100
AcDbEntity
  8
0
  6
CONTINUOUS
 62
               7
100
AcDbVertex
100
AcDb2dVertex
 10
61.016722122700003
 20
-2.0473752183000045
 30
0.0
  0
VERTEX
  5
5A
100
AcDbEntity
  8
0
  6
CONTINUOUS
 62
               7
100
AcDbVertex
100
AcDb2dVertex
 10
61.148069871199993
 20
-2.0397293809000132
 30
0.0
  0
VERTEX
  5
5B
100
AcDbEntity
  8
0
  6
CONTINUOUS
 62
               7
100
AcDbVertex
100
AcDb2dVertex
 10
61.270300891500028
 20
-2.069065305099997
 30
0.0
  0
VERTEX
  5
5C
100
AcDbEntity
  8
0
  6
CONTINUOUS
 62
               7
100
AcDbVertex
100
AcDb2dVertex
 10
61.37871791409998
 20
-2.1342556275999982
 30
0.0
  0
VERTEX
  5
5D
100
AcDbEntity
  8
0
  6
CONTINUOUS
 62
               7
100
AcDbVertex
100
AcDb2dVertex
 10
61.469154533599976
 20
-2.2327951210000094
 30
0.0
  0
VERTEX
  5
5E
100
AcDbEntity
  8
0
  6
CONTINUOUS
 62
               7
100
AcDbVertex
100
AcDb2dVertex
 10
61.538135321399977
 20
-2.360896967799988
 30
0.0
  0
VERTEX
  5
5F
100
AcDbEntity
  8
0
  6
CONTINUOUS
 62
               7
100
AcDbVertex
100
AcDb2dVertex
 10
61.583009384499974
 20
-2.5136382858999866
 30
0.0
  0
VERTEX
  5
60
100
AcDbEntity
  8
0
  6
CONTINUOUS
 62
               7
100
AcDbVertex
100
AcDb2dVertex
 10
61.602052237900011
 20
-2.685149311999993
 30
0.0
  0
SEQEND
  5
61
100
AcDbEntity
  8
0
  6
CONTINUOUS
 62
               7
  0
LINE
  5
62
100
AcDbEntity
  8
0
  6
CONTINUOUS
 62
               7
100
AcDbLine
 10
60.881305266399977
 20
-2.091708992000008
 30
0.0
 11
58.807659399099975
 21
-3.0424360209999861
 31
0.0
  0
ARC
  5
63
100
AcDbEntity
  8
0
  6
CONTINUOUS
 62
               7
100
AcDbCircle
 10
59.499009402800027
 20
-4.2071859611000093
 30
0.0
 40
1.3544767441280929
100
AcDbArc
 50
120.69171060520007
 51
182.64510999720056
  0
LINE
  5
64
100
AcDbEntity
  8
0
  6
CONTINUOUS
 62
               7
100
AcDbLine
 10
58.145975792499996
 20
-4.2696943605000115
 30
0.0
 11
58.766141124800015
 21
-23.387030285799995
 31
0.0
  0
POLYLINE
  5
65
100
AcDbEntity
  8
0
  6
CONTINUOUS
 62
               7
100
AcDb2dPolyline
 66
               1
 10
0.0
 20
0.0
 30
0.0
 75
               5
  0
VERTEX
  5
66
100
AcDbEntity
  8
0
  6
CONTINUOUS
 62
               7
100
AcDbVertex
100
AcDb2dVertex
 10
59.48688809639998
 20
-23.980470605899995
 30
0.0
  0
VERTEX
  5
67
100
AcDbEntity
  8
0
  6
CONTINUOUS
 62
               7
100
AcDbVertex
100
AcDb2dVertex
 10
59.351471240100011
 20
-24.024804379499997
 30
0.0
  0
VERTEX
  5
68
100
AcDbEntity
  8
0
  6
CONTINUOUS
 62
               7
100
AcDbVertex
100
AcDb2dVertex
 10
59.22012349160002
 20
-24.032450216900003
 30
0.0
  0
VERTEX
  5
69
100
AcDbEntity
  8
0
  6
CONTINUOUS
 62
               7
100
AcDbVertex
100
AcDb2dVertex
 10
59.097892471299986
 20
-24.003114292800007
 30
0.0
  0
VERTEX
  5
6A
100
AcDbEntity
  8
0
  6
CONTINUOUS
 62
               7
100
AcDbVertex
100
AcDb2dVertex
 10
58.989475448699977
 20
-23.937923970200004
 30
0.0
  0
VERTEX
  5
6B
100
AcDbEntity
  8
0
  6
CONTINUOUS
 62
               7
100
AcDbVertex
100
AcDb2dVertex
 10
58.899038829199981
 20
-23.839384476800006
 30
0.0
  0
VERTEX
  5
6C
100
AcDbEntity
  8
0
  6
CONTINUOUS
 62
               7
100
AcDbVertex
100
AcDb2dVertex
 10
58.83005804139998
 20
-23.711282629999999
 30
0.0
  0
VERTEX
  5
6D
100
AcDbEntity
  8
0
  6
CONTINUOUS
 62
               7
100
AcDbVertex
100
AcDb2dVertex
 10
58.785183978199996
 20
-23.558541311900001
 30
0.0
  0
VERTEX
  5
6E
100
AcDbEntity
  8
0
  6
CONTINUOUS
 62
               7
100
AcDbVertex
100
AcDb2dVertex
 10
58.766141124800015
 20
-23.387030285799995
 30
0.0
  0
SEQEND
  5
6F
100
AcDbEntity
  8
0
  6
CONTINUOUS
 62
               7
  0
LINE
  5
70
100
AcDbEntity
  8
0
  6
CONTINUOUS
 62
               7
100
AcDbLine
 10
59.48688809639998
 20
-23.980470605899995
 30
0.0
 11
61.560533963599994
 21
-23.029743576800001
 31
0.0
  0
ARC
  5
71
100
AcDbEntity
  8
0
  6
CONTINUOUS
 62
               7
100
AcDbCircle
 10
60.869183959999987
 20
-21.864993636700007
 30
0.0
 40
1.3544767441280807
100
AcDbArc
 50
300.6917106052004
 51
2.6451099971999952
  0
LINE
  5
72
100
AcDbEntity
  8
0
  6
CONTINUOUS
 62
               7
100
AcDbLine
 10
62.222217570199973
 20
-21.802485237300004
 30
0.0
 11
61.602052237900011
 21
-2.685149311999993
 31
0.0
  0
LINE
  5
73
100
AcDbEntity
  8
0
  6
CONTINUOUS
 62
               7
100
AcDbLine
 10
21.93568999979999
 20
11.308422903799993
 30
0.0
 11
43.584256117299986
 21
3.6230814026999951
 31
0.0
  0
LINE
  5
74
100
AcDbEntity
  8
0
  6
CONTINUOUS
 62
               7
100
AcDbLine
 10
50.671514207100017
 20
26.080409100999987
 30
0.0
 11
73.427036572100008
 21
18.00209299170001
 31
0.0
  0
ARC
  5
75
100
AcDbEntity
  8
0
  6
CONTINUOUS
 62
               7
100
AcDbCircle
 10
61.200093120600002
 20
-21.992193941899998
 30
0.0
 40
0.6772383720640465
100
AcDbArc
 50
300.69171060520006
 51
2.6451099971994836
  0
LINE
  5
76
100
AcDbEntity
  8
0
  6
CONTINUOUS
 62
               7
100
AcDbLine
 10
59.472122255099976
 20
-23.525295940999996
 30
0.0
 11
61.545768122399977
 21
-22.574568911900002
 31
0.0
  0
POLYLINE
  5
77
100
AcDbEntity
  8
0
  6
CONTINUOUS
 62
               7
100
AcDb2dPolyline
 66
               1
 10
0.0
 20
0.0
 30
0.0
 75
               5
  0
VERTEX
  5
78
100
AcDbEntity
  8
0
  6
CONTINUOUS
 62
               7
100
AcDbVertex
100
AcDb2dVertex
 10
59.111748769399981
 20
-23.228575781000004
 30
0.0
  0
VERTEX
  5
79
100
AcDbEntity
  8
0
  6
CONTINUOUS
 62
               7
100
AcDbVertex
100
AcDb2dVertex
 10
59.121270196099999
 20
-23.314331293999999
 30
0.0
  0
VERTEX
  5
7A
100
AcDbEntity
  8
0
  6
CONTINUOUS
 62
               7
100
AcDbVertex
100
AcDb2dVertex
 10
59.143707227599975
 20
-23.390701953100006
 30
0.0
  0
VERTEX
  5
7B
100
AcDbEntity
  8
0
  6
CONTINUOUS
 62
               7
100
AcDbVertex
100
AcDb2dVertex
 10
59.178197621499976
 20
-23.454752876499995
 30
0.0
  0
VERTEX
  5
7C
100
AcDbEntity
  8
0
  6
CONTINUOUS
 62
               7
100
AcDbVertex
100
AcDb2dVertex
 10
59.223415931299996
 20
-23.504022623200001
 30
0.0
  0
VERTEX
  5
7D
100
AcDbEntity
  8
0
  6
CONTINUOUS
 62
               7
100
AcDbVertex
100
AcDb2dVertex
 10
59.277624442599972
 20
-23.536617784399994
 30
0.0
  0
VERTEX
  5
7E
100
AcDbEntity
  8
0
  6
CONTINUOUS
 62
               7
100
AcDbVertex
100
AcDb2dVertex
 10
59.338739952699996
 20
-23.5512857465
 30
0.0
  0
VERTEX
  5
7F
100
AcDbEntity
  8
0
  6
CONTINUOUS
 62
               7
100
AcDbVertex
100
AcDb2dVertex
 10
59.404413826999985
 20
-23.547462827800004
 30
0.0
  0
VERTEX
  5
80
100
AcDbEntity
  8
0
  6
CONTINUOUS
 62
               7
100
AcDbVertex
100
AcDb2dVertex
 10
59.472122255099976
 20
-23.525295940999996
 30
0.0
  0
SEQEND
  5
81
100
AcDbEntity
  8
0
  6
CONTINUOUS
 62
               7
  0
LINE
  5
82
100
AcDbEntity
  8
0
  6
CONTINUOUS
 62
               7
100
AcDbLine
 10
58.491583437100019
 20
-4.1112398557000063
 30
0.0
 11
59.111748769399981
 21
-23.228575781000004
 31
0.0
  0
ARC
  5
83
100
AcDbEntity
  8
0
  6
CONTINUOUS
 62
               7
100
AcDbCircle
 10
59.168100242200012
 20
-4.079985655999991
 30
0.0
 40
0.6772383720637151
100
AcDbArc
 50
120.69171060519996
 51
182.6451099972993
  0
LINE
  5
84
100
AcDbEntity
  8
0
  6
CONTINUOUS
 62
               7
100
AcDbLine
 10
60.896071107599994
 20
-2.5468836567999915
 30
0.0
 11
58.82242524039998
 21
-3.497610685900014
 31
0.0
  0
POLYLINE
  5
85
100
AcDbEntity
  8
0
  6
CONTINUOUS
 62
               7
100
AcDb2dPolyline
 66
               1
 10
0.0
 20
0.0
 30
0.0
 75
               5
  0
VERTEX
  5
86
100
AcDbEntity
  8
0
  6
CONTINUOUS
 62
               7
100
AcDbVertex
100
AcDb2dVertex
 10
61.256444593399976
 20
-2.8436038169000142
 30
0.0
  0
VERTEX
  5
87
100
AcDbEntity
  8
0
  6
CONTINUOUS
 62
               7
100
AcDbVertex
100
AcDb2dVertex
 10
61.246923166700014
 20
-2.7578483037999888
 30
0.0
  0
VERTEX
  5
88
100
AcDbEntity
  8
0
  6
CONTINUOUS
 62
               7
100
AcDbVertex
100
AcDb2dVertex
 10
61.224486135099994
 20
-2.6814776447999975
 30
0.0
  0
VERTEX
  5
89
100
AcDbEntity
  8
0
  6
CONTINUOUS
 62
               7
100
AcDbVertex
100
AcDb2dVertex
 10
61.189995741199994
 20
-2.617426721399994
 30
0.0
  0
VERTEX
  5
8A
100
AcDbEntity
  8
0
  6
CONTINUOUS
 62
               7
100
AcDbVertex
100
AcDb2dVertex
 10
61.144777431500017
 20
-2.5681569747000026
 30
0.0
  0
VERTEX
  5
8B
100
AcDbEntity
  8
0
  6
CONTINUOUS
 62
               7
100
AcDbVertex
100
AcDb2dVertex
 10
61.090568920199985
 20
-2.535561813399994
 30
0.0
  0
VERTEX
  5
8C
100
AcDbEntity
  8
0
  6
CONTINUOUS
 62
               7
100
AcDbVertex
100
AcDb2dVertex
 10
61.029453409999974
 20
-2.5208938513000021
 30
0.0
  0
VERTEX
  5
8D
100
AcDbEntity
  8
0
  6
CONTINUOUS
 62
               7
100
AcDbVertex
100
AcDb2dVertex
 10
60.963779535799972
 20
-2.5247167699999977
 30
0.0
  0
VERTEX
  5
8E
100
AcDbEntity
  8
0
  6
CONTINUOUS
 62
               7
100
AcDbVertex
100
AcDb2dVertex
 10
60.896071107599994
 20
-2.5468836567999915
 30
0.0
  0
SEQEND
  5
8F
100
AcDbEntity
  8
0
  6
CONTINUOUS
 62
               7
  0
LINE
  5
90
100
AcDbEntity
  8
0
  6
CONTINUOUS
 62
               7
100
AcDbLine
 10
61.876609925699995
 20
-21.960939742199997
 30
0.0
 11
61.256444593399976
 21
-2.8436038169000142
 31
0.0
  0
SPLINE
  5
91
100
AcDbEntity
  8
0
  6
CONTINUOUS
 62
               7
100
AcDbSpline
210
0.0
220
0.0
230
1.0
 70
               8
 71
               2
 72
              14
 73
              11
 74
               0
 42
0.000001
 43
0.000001
 40
0.0
 40
0.0
 40
0.0
 40
1.0
 40
1.0
 40
2.0
 40
3.0
 40
4.0
 40
5.0
 40
6.0
 40
6.0
 40
7.0
 40
7.0
 40
7.0
 10
47.570019711318992
 20
-35.96362771465968
 30
0.0
 10
47.609463405300318
 20
-35.946462957890454
 30
0.0
 10
47.648907099281644
 20
-35.929298201121227
 30
0.0
 10
48.1959216065286
 20
-35.655449496600028
 30
0.0
 10
48.849654188618217
 20
-34.976033987892649
 30
0.0
 10
49.272784063254107
 20
-34.291058357132641
 30
0.0
 10
49.57972884180009
 20
-33.487855658480129
 30
0.0
 10
49.805731610733631
 20
-32.372105584850416
 30
0.0
 10
49.803008159085778
 20
-31.540541828413964
 30
0.0
 10
49.801085129325998
 20
-31.481262142866505
 30
0.0
 10
49.799162099566217
 20
-31.421982457319046
 30
0.0
  0
SPLINE
  5
92
100
AcDbEntity
  8
0
  6
CONTINUOUS
 62
               7
100
AcDbSpline
210
0.0
220
0.0
230
1.0
 70
               8
 71
               2
 72
              14
 73
              11
 74
               0
 42
0.000001
 43
0.000001
 40
0.0
 40
0.0
 40
0.0
 40
1.0
 40
1.0
 40
2.0
 40
3.0
 40
4.0
 40
5.0
 40
6.0
 40
6.0
 40
7.0
 40
7.0
 40
7.0
 10
77.457337416419421
 20
-22.957529980959535
 30
0.0
 10
77.496781110400718
 20
-22.940365224190309
 30
0.0
 10
77.536224804382016
 20
-22.923200467421083
 30
0.0
 10
78.083239311628972
 20
-22.649351762899812
 30
0.0
 10
78.736971893718419
 20
-21.969936254192447
 30
0.0
 10
79.160101768354252
 20
-21.284960623432482
 30
0.0
 10
79.467046546900178
 20
-20.48175792477997
 30
0.0
 10
79.693049315833719
 20
-19.366007851150329
 30
0.0
 10
79.690325864185809
 20
-18.53444409471399
 30
0.0
 10
79.688402834426029
 20
-18.475164409166538
 30
0.0
 10
79.686479804666249
 20
-18.415884723619087
 30
0.0
  0
SPLINE
  5
93
100
AcDbEntity
  8
0
  6
CONTINUOUS
 62
               7
100
AcDbSpline
210
0.0
220
0.0
230
1.0
 70
               8
 71
               2
 72
              13
 73
              10
 74
               0
 42
0.000001
 43
0.000001
 40
0.0
 40
0.0
 40
0.0
 40
1.0
 40
1.0
 40
2.0
 40
3.0
 40
4.0
 40
5.0
 40
5.0
 40
6.0
 40
6.0
 40
6.0
 10
21.935689999562925
 20
11.308422903756167
 30
0.0
 10
21.910242560169948
 20
11.317456862911811
 30
0.0
 10
21.884795120776971
 20
11.326490822067456
 30
0.0
 10
21.527221615775886
 20
11.44487488553105
 30
0.0
 10
20.81207076778702
 20
11.574914972348381
 30
0.0
 10
20.024015061773071
 20
11.550011618094572
 30
0.0
 10
19.387883752236149
 20
11.377628515146682
 30
0.0
 10
19.097423729401839
 20
11.239069125431342
 30
0.0
 10
19.077054729041748
 20
11.228598202794828
 30
0.0
 10
19.056685728681657
 20
11.218127280158313
 30
0.0
  0
SPLINE
  5
94
100
AcDbEntity
  8
0
  6
CONTINUOUS
 62
               7
100
AcDbSpline
210
0.0
220
0.0
230
1.0
 70
               8
 71
               2
 72
              13
 73
              10
 74
               0
 42
0.000001
 43
0.000001
 40
0.0
 40
0.0
 40
0.0
 40
1.0
 40
1.0
 40
2.0
 40
3.0
 40
4.0
 40
5.0
 40
5.0
 40
6.0
 40
6.0
 40
6.0
 10
50.67151420686298
 20
26.08040910095616
 30
0.0
 10
50.646066767470018
 20
26.08944306011179
 30
0.0
 10
50.620619328077055
 20
26.09847701926742
 30
0.0
 10
50.263045823076254
 20
26.216861082730986
 30
0.0
 10
49.547894975087274
 20
26.346901169548289
 30
0.0
 10
48.759839269073609
 20
26.32199781529448
 30
0.0
 10
48.12370795953683
 20
26.149614712346903
 30
0.0
 10
47.833247936702548
 20
26.01105532263162
 30
0.0
 10
47.812878936342457
 20
26.00058439999512
 30
0.0
 10
47.792509935982366
 20
25.990113477358619
 30
0.0
  0
ARC
  5
95
100
AcDbEntity
  8
0
  6
CONTINUOUS
 62
               7
100
AcDbCircle
 10
78.664203415899976
 20
6.7550142299000129
 30
0.0
 40
1.3267194301158247
100
AcDbArc
 50
1.3169609526996644
 51
64.897851305599332
  0
LINE
  5
96
100
AcDbEntity
  8
0
  6
CONTINUOUS
 62
               7
100
AcDbLine
 10
79.990572392399997
 20
6.7855065951999904
 30
0.0
 11
80.404015947300024
 21
-5.9593840217000036
 31
0.0
  0
LINE
  5
97
100
AcDbEntity
  8
0
  6
CONTINUOUS
 62
               7
100
AcDbLine
 10
78.82634887879999
 20
8.0986767942000029
 30
0.0
 11
79.227042087899974
 21
7.9564288443000066
 31
0.0
  0
ARC
  5
98
100
AcDbEntity
  8
0
  6
CONTINUOUS
 62
               7
100
AcDbCircle
 10
79.774422111700005
 20
-6.0542720768000038
 30
0.0
 40
0.6367041234235674
100
AcDbArc
 50
300.56748700609745
 51
8.570721437701593
  0
SPLINE
  5
99
100
AcDbEntity
  8
0
  6
CONTINUOUS
 62
               7
100
AcDbSpline
210
0.0
220
0.0
230
1.0
 70
               8
 71
               2
 72
              10
 73
               7
 74
               0
 42
0.000001
 43
0.000001
 40
0.0
 40
0.0
 40
0.0
 40
1.0
 40
1.0
 40
2.0
 40
2.0
 40
3.0
 40
3.0
 40
3.0
 10
83.976123956573304
 20
9.8436321482049038
 30
0.0
 10
83.976470889087636
 20
9.8449942190206912
 30
0.0
 10
83.976817821601969
 20
9.8463562898364785
 30
0.0
 10
84.018436425899722
 20
10.012535483839542
 30
0.0
 10
84.04687010310397
 20
10.178836884997651
 30
0.0
 10
84.047104871172593
 20
10.180199995432218
 30
0.0
 10
84.047339639241216
 20
10.181563105866786
 30
0.0
  0
LINE
  5
9A
100
AcDbEntity
  8
0
  6
CONTINUOUS
 62
               7
100
AcDbLine
 10
83.97612395660002
 20
9.8436321481999869
 30
0.0
 11
79.553817690900019
 21
7.7481594285999904
 31
0.0
  0
LINE
  5
9B
100
AcDbEntity
  8
0
  6
CONTINUOUS
 62
               7
100
AcDbLine
 10
82.875126023500002
 20
10.234491527100005
 30
0.0
 11
78.819405255300012
 21
8.3127222697999912
 31
0.0
  0
SPLINE
  5
9C
100
AcDbEntity
  8
0
  6
CONTINUOUS
 62
               7
100
AcDbSpline
210
0.0
220
0.0
230
1.0
 70
               8
 71
               2
 72
              10
 73
               7
 74
               0
 42
0.000001
 43
0.000001
 40
0.0
 40
0.0
 40
0.0
 40
1.0
 40
1.0
 40
2.0
 40
2.0
 40
3.0
 40
3.0
 40
3.0
 10
83.680340328218392
 20
10.311849565513711
 30
0.0
 10
83.675952459632725
 20
10.311457710547884
 30
0.0
 10
83.671564591047058
 20
10.311065855582058
 30
0.0
 10
83.276636632597274
 20
10.275847205596136
 30
0.0
 10
82.883851647630536
 20
10.235397562892643
 30
0.0
 10
82.879488835567855
 20
10.234944545019175
 30
0.0
 10
82.875126023505175
 20
10.234491527145707
 30
0.0
  0
LINE
  5
9D
100
AcDbEntity
  8
0
  6
CONTINUOUS
 62
               7
100
AcDbLine
 10
83.680340328199975
 20
10.311849565500012
 30
0.0
 11
84.047339639200004
 21
10.181563105900011
 31
0.0
  0
ARC
  5
9E
100
AcDbEntity
  8
0
  6
CONTINUOUS
 62
               7
100
AcDbCircle
 10
79.841805694199991
 20
6.9753426977000004
 30
0.0
 40
5.0318656447014085
100
AcDbArc
 50
328.97350916609997
 51
34.751972373400065
  0
LINE
  5
9F
100
AcDbEntity
  8
0
  6
CONTINUOUS
 62
               7
100
AcDbLine
 10
84.153757692099987
 20
4.3817463848999978
 30
0.0
 11
80.130394943900001
 21
2.4753097038000078
 31
0.0
  0
POLYLINE
  5
A0
100
AcDbEntity
  8
0
  6
CONTINUOUS
 62
               7
100
AcDb2dPolyline
 66
               1
 10
0.0
 20
0.0
 30
0.0
 75
               5
  0
VERTEX
  5
A1
100
AcDbEntity
  8
0
  6
CONTINUOUS
 62
               7
100
AcDbVertex
100
AcDb2dVertex
 10
82.172451467100018
 20
4.8294350584999961
 30
0.0
  0
VERTEX
  5
A2
100
AcDbEntity
  8
0
  6
CONTINUOUS
 62
               7
100
AcDbVertex
100
AcDb2dVertex
 10
81.959878658600019
 20
4.7590078743999982
 30
0.0
  0
VERTEX
  5
A3
100
AcDbEntity
  8
0
  6
CONTINUOUS
 62
               7
100
AcDbVertex
100
AcDb2dVertex
 10
81.754660287600018
 20
4.7513386471999866
 30
0.0
  0
VERTEX
  5
A4
100
AcDbEntity
  8
0
  6
CONTINUOUS
 62
               7
100
AcDbVertex
100
AcDb2dVertex
 10
81.5657653815
 20
4.806762559100008
 30
0.0
  0
VERTEX
  5
A5
100
AcDbEntity
  8
0
  6
CONTINUOUS
 62
               7
100
AcDbVertex
100
AcDb2dVertex
 10
81.401449554199985
 20
4.922857319000002
 30
0.0
  0
VERTEX
  5
A6
100
AcDbEntity
  8
0
  6
CONTINUOUS
 62
               7
100
AcDbVertex
100
AcDb2dVertex
 10
81.268894195799987
 20
5.0945490288999906
 30
0.0
  0
VERTEX
  5
A7
100
AcDbEntity
  8
0
  6
CONTINUOUS
 62
               7
100
AcDbVertex
100
AcDb2dVertex
 10
81.173892611600024
 20
5.314333937300006
 30
0.0
  0
VERTEX
  5
A8
100
AcDbEntity
  8
0
  6
CONTINUOUS
 62
               7
100
AcDbVertex
100
AcDb2dVertex
 10
81.120596826599979
 20
5.5726063888999988
 30
0.0
  0
VERTEX
  5
A9
100
AcDbEntity
  8
0
  6
CONTINUOUS
 62
               7
100
AcDbVertex
100
AcDb2dVertex
 10
81.111336122500006
 20
5.8580786382999861
 30
0.0
  0
VERTEX
  5
AA
100
AcDbEntity
  8
0
  6
CONTINUOUS
 62
               7
100
AcDbVertex
100
AcDb2dVertex
 10
81.14651523629999
 20
6.1582741784000063
 30
0.0
  0
VERTEX
  5
AB
100
AcDbEntity
  8
0
  6
CONTINUOUS
 62
               7
100
AcDbVertex
100
AcDb2dVertex
 10
81.224596672100006
 20
6.460073023599989
 30
0.0
  0
VERTEX
  5
AC
100
AcDbEntity
  8
0
  6
CONTINUOUS
 62
               7
100
AcDbVertex
100
AcDb2dVertex
 10
81.342167896299998
 20
6.7502851161000024
 30
0.0
  0
VERTEX
  5
AD
100
AcDbEntity
  8
0
  6
CONTINUOUS
 62
               7
100
AcDbVertex
100
AcDb2dVertex
 10
81.494090482499985
 20
7.0162267949000068
 30
0.0
  0
VERTEX
  5
AE
100
AcDbEntity
  8
0
  6
CONTINUOUS
 62
               7
100
AcDbVertex
100
AcDb2dVertex
 10
81.673724684399986
 20
7.2462751324999886
 30
0.0
  0
VERTEX
  5
AF
100
AcDbEntity
  8
0
  6
CONTINUOUS
 62
               7
100
AcDbVertex
100
AcDb2dVertex
 10
81.873219625499985
 20
7.4303759126999864
 30
0.0
  0
VERTEX
  5
B0
100
AcDbEntity
  8
0
  6
CONTINUOUS
 62
               7
100
AcDbVertex
100
AcDb2dVertex
 10
82.083856419699998
 20
7.5604830478999929
 30
0.0
  0
VERTEX
  5
B1
100
AcDbEntity
  8
0
  6
CONTINUOUS
 62
               7
100
AcDbVertex
100
AcDb2dVertex
 10
82.296429228199997
 20
7.6309102319999909
 30
0.0
  0
VERTEX
  5
B2
100
AcDbEntity
  8
0
  6
CONTINUOUS
 62
               7
100
AcDbVertex
100
AcDb2dVertex
 10
82.501647599199998
 20
7.6385794592000025
 30
0.0
  0
VERTEX
  5
B3
100
AcDbEntity
  8
0
  6
CONTINUOUS
 62
               7
100
AcDbVertex
100
AcDb2dVertex
 10
82.690542505300016
 20
7.583155547399997
 30
0.0
  0
VERTEX
  5
B4
100
AcDbEntity
  8
0
  6
CONTINUOUS
 62
               7
100
AcDbVertex
100
AcDb2dVertex
 10
82.854858332599974
 20
7.467060787399987
 30
0.0
  0
VERTEX
  5
B5
100
AcDbEntity
  8
0
  6
CONTINUOUS
 62
               7
100
AcDbVertex
100
AcDb2dVertex
 10
82.987413690999972
 20
7.2953690774999984
 30
0.0
  0
VERTEX
  5
B6
100
AcDbEntity
  8
0
  6
CONTINUOUS
 62
               7
100
AcDbVertex
100
AcDb2dVertex
 10
83.082415275199992
 20
7.0755841691000114
 30
0.0
  0
VERTEX
  5
B7
100
AcDbEntity
  8
0
  6
CONTINUOUS
 62
               7
100
AcDbVertex
100
AcDb2dVertex
 10
83.135711060199981
 20
6.8173117174999902
 30
0.0
  0
VERTEX
  5
B8
100
AcDbEntity
  8
0
  6
CONTINUOUS
 62
               7
100
AcDbVertex
100
AcDb2dVertex
 10
83.144971764399997
 20
6.5318394681000029
 30
0.0
  0
VERTEX
  5
B9
100
AcDbEntity
  8
0
  6
CONTINUOUS
 62
               7
100
AcDbVertex
100
AcDb2dVertex
 10
83.109792650500026
 20
6.2316439280000111
 30
0.0
  0
VERTEX
  5
BA
100
AcDbEntity
  8
0
  6
CONTINUOUS
 62
               7
100
AcDbVertex
100
AcDb2dVertex
 10
83.031711214799998
 20
5.9298450828
 30
0.0
  0
VERTEX
  5
BB
100
AcDbEntity
  8
0
  6
CONTINUOUS
 62
               7
100
AcDbVertex
100
AcDb2dVertex
 10
82.914139990500018
 20
5.6396329902999867
 30
0.0
  0
VERTEX
  5
BC
100
AcDbEntity
  8
0
  6
CONTINUOUS
 62
               7
100
AcDbVertex
100
AcDb2dVertex
 10
82.762217404400019
 20
5.3736913115000107
 30
0.0
  0
VERTEX
  5
BD
100
AcDbEntity
  8
0
  6
CONTINUOUS
 62
               7
100
AcDbVertex
100
AcDb2dVertex
 10
82.582583202399974
 20
5.1436429739000005
 30
0.0
  0
VERTEX
  5
BE
100
AcDbEntity
  8
0
  6
CONTINUOUS
 62
               7
100
AcDbVertex
100
AcDb2dVertex
 10
82.383088261299974
 20
4.9595421937999902
 30
0.0
  0
VERTEX
  5
BF
100
AcDbEntity
  8
0
  6
CONTINUOUS
 62
               7
100
AcDbVertex
100
AcDb2dVertex
 10
82.172451467100018
 20
4.8294350584999961
 30
0.0
  0
SEQEND
  5
C0
100
AcDbEntity
  8
0
  6
CONTINUOUS
 62
               7
  0
ARC
  5
C1
100
AcDbEntity
  8
0
  6
CONTINUOUS
 62
               7
100
AcDbCircle
 10
80.006397022999977
 20
6.9481926127999998
 30
0.0
 40
2.0402118714283812
100
AcDbArc
 50
305.26384197299978
 51
15.645960801799617
  0
ARC
  5
C2
100
AcDbEntity
  8
0
  6
CONTINUOUS
 62
               7
100
AcDbCircle
 10
80.895680016500023
 20
7.876035451000007
 30
0.0
 40
3.9049220407759151
100
AcDbArc
 50
3.4858532997001634
 51
36.186519896299799
  0
LINE
  5
C3
100
AcDbEntity
  8
0
  6
CONTINUOUS
 62
               8
100
AcDbLine
 10
23.093261170200009
 20
10.897479762899991
 30
0.0
 11
23.136240090999991
 21
10.917844964000011
 31
0.0
  0
SPLINE
  5
C4
100
AcDbEntity
  8
0
  6
CONTINUOUS
 62
               8
100
AcDbSpline
210
0.0
220
0.0
230
1.0
 70
               8
 71
               2
 72
              14
 73
              11
 74
               0
 42
0.000001
 43
0.000001
 40
0.0
 40
0.0
 40
0.0
 40
1.0
 40
1.0
 40
2.0
 40
3.0
 40
4.0
 40
5.0
 40
6.0
 40
6.0
 40
7.0
 40
7.0
 40
7.0
 10
46.662230491502385
 20
-36.358656907918459
 30
0.0
 10
46.701517051380904
 20
-36.341422551290904
 30
0.0
 10
46.740803611259423
 20
-36.32418819466335
 30
0.0
 10
47.285637626806988
 20
-36.049448193728054
 30
0.0
 10
47.937104691192303
 20
-35.369696712055131
 30
0.0
 10
48.359133023449317
 20
-34.68496152259749
 30
0.0
 10
48.665801145589228
 20
-33.882411147868325
 30
0.0
 10
48.892543997069197
 20
-32.767812136395008
 30
0.0
 10
48.891316160954318
 20
-31.937072026075356
 30
0.0
 10
48.889508590551657
 20
-31.877848014331569
 30
0.0
 10
48.887701020148995
 20
-31.818624002587782
 30
0.0
  0
SPLINE
  5
C5
100
AcDbEntity
  8
0
  6
CONTINUOUS
 62
               8
100
AcDbSpline
210
0.0
220
0.0
230
1.0
 70
               8
 71
               2
 72
              13
 73
              10
 74
               0
 42
0.000001
 43
0.000001
 40
0.0
 40
0.0
 40
0.0
 40
1.0
 40
1.0
 40
2.0
 40
3.0
 40
4.0
 40
5.0
 40
5.0
 40
6.0
 40
6.0
 40
6.0
 10
21.059345537980079
 20
10.857927793607104
 30
0.0
 10
21.033885548910348
 20
10.86691634994267
 30
0.0
 10
21.008425559840617
 20
10.875904906278237
 30
0.0
 10
20.650696061306007
 20
10.993686636011745
 30
0.0
 10
19.935428110422208
 20
11.12300258642864
 30
0.0
 10
19.147441620479583
 20
11.098098800535496
 30
0.0
 10
18.511444009061051
 20
10.926432798726779
 30
0.0
 10
18.221048558103519
 20
10.78846821241396
 30
0.0
 10
18.200683952305155
 20
10.778042193162392
 30
0.0
 10
18.180319346506792
 20
10.767616173910824
 30
0.0
  0
ENDBLK
  5
C6
100
AcDbEntity
  8
__
100
AcDbBlockEnd
  0
BLOCK
  5
C7
100
AcDbEntity
  8
__
100
AcDbBlockBegin
  2
*U1
 70
               1
 10
0.0
 20
0.0
 30
0.0
  3
*U1
  1

  0
LINE
  5
C8
100
AcDbEntity
  8
0
  6
CONTINUOUS
 62
               7
100
AcDbLine
 10
-70.48996149328795
 20
-51.871510499309153
 30
0.0
 11
-17.724464278787956
 21
-57.887160385109141
 31
0.0
  0
LINE
  5
C9
100
AcDbEntity
  8
0
  6
CONTINUOUS
 62
               7
100
AcDbLine
 10
-72.74647154048796
 20
-48.958554582009143
 30
0.0
 11
-71.061022576187952
 21
-51.457141412709149
 31
0.0
  0
LINE
  5
CA
100
AcDbEntity
  8
0
  6
CONTINUOUS
 62
               7
100
AcDbLine
 10
-72.873477368287951
 20
-45.766926546209149
 30
0.0
 11
-72.882341740387943
 21
-45.773432747409146
 31
0.0
  0
LINE
  5
CB
100
AcDbEntity
  8
0
  6
CONTINUOUS
 62
               7
100
AcDbLine
 10
-64.807151026487958
 20
39.556557268490849
 30
0.0
 11
-65.445884747987947
 21
39.132225694090863
 31
0.0
  0
LINE
  5
CC
100
AcDbEntity
  8
0
  6
CONTINUOUS
 62
               7
100
AcDbLine
 10
-62.659323875987944
 20
34.397244607990842
 30
0.0
 11
-61.978249871387952
 21
34.749626345290864
 31
0.0
  0
LINE
  5
CD
100
AcDbEntity
  8
0
  6
CONTINUOUS
 62
               7
100
AcDbLine
 10
-51.75029604468795
 20
55.558280666790864
 30
0.0
 11
-51.83036309008795
 21
55.500786550290854
 31
0.0
  0
LINE
  5
CE
100
AcDbEntity
  8
0
  6
CONTINUOUS
 62
               7
100
AcDbLine
 10
-41.677211815187938
 20
38.248336102190848
 30
0.0
 11
-41.588074984987962
 21
38.29041909859086
 31
0.0
  0
LINE
  5
CF
100
AcDbEntity
  8
0
  6
CONTINUOUS
 62
               7
100
AcDbLine
 10
-9.1766838968879583
 20
65.631251905990865
 30
0.0
 11
-9.3649210011879447
 21
65.652712302990864
 31
0.0
  0
LINE
  5
D0
100
AcDbEntity
  8
0
  6
CONTINUOUS
 62
               7
100
AcDbLine
 10
-71.123399332887942
 20
73.884806847590852
 30
0.0
 11
-73.178474585287944
 21
71.931474224790861
 31
0.0
  0
LINE
  5
D1
100
AcDbEntity
  8
0
  6
CONTINUOUS
 62
               7
100
AcDbLine
 10
-19.00102987438796
 20
-52.62944907850914
 30
0.0
 11
-15.830892915587945
 21
-52.256936566009145
 31
0.0
  0
LINE
  5
D2
100
AcDbEntity
  8
0
  6
CONTINUOUS
 62
               7
100
AcDbLine
 10
-71.620158743787954
 20
-46.630585888009151
 30
0.0
 11
-19.001414530687946
 21
-52.629504865909141
 31
0.0
  0
LINE
  5
D3
100
AcDbEntity
  8
0
  6
CONTINUOUS
 62
               7
100
AcDbLine
 10
-15.796182021287954
 20
-52.245398259509145
 30
0.0
 11
-5.5112517178879372
 21
-46.275644072109145
 31
0.0
  0
LINE
  5
D4
100
AcDbEntity
  8
0
  6
CONTINUOUS
 62
               7
100
AcDbLine
 10
-72.938478999287952
 20
-45.72129150670915
 30
0.0
 11
-71.67071941298795
 21
-46.611289437609145
 31
0.0
  0
LINE
  5
D5
100
AcDbEntity
  8
0
  6
CONTINUOUS
 62
               7
100
AcDbLine
 10
-40.016902077087956
 20
-15.582853483309151
 30
0.0
 11
-39.768244028987958
 21
-15.436517012309139
 31
0.0
  0
LINE
  5
D6
100
AcDbEntity
  8
0
  6
CONTINUOUS
 62
               7
100
AcDbLine
 10
-45.500347423587947
 20
-7.8837453790091558
 30
0.0
 11
-45.293125307087955
 21
-7.7617941554091487
 31
0.0
  0
LINE
  5
D7
100
AcDbEntity
  8
0
  6
CONTINUOUS
 62
               7
100
AcDbLine
 10
-46.81470346758794
 20
-5.1762941369091493
 30
0.0
 11
-47.021925583987944
 21
-5.298245360609144
 31
0.0
  0
LINE
  5
D8
100
AcDbEntity
  8
0
  6
CONTINUOUS
 62
               7
100
AcDbLine
 10
-51.925156106087961
 20
2.7423304403908446
 30
0.0
 11
-52.173814154187959
 21
2.5959939694908485
 31
0.0
  0
LINE
  5
D9
100
AcDbEntity
  8
0
  6
CONTINUOUS
 62
               7
100
AcDbLine
 10
-38.775041201987953
 20
-17.662268001209156
 30
0.0
 11
-37.924389531287936
 21
-17.161655354809142
 31
0.0
  0
LINE
  5
DA
100
AcDbEntity
  8
0
  6
CONTINUOUS
 62
               7
100
AcDbLine
 10
-52.566545241287962
 20
5.2401670075908555
 30
0.0
 11
-53.417196911987951
 21
4.7395543611908408
 31
0.0
  0
SPLINE
  5
DB
100
AcDbEntity
  8
0
  6
CONTINUOUS
 62
               7
100
AcDbSpline
210
0.0
220
0.0
230
1.0
 70
               8
 71
               2
 72
              17
 73
              14
 74
               0
 42
0.000001
 43
0.000001
 40
0.0
 40
0.0
 40
0.0
 40
1.0
 40
1.0
 40
2.0
 40
3.0
 40
4.0
 40
5.0
 40
6.0
 40
7.0
 40
8.0
 40
9.0
 40
9.0
 40
10.0
 40
10.0
 40
10.0
 10
-32.376381036875152
 20
56.287108821626845
 30
0.0
 10
-32.378754226586189
 20
56.285838541647891
 30
0.0
 10
-32.381127416297225
 20
56.284568261668937
 30
0.0
 10
-32.632094993013759
 20
56.15836748973328
 30
0.0
 10
-33.148452524867217
 20
55.731439799077549
 30
0.0
 10
-33.717979615184042
 20
55.034051966914092
 30
0.0
 10
-34.097665157576721
 20
54.18783625560215
 30
0.0
 10
-34.277228968637239
 20
53.368926343201139
 30
0.0
 10
-34.292686249257734
 20
52.552753456502131
 30
0.0
 10
-34.143539006774425
 20
51.635367189798927
 30
0.0
 10
-33.81622405187553
 20
50.853350658572339
 30
0.0
 10
-33.655747474974667
 20
50.570889109342858
 30
0.0
 10
-33.653511698702808
 20
50.566838623499052
 30
0.0
 10
-33.651275922430948
 20
50.562788137655247
 30
0.0
  0
SPLINE
  5
DC
100
AcDbEntity
  8
0
  6
CONTINUOUS
 62
               7
100
AcDbSpline
210
0.0
220
0.0
230
1.0
 70
               8
 71
               2
 72
              16
 73
              13
 74
               0
 42
0.000001
 43
0.000001
 40
0.0
 40
0.0
 40
0.0
 40
1.0
 40
1.0
 40
2.0
 40
3.0
 40
4.0
 40
5.0
 40
6.0
 40
7.0
 40
8.0
 40
8.0
 40
9.0
 40
9.0
 40
9.0
 10
-33.651275922430948
 20
50.562788137655247
 30
0.0
 10
-33.647077193183456
 20
50.556313541115088
 30
0.0
 10
-33.642878463935965
 20
50.54983894457493
 30
0.0
 10
-33.415089157907225
 20
50.174700859681423
 30
0.0
 10
-32.73205223210504
 20
49.391651606105199
 30
0.0
 10
-31.915297891394509
 20
48.85532961697993
 30
0.0
 10
-30.859607186132102
 20
48.394268501160298
 30
0.0
 10
-29.707478989018846
 20
48.351498134637779
 30
0.0
 10
-28.978710228557354
 20
48.46959676790209
 30
0.0
 10
-28.354419509739294
 20
48.69824224077297
 30
0.0
 10
-28.089718032400377
 20
48.862676932176356
 30
0.0
 10
-28.086708160624163
 20
48.864474933504212
 30
0.0
 10
-28.083698288847948
 20
48.866272934832068
 30
0.0
  0
LINE
  5
DD
100
AcDbEntity
  8
0
  6
CONTINUOUS
 62
               7
100
AcDbLine
 10
-31.956441078487948
 20
56.549574175490847
 30
0.0
 11
-32.391807075687943
 21
56.293359168190847
 31
0.0
  0
LINE
  5
DE
100
AcDbEntity
  8
0
  6
CONTINUOUS
 62
               7
100
AcDbLine
 10
-28.02994929838794
 20
48.881597937990847
 30
0.0
 11
-27.594583301187946
 21
49.137812945290847
 31
0.0
  0
LINE
  5
DF
100
AcDbEntity
  8
0
  6
CONTINUOUS
 62
               7
100
AcDbLine
 10
-49.319544157687936
 20
53.486827227390847
 30
0.0
 11
-50.112333277887949
 21
53.020266973490862
 31
0.0
  0
LINE
  5
E0
100
AcDbEntity
  8
0
  6
CONTINUOUS
 62
               7
100
AcDbLine
 10
-43.011635264487943
 20
40.954609799390852
 30
0.0
 11
-42.218846144287959
 21
41.421170053390853
 31
0.0
  0
LINE
  5
E1
100
AcDbEntity
  8
0
  6
CONTINUOUS
 62
               7
100
AcDbLine
 10
-6.2368766222879444
 20
71.144383271990847
 30
0.0
 11
-3.9595957370879589
 21
72.559269138290858
 31
0.0
  0
LINE
  5
E2
100
AcDbEntity
  8
0
  6
CONTINUOUS
 62
               7
100
AcDbLine
 10
-3.0789904267879464
 20
-50.284234774709148
 30
0.0
 11
-3.9595957370879589
 21
72.559269138290858
 31
0.0
  0
LINE
  5
E3
100
AcDbEntity
  8
0
  6
CONTINUOUS
 62
               7
100
AcDbLine
 10
-5.3655040166879573
 20
-51.263921010109144
 30
0.0
 11
-3.0789904267879464
 21
-50.284234774709148
 31
0.0
  0
LINE
  5
E4
100
AcDbEntity
  8
0
  6
CONTINUOUS
 62
               7
100
AcDbLine
 10
-15.011492373387959
 20
-55.611247947609144
 30
0.0
 11
-5.3655040166879573
 21
-51.263921010109144
 31
0.0
  0
SPLINE
  5
E5
100
AcDbEntity
  8
0
  6
CONTINUOUS
 62
               7
100
AcDbSpline
210
0.0
220
0.0
230
1.0
 70
               8
 71
               2
 72
              18
 73
              15
 74
               0
 42
0.000001
 43
0.000001
 40
0.0
 40
0.0
 40
0.0
 40
1.0
 40
1.0
 40
2.0
 40
3.0
 40
4.0
 40
5.0
 40
6.0
 40
7.0
 40
8.0
 40
9.0
 40
10.0
 40
10.0
 40
11.0
 40
11.0
 40
11.0
 10
-15.657515471488345
 20
-54.551628955059144
 30
0.0
 10
-15.657313963818218
 20
-54.554884987147467
 30
0.0
 10
-15.657112456148091
 20
-54.558141019235791
 30
0.0
 10
-15.6527663286167
 20
-54.629880507324955
 30
0.0
 10
-15.641313354750928
 20
-54.797998970195678
 30
0.0
 10
-15.612814401512331
 20
-55.043639164026089
 30
0.0
 10
-15.552238144562175
 20
-55.248677458815621
 30
0.0
 10
-15.476962244575923
 20
-55.414370578142993
 30
0.0
 10
-15.384555434828961
 20
-55.537067128221736
 30
0.0
 10
-15.276482379759663
 20
-55.624363355421437
 30
0.0
 10
-15.15595161770414
 20
-55.636474494265912
 30
0.0
 10
-15.062090164933259
 20
-55.622313551235095
 30
0.0
 10
-15.014651441535044
 20
-55.611917918356014
 30
0.0
 10
-15.013071907463292
 20
-55.611582932984632
 30
0.0
 10
-15.01149237339154
 20
-55.611247947613251
 30
0.0
  0
LINE
  5
E6
100
AcDbEntity
  8
0
  6
CONTINUOUS
 62
               7
100
AcDbLine
 10
-15.672544166087953
 20
-52.454060618409144
 30
0.0
 11
-15.657515471487947
 21
-54.55162895500915
 31
0.0
  0
LINE
  5
E7
100
AcDbEntity
  8
0
  6
CONTINUOUS
 62
               7
100
AcDbLine
 10
-5.3936165154879561
 20
-46.489504467809141
 30
0.0
 11
-15.672544166087953
 21
-52.454060618409144
 31
0.0
  0
LINE
  5
E8
100
AcDbEntity
  8
0
  6
CONTINUOUS
 62
               7
100
AcDbLine
 10
-5.3936165154879561
 20
-46.489504467809141
 30
0.0
 11
-6.2368766222879444
 21
71.144383271990847
 31
0.0
  0
LINE
  5
E9
100
AcDbEntity
  8
0
  6
CONTINUOUS
 62
               7
100
AcDbLine
 10
-6.2368766222879444
 20
71.144383271990847
 30
0.0
 11
-8.5316338024879528
 21
73.81709276019086
 31
0.0
  0
LINE
  5
EA
100
AcDbEntity
  8
0
  6
CONTINUOUS
 62
               7
100
AcDbLine
 10
-8.5316338024879528
 20
73.81709276019086
 30
0.0
 11
-6.2543529173879548
 21
75.231978626490843
 31
0.0
  0
LINE
  5
EB
100
AcDbEntity
  8
0
  6
CONTINUOUS
 62
               7
100
AcDbLine
 10
-3.9595957370879589
 20
72.559269138290858
 30
0.0
 11
-6.2543529173879548
 21
75.231978626490843
 31
0.0
  0
LINE
  5
EC
100
AcDbEntity
  8
0
  6
CONTINUOUS
 62
               7
100
AcDbLine
 10
-63.129842505087943
 20
80.041685065390851
 30
0.0
 11
-63.157134873487955
 21
80.01568169019086
 31
0.0
  0
LINE
  5
ED
100
AcDbEntity
  8
0
  6
CONTINUOUS
 62
               7
100
AcDbLine
 10
-36.794826339187942
 20
77.039301967490843
 30
0.0
 11
-63.129842505087943
 21
80.041685065390851
 31
0.0
  0
LINE
  5
EE
100
AcDbEntity
  8
0
  6
CONTINUOUS
 62
               7
100
AcDbLine
 10
-36.794826339187942
 20
77.039301967490843
 30
0.0
 11
-36.767134748287951
 21
77.00703002159085
 31
0.0
  0
LINE
  5
EF
100
AcDbEntity
  8
0
  6
CONTINUOUS
 62
               7
100
AcDbLine
 10
-34.893923796687936
 20
76.793470369090841
 30
0.0
 11
-34.866649968387939
 21
76.81947585809084
 31
0.0
  0
LINE
  5
F0
100
AcDbEntity
  8
0
  6
CONTINUOUS
 62
               7
100
AcDbLine
 10
-8.5316338024879528
 20
73.81709276019086
 30
0.0
 11
-34.866649968387939
 21
76.81947585809084
 31
0.0
  0
SPLINE
  5
F1
100
AcDbEntity
  8
0
  6
CONTINUOUS
 62
               7
100
AcDbSpline
210
0.0
220
0.0
230
1.0
 70
               8
 71
               2
 72
              17
 73
              14
 74
               0
 42
0.000001
 43
0.000001
 40
0.0
 40
0.0
 40
0.0
 40
1.0
 40
1.0
 40
2.0
 40
3.0
 40
4.0
 40
5.0
 40
6.0
 40
7.0
 40
8.0
 40
9.0
 40
9.0
 40
10.0
 40
10.0
 40
10.0
 10
-5.3936165154977616
 20
-46.489504467763552
 30
0.0
 10
-5.3936463982119776
 20
-46.489230546524645
 30
0.0
 10
-5.3936762809261936
 20
-46.488956625285738
 30
0.0
 10
-5.3953941262366456
 20
-46.471945702676919
 30
0.0
 10
-5.3998032169631855
 20
-46.44260515746744
 30
0.0
 10
-5.4079590903370089
 20
-46.411227202390549
 30
0.0
 10
-5.4251546805729092
 20
-46.376905110981426
 30
0.0
 10
-5.4478172345999027
 20
-46.346236064623483
 30
0.0
 10
-5.4852420660279151
 20
-46.309895694360335
 30
0.0
 10
-5.5313550344698612
 20
-46.286132269728228
 30
0.0
 10
-5.5631309345324595
 20
-46.278422612587306
 30
0.0
 10
-5.5766884187575201
 20
-46.276124190285287
 30
0.0
 10
-5.5768325024305838
 20
-46.276098477256468
 30
0.0
 10
-5.5769765861036475
 20
-46.276072764227649
 30
0.0
  0
LINE
  5
F2
100
AcDbEntity
  8
0
  6
CONTINUOUS
 62
               7
100
AcDbLine
 10
-36.794826339187942
 20
77.039301967490843
 30
0.0
 11
-36.137884098687941
 21
77.466759840390864
 31
0.0
  0
LINE
  5
F3
100
AcDbEntity
  8
0
  6
CONTINUOUS
 62
               7
100
AcDbLine
 10
-63.129842505087943
 20
80.041685065390851
 30
0.0
 11
-61.265812647687945
 21
81.503684550090867
 31
0.0
  0
LINE
  5
F4
100
AcDbEntity
  8
0
  6
CONTINUOUS
 62
               7
100
AcDbLine
 10
-6.2543529173879548
 20
75.231978626490843
 30
0.0
 11
-61.265812647687945
 21
81.503684550090867
 31
0.0
  0
LINE
  5
F5
100
AcDbEntity
  8
0
  6
CONTINUOUS
 62
               7
100
AcDbLine
 10
-34.281199069087954
 20
77.255084263090851
 30
0.0
 11
-34.866649968387939
 21
76.81947585809084
 31
0.0
  0
LINE
  5
F6
100
AcDbEntity
  8
0
  6
CONTINUOUS
 62
               7
100
AcDbLine
 10
-36.137884098687941
 20
77.466759840390864
 30
0.0
 11
-34.281199069087954
 21
77.255084263090851
 31
0.0
  0
SPLINE
  5
F7
100
AcDbEntity
  8
0
  6
CONTINUOUS
 62
               7
100
AcDbSpline
210
0.0
220
0.0
230
1.0
 70
               8
 71
               2
 72
              16
 73
              13
 74
               0
 42
0.000001
 43
0.000001
 40
0.0
 40
0.0
 40
0.0
 40
1.0
 40
1.0
 40
2.0
 40
3.0
 40
4.0
 40
5.0
 40
6.0
 40
7.0
 40
8.0
 40
8.0
 40
9.0
 40
9.0
 40
9.0
 10
-15.672545240423538
 20
-52.454058869037652
 30
0.0
 10
-15.67255211730771
 20
-52.45392538885487
 30
0.0
 10
-15.672558994191881
 20
-52.453791908672088
 30
0.0
 10
-15.673081179044452
 20
-52.441255501879823
 30
0.0
 10
-15.676473439823944
 20
-52.406779539096163
 30
0.0
 10
-15.692250461320718
 20
-52.352070664614388
 30
0.0
 10
-15.717966385202025
 20
-52.30375215413477
 30
0.0
 10
-15.74683438586603
 20
-52.265934297824501
 30
0.0
 10
-15.779330102893503
 20
-52.238011573587983
 30
0.0
 10
-15.805598087725279
 20
-52.224876686950424
 30
0.0
 10
-15.81739512010224
 20
-52.220240692976773
 30
0.0
 10
-15.81752047079474
 20
-52.220189776558406
 30
0.0
 10
-15.81764582148724
 20
-52.22013886014004
 30
0.0
  0
LINE
  5
F8
100
AcDbEntity
  8
0
  6
CONTINUOUS
 62
               7
100
AcDbLine
 10
-15.672544166087953
 20
-52.454060618409144
 30
0.0
 11
-19.004518550887944
 21
-52.843179909309143
 31
0.0
  0
SPLINE
  5
F9
100
AcDbEntity
  8
0
  6
CONTINUOUS
 62
               7
100
AcDbSpline
210
0.0
220
0.0
230
1.0
 70
               8
 71
               2
 72
              15
 73
              12
 74
               0
 42
0.000001
 43
0.000001
 40
0.0
 40
0.0
 40
0.0
 40
1.0
 40
1.0
 40
2.0
 40
3.0
 40
4.0
 40
5.0
 40
6.0
 40
7.0
 40
7.0
 40
8.0
 40
8.0
 40
8.0
 10
-18.998168293461752
 20
-52.593873259641953
 30
0.0
 10
-18.998175951744109
 20
-52.593937562068319
 30
0.0
 10
-18.998183610026466
 20
-52.594001864494686
 30
0.0
 10
-18.998911663472477
 20
-52.5998326168137
 30
0.0
 10
-19.000565646124464
 20
-52.617541479551264
 30
0.0
 10
-19.002680064396166
 20
-52.653467724381755
 30
0.0
 10
-19.004141266051867
 20
-52.692744158028034
 30
0.0
 10
-19.004830646980558
 20
-52.74011297102895
 30
0.0
 10
-19.004788183236563
 20
-52.808583114953024
 30
0.0
 10
-19.004521405195639
 20
-52.842898103438401
 30
0.0
 10
-19.004520439621338
 20
-52.84303868259407
 30
0.0
 10
-19.004519474047036
 20
-52.843179261749739
 30
0.0
  0
LINE
  5
FA
100
AcDbEntity
  8
0
  6
CONTINUOUS
 62
               7
100
AcDbLine
 10
-18.989906182087957
 20
-54.881589807509144
 30
0.0
 11
-15.657507751887941
 21
-54.551624412009147
 31
0.0
  0
LINE
  5
FB
100
AcDbEntity
  8
0
  6
CONTINUOUS
 62
               7
100
AcDbLine
 10
-19.004518550887944
 20
-52.843179909309143
 30
0.0
 11
-18.989906182087957
 21
-54.881589807509144
 31
0.0
  0
LINE
  5
FC
100
AcDbEntity
  8
0
  6
CONTINUOUS
 62
               7
100
AcDbLine
 10
-15.011492527887945
 20
-55.611226395309146
 30
0.0
 11
-17.304680449687957
 21
-57.801187510009143
 31
0.0
  0
SPLINE
  5
FD
100
AcDbEntity
  8
0
  6
CONTINUOUS
 62
               7
100
AcDbSpline
210
0.0
220
0.0
230
1.0
 70
               8
 71
               2
 72
              17
 73
              14
 74
               0
 42
0.000001
 43
0.000001
 40
0.0
 40
0.0
 40
0.0
 40
1.0
 40
1.0
 40
2.0
 40
3.0
 40
4.0
 40
5.0
 40
6.0
 40
7.0
 40
8.0
 40
9.0
 40
9.0
 40
10.0
 40
10.0
 40
10.0
 10
-17.304641311307158
 20
-57.801193056720848
 30
0.0
 10
-17.308297761992499
 20
-57.802403706266006
 30
0.0
 10
-17.31195421267784
 20
-57.803614355811163
 30
0.0
 10
-17.421800584085638
 20
-57.841628996983502
 30
0.0
 10
-17.764586664761616
 20
-57.926588916157925
 30
0.0
 10
-18.142525953262002
 20
-57.732287257464989
 30
0.0
 10
-18.397260382690853
 20
-57.45019841620001
 30
0.0
 10
-18.62951507891983
 20
-57.040749618070194
 30
0.0
 10
-18.854894806294077
 20
-56.345421667256062
 30
0.0
 10
-18.960724701924384
 20
-55.582165415160688
 30
0.0
 10
-18.983286335425809
 20
-55.091103603248754
 30
0.0
 10
-18.989440398495923
 20
-54.894671137816104
 30
0.0
 10
-18.989655491800384
 20
-54.888132501843778
 30
0.0
 10
-18.989870585104846
 20
-54.881593865871451
 30
0.0
  0
LINE
  5
FE
100
AcDbEntity
  8
0
  6
CONTINUOUS
 62
               7
100
AcDbLine
 10
-19.004518550887944
 20
-52.843179909309143
 30
0.0
 11
-71.649097733687938
 21
-46.841315557309144
 31
0.0
  0
SPLINE
  5
FF
100
AcDbEntity
  8
0
  6
CONTINUOUS
 62
               7
100
AcDbSpline
210
0.0
220
0.0
230
1.0
 70
               8
 71
               2
 72
              15
 73
              12
 74
               0
 42
0.000001
 43
0.000001
 40
0.0
 40
0.0
 40
0.0
 40
1.0
 40
1.0
 40
2.0
 40
3.0
 40
4.0
 40
5.0
 40
6.0
 40
7.0
 40
7.0
 40
8.0
 40
8.0
 40
8.0
 10
-71.649095266597556
 20
-46.841315296261044
 30
0.0
 10
-71.649089697354498
 20
-46.841183307531516
 30
0.0
 10
-71.64908412811144
 20
-46.841051318801988
 30
0.0
 10
-71.64865618201793
 20
-46.825499753336928
 30
0.0
 10
-71.6451414436969
 20
-46.792325741860566
 30
0.0
 10
-71.632500669176181
 20
-46.746164564099018
 30
0.0
 10
-71.610738553903559
 20
-46.702943610947642
 30
0.0
 10
-71.590716636774374
 20
-46.675668104285904
 30
0.0
 10
-71.571910248540462
 20
-46.655375925834335
 30
0.0
 10
-71.562852549359121
 20
-46.646171496134613
 30
0.0
 10
-71.562706923421942
 20
-46.646022357752877
 30
0.0
 10
-71.562561297484763
 20
-46.64587321937114
 30
0.0
  0
LINE
  5
100
100
AcDbEntity
  8
0
  6
CONTINUOUS
 62
               7
100
AcDbLine
 10
-71.634520961887944
 20
-48.879721397209153
 30
0.0
 11
-18.989870585087935
 21
-54.881593865909153
 31
0.0
  0
LINE
  5
101
100
AcDbEntity
  8
0
  6
CONTINUOUS
 62
               7
100
AcDbLine
 10
-71.634485364887951
 20
-48.879725455509146
 30
0.0
 11
-71.649097733687938
 21
-46.841315557309144
 31
0.0
  0
SPLINE
  5
102
100
AcDbEntity
  8
0
  6
CONTINUOUS
 62
               7
100
AcDbSpline
210
0.0
220
0.0
230
1.0
 70
               8
 71
               2
 72
              16
 73
              13
 74
               0
 42
0.000001
 43
0.000001
 40
0.0
 40
0.0
 40
0.0
 40
1.0
 40
1.0
 40
2.0
 40
3.0
 40
4.0
 40
5.0
 40
6.0
 40
7.0
 40
8.0
 40
8.0
 40
9.0
 40
9.0
 40
9.0
 10
-71.634520961912557
 20
-48.87972139723594
 30
0.0
 10
-71.634337008991068
 20
-48.885821973221901
 30
0.0
 10
-71.634153056069579
 20
-48.891922549207862
 30
0.0
 10
-71.62896900929951
 20
-49.075276001988613
 30
0.0
 10
-71.606016401057758
 20
-49.656616793720858
 30
0.0
 10
-71.508502763090519
 20
-50.277517503057354
 30
0.0
 10
-71.376656990487703
 20
-50.812542164371962
 30
0.0
 10
-71.102247136581269
 20
-51.464026979908056
 30
0.0
 10
-70.785656628636019
 20
-51.761244772213303
 30
0.0
 10
-70.586255344878339
 20
-51.843120234967046
 30
0.0
 10
-70.476220226691908
 20
-51.865133766650629
 30
0.0
 10
-70.473837138065576
 20
-51.86566766839654
 30
0.0
 10
-70.471454049439245
 20
-51.866201570142451
 30
0.0
  0
LINE
  5
103
100
AcDbEntity
  8
0
  6
CONTINUOUS
 62
               7
100
AcDbLine
 10
-36.137884098687941
 20
77.466759840390864
 30
0.0
 11
-35.862700483787954
 21
77.146055762190855
 31
0.0
  0
LINE
  5
104
100
AcDbEntity
  8
0
  6
CONTINUOUS
 62
               7
100
AcDbLine
 10
-36.17935059368795
 20
76.940019338790847
 30
0.0
 11
-35.862700483787954
 21
77.146055762190855
 31
0.0
  0
LINE
  5
105
100
AcDbEntity
  8
0
  6
CONTINUOUS
 62
               7
100
AcDbLine
 10
-35.862700483787954
 20
77.146055762190855
 30
0.0
 11
-35.860963295487942
 21
76.903719839790853
 31
0.0
  0
LINE
  5
106
100
AcDbEntity
  8
0
  6
CONTINUOUS
 62
               7
100
AcDbLine
 10
-17.304680449687957
 20
-57.801187510009143
 30
0.0
 11
-7.6644998980879606
 21
-53.45631482930915
 31
0.0
  0
LINE
  5
107
100
AcDbEntity
  8
0
  6
CONTINUOUS
 62
               7
100
AcDbLine
 10
-5.3655236377879518
 20
-51.263896624109151
 30
0.0
 11
-7.6639662571879441
 21
-53.456972164709143
 31
0.0
  0
LINE
  5
108
100
AcDbEntity
  8
0
  6
CONTINUOUS
 62
               7
100
AcDbLine
 10
-7.6639662571879441
 20
-53.456972164709143
 30
0.0
 11
-5.3832610301879456
 21
-52.47967320290914
 31
0.0
  0
LINE
  5
109
100
AcDbEntity
  8
0
  6
CONTINUOUS
 62
               7
100
AcDbLine
 10
-5.3832610301879456
 20
-52.47967320290914
 30
0.0
 11
-3.0789904267879464
 21
-50.284234774709148
 31
0.0
  0
LINE
  5
10A
100
AcDbEntity
  8
0
  6
CONTINUOUS
 62
               7
100
AcDbLine
 10
-71.649097733687938
 20
-46.841315557309144
 30
0.0
 11
-72.960935829787957
 21
-45.922767918509152
 31
0.0
  0
SPLINE
  5
10B
100
AcDbEntity
  8
0
  6
CONTINUOUS
 62
               7
100
AcDbSpline
210
0.0
220
0.0
230
1.0
 70
               8
 71
               2
 72
              17
 73
              14
 74
               0
 42
0.000001
 43
0.000001
 40
0.0
 40
0.0
 40
0.0
 40
1.0
 40
1.0
 40
2.0
 40
3.0
 40
4.0
 40
5.0
 40
6.0
 40
7.0
 40
8.0
 40
9.0
 40
9.0
 40
10.0
 40
10.0
 40
10.0
 10
-72.881196206661457
 20
-45.775235302310747
 30
0.0
 10
-72.881246529476641
 20
-45.775264660051995
 30
0.0
 10
-72.881296852291825
 20
-45.775294017793243
 30
0.0
 10
-72.887707959916185
 20
-45.778905539380446
 30
0.0
 10
-72.9005535124559
 20
-45.787574875324907
 30
0.0
 10
-72.913018939842175
 20
-45.799768571850194
 30
0.0
 10
-72.931734112333658
 20
-45.823767968739048
 30
0.0
 10
-72.946372656300355
 20
-45.851376969062784
 30
0.0
 10
-72.956532786613536
 20
-45.877578010621392
 30
0.0
 10
-72.959722496012205
 20
-45.901882177271276
 30
0.0
 10
-72.960609657259909
 20
-45.915643485357123
 30
0.0
 10
-72.960919581818899
 20
-45.922544413311797
 30
0.0
 10
-72.96092485274572
 20
-45.92265567769757
 30
0.0
 10
-72.96093012367254
 20
-45.922766942083342
 30
0.0
  0
LINE
  5
10C
100
AcDbEntity
  8
0
  6
CONTINUOUS
 62
               7
100
AcDbLine
 10
-72.945899415487958
 20
-48.020331712009153
 30
0.0
 11
-71.634485364887951
 21
-48.879725455509146
 31
0.0
  0
LINE
  5
10D
100
AcDbEntity
  8
0
  6
CONTINUOUS
 62
               7
100
AcDbLine
 10
-72.945907135087936
 20
-48.020336255109143
 30
0.0
 11
-72.960935829787957
 21
-45.922767918509152
 31
0.0
  0
SPLINE
  5
10E
100
AcDbEntity
  8
0
  6
CONTINUOUS
 62
               7
100
AcDbSpline
210
0.0
220
0.0
230
1.0
 70
               8
 71
               2
 72
              15
 73
              12
 74
               0
 42
0.000001
 43
0.000001
 40
0.0
 40
0.0
 40
0.0
 40
1.0
 40
1.0
 40
2.0
 40
3.0
 40
4.0
 40
5.0
 40
6.0
 40
7.0
 40
7.0
 40
8.0
 40
8.0
 40
8.0
 10
-72.743103806953854
 20
-48.938084345229441
 30
0.0
 10
-72.743362657470499
 20
-48.937824367022209
 30
0.0
 10
-72.743621507987143
 20
-48.937564388814977
 30
0.0
 10
-72.759781897183387
 20
-48.921918108785164
 30
0.0
 10
-72.798640362922583
 20
-48.876189912259306
 30
0.0
 10
-72.84451549080643
 20
-48.778613884404194
 30
0.0
 10
-72.883955548701806
 20
-48.631944189157096
 30
0.0
 10
-72.911613462009598
 20
-48.464159844395525
 30
0.0
 10
-72.936215197978129
 20
-48.207094116749133
 30
0.0
 10
-72.945576587216493
 20
-48.026142866997233
 30
0.0
 10
-72.945741861170376
 20
-48.023239561044392
 30
0.0
 10
-72.945907135124259
 20
-48.02033625509155
 30
0.0
  0
SPLINE
  5
10F
100
AcDbEntity
  8
0
  6
CONTINUOUS
 62
               7
100
AcDbSpline
210
0.0
220
0.0
230
1.0
 70
               8
 71
               2
 72
              20
 73
              17
 74
               0
 42
0.000001
 43
0.000001
 40
0.0
 40
0.0
 40
0.0
 40
1.0
 40
1.0
 40
2.0
 40
3.0
 40
4.0
 40
5.0
 40
6.0
 40
7.0
 40
8.0
 40
9.0
 40
10.0
 40
11.0
 40
12.0
 40
12.0
 40
13.0
 40
13.0
 40
13.0
 10
-66.405566839409857
 20
37.074338225184761
 30
0.0
 10
-66.404626477760132
 20
37.084264355614266
 30
0.0
 10
-66.403686116110407
 20
37.094190486043772
 30
0.0
 10
-66.378974501990939
 20
37.475517023052646
 30
0.0
 10
-66.218631869413372
 20
38.120451367988807
 30
0.0
 10
-65.845945471484384
 20
38.711427411564898
 30
0.0
 10
-65.146932510707728
 20
39.248230824438849
 30
0.0
 10
-64.354568329364838
 20
39.388253721668207
 30
0.0
 10
-63.744883155124676
 20
39.328635238848591
 30
0.0
 10
-62.920764941928276
 20
39.024486092773429
 30
0.0
 10
-62.242187474229958
 20
38.37396172384797
 30
0.0
 10
-61.936109420952342
 20
37.897329328748583
 30
0.0
 10
-61.721406966807955
 20
37.42958327022609
 30
0.0
 10
-61.614237730567346
 20
36.849908780812171
 30
0.0
 10
-61.584093485240651
 20
36.544721974825478
 30
0.0
 10
-61.583009209700947
 20
36.53456499583551
 30
0.0
 10
-61.581924934161243
 20
36.524408016845541
 30
0.0
  0
SPLINE
  5
110
100
AcDbEntity
  8
0
  6
CONTINUOUS
 62
               7
100
AcDbSpline
210
0.0
220
0.0
230
1.0
 70
               8
 71
               2
 72
              19
 73
              16
 74
               0
 42
0.000001
 43
0.000001
 40
0.0
 40
0.0
 40
0.0
 40
1.0
 40
1.0
 40
2.0
 40
3.0
 40
4.0
 40
5.0
 40
6.0
 40
7.0
 40
8.0
 40
9.0
 40
10.0
 40
11.0
 40
11.0
 40
12.0
 40
12.0
 40
12.0
 10
-62.959573108430753
 20
34.378629819287454
 30
0.0
 10
-62.960807083613687
 20
34.378063114753814
 30
0.0
 10
-62.962041058796622
 20
34.377496410220175
 30
0.0
 10
-62.999014850979187
 20
34.360386352327623
 30
0.0
 10
-63.294265638453815
 20
34.233549683504947
 30
0.0
 10
-63.905628275751489
 20
34.21600929690473
 30
0.0
 10
-64.501589216342865
 20
34.350484183882628
 30
0.0
 10
-64.932853016561836
 20
34.554399622282006
 30
0.0
 10
-65.361554982222827
 20
34.837978449756889
 30
0.0
 10
-65.817000320988825
 20
35.321100061296306
 30
0.0
 10
-66.075929592441327
 20
35.751599585247504
 30
0.0
 10
-66.277406863117733
 20
36.200319529279369
 30
0.0
 10
-66.375567286696878
 20
36.773884859420122
 30
0.0
 10
-66.403565000135728
 20
37.055586682567423
 30
0.0
 10
-66.404565919772793
 20
37.064962453876092
 30
0.0
 10
-66.405566839409857
 20
37.074338225184761
 30
0.0
  0
ARC
  5
111
100
AcDbEntity
  8
0
  6
CONTINUOUS
 62
               7
100
AcDbCircle
 10
-63.708131410687947
 20
36.591553606190843
 30
0.0
 40
2.4321034774976815
100
AcDbArc
 50
228.53725506520004
 51
295.52528339980023
  0
ARC
  5
112
100
AcDbEntity
  8
0
  6
CONTINUOUS
 62
               7
100
AcDbCircle
 10
-63.911395333287949
 20
37.069220974890868
 30
0.0
 40
2.5711973290538879
100
AcDbArc
 50
126.67586214560026
 51
212.12412953869975
  0
POLYLINE
  5
113
100
AcDbEntity
  8
0
  6
CONTINUOUS
 62
               7
100
AcDb2dPolyline
 66
               1
 10
0.0
 20
0.0
 30
0.0
 75
               5
  0
VERTEX
  5
114
100
AcDbEntity
  8
0
  6
CONTINUOUS
 62
               7
100
AcDbVertex
100
AcDb2dVertex
 10
-27.054384728887946
 20
49.534348242290861
 30
0.0
  0
VERTEX
  5
115
100
AcDbEntity
  8
0
  6
CONTINUOUS
 62
               7
100
AcDbVertex
100
AcDb2dVertex
 10
-27.237383287187946
 20
49.380746305890852
 30
0.0
  0
VERTEX
  5
116
100
AcDbEntity
  8
0
  6
CONTINUOUS
 62
               7
100
AcDbVertex
100
AcDb2dVertex
 10
-27.594583301187946
 20
49.137812945290847
 30
0.0
  0
SEQEND
  5
117
100
AcDbEntity
  8
0
  6
CONTINUOUS
 62
               7
  0
POLYLINE
  5
118
100
AcDbEntity
  8
0
  6
CONTINUOUS
 62
               7
100
AcDb2dPolyline
 66
               1
 10
0.0
 20
0.0
 30
0.0
 75
               5
  0
VERTEX
  5
119
100
AcDbEntity
  8
0
  6
CONTINUOUS
 62
               7
100
AcDbVertex
100
AcDb2dVertex
 10
-31.956441078487948
 20
56.549574175490847
 30
0.0
  0
VERTEX
  5
11A
100
AcDbEntity
  8
0
  6
CONTINUOUS
 62
               7
100
AcDbVertex
100
AcDb2dVertex
 10
-31.757856301287937
 20
56.657480062890841
 30
0.0
  0
VERTEX
  5
11B
100
AcDbEntity
  8
0
  6
CONTINUOUS
 62
               7
100
AcDbVertex
100
AcDb2dVertex
 10
-31.34750517788796
 20
56.829309171390861
 30
0.0
  0
SEQEND
  5
11C
100
AcDbEntity
  8
0
  6
CONTINUOUS
 62
               7
  0
LINE
  5
11D
100
AcDbEntity
  8
0
  6
CONTINUOUS
 62
               7
100
AcDbLine
 10
-9.4250537227879576
 20
65.583374054490861
 30
0.0
 11
-16.553986422787936
 21
62.106236215990862
 31
0.0
  0
LINE
  5
11E
100
AcDbEntity
  8
0
  6
CONTINUOUS
 62
               7
100
AcDbLine
 10
-16.553986422787936
 20
62.106236215990862
 30
0.0
 11
-19.831115076287936
 21
61.822123993790854
 31
0.0
  0
LINE
  5
11F
100
AcDbEntity
  8
0
  6
CONTINUOUS
 62
               7
100
AcDbLine
 10
-19.831115076287936
 20
61.822123993790854
 30
0.0
 11
-72.549759816587937
 21
67.832432357190868
 31
0.0
  0
LINE
  5
120
100
AcDbEntity
  8
0
  6
CONTINUOUS
 62
               7
100
AcDbLine
 10
-72.549759816587937
 20
67.832432357190868
 30
0.0
 11
-73.839021794787953
 21
68.637146274390858
 31
0.0
  0
LINE
  5
121
100
AcDbEntity
  8
0
  6
CONTINUOUS
 62
               7
100
AcDbLine
 10
-73.839021794787953
 20
68.637146274390858
 30
0.0
 11
-73.761917953487938
 21
68.685027485690853
 31
0.0
  0
LINE
  5
122
100
AcDbEntity
  8
0
  6
CONTINUOUS
 62
               7
100
AcDbLine
 10
-16.291212578087958
 20
25.449564444090868
 30
0.0
 11
-16.553986422787936
 21
62.106236215990862
 31
0.0
  0
LINE
  5
123
100
AcDbEntity
  8
0
  6
CONTINUOUS
 62
               7
100
AcDbLine
 10
-19.567762713887952
 20
25.084749612790858
 30
0.0
 11
-16.291212578087958
 21
25.449564444090868
 31
0.0
  0
LINE
  5
124
100
AcDbEntity
  8
0
  6
CONTINUOUS
 62
               7
100
AcDbLine
 10
-19.567762713887952
 20
25.084749612790858
 30
0.0
 11
-19.831115076287936
 21
61.822123993790854
 31
0.0
  0
LINE
  5
125
100
AcDbEntity
  8
0
  6
CONTINUOUS
 62
               7
100
AcDbLine
 10
-72.286407454087936
 20
31.095057976190844
 30
0.0
 11
-19.567762713887952
 21
25.084749612790858
 31
0.0
  0
LINE
  5
126
100
AcDbEntity
  8
0
  6
CONTINUOUS
 62
               7
100
AcDbLine
 10
-72.549759816587937
 20
67.832432357190868
 30
0.0
 11
-72.286407454087936
 21
31.095057976190844
 31
0.0
  0
POLYLINE
  5
127
100
AcDbEntity
  8
0
  6
CONTINUOUS
 62
               7
100
AcDb2dPolyline
 66
               1
 10
0.0
 20
0.0
 30
0.0
 75
               5
  0
VERTEX
  5
128
100
AcDbEntity
  8
0
  6
CONTINUOUS
 62
               7
100
AcDbVertex
100
AcDb2dVertex
 10
-30.220578324287935
 20
56.871346587190857
 30
0.0
  0
VERTEX
  5
129
100
AcDbEntity
  8
0
  6
CONTINUOUS
 62
               7
100
AcDbVertex
100
AcDb2dVertex
 10
-29.538808985687943
 20
56.732227216590843
 30
0.0
  0
VERTEX
  5
12A
100
AcDbEntity
  8
0
  6
CONTINUOUS
 62
               7
100
AcDbVertex
100
AcDb2dVertex
 10
-28.875771823687948
 20
56.474225659790847
 30
0.0
  0
VERTEX
  5
12B
100
AcDbEntity
  8
0
  6
CONTINUOUS
 62
               7
100
AcDbVertex
100
AcDb2dVertex
 10
-28.250542115887946
 20
56.104763923690854
 30
0.0
  0
VERTEX
  5
12C
100
AcDbEntity
  8
0
  6
CONTINUOUS
 62
               7
100
AcDbVertex
100
AcDb2dVertex
 10
-27.681103661887953
 20
55.634470277690866
 30
0.0
  0
VERTEX
  5
12D
100
AcDbEntity
  8
0
  6
CONTINUOUS
 62
               7
100
AcDbVertex
100
AcDb2dVertex
 10
-27.18384186778794
 20
55.076873812690849
 30
0.0
  0
VERTEX
  5
12E
100
AcDbEntity
  8
0
  6
CONTINUOUS
 62
               7
100
AcDbVertex
100
AcDb2dVertex
 10
-26.773061652187941
 20
54.448017485790842
 30
0.0
  0
VERTEX
  5
12F
100
AcDbEntity
  8
0
  6
CONTINUOUS
 62
               7
100
AcDbVertex
100
AcDb2dVertex
 10
-26.460577596787935
 20
53.765989673590866
 30
0.0
  0
VERTEX
  5
130
100
AcDbEntity
  8
0
  6
CONTINUOUS
 62
               7
100
AcDbVertex
100
AcDb2dVertex
 10
-26.25538170538794
 20
53.050413428090849
 30
0.0
  0
VERTEX
  5
131
100
AcDbEntity
  8
0
  6
CONTINUOUS
 62
               7
100
AcDbVertex
100
AcDb2dVertex
 10
-26.163376766487936
 20
52.32187277599084
 30
0.0
  0
VERTEX
  5
132
100
AcDbEntity
  8
0
  6
CONTINUOUS
 62
               7
100
AcDbVertex
100
AcDb2dVertex
 10
-26.18720786938794
 20
51.601327775590846
 30
0.0
  0
VERTEX
  5
133
100
AcDbEntity
  8
0
  6
CONTINUOUS
 62
               7
100
AcDbVertex
100
AcDb2dVertex
 10
-26.32619199238794
 20
50.909506659290855
 30
0.0
  0
VERTEX
  5
134
100
AcDbEntity
  8
0
  6
CONTINUOUS
 62
               7
100
AcDbVertex
100
AcDb2dVertex
 10
-26.576328987287944
 20
50.266311740190844
 30
0.0
  0
VERTEX
  5
135
100
AcDbEntity
  8
0
  6
CONTINUOUS
 62
               7
100
AcDbVertex
100
AcDb2dVertex
 10
-26.930424505087949
 20
49.690247055890865
 30
0.0
  0
VERTEX
  5
136
100
AcDbEntity
  8
0
  6
CONTINUOUS
 62
               7
100
AcDbVertex
100
AcDb2dVertex
 10
-27.378289412687955
 20
49.197884341390846
 30
0.0
  0
VERTEX
  5
137
100
AcDbEntity
  8
0
  6
CONTINUOUS
 62
               7
100
AcDbVertex
100
AcDb2dVertex
 10
-27.90704295438794
 20
48.80338861039084
 30
0.0
  0
VERTEX
  5
138
100
AcDbEntity
  8
0
  6
CONTINUOUS
 62
               7
100
AcDbVertex
100
AcDb2dVertex
 10
-28.501470573487943
 20
48.51810829109084
 30
0.0
  0
VERTEX
  5
139
100
AcDbEntity
  8
0
  6
CONTINUOUS
 62
               7
100
AcDbVertex
100
AcDb2dVertex
 10
-29.144472113387955
 20
48.350250589190864
 30
0.0
  0
VERTEX
  5
13A
100
AcDbEntity
  8
0
  6
CONTINUOUS
 62
               7
100
AcDbVertex
100
AcDb2dVertex
 10
-29.817551292787947
 20
48.30464432999085
 30
0.0
  0
VERTEX
  5
13B
100
AcDbEntity
  8
0
  6
CONTINUOUS
 62
               7
100
AcDbVertex
100
AcDb2dVertex
 10
-30.100064383187963
 20
48.321938529590852
 30
0.0
  0
SEQEND
  5
13C
100
AcDbEntity
  8
0
  6
CONTINUOUS
 62
               7
  0
ARC
  5
13D
100
AcDbEntity
  8
0
  6
CONTINUOUS
 62
               7
100
AcDbCircle
 10
-30.649592554387958
 20
53.37227125449084
 30
0.0
 40
3.5252774917643643
100
AcDbArc
 50
83.009972584799826
 51
164.57640748839981
  0
POLYLINE
  5
13E
100
AcDbEntity
  8
0
  6
CONTINUOUS
 62
               7
100
AcDb2dPolyline
 66
               1
 10
0.0
 20
0.0
 30
0.0
 75
               5
  0
VERTEX
  5
13F
100
AcDbEntity
  8
0
  6
CONTINUOUS
 62
               7
100
AcDbVertex
100
AcDb2dVertex
 10
-64.013791048787937
 20
39.595651892390862
 30
0.0
  0
VERTEX
  5
140
100
AcDbEntity
  8
0
  6
CONTINUOUS
 62
               7
100
AcDbVertex
100
AcDb2dVertex
 10
-63.464645103987955
 20
39.471989031390848
 30
0.0
  0
VERTEX
  5
141
100
AcDbEntity
  8
0
  6
CONTINUOUS
 62
               7
100
AcDbVertex
100
AcDb2dVertex
 10
-62.938622776387952
 20
39.231521159190862
 30
0.0
  0
VERTEX
  5
142
100
AcDbEntity
  8
0
  6
CONTINUOUS
 62
               7
100
AcDbVertex
100
AcDb2dVertex
 10
-62.458715309687953
 20
38.884756525690847
 30
0.0
  0
VERTEX
  5
143
100
AcDbEntity
  8
0
  6
CONTINUOUS
 62
               7
100
AcDbVertex
100
AcDb2dVertex
 10
-62.04589617328795
 20
38.446850049990843
 30
0.0
  0
VERTEX
  5
144
100
AcDbEntity
  8
0
  6
CONTINUOUS
 62
               7
100
AcDbVertex
100
AcDb2dVertex
 10
-61.718206796787946
 20
37.93694187759084
 30
0.0
  0
VERTEX
  5
145
100
AcDbEntity
  8
0
  6
CONTINUOUS
 62
               7
100
AcDbVertex
100
AcDb2dVertex
 10
-61.489969736487943
 20
37.377315756290841
 30
0.0
  0
VERTEX
  5
146
100
AcDbEntity
  8
0
  6
CONTINUOUS
 62
               7
100
AcDbVertex
100
AcDb2dVertex
 10
-61.37115844828795
 20
36.792430803790865
 30
0.0
  0
VERTEX
  5
147
100
AcDbEntity
  8
0
  6
CONTINUOUS
 62
               7
100
AcDbVertex
100
AcDb2dVertex
 10
-61.366967870487947
 20
36.207849653390866
 30
0.0
  0
VERTEX
  5
148
100
AcDbEntity
  8
0
  6
CONTINUOUS
 62
               7
100
AcDbVertex
100
AcDb2dVertex
 10
-61.477581147487946
 20
35.649120767590858
 30
0.0
  0
VERTEX
  5
149
100
AcDbEntity
  8
0
  6
CONTINUOUS
 62
               7
100
AcDbVertex
100
AcDb2dVertex
 10
-61.698161641287946
 20
35.140664004190853
 30
0.0
  0
VERTEX
  5
14A
100
AcDbEntity
  8
0
  6
CONTINUOUS
 62
               7
100
AcDbVertex
100
AcDb2dVertex
 10
-62.019070519187956
 20
34.704699845990859
 30
0.0
  0
VERTEX
  5
14B
100
AcDbEntity
  8
0
  6
CONTINUOUS
 62
               7
100
AcDbVertex
100
AcDb2dVertex
 10
-62.426281565187942
 20
34.360283663590849
 30
0.0
  0
VERTEX
  5
14C
100
AcDbEntity
  8
0
  6
CONTINUOUS
 62
               7
100
AcDbVertex
100
AcDb2dVertex
 10
-62.90199845398795
 20
34.122467146790854
 30
0.0
  0
VERTEX
  5
14D
100
AcDbEntity
  8
0
  6
CONTINUOUS
 62
               7
100
AcDbVertex
100
AcDb2dVertex
 10
-63.42543086088795
 20
34.001643838690853
 30
0.0
  0
VERTEX
  5
14E
100
AcDbEntity
  8
0
  6
CONTINUOUS
 62
               7
100
AcDbVertex
100
AcDb2dVertex
 10
-63.973700724787953
 20
34.003094349690855
 30
0.0
  0
VERTEX
  5
14F
100
AcDbEntity
  8
0
  6
CONTINUOUS
 62
               7
100
AcDbVertex
100
AcDb2dVertex
 10
-64.522846669587949
 20
34.12675721069084
 30
0.0
  0
VERTEX
  5
150
100
AcDbEntity
  8
0
  6
CONTINUOUS
 62
               7
100
AcDbVertex
100
AcDb2dVertex
 10
-65.04886900368794
 20
34.367225980790863
 30
0.0
  0
VERTEX
  5
151
100
AcDbEntity
  8
0
  6
CONTINUOUS
 62
               7
100
AcDbVertex
100
AcDb2dVertex
 10
-65.528776470287937
 20
34.71399061429085
 30
0.0
  0
VERTEX
  5
152
100
AcDbEntity
  8
0
  6
CONTINUOUS
 62
               7
100
AcDbVertex
100
AcDb2dVertex
 10
-65.94159560028794
 20
35.151896192090845
 30
0.0
  0
VERTEX
  5
153
100
AcDbEntity
  8
0
  6
CONTINUOUS
 62
               7
100
AcDbVertex
100
AcDb2dVertex
 10
-66.269284983187958
 20
35.661805262490844
 30
0.0
  0
VERTEX
  5
154
100
AcDbEntity
  8
0
  6
CONTINUOUS
 62
               7
100
AcDbVertex
100
AcDb2dVertex
 10
-66.497522037087947
 20
36.22143048569086
 30
0.0
  0
VERTEX
  5
155
100
AcDbEntity
  8
0
  6
CONTINUOUS
 62
               7
100
AcDbVertex
100
AcDb2dVertex
 10
-66.61633332528794
 20
36.806315438190865
 30
0.0
  0
VERTEX
  5
156
100
AcDbEntity
  8
0
  6
CONTINUOUS
 62
               7
100
AcDbVertex
100
AcDb2dVertex
 10
-66.620523903087957
 20
37.390896588590863
 30
0.0
  0
VERTEX
  5
157
100
AcDbEntity
  8
0
  6
CONTINUOUS
 62
               7
100
AcDbVertex
100
AcDb2dVertex
 10
-66.509910626087958
 20
37.949625474490858
 30
0.0
  0
VERTEX
  5
158
100
AcDbEntity
  8
0
  6
CONTINUOUS
 62
               7
100
AcDbVertex
100
AcDb2dVertex
 10
-66.28933013878796
 20
38.458083135790844
 30
0.0
  0
VERTEX
  5
159
100
AcDbEntity
  8
0
  6
CONTINUOUS
 62
               7
100
AcDbVertex
100
AcDb2dVertex
 10
-65.968421254387948
 20
38.894046396090857
 30
0.0
  0
VERTEX
  5
15A
100
AcDbEntity
  8
0
  6
CONTINUOUS
 62
               7
100
AcDbVertex
100
AcDb2dVertex
 10
-65.56121021488795
 20
39.238463476390848
 30
0.0
  0
VERTEX
  5
15B
100
AcDbEntity
  8
0
  6
CONTINUOUS
 62
               7
100
AcDbVertex
100
AcDb2dVertex
 10
-65.085493326087942
 20
39.476279993290859
 30
0.0
  0
VERTEX
  5
15C
100
AcDbEntity
  8
0
  6
CONTINUOUS
 62
               7
100
AcDbVertex
100
AcDb2dVertex
 10
-64.56206091268794
 20
39.597102403390863
 30
0.0
  0
VERTEX
  5
15D
100
AcDbEntity
  8
0
  6
CONTINUOUS
 62
               7
100
AcDbVertex
100
AcDb2dVertex
 10
-64.013791048787937
 20
39.595651892390862
 30
0.0
  0
SEQEND
  5
15E
100
AcDbEntity
  8
0
  6
CONTINUOUS
 62
               7
  0
POLYLINE
  5
15F
100
AcDbEntity
  8
0
  6
CONTINUOUS
 62
               7
100
AcDb2dPolyline
 66
               1
 10
0.0
 20
0.0
 30
0.0
 75
               5
  0
VERTEX
  5
160
100
AcDbEntity
  8
0
  6
CONTINUOUS
 62
               7
100
AcDbVertex
100
AcDb2dVertex
 10
-27.770374363587955
 20
32.18792271699084
 30
0.0
  0
VERTEX
  5
161
100
AcDbEntity
  8
0
  6
CONTINUOUS
 62
               7
100
AcDbVertex
100
AcDb2dVertex
 10
-27.944767950587952
 20
32.244473946290867
 30
0.0
  0
VERTEX
  5
162
100
AcDbEntity
  8
0
  6
CONTINUOUS
 62
               7
100
AcDbVertex
100
AcDb2dVertex
 10
-28.093136326487944
 20
32.365813431490864
 30
0.0
  0
VERTEX
  5
163
100
AcDbEntity
  8
0
  6
CONTINUOUS
 62
               7
100
AcDbVertex
100
AcDb2dVertex
 10
-28.192895237187962
 20
32.533469314690848
 30
0.0
  0
VERTEX
  5
164
100
AcDbEntity
  8
0
  6
CONTINUOUS
 62
               7
100
AcDbVertex
100
AcDb2dVertex
 10
-28.228853722787953
 20
32.721915675890841
 30
0.0
  0
VERTEX
  5
165
100
AcDbEntity
  8
0
  6
CONTINUOUS
 62
               7
100
AcDbVertex
100
AcDb2dVertex
 10
-28.195540390887963
 20
32.902465444190852
 30
0.0
  0
VERTEX
  5
166
100
AcDbEntity
  8
0
  6
CONTINUOUS
 62
               7
100
AcDbVertex
100
AcDb2dVertex
 10
-28.098023934987957
 20
33.047629605590856
 30
0.0
  0
VERTEX
  5
167
100
AcDbEntity
  8
0
  6
CONTINUOUS
 62
               7
100
AcDbVertex
100
AcDb2dVertex
 10
-27.951153919187952
 20
33.13530976999084
 30
0.0
  0
VERTEX
  5
168
100
AcDbEntity
  8
0
  6
CONTINUOUS
 62
               7
100
AcDbVertex
100
AcDb2dVertex
 10
-27.777286487987958
 20
33.152156714090864
 30
0.0
  0
VERTEX
  5
169
100
AcDbEntity
  8
0
  6
CONTINUOUS
 62
               7
100
AcDbVertex
100
AcDb2dVertex
 10
-27.602892901087948
 20
33.095605484790866
 30
0.0
  0
VERTEX
  5
16A
100
AcDbEntity
  8
0
  6
CONTINUOUS
 62
               7
100
AcDbVertex
100
AcDb2dVertex
 10
-27.454522829987944
 20
32.974265806290845
 30
0.0
  0
VERTEX
  5
16B
100
AcDbEntity
  8
0
  6
CONTINUOUS
 62
               7
100
AcDbVertex
100
AcDb2dVertex
 10
-27.354765620887939
 20
32.806611014390853
 30
0.0
  0
VERTEX
  5
16C
100
AcDbEntity
  8
0
  6
CONTINUOUS
 62
               7
100
AcDbVertex
100
AcDb2dVertex
 10
-27.318805433787951
 20
32.618163561890867
 30
0.0
  0
VERTEX
  5
16D
100
AcDbEntity
  8
0
  6
CONTINUOUS
 62
               7
100
AcDbVertex
100
AcDb2dVertex
 10
-27.352120467187937
 20
32.437614884890849
 30
0.0
  0
VERTEX
  5
16E
100
AcDbEntity
  8
0
  6
CONTINUOUS
 62
               7
100
AcDbVertex
100
AcDb2dVertex
 10
-27.449635221587947
 20
32.292449632190852
 30
0.0
  0
VERTEX
  5
16F
100
AcDbEntity
  8
0
  6
CONTINUOUS
 62
               7
100
AcDbVertex
100
AcDb2dVertex
 10
-27.596506932487948
 20
32.204769660990848
 30
0.0
  0
VERTEX
  5
170
100
AcDbEntity
  8
0
  6
CONTINUOUS
 62
               7
100
AcDbVertex
100
AcDb2dVertex
 10
-27.770374363587955
 20
32.18792271699084
 30
0.0
  0
SEQEND
  5
171
100
AcDbEntity
  8
0
  6
CONTINUOUS
 62
               7
  0
POLYLINE
  5
172
100
AcDbEntity
  8
0
  6
CONTINUOUS
 62
               7
100
AcDb2dPolyline
 66
               1
 10
0.0
 20
0.0
 30
0.0
 75
               5
  0
VERTEX
  5
173
100
AcDbEntity
  8
0
  6
CONTINUOUS
 62
               7
100
AcDbVertex
100
AcDb2dVertex
 10
-46.134117256287958
 20
56.970671562990844
 30
0.0
  0
VERTEX
  5
174
100
AcDbEntity
  8
0
  6
CONTINUOUS
 62
               7
100
AcDbVertex
100
AcDb2dVertex
 10
-45.109655141287952
 20
56.792993278790846
 30
0.0
  0
VERTEX
  5
175
100
AcDbEntity
  8
0
  6
CONTINUOUS
 62
               7
100
AcDbVertex
100
AcDb2dVertex
 10
-44.097202796287938
 20
56.495685248090865
 30
0.0
  0
VERTEX
  5
176
100
AcDbEntity
  8
0
  6
CONTINUOUS
 62
               7
100
AcDbVertex
100
AcDb2dVertex
 10
-43.109491968087944
 20
56.082485248990849
 30
0.0
  0
VERTEX
  5
177
100
AcDbEntity
  8
0
  6
CONTINUOUS
 62
               7
100
AcDbVertex
100
AcDb2dVertex
 10
-42.158944338087956
 20
55.558591473790841
 30
0.0
  0
VERTEX
  5
178
100
AcDbEntity
  8
0
  6
CONTINUOUS
 62
               7
100
AcDbVertex
100
AcDb2dVertex
 10
-41.257513067487956
 20
54.93059062679086
 30
0.0
  0
VERTEX
  5
179
100
AcDbEntity
  8
0
  6
CONTINUOUS
 62
               7
100
AcDbVertex
100
AcDb2dVertex
 10
-40.416534257187941
 20
54.206380872790845
 30
0.0
  0
VERTEX
  5
17A
100
AcDbEntity
  8
0
  6
CONTINUOUS
 62
               7
100
AcDbVertex
100
AcDb2dVertex
 10
-39.646583517987942
 20
53.395069345390851
 30
0.0
  0
VERTEX
  5
17B
100
AcDbEntity
  8
0
  6
CONTINUOUS
 62
               7
100
AcDbVertex
100
AcDb2dVertex
 10
-38.957344104287948
 20
52.506858413490846
 30
0.0
  0
VERTEX
  5
17C
100
AcDbEntity
  8
0
  6
CONTINUOUS
 62
               7
100
AcDbVertex
100
AcDb2dVertex
 10
-38.357483208587944
 20
51.552918519890852
 30
0.0
  0
VERTEX
  5
17D
100
AcDbEntity
  8
0
  6
CONTINUOUS
 62
               7
100
AcDbVertex
100
AcDb2dVertex
 10
-37.854544236387959
 20
50.545245795290867
 30
0.0
  0
VERTEX
  5
17E
100
AcDbEntity
  8
0
  6
CONTINUOUS
 62
               7
100
AcDbVertex
100
AcDb2dVertex
 10
-37.454852580587946
 20
49.496512461390864
 30
0.0
  0
VERTEX
  5
17F
100
AcDbEntity
  8
0
  6
CONTINUOUS
 62
               7
100
AcDbVertex
100
AcDb2dVertex
 10
-37.163433171387958
 20
48.419906239790862
 30
0.0
  0
VERTEX
  5
180
100
AcDbEntity
  8
0
  6
CONTINUOUS
 62
               7
100
AcDbVertex
100
AcDb2dVertex
 10
-36.983952566087957
 20
47.32896695039085
 30
0.0
  0
VERTEX
  5
181
100
AcDbEntity
  8
0
  6
CONTINUOUS
 62
               7
100
AcDbVertex
100
AcDb2dVertex
 10
-36.918666895087959
 20
46.23741323399085
 30
0.0
  0
VERTEX
  5
182
100
AcDbEntity
  8
0
  6
CONTINUOUS
 62
               7
100
AcDbVertex
100
AcDb2dVertex
 10
-36.968396929087952
 20
45.158972143090864
 30
0.0
  0
VERTEX
  5
183
100
AcDbEntity
  8
0
  6
CONTINUOUS
 62
               7
100
AcDbVertex
100
AcDb2dVertex
 10
-37.132517520887937
 20
44.107205885490856
 30
0.0
  0
VERTEX
  5
184
100
AcDbEntity
  8
0
  6
CONTINUOUS
 62
               7
100
AcDbVertex
100
AcDb2dVertex
 10
-37.408965694687957
 20
43.095340692490851
 30
0.0
  0
VERTEX
  5
185
100
AcDbEntity
  8
0
  6
CONTINUOUS
 62
               7
100
AcDbVertex
100
AcDb2dVertex
 10
-37.794263174687948
 20
42.136101820990859
 30
0.0
  0
VERTEX
  5
186
100
AcDbEntity
  8
0
  6
CONTINUOUS
 62
               7
100
AcDbVertex
100
AcDb2dVertex
 10
-38.283566037987946
 20
41.241551871690859
 30
0.0
  0
VERTEX
  5
187
100
AcDbEntity
  8
0
  6
CONTINUOUS
 62
               7
100
AcDbVertex
100
AcDb2dVertex
 10
-38.870720374987961
 20
40.422940335190845
 30
0.0
  0
VERTEX
  5
188
100
AcDbEntity
  8
0
  6
CONTINUOUS
 62
               7
100
AcDbVertex
100
AcDb2dVertex
 10
-39.548342569487936
 20
39.690561553190861
 30
0.0
  0
VERTEX
  5
189
100
AcDbEntity
  8
0
  6
CONTINUOUS
 62
               7
100
AcDbVertex
100
AcDb2dVertex
 10
-40.30791153268796
 20
39.053626379890858
 30
0.0
  0
VERTEX
  5
18A
100
AcDbEntity
  8
0
  6
CONTINUOUS
 62
               7
100
AcDbVertex
100
AcDb2dVertex
 10
-41.139874561087957
 20
38.520144145090853
 30
0.0
  0
VERTEX
  5
18B
100
AcDbEntity
  8
0
  6
CONTINUOUS
 62
               7
100
AcDbVertex
100
AcDb2dVertex
 10
-41.588074984987962
 20
38.29041909859086
 30
0.0
  0
SEQEND
  5
18C
100
AcDbEntity
  8
0
  6
CONTINUOUS
 62
               7
  0
ARC
  5
18D
100
AcDbEntity
  8
0
  6
CONTINUOUS
 62
               7
100
AcDbCircle
 10
-47.120533152687948
 20
49.020841165890857
 30
0.0
 40
8.0107939471332923
100
AcDbArc
 50
82.926883998399987
 51
125.30582391999998
  0
SPLINE
  5
18E
100
AcDbEntity
  8
0
  6
CONTINUOUS
 62
               7
100
AcDbSpline
210
0.0
220
0.0
230
1.0
 70
               8
 71
               2
 72
              16
 73
              13
 74
               0
 42
0.000001
 43
0.000001
 40
0.0
 40
0.0
 40
0.0
 40
1.0
 40
1.0
 40
2.0
 40
3.0
 40
4.0
 40
5.0
 40
6.0
 40
7.0
 40
8.0
 40
8.0
 40
9.0
 40
9.0
 40
9.0
 10
-9.1660542015887003
 20
29.453081633614318
 30
0.0
 10
-9.1560754454967466
 20
29.458688541442953
 30
0.0
 10
-9.1460966894047928
 20
29.464295449271589
 30
0.0
 10
-9.0028680370722256
 20
29.556633932667779
 30
0.0
 10
-8.7936944726927706
 20
29.823213270921684
 30
0.0
 10
-8.6368766662254117
 20
30.106450229858069
 30
0.0
 10
-8.5008831301578809
 20
30.446773696352835
 30
0.0
 10
-8.3945522985208001
 20
30.823946485427001
 30
0.0
 10
-8.3229438321462439
 20
31.213394351145752
 30
0.0
 10
-8.2867187732460295
 20
31.59148777888322
 30
0.0
 10
-8.2839421480376174
 20
31.809049647951213
 30
0.0
 10
-8.2840935471382053
 20
31.830169661413152
 30
0.0
 10
-8.2842449462387933
 20
31.85128967487509
 30
0.0
  0
LINE
  5
18F
100
AcDbEntity
  8
0
  6
CONTINUOUS
 62
               7
100
AcDbLine
 10
-16.291212578087958
 20
25.449564444090868
 30
0.0
 11
-9.1660532340879612
 21
29.453081431090851
 31
0.0
  0
SPLINE
  5
190
100
AcDbEntity
  8
0
  6
CONTINUOUS
 62
               7
100
AcDbSpline
210
0.0
220
0.0
230
1.0
 70
               8
 71
               2
 72
              16
 73
              13
 74
               0
 42
0.000001
 43
0.000001
 40
0.0
 40
0.0
 40
0.0
 40
1.0
 40
1.0
 40
2.0
 40
3.0
 40
4.0
 40
5.0
 40
6.0
 40
7.0
 40
8.0
 40
8.0
 40
9.0
 40
9.0
 40
9.0
 10
-8.5156011504388331
 20
64.125234009875072
 30
0.0
 10
-8.5157436437099747
 20
64.145111669603949
 30
0.0
 10
-8.5158861369811163
 20
64.164989329332826
 30
0.0
 10
-8.5210994437362544
 20
64.365547432302662
 30
0.0
 10
-8.5577460926798423
 20
64.683846503337804
 30
0.0
 10
-8.6254734591476208
 20
64.981417734652155
 30
0.0
 10
-8.7239920172647132
 20
65.239163236411912
 30
0.0
 10
-8.9151959790775592
 20
65.542015821872383
 30
0.0
 10
-9.1518050435670872
 20
65.63587507516732
 30
0.0
 10
-9.3106268355149879
 20
65.631037190296496
 30
0.0
 10
-9.4062611994910625
 20
65.592540422569243
 30
0.0
 10
-9.4156579436315226
 20
65.587957158841505
 30
0.0
 10
-9.4250546877719827
 20
65.583373895113766
 30
0.0
  0
LINE
  5
191
100
AcDbEntity
  8
0
  6
CONTINUOUS
 62
               7
100
AcDbLine
 10
-8.2842462731879536
 20
31.851289246990859
 30
0.0
 11
-8.515602487287957
 21
64.125234978090845
 31
0.0
  0
POLYLINE
  5
192
100
AcDbEntity
  8
0
  6
CONTINUOUS
 62
               7
100
AcDb2dPolyline
 66
               1
 10
0.0
 20
0.0
 30
0.0
 75
               5
  0
VERTEX
  5
193
100
AcDbEntity
  8
0
  6
CONTINUOUS
 62
               7
100
AcDbVertex
100
AcDb2dVertex
 10
-32.335330049387942
 20
56.475120864290858
 30
0.0
  0
VERTEX
  5
194
100
AcDbEntity
  8
0
  6
CONTINUOUS
 62
               7
100
AcDbVertex
100
AcDb2dVertex
 10
-32.342086636287938
 20
56.470092948390857
 30
0.0
  0
VERTEX
  5
195
100
AcDbEntity
  8
0
  6
CONTINUOUS
 62
               7
100
AcDbVertex
100
AcDb2dVertex
 10
-32.730593331387944
 20
56.132313440290858
 30
0.0
  0
SEQEND
  5
196
100
AcDbEntity
  8
0
  6
CONTINUOUS
 62
               7
  0
POLYLINE
  5
197
100
AcDbEntity
  8
0
  6
CONTINUOUS
 62
               7
100
AcDb2dPolyline
 66
               1
 10
0.0
 20
0.0
 30
0.0
 75
               5
  0
VERTEX
  5
198
100
AcDbEntity
  8
0
  6
CONTINUOUS
 62
               7
100
AcDbVertex
100
AcDb2dVertex
 10
-28.306770940687947
 20
48.671736961590852
 30
0.0
  0
VERTEX
  5
199
100
AcDbEntity
  8
0
  6
CONTINUOUS
 62
               7
100
AcDbVertex
100
AcDb2dVertex
 10
-28.080372553787946
 20
48.745928524090857
 30
0.0
  0
VERTEX
  5
19A
100
AcDbEntity
  8
0
  6
CONTINUOUS
 62
               7
100
AcDbVertex
100
AcDb2dVertex
 10
-27.843626726487962
 20
48.84272434889084
 30
0.0
  0
SEQEND
  5
19B
100
AcDbEntity
  8
0
  6
CONTINUOUS
 62
               7
  0
POLYLINE
  5
19C
100
AcDbEntity
  8
0
  6
CONTINUOUS
 62
               7
100
AcDb2dPolyline
 66
               1
 10
0.0
 20
0.0
 30
0.0
 75
               5
  0
VERTEX
  5
19D
100
AcDbEntity
  8
0
  6
CONTINUOUS
 62
               7
100
AcDbVertex
100
AcDb2dVertex
 10
-54.206388373187956
 20
47.858955970690857
 30
0.0
  0
VERTEX
  5
19E
100
AcDbEntity
  8
0
  6
CONTINUOUS
 62
               7
100
AcDbVertex
100
AcDb2dVertex
 10
-54.15558339078796
 20
48.847691985790846
 30
0.0
  0
VERTEX
  5
19F
100
AcDbEntity
  8
0
  6
CONTINUOUS
 62
               7
100
AcDbVertex
100
AcDb2dVertex
 10
-53.989666407687956
 20
49.808228317890865
 30
0.0
  0
VERTEX
  5
1A0
100
AcDbEntity
  8
0
  6
CONTINUOUS
 62
               7
100
AcDbVertex
100
AcDb2dVertex
 10
-53.711153218587945
 20
50.726004513190844
 30
0.0
  0
VERTEX
  5
1A1
100
AcDbEntity
  8
0
  6
CONTINUOUS
 62
               7
100
AcDbVertex
100
AcDb2dVertex
 10
-53.324266441487957
 20
51.587107833690851
 30
0.0
  0
VERTEX
  5
1A2
100
AcDbEntity
  8
0
  6
CONTINUOUS
 62
               7
100
AcDbVertex
100
AcDb2dVertex
 10
-52.834870131787959
 20
52.378484739290855
 30
0.0
  0
VERTEX
  5
1A3
100
AcDbEntity
  8
0
  6
CONTINUOUS
 62
               7
100
AcDbVertex
100
AcDb2dVertex
 10
-52.250383127487957
 20
53.088138727990867
 30
0.0
  0
VERTEX
  5
1A4
100
AcDbEntity
  8
0
  6
CONTINUOUS
 62
               7
100
AcDbVertex
100
AcDb2dVertex
 10
-51.579666030887942
 20
53.70531260969085
 30
0.0
  0
VERTEX
  5
1A5
100
AcDbEntity
  8
0
  6
CONTINUOUS
 62
               7
100
AcDbVertex
100
AcDb2dVertex
 10
-50.832886023987946
 20
54.220650306490853
 30
0.0
  0
VERTEX
  5
1A6
100
AcDbEntity
  8
0
  6
CONTINUOUS
 62
               7
100
AcDbVertex
100
AcDb2dVertex
 10
-50.021363343387939
 20
54.626339962190855
 30
0.0
  0
VERTEX
  5
1A7
100
AcDbEntity
  8
0
  6
CONTINUOUS
 62
               7
100
AcDbVertex
100
AcDb2dVertex
 10
-49.15740000148795
 20
54.916231699890858
 30
0.0
  0
VERTEX
  5
1A8
100
AcDbEntity
  8
0
  6
CONTINUOUS
 62
               7
100
AcDbVertex
100
AcDb2dVertex
 10
-48.254092871187957
 20
55.085930265890852
 30
0.0
  0
VERTEX
  5
1A9
100
AcDbEntity
  8
0
  6
CONTINUOUS
 62
               7
100
AcDbVertex
100
AcDb2dVertex
 10
-47.325135070187962
 20
55.132864805890847
 30
0.0
  0
VERTEX
  5
1AA
100
AcDbEntity
  8
0
  6
CONTINUOUS
 62
               7
100
AcDbVertex
100
AcDb2dVertex
 10
-46.384608699187957
 20
55.056323110590853
 30
0.0
  0
VERTEX
  5
1AB
100
AcDbEntity
  8
0
  6
CONTINUOUS
 62
               7
100
AcDbVertex
100
AcDb2dVertex
 10
-45.446771133987959
 20
54.857464936490857
 30
0.0
  0
VERTEX
  5
1AC
100
AcDbEntity
  8
0
  6
CONTINUOUS
 62
               7
100
AcDbVertex
100
AcDb2dVertex
 10
-44.525839110087951
 20
54.539304568890856
 30
0.0
  0
VERTEX
  5
1AD
100
AcDbEntity
  8
0
  6
CONTINUOUS
 62
               7
100
AcDbVertex
100
AcDb2dVertex
 10
-43.635772827587935
 20
54.106666467390852
 30
0.0
  0
VERTEX
  5
1AE
100
AcDbEntity
  8
0
  6
CONTINUOUS
 62
               7
100
AcDbVertex
100
AcDb2dVertex
 10
-42.790065243487952
 20
53.566107856390857
 30
0.0
  0
VERTEX
  5
1AF
100
AcDbEntity
  8
0
  6
CONTINUOUS
 62
               7
100
AcDbVertex
100
AcDb2dVertex
 10
-42.00153594698795
 20
52.925823442490866
 30
0.0
  0
VERTEX
  5
1B0
100
AcDbEntity
  8
0
  6
CONTINUOUS
 62
               7
100
AcDbVertex
100
AcDb2dVertex
 10
-41.28213801878794
 20
52.195519310790843
 30
0.0
  0
VERTEX
  5
1B1
100
AcDbEntity
  8
0
  6
CONTINUOUS
 62
               7
100
AcDbVertex
100
AcDb2dVertex
 10
-40.642777864487947
 20
51.386265419890861
 30
0.0
  0
VERTEX
  5
1B2
100
AcDbEntity
  8
0
  6
CONTINUOUS
 62
               7
100
AcDbVertex
100
AcDb2dVertex
 10
-40.093146349787951
 20
50.510330093490865
 30
0.0
  0
VERTEX
  5
1B3
100
AcDbEntity
  8
0
  6
CONTINUOUS
 62
               7
100
AcDbVertex
100
AcDb2dVertex
 10
-39.641576026387945
 20
49.580991689690848
 30
0.0
  0
VERTEX
  5
1B4
100
AcDbEntity
  8
0
  6
CONTINUOUS
 62
               7
100
AcDbVertex
100
AcDb2dVertex
 10
-39.29491181268795
 20
48.612337223890847
 30
0.0
  0
VERTEX
  5
1B5
100
AcDbEntity
  8
0
  6
CONTINUOUS
 62
               7
100
AcDbVertex
100
AcDb2dVertex
 10
-39.058409549987935
 20
47.61905104689086
 30
0.0
  0
VERTEX
  5
1B6
100
AcDbEntity
  8
0
  6
CONTINUOUS
 62
               7
100
AcDbVertex
100
AcDb2dVertex
 10
-38.935653518487946
 20
46.616190318090844
 30
0.0
  0
VERTEX
  5
1B7
100
AcDbEntity
  8
0
  6
CONTINUOUS
 62
               7
100
AcDbVertex
100
AcDb2dVertex
 10
-38.928504839987959
 20
45.618957271190851
 30
0.0
  0
VERTEX
  5
1B8
100
AcDbEntity
  8
0
  6
CONTINUOUS
 62
               7
100
AcDbVertex
100
AcDb2dVertex
 10
-39.037071881987963
 20
44.642469052790858
 30
0.0
  0
VERTEX
  5
1B9
100
AcDbEntity
  8
0
  6
CONTINUOUS
 62
               7
100
AcDbVertex
100
AcDb2dVertex
 10
-39.259708611087937
 20
43.701528055190863
 30
0.0
  0
VERTEX
  5
1BA
100
AcDbEntity
  8
0
  6
CONTINUOUS
 62
               7
100
AcDbVertex
100
AcDb2dVertex
 10
-39.593040935487942
 20
42.810398133190859
 30
0.0
  0
VERTEX
  5
1BB
100
AcDbEntity
  8
0
  6
CONTINUOUS
 62
               7
100
AcDbVertex
100
AcDb2dVertex
 10
-40.032015117787942
 20
41.982588270490851
 30
0.0
  0
VERTEX
  5
1BC
100
AcDbEntity
  8
0
  6
CONTINUOUS
 62
               7
100
AcDbVertex
100
AcDb2dVertex
 10
-40.569977173687953
 20
41.230646509590855
 30
0.0
  0
VERTEX
  5
1BD
100
AcDbEntity
  8
0
  6
CONTINUOUS
 62
               7
100
AcDbVertex
100
AcDb2dVertex
 10
-41.198771448387951
 20
40.565971433490859
 30
0.0
  0
VERTEX
  5
1BE
100
AcDbEntity
  8
0
  6
CONTINUOUS
 62
               7
100
AcDbVertex
100
AcDb2dVertex
 10
-41.908867258287948
 20
39.998639969490853
 30
0.0
  0
VERTEX
  5
1BF
100
AcDbEntity
  8
0
  6
CONTINUOUS
 62
               7
100
AcDbVertex
100
AcDb2dVertex
 10
-42.689499196787942
 20
39.537251332190863
 30
0.0
  0
VERTEX
  5
1C0
100
AcDbEntity
  8
0
  6
CONTINUOUS
 62
               7
100
AcDbVertex
100
AcDb2dVertex
 10
-43.528833899587958
 20
39.188799779290861
 30
0.0
  0
VERTEX
  5
1C1
100
AcDbEntity
  8
0
  6
CONTINUOUS
 62
               7
100
AcDbVertex
100
AcDb2dVertex
 10
-44.414148390287941
 20
38.958567979490851
 30
0.0
  0
VERTEX
  5
1C2
100
AcDbEntity
  8
0
  6
CONTINUOUS
 62
               7
100
AcDbVertex
100
AcDb2dVertex
 10
-45.332021727287945
 20
38.850044777090858
 30
0.0
  0
VERTEX
  5
1C3
100
AcDbEntity
  8
0
  6
CONTINUOUS
 62
               7
100
AcDbVertex
100
AcDb2dVertex
 10
-46.268540098487954
 20
38.864876792090854
 30
0.0
  0
VERTEX
  5
1C4
100
AcDbEntity
  8
0
  6
CONTINUOUS
 62
               7
100
AcDbVertex
100
AcDb2dVertex
 10
-47.209506762887962
 20
39.002838966890863
 30
0.0
  0
VERTEX
  5
1C5
100
AcDbEntity
  8
0
  6
CONTINUOUS
 62
               7
100
AcDbVertex
100
AcDb2dVertex
 10
-48.140657663087943
 20
39.261839407690843
 30
0.0
  0
VERTEX
  5
1C6
100
AcDbEntity
  8
0
  6
CONTINUOUS
 62
               7
100
AcDbVertex
100
AcDb2dVertex
 10
-49.047877442087945
 20
39.63795119009086
 30
0.0
  0
VERTEX
  5
1C7
100
AcDbEntity
  8
0
  6
CONTINUOUS
 62
               7
100
AcDbVertex
100
AcDb2dVertex
 10
-49.917413694087962
 20
40.125474470790863
 30
0.0
  0
VERTEX
  5
1C8
100
AcDbEntity
  8
0
  6
CONTINUOUS
 62
               7
100
AcDbVertex
100
AcDb2dVertex
 10
-50.73608505468794
 20
40.717018086390851
 30
0.0
  0
VERTEX
  5
1C9
100
AcDbEntity
  8
0
  6
CONTINUOUS
 62
               7
100
AcDbVertex
100
AcDb2dVertex
 10
-51.491481144487942
 20
41.403614767490865
 30
0.0
  0
VERTEX
  5
1CA
100
AcDbEntity
  8
0
  6
CONTINUOUS
 62
               7
100
AcDbVertex
100
AcDb2dVertex
 10
-52.172151117687939
 20
42.174856589490844
 30
0.0
  0
VERTEX
  5
1CB
100
AcDbEntity
  8
0
  6
CONTINUOUS
 62
               7
100
AcDbVertex
100
AcDb2dVertex
 10
-52.76777691228795
 20
43.019052007690846
 30
0.0
  0
VERTEX
  5
1CC
100
AcDbEntity
  8
0
  6
CONTINUOUS
 62
               7
100
AcDbVertex
100
AcDb2dVertex
 10
-53.269329079187962
 20
43.92340423629085
 30
0.0
  0
VERTEX
  5
1CD
100
AcDbEntity
  8
0
  6
CONTINUOUS
 62
               7
100
AcDbVertex
100
AcDb2dVertex
 10
-53.669204509087955
 20
44.874204162190864
 30
0.0
  0
VERTEX
  5
1CE
100
AcDbEntity
  8
0
  6
CONTINUOUS
 62
               7
100
AcDbVertex
100
AcDb2dVertex
 10
-53.961342251787947
 20
45.857038707990853
 30
0.0
  0
VERTEX
  5
1CF
100
AcDbEntity
  8
0
  6
CONTINUOUS
 62
               7
100
AcDbVertex
100
AcDb2dVertex
 10
-54.141313151387941
 20
46.857008770690868
 30
0.0
  0
VERTEX
  5
1D0
100
AcDbEntity
  8
0
  6
CONTINUOUS
 62
               7
100
AcDbVertex
100
AcDb2dVertex
 10
-54.206388373187956
 20
47.858955970690857
 30
0.0
  0
SEQEND
  5
1D1
100
AcDbEntity
  8
0
  6
CONTINUOUS
 62
               7
  0
POLYLINE
  5
1D2
100
AcDbEntity
  8
0
  6
CONTINUOUS
 62
               7
100
AcDb2dPolyline
 66
               1
 10
0.0
 20
0.0
 30
0.0
 75
               5
  0
VERTEX
  5
1D3
100
AcDbEntity
  8
0
  6
CONTINUOUS
 62
               7
100
AcDbVertex
100
AcDb2dVertex
 10
-37.01197107058794
 20
46.188237695490841
 30
0.0
  0
VERTEX
  5
1D4
100
AcDbEntity
  8
0
  6
CONTINUOUS
 62
               7
100
AcDbVertex
100
AcDb2dVertex
 10
-37.061656346087936
 20
45.11075910489086
 30
0.0
  0
VERTEX
  5
1D5
100
AcDbEntity
  8
0
  6
CONTINUOUS
 62
               7
100
AcDbVertex
100
AcDb2dVertex
 10
-37.225631232687952
 20
44.059931501390849
 30
0.0
  0
VERTEX
  5
1D6
100
AcDbEntity
  8
0
  6
CONTINUOUS
 62
               7
100
AcDbVertex
100
AcDb2dVertex
 10
-37.501831823887947
 20
43.048969457590857
 30
0.0
  0
VERTEX
  5
1D7
100
AcDbEntity
  8
0
  6
CONTINUOUS
 62
               7
100
AcDbVertex
100
AcDb2dVertex
 10
-37.886785687787942
 20
42.090586446990841
 30
0.0
  0
VERTEX
  5
1D8
100
AcDbEntity
  8
0
  6
CONTINUOUS
 62
               7
100
AcDbVertex
100
AcDb2dVertex
 10
-38.375652217387959
 20
41.196835129590852
 30
0.0
  0
VERTEX
  5
1D9
100
AcDbEntity
  8
0
  6
CONTINUOUS
 62
               7
100
AcDbVertex
100
AcDb2dVertex
 10
-38.962282504887945
 20
40.378953901590847
 30
0.0
  0
VERTEX
  5
1DA
100
AcDbEntity
  8
0
  6
CONTINUOUS
 62
               7
100
AcDbVertex
100
AcDb2dVertex
 10
-39.639300076887956
 20
39.647229394990859
 30
0.0
  0
VERTEX
  5
1DB
100
AcDbEntity
  8
0
  6
CONTINUOUS
 62
               7
100
AcDbVertex
100
AcDb2dVertex
 10
-40.398190547787941
 20
39.010862460790861
 30
0.0
  0
VERTEX
  5
1DC
100
AcDbEntity
  8
0
  6
CONTINUOUS
 62
               7
100
AcDbVertex
100
AcDb2dVertex
 10
-41.229411333187947
 20
38.477856404090858
 30
0.0
  0
VERTEX
  5
1DD
100
AcDbEntity
  8
0
  6
CONTINUOUS
 62
               7
100
AcDbVertex
100
AcDb2dVertex
 10
-42.122508194987937
 20
38.054913176390841
 30
0.0
  0
VERTEX
  5
1DE
100
AcDbEntity
  8
0
  6
CONTINUOUS
 62
               7
100
AcDbVertex
100
AcDb2dVertex
 10
-43.066250796387941
 20
37.74735282069085
 30
0.0
  0
VERTEX
  5
1DF
100
AcDbEntity
  8
0
  6
CONTINUOUS
 62
               7
100
AcDbVertex
100
AcDb2dVertex
 10
-44.048770654287942
 20
37.559042612090849
 30
0.0
  0
VERTEX
  5
1E0
100
AcDbEntity
  8
0
  6
CONTINUOUS
 62
               7
100
AcDbVertex
100
AcDb2dVertex
 10
-45.057712069587943
 20
37.492349660390857
 30
0.0
  0
VERTEX
  5
1E1
100
AcDbEntity
  8
0
  6
CONTINUOUS
 62
               7
100
AcDbVertex
100
AcDb2dVertex
 10
-46.080387019087958
 20
37.548114602590857
 30
0.0
  0
VERTEX
  5
1E2
100
AcDbEntity
  8
0
  6
CONTINUOUS
 62
               7
100
AcDbVertex
100
AcDb2dVertex
 10
-47.103934766387958
 20
37.72563390829086
 30
0.0
  0
VERTEX
  5
1E3
100
AcDbEntity
  8
0
  6
CONTINUOUS
 62
               7
100
AcDbVertex
100
AcDb2dVertex
 10
-48.115483631487955
 20
38.022677425490855
 30
0.0
  0
VERTEX
  5
1E4
100
AcDbEntity
  8
0
  6
CONTINUOUS
 62
               7
100
AcDbVertex
100
AcDb2dVertex
 10
-49.10231277318794
 20
38.435507722290851
 30
0.0
  0
VERTEX
  5
1E5
100
AcDbEntity
  8
0
  6
CONTINUOUS
 62
               7
100
AcDbVertex
100
AcDb2dVertex
 10
-50.052012315087943
 20
38.95893423319086
 30
0.0
  0
VERTEX
  5
1E6
100
AcDbEntity
  8
0
  6
CONTINUOUS
 62
               7
100
AcDbVertex
100
AcDb2dVertex
 10
-50.952638868387957
 20
39.586374956890864
 30
0.0
  0
VERTEX
  5
1E7
100
AcDbEntity
  8
0
  6
CONTINUOUS
 62
               7
100
AcDbVertex
100
AcDb2dVertex
 10
-51.792867388987951
 20
40.309938373190846
 30
0.0
  0
VERTEX
  5
1E8
100
AcDbEntity
  8
0
  6
CONTINUOUS
 62
               7
100
AcDbVertex
100
AcDb2dVertex
 10
-52.56213037248795
 20
41.12052589929084
 30
0.0
  0
VERTEX
  5
1E9
100
AcDbEntity
  8
0
  6
CONTINUOUS
 62
               7
100
AcDbVertex
100
AcDb2dVertex
 10
-53.250754786487953
 20
42.007943510090854
 30
0.0
  0
VERTEX
  5
1EA
100
AcDbEntity
  8
0
  6
CONTINUOUS
 62
               7
100
AcDbVertex
100
AcDb2dVertex
 10
-53.850080296387937
 20
42.961032311790859
 30
0.0
  0
VERTEX
  5
1EB
100
AcDbEntity
  8
0
  6
CONTINUOUS
 62
               7
100
AcDbVertex
100
AcDb2dVertex
 10
-54.35257076168795
 20
43.967805526190858
 30
0.0
  0
VERTEX
  5
1EC
100
AcDbEntity
  8
0
  6
CONTINUOUS
 62
               7
100
AcDbVertex
100
AcDb2dVertex
 10
-54.751905958687949
 20
45.015603185590862
 30
0.0
  0
VERTEX
  5
1ED
100
AcDbEntity
  8
0
  6
CONTINUOUS
 62
               7
100
AcDbVertex
100
AcDb2dVertex
 10
-55.043064421287959
 20
46.091248281890842
 30
0.0
  0
VERTEX
  5
1EE
100
AcDbEntity
  8
0
  6
CONTINUOUS
 62
               7
100
AcDbVertex
100
AcDb2dVertex
 10
-55.222385614487955
 20
47.181214131690865
 30
0.0
  0
VERTEX
  5
1EF
100
AcDbEntity
  8
0
  6
CONTINUOUS
 62
               7
100
AcDbVertex
100
AcDb2dVertex
 10
-55.287612643087947
 20
48.271793559490845
 30
0.0
  0
VERTEX
  5
1F0
100
AcDbEntity
  8
0
  6
CONTINUOUS
 62
               7
100
AcDbVertex
100
AcDb2dVertex
 10
-55.23792736758795
 20
49.349272149990867
 30
0.0
  0
VERTEX
  5
1F1
100
AcDbEntity
  8
0
  6
CONTINUOUS
 62
               7
100
AcDbVertex
100
AcDb2dVertex
 10
-55.07395248108795
 20
50.400099753590865
 30
0.0
  0
VERTEX
  5
1F2
100
AcDbEntity
  8
0
  6
CONTINUOUS
 62
               7
100
AcDbVertex
100
AcDb2dVertex
 10
-54.797751889787939
 20
51.411061797390857
 30
0.0
  0
VERTEX
  5
1F3
100
AcDbEntity
  8
0
  6
CONTINUOUS
 62
               7
100
AcDbVertex
100
AcDb2dVertex
 10
-54.412798025887945
 20
52.369444807990845
 30
0.0
  0
VERTEX
  5
1F4
100
AcDbEntity
  8
0
  6
CONTINUOUS
 62
               7
100
AcDbVertex
100
AcDb2dVertex
 10
-53.923931496287956
 20
53.263196125390863
 30
0.0
  0
VERTEX
  5
1F5
100
AcDbEntity
  8
0
  6
CONTINUOUS
 62
               7
100
AcDbVertex
100
AcDb2dVertex
 10
-53.337301208887958
 20
54.081077353290851
 30
0.0
  0
VERTEX
  5
1F6
100
AcDbEntity
  8
0
  6
CONTINUOUS
 62
               7
100
AcDbVertex
100
AcDb2dVertex
 10
-52.660283636887947
 20
54.81280185989084
 30
0.0
  0
VERTEX
  5
1F7
100
AcDbEntity
  8
0
  6
CONTINUOUS
 62
               7
100
AcDbVertex
100
AcDb2dVertex
 10
-51.901393165887946
 20
55.449168794190854
 30
0.0
  0
VERTEX
  5
1F8
100
AcDbEntity
  8
0
  6
CONTINUOUS
 62
               7
100
AcDbVertex
100
AcDb2dVertex
 10
-51.070172380487939
 20
55.982174850890857
 30
0.0
  0
VERTEX
  5
1F9
100
AcDbEntity
  8
0
  6
CONTINUOUS
 62
               7
100
AcDbVertex
100
AcDb2dVertex
 10
-50.17707551868795
 20
56.405118078590846
 30
0.0
  0
VERTEX
  5
1FA
100
AcDbEntity
  8
0
  6
CONTINUOUS
 62
               7
100
AcDbVertex
100
AcDb2dVertex
 10
-49.233332917387962
 20
56.712678434290865
 30
0.0
  0
VERTEX
  5
1FB
100
AcDbEntity
  8
0
  6
CONTINUOUS
 62
               7
100
AcDbVertex
100
AcDb2dVertex
 10
-48.25081305948796
 20
56.900988642890866
 30
0.0
  0
VERTEX
  5
1FC
100
AcDbEntity
  8
0
  6
CONTINUOUS
 62
               7
100
AcDbVertex
100
AcDb2dVertex
 10
-47.241871644087944
 20
56.967681594590857
 30
0.0
  0
VERTEX
  5
1FD
100
AcDbEntity
  8
0
  6
CONTINUOUS
 62
               7
100
AcDbVertex
100
AcDb2dVertex
 10
-46.219196694587957
 20
56.911916652390858
 30
0.0
  0
VERTEX
  5
1FE
100
AcDbEntity
  8
0
  6
CONTINUOUS
 62
               7
100
AcDbVertex
100
AcDb2dVertex
 10
-45.195648947287957
 20
56.734397346690855
 30
0.0
  0
VERTEX
  5
1FF
100
AcDbEntity
  8
0
  6
CONTINUOUS
 62
               7
100
AcDbVertex
100
AcDb2dVertex
 10
-44.18410008218796
 20
56.437353829390844
 30
0.0
  0
VERTEX
  5
200
100
AcDbEntity
  8
0
  6
CONTINUOUS
 62
               7
100
AcDbVertex
100
AcDb2dVertex
 10
-43.197270940487947
 20
56.024523532690864
 30
0.0
  0
VERTEX
  5
201
100
AcDbEntity
  8
0
  6
CONTINUOUS
 62
               7
100
AcDbVertex
100
AcDb2dVertex
 10
-42.247571398587944
 20
55.501097021790855
 30
0.0
  0
VERTEX
  5
202
100
AcDbEntity
  8
0
  6
CONTINUOUS
 62
               7
100
AcDbVertex
100
AcDb2dVertex
 10
-41.346944845287958
 20
54.873656297990863
 30
0.0
  0
VERTEX
  5
203
100
AcDbEntity
  8
0
  6
CONTINUOUS
 62
               7
100
AcDbVertex
100
AcDb2dVertex
 10
-40.506716324687936
 20
54.150092881690853
 30
0.0
  0
VERTEX
  5
204
100
AcDbEntity
  8
0
  6
CONTINUOUS
 62
               7
100
AcDbVertex
100
AcDb2dVertex
 10
-39.737453341287953
 20
53.339505355690846
 30
0.0
  0
VERTEX
  5
205
100
AcDbEntity
  8
0
  6
CONTINUOUS
 62
               7
100
AcDbVertex
100
AcDb2dVertex
 10
-39.048828927187962
 20
52.452087744890861
 30
0.0
  0
VERTEX
  5
206
100
AcDbEntity
  8
0
  6
CONTINUOUS
 62
               7
100
AcDbVertex
100
AcDb2dVertex
 10
-38.44950341728795
 20
51.498998943190855
 30
0.0
  0
VERTEX
  5
207
100
AcDbEntity
  8
0
  6
CONTINUOUS
 62
               7
100
AcDbVertex
100
AcDb2dVertex
 10
-37.947012951987936
 20
50.49222572869084
 30
0.0
  0
VERTEX
  5
208
100
AcDbEntity
  8
0
  6
CONTINUOUS
 62
               7
100
AcDbVertex
100
AcDb2dVertex
 10
-37.547677754987937
 20
49.444428069390852
 30
0.0
  0
VERTEX
  5
209
100
AcDbEntity
  8
0
  6
CONTINUOUS
 62
               7
100
AcDbVertex
100
AcDb2dVertex
 10
-37.256519292387956
 20
48.368782973090845
 30
0.0
  0
VERTEX
  5
20A
100
AcDbEntity
  8
0
  6
CONTINUOUS
 62
               7
100
AcDbVertex
100
AcDb2dVertex
 10
-37.07719809918796
 20
47.278817123190862
 30
0.0
  0
VERTEX
  5
20B
100
AcDbEntity
  8
0
  6
CONTINUOUS
 62
               7
100
AcDbVertex
100
AcDb2dVertex
 10
-37.01197107058794
 20
46.188237695490841
 30
0.0
  0
SEQEND
  5
20C
100
AcDbEntity
  8
0
  6
CONTINUOUS
 62
               7
  0
POLYLINE
  5
20D
100
AcDbEntity
  8
0
  6
CONTINUOUS
 62
               7
100
AcDb2dPolyline
 66
               1
 10
0.0
 20
0.0
 30
0.0
 75
               5
  0
VERTEX
  5
20E
100
AcDbEntity
  8
0
  6
CONTINUOUS
 62
               7
100
AcDbVertex
100
AcDb2dVertex
 10
-46.611405952087942
 20
53.881710298690848
 30
0.0
  0
VERTEX
  5
20F
100
AcDbEntity
  8
0
  6
CONTINUOUS
 62
               7
100
AcDbVertex
100
AcDb2dVertex
 10
-45.743687537087958
 20
53.721320049190865
 30
0.0
  0
VERTEX
  5
210
100
AcDbEntity
  8
0
  6
CONTINUOUS
 62
               7
100
AcDbVertex
100
AcDb2dVertex
 10
-44.89057161368796
 20
53.440763864990856
 30
0.0
  0
VERTEX
  5
211
100
AcDbEntity
  8
0
  6
CONTINUOUS
 62
               7
100
AcDbVertex
100
AcDb2dVertex
 10
-44.067282052487961
 20
53.045047510390845
 30
0.0
  0
VERTEX
  5
212
100
AcDbEntity
  8
0
  6
CONTINUOUS
 62
               7
100
AcDbVertex
100
AcDb2dVertex
 10
-43.288510608587949
 20
52.541233214390843
 30
0.0
  0
VERTEX
  5
213
100
AcDbEntity
  8
0
  6
CONTINUOUS
 62
               7
100
AcDbVertex
100
AcDb2dVertex
 10
-42.568154271687938
 20
51.93831147419084
 30
0.0
  0
VERTEX
  5
214
100
AcDbEntity
  8
0
  6
CONTINUOUS
 62
               7
100
AcDbVertex
100
AcDb2dVertex
 10
-41.919068159687946
 20
51.24704098339086
 30
0.0
  0
VERTEX
  5
215
100
AcDbEntity
  8
0
  6
CONTINUOUS
 62
               7
100
AcDbVertex
100
AcDb2dVertex
 10
-41.352834651887939
 20
50.479757660990856
 30
0.0
  0
VERTEX
  5
216
100
AcDbEntity
  8
0
  6
CONTINUOUS
 62
               7
100
AcDbVertex
100
AcDb2dVertex
 10
-40.879558774587956
 20
49.650154146390861
 30
0.0
  0
VERTEX
  5
217
100
AcDbEntity
  8
0
  6
CONTINUOUS
 62
               7
100
AcDbVertex
100
AcDb2dVertex
 10
-40.507686060787954
 20
48.773034266490868
 30
0.0
  0
VERTEX
  5
218
100
AcDbEntity
  8
0
  6
CONTINUOUS
 62
               7
100
AcDbVertex
100
AcDb2dVertex
 10
-40.243852043987935
 20
47.864050358290854
 30
0.0
  0
VERTEX
  5
219
100
AcDbEntity
  8
0
  6
CONTINUOUS
 62
               7
100
AcDbVertex
100
AcDb2dVertex
 10
-40.092765502987952
 20
46.939423410190841
 30
0.0
  0
VERTEX
  5
21A
100
AcDbEntity
  8
0
  6
CONTINUOUS
 62
               7
100
AcDbVertex
100
AcDb2dVertex
 10
-40.057122122187955
 20
46.01565319779084
 30
0.0
  0
VERTEX
  5
21B
100
AcDbEntity
  8
0
  6
CONTINUOUS
 62
               7
100
AcDbVertex
100
AcDb2dVertex
 10
-40.137558348487936
 20
45.109224505890865
 30
0.0
  0
VERTEX
  5
21C
100
AcDbEntity
  8
0
  6
CONTINUOUS
 62
               7
100
AcDbVertex
100
AcDb2dVertex
 10
-40.332638694787953
 20
44.236312579290853
 30
0.0
  0
VERTEX
  5
21D
100
AcDbEntity
  8
0
  6
CONTINUOUS
 62
               7
100
AcDbVertex
100
AcDb2dVertex
 10
-40.638881618787956
 20
43.412494765890841
 30
0.0
  0
VERTEX
  5
21E
100
AcDbEntity
  8
0
  6
CONTINUOUS
 62
               7
100
AcDbVertex
100
AcDb2dVertex
 10
-41.050822731287944
 20
42.652471589090851
 30
0.0
  0
VERTEX
  5
21F
100
AcDbEntity
  8
0
  6
CONTINUOUS
 62
               7
100
AcDbVertex
100
AcDb2dVertex
 10
-41.561110317387936
 20
41.969806225190865
 30
0.0
  0
VERTEX
  5
220
100
AcDbEntity
  8
0
  6
CONTINUOUS
 62
               7
100
AcDbVertex
100
AcDb2dVertex
 10
-42.160638661387956
 20
41.376680614290848
 30
0.0
  0
VERTEX
  5
221
100
AcDbEntity
  8
0
  6
CONTINUOUS
 62
               7
100
AcDbVertex
100
AcDb2dVertex
 10
-42.838709513187943
 20
40.883678780890847
 30
0.0
  0
VERTEX
  5
222
100
AcDbEntity
  8
0
  6
CONTINUOUS
 62
               7
100
AcDbVertex
100
AcDb2dVertex
 10
-43.58322191938796
 20
40.499598962490865
 30
0.0
  0
VERTEX
  5
223
100
AcDbEntity
  8
0
  6
CONTINUOUS
 62
               7
100
AcDbVertex
100
AcDb2dVertex
 10
-44.380890421987935
 20
40.23129499119085
 30
0.0
  0
VERTEX
  5
224
100
AcDbEntity
  8
0
  6
CONTINUOUS
 62
               7
100
AcDbVertex
100
AcDb2dVertex
 10
-45.217480773087935
 20
40.083554219390862
 30
0.0
  0
VERTEX
  5
225
100
AcDbEntity
  8
0
  6
CONTINUOUS
 62
               7
100
AcDbVertex
100
AcDb2dVertex
 10
-46.078063680087944
 20
40.059013391190859
 30
0.0
  0
VERTEX
  5
226
100
AcDbEntity
  8
0
  6
CONTINUOUS
 62
               7
100
AcDbVertex
100
AcDb2dVertex
 10
-46.947282226587951
 20
40.158110617990843
 30
0.0
  0
VERTEX
  5
227
100
AcDbEntity
  8
0
  6
CONTINUOUS
 62
               7
100
AcDbVertex
100
AcDb2dVertex
 10
-47.809625058887939
 20
40.379077493190863
 30
0.0
  0
VERTEX
  5
228
100
AcDbEntity
  8
0
  6
CONTINUOUS
 62
               7
100
AcDbVertex
100
AcDb2dVertex
 10
-48.649703852287949
 20
40.717970724090861
 30
0.0
  0
VERTEX
  5
229
100
AcDbEntity
  8
0
  6
CONTINUOUS
 62
               7
100
AcDbVertex
100
AcDb2dVertex
 10
-49.452527058087945
 20
41.168742373490858
 30
0.0
  0
VERTEX
  5
22A
100
AcDbEntity
  8
0
  6
CONTINUOUS
 62
               7
100
AcDbVertex
100
AcDb2dVertex
 10
-50.203768450687953
 20
41.723348987690855
 30
0.0
  0
VERTEX
  5
22B
100
AcDbEntity
  8
0
  6
CONTINUOUS
 62
               7
100
AcDbVertex
100
AcDb2dVertex
 10
-50.890022494687962
 20
42.371893767390844
 30
0.0
  0
VERTEX
  5
22C
100
AcDbEntity
  8
0
  6
CONTINUOUS
 62
               7
100
AcDbVertex
100
AcDb2dVertex
 10
-51.499042197587947
 20
43.102802632590851
 30
0.0
  0
VERTEX
  5
22D
100
AcDbEntity
  8
0
  6
CONTINUOUS
 62
               7
100
AcDbVertex
100
AcDb2dVertex
 10
-52.019959940987938
 20
43.903032893090852
 30
0.0
  0
VERTEX
  5
22E
100
AcDbEntity
  8
0
  6
CONTINUOUS
 62
               7
100
AcDbVertex
100
AcDb2dVertex
 10
-52.443480317687936
 20
44.758304747090847
 30
0.0
  0
VERTEX
  5
22F
100
AcDbEntity
  8
0
  6
CONTINUOUS
 62
               7
100
AcDbVertex
100
AcDb2dVertex
 10
-52.762044971587947
 20
45.653355161990845
 30
0.0
  0
VERTEX
  5
230
100
AcDbEntity
  8
0
  6
CONTINUOUS
 62
               7
100
AcDbVertex
100
AcDb2dVertex
 10
-52.969969640687957
 20
46.572212587190847
 30
0.0
  0
VERTEX
  5
231
100
AcDbEntity
  8
0
  6
CONTINUOUS
 62
               7
100
AcDbVertex
100
AcDb2dVertex
 10
-53.063543571487962
 20
47.498479700690865
 30
0.0
  0
VERTEX
  5
232
100
AcDbEntity
  8
0
  6
CONTINUOUS
 62
               7
100
AcDbVertex
100
AcDb2dVertex
 10
-53.041096834187947
 20
48.415627217690854
 30
0.0
  0
VERTEX
  5
233
100
AcDbEntity
  8
0
  6
CONTINUOUS
 62
               7
100
AcDbVertex
100
AcDb2dVertex
 10
-52.903030380787946
 20
49.307288624490866
 30
0.0
  0
VERTEX
  5
234
100
AcDbEntity
  8
0
  6
CONTINUOUS
 62
               7
100
AcDbVertex
100
AcDb2dVertex
 10
-52.651807553987958
 20
50.157552312090843
 30
0.0
  0
VERTEX
  5
235
100
AcDbEntity
  8
0
  6
CONTINUOUS
 62
               7
100
AcDbVertex
100
AcDb2dVertex
 10
-52.291912084787946
 20
50.951245304690843
 30
0.0
  0
VERTEX
  5
236
100
AcDbEntity
  8
0
  6
CONTINUOUS
 62
               7
100
AcDbVertex
100
AcDb2dVertex
 10
-51.829765769787961
 20
51.674203895890855
 30
0.0
  0
VERTEX
  5
237
100
AcDbEntity
  8
0
  6
CONTINUOUS
 62
               7
100
AcDbVertex
100
AcDb2dVertex
 10
-51.27361554128796
 20
52.313527321290849
 30
0.0
  0
VERTEX
  5
238
100
AcDbEntity
  8
0
  6
CONTINUOUS
 62
               7
100
AcDbVertex
100
AcDb2dVertex
 10
-50.633386483887953
 20
52.857806519190859
 30
0.0
  0
VERTEX
  5
239
100
AcDbEntity
  8
0
  6
CONTINUOUS
 62
               7
100
AcDbVertex
100
AcDb2dVertex
 10
-49.920502918887955
 20
53.29732850189086
 30
0.0
  0
VERTEX
  5
23A
100
AcDbEntity
  8
0
  6
CONTINUOUS
 62
               7
100
AcDbVertex
100
AcDb2dVertex
 10
-49.147686619487949
 20
53.624250526890847
 30
0.0
  0
VERTEX
  5
23B
100
AcDbEntity
  8
0
  6
CONTINUOUS
 62
               7
100
AcDbVertex
100
AcDb2dVertex
 10
-48.328728306587941
 20
53.832738697190848
 30
0.0
  0
VERTEX
  5
23C
100
AcDbEntity
  8
0
  6
CONTINUOUS
 62
               7
100
AcDbVertex
100
AcDb2dVertex
 10
-47.478242434687949
 20
53.919071904590851
 30
0.0
  0
VERTEX
  5
23D
100
AcDbEntity
  8
0
  6
CONTINUOUS
 62
               7
100
AcDbVertex
100
AcDb2dVertex
 10
-46.611405952087942
 20
53.881710298690848
 30
0.0
  0
SEQEND
  5
23E
100
AcDbEntity
  8
0
  6
CONTINUOUS
 62
               7
  0
LINE
  5
23F
100
AcDbEntity
  8
0
  6
CONTINUOUS
 62
               7
100
AcDbLine
 10
-73.839021794787953
 20
68.637146274390858
 30
0.0
 11
-73.576247950087946
 21
31.980474502390848
 31
0.0
  0
LINE
  5
240
100
AcDbEntity
  8
0
  6
CONTINUOUS
 62
               7
100
AcDbLine
 10
-73.576247950087946
 20
31.980474502390848
 30
0.0
 11
-72.286407454087936
 21
31.095057976190844
 31
0.0
  0
LINE
  5
241
100
AcDbEntity
  8
0
  6
CONTINUOUS
 62
               7
100
AcDbLine
 10
-65.136262570187938
 20
39.457365147190842
 30
0.0
 11
-65.38976318248794
 21
39.169508685590841
 31
0.0
  0
POLYLINE
  5
242
100
AcDbEntity
  8
0
  6
CONTINUOUS
 62
               7
100
AcDb2dPolyline
 66
               1
 10
0.0
 20
0.0
 30
0.0
 75
               5
  0
VERTEX
  5
243
100
AcDbEntity
  8
0
  6
CONTINUOUS
 62
               7
100
AcDbVertex
100
AcDb2dVertex
 10
-62.599483332487942
 20
34.428205795390852
 30
0.0
  0
VERTEX
  5
244
100
AcDbEntity
  8
0
  6
CONTINUOUS
 62
               7
100
AcDbVertex
100
AcDb2dVertex
 10
-62.383116010287942
 20
34.467555604690858
 30
0.0
  0
VERTEX
  5
245
100
AcDbEntity
  8
0
  6
CONTINUOUS
 62
               7
100
AcDbVertex
100
AcDb2dVertex
 10
-62.224752176987955
 20
34.510067298490867
 30
0.0
  0
SEQEND
  5
246
100
AcDbEntity
  8
0
  6
CONTINUOUS
 62
               7
  0
LINE
  5
247
100
AcDbEntity
  8
0
  6
CONTINUOUS
 62
               7
100
AcDbLine
 10
-16.55773525218796
 20
62.629193936090843
 30
0.0
 11
-19.834574646887937
 21
62.30473040929084
 31
0.0
  0
SPLINE
  5
248
100
AcDbEntity
  8
0
  6
CONTINUOUS
 62
               7
100
AcDbSpline
210
0.0
220
0.0
230
1.0
 70
               8
 71
               2
 72
              16
 73
              13
 74
               0
 42
0.000001
 43
0.000001
 40
0.0
 40
0.0
 40
0.0
 40
1.0
 40
1.0
 40
2.0
 40
3.0
 40
4.0
 40
5.0
 40
6.0
 40
7.0
 40
8.0
 40
8.0
 40
9.0
 40
9.0
 40
9.0
 10
-19.834535659671239
 20
62.304725964479559
 30
0.0
 10
-19.834378853619675
 20
62.31411547198357
 30
0.0
 10
-19.834222047568112
 20
62.323504979487581
 30
0.0
 10
-19.830478491241244
 20
62.679646047365139
 30
0.0
 10
-19.791244608887176
 20
63.486169878640681
 30
0.0
 10
-19.610985473423277
 20
64.778246886581201
 30
0.0
 10
-19.24761201648041
 20
66.039089911217218
 30
0.0
 10
-18.878956783518497
 20
66.918464640920604
 30
0.0
 10
-18.430000189596164
 20
67.687967584298065
 30
0.0
 10
-17.981604883946027
 20
68.126727493992519
 30
0.0
 10
-17.780483510254548
 20
68.280314427063274
 30
0.0
 10
-17.77520199192255
 20
68.284455402091567
 30
0.0
 10
-17.769920473590552
 20
68.288596377119859
 30
0.0
  0
LINE
  5
249
100
AcDbEntity
  8
0
  6
CONTINUOUS
 62
               7
100
AcDbLine
 10
-17.769948440987939
 20
68.288589340590846
 30
0.0
 11
-15.480307778687937
 21
65.601733929390861
 31
0.0
  0
SPLINE
  5
24A
100
AcDbEntity
  8
0
  6
CONTINUOUS
 62
               7
100
AcDbSpline
210
0.0
220
0.0
230
1.0
 70
               8
 71
               2
 72
              16
 73
              13
 74
               0
 42
0.000001
 43
0.000001
 40
0.0
 40
0.0
 40
0.0
 40
1.0
 40
1.0
 40
2.0
 40
3.0
 40
4.0
 40
5.0
 40
6.0
 40
7.0
 40
8.0
 40
8.0
 40
9.0
 40
9.0
 40
9.0
 10
-15.480308743749752
 20
65.601760415482062
 30
0.0
 10
-15.483917343536397
 20
65.598732937897893
 30
0.0
 10
-15.487525943323043
 20
65.595705460313724
 30
0.0
 10
-15.596150729232896
 20
65.506728729735045
 30
0.0
 10
-15.751780966730955
 20
65.357661900171195
 30
0.0
 10
-15.972075818144639
 20
65.102443123430447
 30
0.0
 10
-16.203356597906115
 20
64.605861851730765
 30
0.0
 10
-16.358915839622647
 20
64.152443135623827
 30
0.0
 10
-16.505654018242915
 20
63.512233544180816
 30
0.0
 10
-16.547101975456791
 20
62.882052682815186
 30
0.0
 10
-16.557045860421503
 20
62.644984972403392
 30
0.0
 10
-16.557398041146023
 20
62.637086240200219
 30
0.0
 10
-16.557750221870542
 20
62.629187507997045
 30
0.0
  0
LINE
  5
24B
100
AcDbEntity
  8
0
  6
CONTINUOUS
 62
               7
100
AcDbLine
 10
-72.553258374387951
 20
68.315043217590841
 30
0.0
 11
-19.834535659687951
 21
62.304725964490842
 31
0.0
  0
SPLINE
  5
24C
100
AcDbEntity
  8
0
  6
CONTINUOUS
 62
               7
100
AcDbSpline
210
0.0
220
0.0
230
1.0
 70
               8
 71
               2
 72
              16
 73
              13
 74
               0
 42
0.000001
 43
0.000001
 40
0.0
 40
0.0
 40
0.0
 40
1.0
 40
1.0
 40
2.0
 40
3.0
 40
4.0
 40
5.0
 40
6.0
 40
7.0
 40
8.0
 40
8.0
 40
9.0
 40
9.0
 40
9.0
 10
-70.687150883801337
 20
74.321544949144368
 30
0.0
 10
-70.691938158205801
 20
74.317348494442101
 30
0.0
 10
-70.696725432610265
 20
74.313152039739833
 30
0.0
 10
-70.879314693307862
 20
74.161115121474097
 30
0.0
 10
-71.18607028602446
 20
73.823280623812764
 30
0.0
 10
-71.567627704904567
 20
73.220307270346353
 30
0.0
 10
-72.037785126932164
 20
72.061766930115937
 30
0.0
 10
-72.35196291600738
 20
70.727751994792186
 30
0.0
 10
-72.522549397966571
 20
69.496702907061035
 30
0.0
 10
-72.549367041961602
 20
68.615482689383725
 30
0.0
 10
-72.552987053533883
 20
68.333828678986521
 30
0.0
 10
-72.55312271396771
 20
68.324435948283337
 30
0.0
 10
-72.553258374401537
 20
68.315043217580154
 30
0.0
  0
LINE
  5
24D
100
AcDbEntity
  8
0
  6
CONTINUOUS
 62
               7
100
AcDbLine
 10
-70.68712715248796
 20
74.321542243590841
 30
0.0
 11
-17.769920473587938
 21
68.28859637709084
 31
0.0
  0
LINE
  5
24E
100
AcDbEntity
  8
0
  6
CONTINUOUS
 62
               7
100
AcDbLine
 10
-16.554677736887946
 20
62.202673804290868
 30
0.0
 11
-16.55773525218796
 21
62.629193936090843
 31
0.0
  0
LINE
  5
24F
100
AcDbEntity
  8
0
  6
CONTINUOUS
 62
               7
100
AcDbLine
 10
-19.831806390487962
 20
61.918561582090859
 30
0.0
 11
-19.834535659687951
 21
62.304725964490842
 31
0.0
  0
LINE
  5
250
100
AcDbEntity
  8
0
  6
CONTINUOUS
 62
               7
100
AcDbLine
 10
-16.554677736887946
 20
62.202673804290868
 30
0.0
 11
-19.831806390487962
 21
61.918561582090859
 31
0.0
  0
LINE
  5
251
100
AcDbEntity
  8
0
  6
CONTINUOUS
 62
               7
100
AcDbLine
 10
-9.1645676016879563
 20
29.357090145890851
 30
0.0
 11
-16.29052126388796
 21
25.353126855690846
 31
0.0
  0
SPLINE
  5
252
100
AcDbEntity
  8
0
  6
CONTINUOUS
 62
               7
100
AcDbSpline
210
0.0
220
0.0
230
1.0
 70
               8
 71
               2
 72
              16
 73
              13
 74
               0
 42
0.000001
 43
0.000001
 40
0.0
 40
0.0
 40
0.0
 40
1.0
 40
1.0
 40
2.0
 40
3.0
 40
4.0
 40
5.0
 40
6.0
 40
7.0
 40
8.0
 40
8.0
 40
9.0
 40
9.0
 40
9.0
 10
-8.2386692040080547
 20
31.875208340052353
 30
0.0
 10
-8.2387446987225488
 20
31.871369578098168
 30
0.0
 10
-8.2388201934370429
 20
31.867530816143983
 30
0.0
 10
-8.2407776015194187
 20
31.752406599954156
 30
0.0
 10
-8.2543551995211075
 20
31.346892573211562
 30
0.0
 10
-8.3448427537868426
 20
30.843469015471783
 30
0.0
 10
-8.4470859715717026
 20
30.460585503815736
 30
0.0
 10
-8.6357275595842324
 20
29.962760863344698
 30
0.0
 10
-8.9209449358848403
 20
29.535194770366019
 30
0.0
 10
-9.1074535516528883
 20
29.395734931651333
 30
0.0
 10
-9.1610006552647789
 20
29.359529820804624
 30
0.0
 10
-9.1627841284895126
 20
29.358309983345492
 30
0.0
 10
-9.1645676017142463
 20
29.35709014588636
 30
0.0
  0
LINE
  5
253
100
AcDbEntity
  8
0
  6
CONTINUOUS
 62
               7
100
AcDbLine
 10
-8.4700254181879515
 20
64.149154071090862
 30
0.0
 11
-8.2386692039879605
 21
31.875208340090865
 31
0.0
  0
SPLINE
  5
254
100
AcDbEntity
  8
0
  6
CONTINUOUS
 62
               7
100
AcDbSpline
210
0.0
220
0.0
230
1.0
 70
               8
 71
               2
 72
              18
 73
              15
 74
               0
 42
0.000001
 43
0.000001
 40
0.0
 40
0.0
 40
0.0
 40
1.0
 40
1.0
 40
2.0
 40
3.0
 40
4.0
 40
5.0
 40
6.0
 40
7.0
 40
8.0
 40
9.0
 40
10.0
 40
10.0
 40
11.0
 40
11.0
 40
11.0
 10
-9.4249503067353473
 20
65.680200473058846
 30
0.0
 10
-9.423373076483351
 20
65.680777755808592
 30
0.0
 10
-9.4217958462313547
 20
65.681355038558337
 30
0.0
 10
-9.374439007541234
 20
65.699139507485313
 30
0.0
 10
-9.2802231307194276
 20
65.72898144166669
 30
0.0
 10
-9.149193754583159
 20
65.740329128984342
 30
0.0
 10
-8.9455110766754089
 20
65.661330489311695
 30
0.0
 10
-8.750006379350161
 20
65.436742580755492
 30
0.0
 10
-8.5894092090783758
 20
65.085360453180499
 30
0.0
 10
-8.5066315587265464
 20
64.693352126008563
 30
0.0
 10
-8.4826995416635711
 20
64.450033606673117
 30
0.0
 10
-8.4735554868619758
 20
64.254625423986511
 30
0.0
 10
-8.4702544047304897
 20
64.15573828902896
 30
0.0
 10
-8.4701399114403628
 20
64.152446180077803
 30
0.0
 10
-8.4700254181502359
 20
64.149154071126645
 30
0.0
  0
LINE
  5
255
100
AcDbEntity
  8
0
  6
CONTINUOUS
 62
               7
100
AcDbLine
 10
-15.480307778687937
 20
65.601733929390861
 30
0.0
 11
-6.2782766065879443
 21
71.113784126290852
 31
0.0
  0
LINE
  5
256
100
AcDbEntity
  8
0
  6
CONTINUOUS
 62
               7
100
AcDbLine
 10
-5.9672933365879359
 20
27.731948813490845
 30
0.0
 11
-6.2782766065879443
 21
71.113784126290852
 31
0.0
  0
LINE
  5
257
100
AcDbEntity
  8
0
  6
CONTINUOUS
 62
               7
100
AcDbLine
 10
-5.9672933365879359
 20
27.731948813490845
 30
0.0
 11
-16.269363960987953
 21
22.401705607090861
 31
0.0
  0
LINE
  5
258
100
AcDbEntity
  8
0
  6
CONTINUOUS
 62
               7
100
AcDbLine
 10
-16.29052126388796
 20
25.353126855690846
 30
0.0
 11
-16.269363960987953
 21
22.401705607090861
 31
0.0
  0
LINE
  5
259
100
AcDbEntity
  8
0
  6
CONTINUOUS
 62
               7
100
AcDbLine
 10
-16.554677736887946
 20
62.202673804290868
 30
0.0
 11
-9.4249503066879399
 21
65.680200473090849
 31
0.0
  0
LINE
  5
25A
100
AcDbEntity
  8
0
  6
CONTINUOUS
 62
               7
100
AcDbLine
 10
-72.550451130787962
 20
67.928869945590861
 30
0.0
 11
-72.553219387187937
 21
68.315038772790842
 31
0.0
  0
LINE
  5
25B
100
AcDbEntity
  8
0
  6
CONTINUOUS
 62
               7
100
AcDbLine
 10
-19.831806390487962
 20
61.918561582090859
 30
0.0
 11
-72.550451130787962
 21
67.928869945590861
 31
0.0
  0
LINE
  5
25C
100
AcDbEntity
  8
0
  6
CONTINUOUS
 62
               7
100
AcDbLine
 10
-17.769920473587938
 20
68.28859637709084
 30
0.0
 11
-8.5798976693879396
 21
73.793479932790859
 31
0.0
  0
LINE
  5
25D
100
AcDbEntity
  8
0
  6
CONTINUOUS
 62
               7
100
AcDbLine
 10
-6.2782766065879443
 20
71.113784126290852
 30
0.0
 11
-8.5798976693879396
 21
73.793479932790859
 31
0.0
  0
LINE
  5
25E
100
AcDbEntity
  8
0
  6
CONTINUOUS
 62
               7
100
AcDbLine
 10
-70.687104344187958
 20
74.321540185590862
 30
0.0
 11
-63.164467623487944
 21
80.016517321690856
 31
0.0
  0
LINE
  5
25F
100
AcDbEntity
  8
0
  6
CONTINUOUS
 62
               7
100
AcDbLine
 10
-8.5798976693879396
 20
73.793479932790859
 30
0.0
 11
-63.164467623487944
 21
80.016517321690856
 31
0.0
  0
LINE
  5
260
100
AcDbEntity
  8
0
  6
CONTINUOUS
 62
               7
100
AcDbLine
 10
-73.575556635987937
 20
31.884036914090842
 30
0.0
 11
-73.50691842428796
 21
31.932884095190843
 31
0.0
  0
LINE
  5
261
100
AcDbEntity
  8
0
  6
CONTINUOUS
 62
               7
100
AcDbLine
 10
-16.29052126388796
 20
25.353126855690846
 30
0.0
 11
-19.567071399687954
 21
24.988312024490853
 31
0.0
  0
LINE
  5
262
100
AcDbEntity
  8
0
  6
CONTINUOUS
 62
               7
100
AcDbLine
 10
-19.567071399687954
 20
24.988312024490853
 30
0.0
 11
-72.285716139987954
 21
30.998620387890867
 31
0.0
  0
LINE
  5
263
100
AcDbEntity
  8
0
  6
CONTINUOUS
 62
               7
100
AcDbLine
 10
-72.285716139987954
 20
30.998620387890867
 30
0.0
 11
-73.575556635987937
 21
31.884036914090842
 31
0.0
  0
LINE
  5
264
100
AcDbEntity
  8
0
  6
CONTINUOUS
 62
               7
100
AcDbLine
 10
-16.269363960987953
 20
22.401705607090861
 30
0.0
 11
-19.546261202287944
 21
22.085311622890856
 31
0.0
  0
LINE
  5
265
100
AcDbEntity
  8
0
  6
CONTINUOUS
 62
               7
100
AcDbLine
 10
-19.546261202287944
 20
22.085311622890856
 30
0.0
 11
-19.567071399687954
 21
24.988312024490853
 31
0.0
  0
LINE
  5
266
100
AcDbEntity
  8
0
  6
CONTINUOUS
 62
               7
100
AcDbLine
 10
-73.549852572987959
 20
28.298347470090846
 30
0.0
 11
-73.073193504887939
 21
28.620270941990867
 31
0.0
  0
LINE
  5
267
100
AcDbEntity
  8
0
  6
CONTINUOUS
 62
               7
100
AcDbLine
 10
-73.011170020987947
 20
28.302599770990867
 30
0.0
 11
-71.870575827287951
 21
27.548044060590854
 31
0.0
  0
LINE
  5
268
100
AcDbEntity
  8
0
  6
CONTINUOUS
 62
               7
100
AcDbLine
 10
-71.870575827287951
 20
27.548044060590854
 30
0.0
 11
-19.516844735687947
 21
21.579338503290842
 31
0.0
  0
LINE
  5
269
100
AcDbEntity
  8
0
  6
CONTINUOUS
 62
               7
100
AcDbLine
 10
-19.516844735687947
 20
21.579338503290842
 30
0.0
 11
-16.618694624787956
 21
21.873448031990847
 31
0.0
  0
LINE
  5
26A
100
AcDbEntity
  8
0
  6
CONTINUOUS
 62
               7
100
AcDbLine
 10
-16.618694624787956
 20
21.873448031990847
 30
0.0
 11
-6.4193301066879584
 21
27.30176040849085
 31
0.0
  0
LINE
  5
26B
100
AcDbEntity
  8
0
  6
CONTINUOUS
 62
               7
100
AcDbLine
 10
-5.9638372678879463
 20
27.249830916890858
 30
0.0
 11
-6.4193301066879584
 21
27.30176040849085
 31
0.0
  0
LINE
  5
26C
100
AcDbEntity
  8
0
  6
CONTINUOUS
 62
               7
100
AcDbLine
 10
-5.9638372678879463
 20
27.249830916890858
 30
0.0
 11
-16.264817200887954
 21
21.76743741169085
 31
0.0
  0
LINE
  5
26D
100
AcDbEntity
  8
0
  6
CONTINUOUS
 62
               7
100
AcDbLine
 10
-16.264817200887954
 20
21.76743741169085
 30
0.0
 11
-19.541598736087956
 21
21.434902546490861
 31
0.0
  0
LINE
  5
26E
100
AcDbEntity
  8
0
  6
CONTINUOUS
 62
               7
100
AcDbLine
 10
-19.541598736087956
 20
21.434902546490861
 30
0.0
 11
-72.26024347628794
 21
27.445210909890847
 31
0.0
  0
LINE
  5
26F
100
AcDbEntity
  8
0
  6
CONTINUOUS
 62
               7
100
AcDbLine
 10
-72.26024347628794
 20
27.445210909890847
 30
0.0
 11
-73.549852572987959
 21
28.298347470090846
 31
0.0
  0
LINE
  5
270
100
AcDbEntity
  8
0
  6
CONTINUOUS
 62
               7
100
AcDbLine
 10
-15.735273304887947
 20
-52.10337268590915
 30
0.0
 11
-16.264817200887954
 21
21.76743741169085
 31
0.0
  0
LINE
  5
271
100
AcDbEntity
  8
0
  6
CONTINUOUS
 62
               7
100
AcDbLine
 10
-19.011696018487946
 20
-52.485962781409143
 30
0.0
 11
-15.735273304887947
 21
-52.10337268590915
 31
0.0
  0
LINE
  5
272
100
AcDbEntity
  8
0
  6
CONTINUOUS
 62
               7
100
AcDbLine
 10
-19.011696018487946
 20
-52.485962781409143
 30
0.0
 11
-19.541598736087956
 21
21.434902546490861
 31
0.0
  0
LINE
  5
273
100
AcDbEntity
  8
0
  6
CONTINUOUS
 62
               7
100
AcDbLine
 10
-72.264905942587944
 20
28.095619986290842
 30
0.0
 11
-72.285716139987954
 21
30.998620387890867
 31
0.0
  0
LINE
  5
274
100
AcDbEntity
  8
0
  6
CONTINUOUS
 62
               7
100
AcDbLine
 10
-19.546261202287944
 20
22.085311622890856
 30
0.0
 11
-72.264905942587944
 21
28.095619986290842
 31
0.0
  0
LINE
  5
275
100
AcDbEntity
  8
0
  6
CONTINUOUS
 62
               7
100
AcDbLine
 10
-19.516844735687947
 20
21.579338503290842
 30
0.0
 11
-19.520489652387958
 21
22.08780050169085
 31
0.0
  0
LINE
  5
276
100
AcDbEntity
  8
0
  6
CONTINUOUS
 62
               7
100
AcDbLine
 10
-16.618694624787956
 20
21.873448031990847
 30
0.0
 11
-16.622237212287949
 21
22.367635219890843
 31
0.0
  0
LINE
  5
277
100
AcDbEntity
  8
0
  6
CONTINUOUS
 62
               7
100
AcDbLine
 10
-71.730340758787946
 20
-46.475654417909141
 30
0.0
 11
-19.011696018487946
 21
-52.485962781409143
 31
0.0
  0
LINE
  5
278
100
AcDbEntity
  8
0
  6
CONTINUOUS
 62
               7
100
AcDbLine
 10
-72.26024347628794
 20
27.445210909890847
 30
0.0
 11
-71.730340758787946
 21
-46.475654417909141
 31
0.0
  0
SPLINE
  5
279
100
AcDbEntity
  8
0
  6
CONTINUOUS
 62
               7
100
AcDbSpline
210
0.0
220
0.0
230
1.0
 70
               8
 71
               2
 72
              17
 73
              14
 74
               0
 42
0.000001
 43
0.000001
 40
0.0
 40
0.0
 40
0.0
 40
1.0
 40
1.0
 40
2.0
 40
3.0
 40
4.0
 40
5.0
 40
6.0
 40
7.0
 40
8.0
 40
9.0
 40
9.0
 40
10.0
 40
10.0
 40
10.0
 10
-48.765969605648642
 20
-19.853222658217959
 30
0.0
 10
-48.782185544196274
 20
-19.850768308016498
 30
0.0
 10
-48.798401482743905
 20
-19.848313957815037
 30
0.0
 10
-49.617077831396777
 20
-19.747852689610255
 30
0.0
 10
-51.560636429051492
 20
-19.173018040123225
 30
0.0
 10
-53.410027575110853
 20
-18.100572474344858
 30
0.0
 10
-54.843390412931107
 20
-16.924257937906788
 30
0.0
 10
-56.568088564498986
 20
-14.955540041830318
 30
0.0
 10
-57.859310072797648
 20
-12.233670641060201
 30
0.0
 10
-58.29411480587212
 20
-10.292414004236576
 30
0.0
 10
-58.391302791151439
 20
-9.1713996232567752
 30
0.0
 10
-58.409606140917496
 20
-8.6541282715871262
 30
0.0
 10
-58.410300937295872
 20
-8.636882977490032
 30
0.0
 10
-58.410995733674248
 20
-8.6196376833929378
 30
0.0
  0
LINE
  5
27A
100
AcDbEntity
  8
0
  6
CONTINUOUS
 62
               7
100
AcDbLine
 10
-42.395632430187952
 20
-20.579487360009153
 30
0.0
 11
-48.76596960568795
 21
-19.853222658209148
 31
0.0
  0
SPLINE
  5
27B
100
AcDbEntity
  8
0
  6
CONTINUOUS
 62
               7
100
AcDbSpline
210
0.0
220
0.0
230
1.0
 70
               8
 71
               2
 72
              17
 73
              14
 74
               0
 42
0.000001
 43
0.000001
 40
0.0
 40
0.0
 40
0.0
 40
1.0
 40
1.0
 40
2.0
 40
3.0
 40
4.0
 40
5.0
 40
6.0
 40
7.0
 40
8.0
 40
9.0
 40
9.0
 40
10.0
 40
10.0
 40
10.0
 10
-32.896016312189055
 20
-11.528530637026847
 30
0.0
 10
-32.896465237647682
 20
-11.545642264341538
 30
0.0
 10
-32.89691416310631
 20
-11.562753891656229
 30
0.0
 10
-32.897417267082055
 20
-12.429391877770769
 30
0.0
 10
-33.216394309013246
 20
-14.447762413359101
 30
0.0
 10
-34.016211465551002
 20
-16.30810894296684
 30
0.0
 10
-34.961957203562115
 20
-17.709922890581197
 30
0.0
 10
-36.470357759178818
 20
-19.183444135731918
 30
0.0
 10
-38.833780805165837
 20
-20.376177364611806
 30
0.0
 10
-40.828995074046723
 20
-20.646980143122903
 30
0.0
 10
-41.876687598414144
 20
-20.621975732124099
 30
0.0
 10
-42.363211763758777
 20
-20.581973258114118
 30
0.0
 10
-42.379422096966117
 20
-20.580730309086277
 30
0.0
 10
-42.395632430173457
 20
-20.579487360058437
 30
0.0
  0
LINE
  5
27C
100
AcDbEntity
  8
0
  6
CONTINUOUS
 62
               7
100
AcDbLine
 10
-32.951313307187938
 20
-3.8146586597091527
 30
0.0
 11
-32.896016312187946
 21
-11.52853063700914
 31
0.0
  0
SPLINE
  5
27D
100
AcDbEntity
  8
0
  6
CONTINUOUS
 62
               7
100
AcDbSpline
210
0.0
220
0.0
230
1.0
 70
               8
 71
               2
 72
              17
 73
              14
 74
               0
 42
0.000001
 43
0.000001
 40
0.0
 40
0.0
 40
0.0
 40
1.0
 40
1.0
 40
2.0
 40
3.0
 40
4.0
 40
5.0
 40
6.0
 40
7.0
 40
8.0
 40
9.0
 40
9.0
 40
10.0
 40
10.0
 40
10.0
 10
-42.596339435255452
 20
7.4189263150734632
 30
0.0
 10
-42.580123494657123
 20
7.4164719787992368
 30
0.0
 10
-42.563907554058794
 20
7.4140176425250104
 30
0.0
 10
-41.745230737219281
 20
7.3135578146419391
 30
0.0
 10
-39.801673935117115
 20
6.7387156475965071
 30
0.0
 10
-37.952281148409376
 20
5.6662763497574815
 30
0.0
 10
-36.518917403617245
 20
4.4899642658212429
 30
0.0
 10
-34.794220256267828
 20
2.5212436077070777
 30
0.0
 10
-33.50299956211574
 20
-0.2006290394905079
 30
0.0
 10
-33.068194247408137
 20
-2.1418838396798776
 30
0.0
 10
-32.971006105950487
 20
-3.262896705293258
 30
0.0
 10
-32.952702892784195
 20
-3.7801680708568028
 30
0.0
 10
-32.95200810000707
 20
-3.7974133653041804
 30
0.0
 10
-32.951313307229945
 20
-3.8146586597515579
 30
0.0
  0
LINE
  5
27E
100
AcDbEntity
  8
0
  6
CONTINUOUS
 62
               7
100
AcDbLine
 10
-48.966676610687948
 20
8.1451910168908626
 30
0.0
 11
-42.596339435287938
 21
7.4189263150908573
 31
0.0
  0
SPLINE
  5
27F
100
AcDbEntity
  8
0
  6
CONTINUOUS
 62
               7
100
AcDbSpline
210
0.0
220
0.0
230
1.0
 70
               8
 71
               2
 72
              17
 73
              14
 74
               0
 42
0.000001
 43
0.000001
 40
0.0
 40
0.0
 40
0.0
 40
1.0
 40
1.0
 40
2.0
 40
3.0
 40
4.0
 40
5.0
 40
6.0
 40
7.0
 40
8.0
 40
9.0
 40
9.0
 40
10.0
 40
10.0
 40
10.0
 10
-58.466292728715054
 20
-0.9057657061176485
 30
0.0
 10
-58.465843802066836
 20
-0.8886540793270399
 30
0.0
 10
-58.465394875418617
 20
-0.8715424525364313
 30
0.0
 10
-58.46489183934127
 20
-0.0049044573977994
 30
0.0
 10
-58.145914637338215
 20
2.013464350028471
 30
0.0
 10
-57.34609658556797
 20
3.87380991413022
 30
0.0
 10
-56.400355476108068
 20
5.2756326891355627
 30
0.0
 10
-54.89194876691456
 20
6.7491473658638199
 30
0.0
 10
-52.528527248893646
 20
7.9418788236536386
 30
0.0
 10
-50.53331419768039
 20
8.212684447232931
 30
0.0
 10
-49.485621332670171
 20
8.1876790777205883
 30
0.0
 10
-48.999097272245926
 20
8.1476769010490671
 30
0.0
 10
-48.982886941488282
 20
8.146433958981504
 30
0.0
 10
-48.966676610730637
 20
8.145191016913941
 30
0.0
  0
LINE
  5
280
100
AcDbEntity
  8
0
  6
CONTINUOUS
 62
               7
100
AcDbLine
 10
-58.410995733687948
 20
-8.6196376834091382
 30
0.0
 11
-58.466292728687954
 21
-0.9057657061091504
 31
0.0
  0
LINE
  5
281
100
AcDbEntity
  8
0
  6
CONTINUOUS
 62
               7
100
AcDbLine
 10
-71.870575827287951
 20
27.548044060590854
 30
0.0
 11
-71.874181810487954
 21
28.051074877990857
 31
0.0
  0
LINE
  5
282
100
AcDbEntity
  8
0
  6
CONTINUOUS
 62
               7
100
AcDbLine
 10
-5.437826831187941
 20
-46.128065374909141
 30
0.0
 11
-5.9638372678879463
 21
27.249830916890858
 31
0.0
  0
LINE
  5
283
100
AcDbEntity
  8
0
  6
CONTINUOUS
 62
               7
100
AcDbLine
 10
-15.735273304887947
 20
-52.10337268590915
 30
0.0
 11
-5.437826831187941
 21
-46.128065374909141
 31
0.0
  0
LINE
  5
284
100
AcDbEntity
  8
0
  6
CONTINUOUS
 62
               7
100
AcDbLine
 10
-6.4207321373879367
 20
27.497342195490859
 30
0.0
 11
-6.4193301066879584
 21
27.30176040849085
 31
0.0
  0
ARC
  5
285
100
AcDbEntity
  8
0
  6
CONTINUOUS
 62
               7
100
AcDbCircle
 10
-45.676259929987957
 20
7.3939484841908438
 30
0.0
 40
3.0800213535273429
100
AcDbArc
 50
341.9516456583998
 51
0.4646535143999131
  0
ARC
  5
286
100
AcDbEntity
  8
0
  6
CONTINUOUS
 62
               7
100
AcDbCircle
 10
-33.460249208687962
 20
-8.4817672585091373
 30
0.0
 40
4.6947756522354487
100
AcDbArc
 50
83.776636417499944
 51
95.934743818399866
  0
ARC
  5
287
100
AcDbEntity
  8
0
  6
CONTINUOUS
 62
               7
100
AcDbCircle
 10
-44.336453774287939
 20
-3.8289360736091567
 30
0.0
 40
10.39079850412422
100
AcDbArc
 50
0.0925368346000753
 51
81.205474081299926
  0
ARC
  5
288
100
AcDbEntity
  8
0
  6
CONTINUOUS
 62
               7
100
AcDbCircle
 10
-44.360817841387949
 20
-3.847185040909153
 30
0.0
 40
10.36422770585861
100
AcDbArc
 50
0.1638455326999498
 51
81.134170337500009
  0
ARC
  5
289
100
AcDbEntity
  8
0
  6
CONTINUOUS
 62
               7
100
AcDbCircle
 10
-34.482054601687956
 20
0.8520787324908667
 30
0.0
 40
4.6947885820779964
100
AcDbArc
 50
263.77666413480017
 51
275.93475779040006
  0
SPLINE
  5
28A
100
AcDbEntity
  8
0
  6
CONTINUOUS
 62
               7
100
AcDbSpline
210
0.0
220
0.0
230
1.0
 70
               8
 71
               2
 72
              16
 73
              13
 74
               0
 42
0.000001
 43
0.000001
 40
0.0
 40
0.0
 40
0.0
 40
1.0
 40
1.0
 40
2.0
 40
3.0
 40
4.0
 40
5.0
 40
6.0
 40
7.0
 40
8.0
 40
8.0
 40
9.0
 40
9.0
 40
9.0
 10
-42.91492185622436
 20
5.4139813520868643
 30
0.0
 10
-42.894930156562801
 20
5.4105819522734322
 30
0.0
 10
-42.874938456901241
 20
5.4071825524600001
 30
0.0
 10
-42.274556422715186
 20
5.3153967626833492
 30
0.0
 10
-40.969160686480159
 20
4.9799858107957675
 30
0.0
 10
-38.98817048383011
 20
3.9932440526675634
 30
0.0
 10
-37.378114269942778
 20
2.4361554766914821
 30
0.0
 10
-35.973067967398201
 20
0.5325417155098648
 30
0.0
 10
-35.202124244407536
 20
-1.7343246096826306
 30
0.0
 10
-35.02520155901248
 20
-3.1335204009628796
 30
0.0
 10
-34.99341943240892
 20
-3.7724497751514434
 30
0.0
 10
-34.992204539747881
 20
-3.7937463706306431
 30
0.0
 10
-34.990989647086842
 20
-3.8150429661098428
 30
0.0
  0
ARC
  5
28B
100
AcDbEntity
  8
0
  6
CONTINUOUS
 62
               7
100
AcDbCircle
 10
-39.834970181787945
 20
5.4389511457908668
 30
0.0
 40
3.0800533137136101
100
AcDbArc
 50
161.95167230829978
 51
180.46449738190015
  0
LINE
  5
28C
100
AcDbEntity
  8
0
  6
CONTINUOUS
 62
               7
100
AcDbLine
 10
-72.553219387187937
 20
68.315038772790842
 30
0.0
 11
-73.842770624287937
 21
69.160103994390852
 31
0.0
  0
SPLINE
  5
28D
100
AcDbEntity
  8
0
  6
CONTINUOUS
 62
               7
100
AcDbSpline
210
0.0
220
0.0
230
1.0
 70
               8
 71
               2
 72
              15
 73
              12
 74
               0
 42
0.000001
 43
0.000001
 40
0.0
 40
0.0
 40
0.0
 40
1.0
 40
1.0
 40
2.0
 40
3.0
 40
4.0
 40
5.0
 40
6.0
 40
7.0
 40
7.0
 40
8.0
 40
8.0
 40
8.0
 10
-73.842778813548136
 20
69.160096793337459
 30
0.0
 10
-73.842503102065564
 20
69.168019832248561
 30
0.0
 10
-73.842227390582991
 20
69.175942871159663
 30
0.0
 10
-73.833384448404502
 20
69.541126929370932
 30
0.0
 10
-73.780233542700756
 20
70.168202827417758
 30
0.0
 10
-73.680933779767201
 20
70.684618700428075
 30
0.0
 10
-73.547733554727557
 20
71.178075474240046
 30
0.0
 10
-73.359574700404238
 20
71.667304336016343
 30
0.0
 10
-73.201812849346055
 20
71.859132262393416
 30
0.0
 10
-73.164734905798696
 20
71.900802599390261
 30
0.0
 10
-73.163500639089975
 20
71.902201722982056
 30
0.0
 10
-73.162266372381254
 20
71.903600846573852
 30
0.0
  0
LINE
  5
28E
100
AcDbEntity
  8
0
  6
CONTINUOUS
 62
               7
100
AcDbLine
 10
-33.945668822187962
 20
-3.8121541885091403
 30
0.0
 11
-33.996632512587944
 21
-3.8175470796091417
 31
0.0
  0
LINE
  5
28F
100
AcDbEntity
  8
0
  6
CONTINUOUS
 62
               7
100
AcDbLine
 10
-42.747789841187959
 20
6.4396977430908464
 30
0.0
 11
-42.763471102087941
 21
6.3932104266908425
 31
0.0
  0
LINE
  5
290
100
AcDbEntity
  8
0
  6
CONTINUOUS
 62
               7
100
AcDbLine
 10
-34.99098964708795
 20
-3.8150429661091323
 30
0.0
 11
-34.935692652087958
 21
-11.528914943409148
 31
0.0
  0
SPLINE
  5
291
100
AcDbEntity
  8
0
  6
CONTINUOUS
 62
               7
100
AcDbSpline
210
0.0
220
0.0
230
1.0
 70
               8
 71
               2
 72
              16
 73
              13
 74
               0
 42
0.000001
 43
0.000001
 40
0.0
 40
0.0
 40
0.0
 40
1.0
 40
1.0
 40
2.0
 40
3.0
 40
4.0
 40
5.0
 40
6.0
 40
7.0
 40
8.0
 40
8.0
 40
9.0
 40
9.0
 40
9.0
 10
-34.935692652046036
 20
-11.528914943385132
 30
0.0
 10
-34.936508313195255
 20
-11.547862547732109
 30
0.0
 10
-34.937323974344473
 20
-11.566810152079086
 30
0.0
 10
-34.955059948084674
 20
-12.136490387006745
 30
0.0
 10
-35.092245979238747
 20
-13.441783730619704
 30
0.0
 10
-35.664386810509647
 20
-15.167116374961751
 30
0.0
 10
-36.950793657682389
 20
-17.082331922372077
 30
0.0
 10
-39.001283660985102
 20
-18.504062963947433
 30
0.0
 10
-40.919299226873271
 20
-18.994525975309045
 30
0.0
 10
-42.164424969120084
 20
-19.001491034811835
 30
0.0
 10
-42.704203074470449
 20
-18.966864343921998
 30
0.0
 10
-42.722182687234501
 20
-18.965827578606465
 30
0.0
 10
-42.740162299998552
 20
-18.964790813290932
 30
0.0
  0
LINE
  5
292
100
AcDbEntity
  8
0
  6
CONTINUOUS
 62
               7
100
AcDbLine
 10
-42.740162511887938
 20
-18.964790789109145
 30
0.0
 11
-49.110499475487948
 21
-18.238526111409158
 31
0.0
  0
SPLINE
  5
293
100
AcDbEntity
  8
0
  6
CONTINUOUS
 62
               7
100
AcDbSpline
210
0.0
220
0.0
230
1.0
 70
               8
 71
               2
 72
              16
 73
              13
 74
               0
 42
0.000001
 43
0.000001
 40
0.0
 40
0.0
 40
0.0
 40
1.0
 40
1.0
 40
2.0
 40
3.0
 40
4.0
 40
5.0
 40
6.0
 40
7.0
 40
8.0
 40
8.0
 40
9.0
 40
9.0
 40
9.0
 10
-49.110499475473851
 20
-18.238526111450454
 30
0.0
 10
-49.130491168029359
 20
-18.235126628019756
 30
0.0
 10
-49.150482860584866
 20
-18.231727144589058
 30
0.0
 10
-49.75086448585909
 20
-18.13993803762574
 30
0.0
 10
-51.056260937799884
 20
-17.804528945023407
 30
0.0
 10
-53.037247489058949
 20
-16.817782189994659
 30
0.0
 10
-54.647308273016016
 20
-15.260699969269893
 30
0.0
 10
-56.052353589646366
 20
-13.35708465380938
 30
0.0
 10
-56.823297007724243
 20
-11.090216538660968
 30
0.0
 10
-57.000219855601891
 20
-9.6910207783181761
 30
0.0
 10
-57.032001927678742
 20
-9.0520913927288404
 30
0.0
 10
-57.033216819019799
 20
-9.03079479696585
 30
0.0
 10
-57.034431710360856
 20
-9.0094982012028595
 30
0.0
  0
LINE
  5
294
100
AcDbEntity
  8
0
  6
CONTINUOUS
 62
               7
100
AcDbLine
 10
-57.034431710387942
 20
-9.0094982012091407
 30
0.0
 11
-57.089728705387948
 21
-1.2956262239091529
 31
0.0
  0
SPLINE
  5
295
100
AcDbEntity
  8
0
  6
CONTINUOUS
 62
               7
100
AcDbSpline
210
0.0
220
0.0
230
1.0
 70
               8
 71
               2
 72
              16
 73
              13
 74
               0
 42
0.000001
 43
0.000001
 40
0.0
 40
0.0
 40
0.0
 40
1.0
 40
1.0
 40
2.0
 40
3.0
 40
4.0
 40
5.0
 40
6.0
 40
7.0
 40
8.0
 40
8.0
 40
9.0
 40
9.0
 40
9.0
 10
-57.089728705401747
 20
-1.2956262239275418
 30
0.0
 10
-57.088913045190111
 20
-1.2766786189607302
 30
0.0
 10
-57.088097384978475
 20
-1.2577310139939186
 30
0.0
 10
-57.070361475372685
 20
-0.6880507367648647
 30
0.0
 10
-56.933175196363486
 20
0.6172424437350799
 30
0.0
 10
-56.361035603079181
 20
2.3425745317872213
 30
0.0
 10
-55.074626644642187
 20
4.2577889940132252
 30
0.0
 10
-53.024137925951059
 20
5.6795193268368109
 30
0.0
 10
-51.106122323012805
 20
6.1699849739879369
 30
0.0
 10
-49.860996690360757
 20
6.176948924703396
 30
0.0
 10
-49.321218273912216
 20
6.1423197368732758
 30
0.0
 10
-49.303238652805881
 20
6.1412828954003089
 30
0.0
 10
-49.285259031699546
 20
6.140246053927342
 30
0.0
  0
LINE
  5
296
100
AcDbEntity
  8
0
  6
CONTINUOUS
 62
               7
100
AcDbLine
 10
-49.285258607887947
 20
6.1402460055908534
 30
0.0
 11
-42.914921856187952
 21
5.4139813520908433
 31
0.0
  0
LINE
  5
297
100
AcDbEntity
  8
0
  6
CONTINUOUS
 62
               7
100
AcDbLine
 10
-56.687228432587936
 20
-9.0490818964091488
 30
0.0
 11
-56.742525427587957
 21
-1.3352099191091327
 31
0.0
  0
ARC
  5
298
100
AcDbEntity
  8
0
  6
CONTINUOUS
 62
               7
100
AcDbCircle
 10
-48.085025916387956
 20
-9.7759953094091543
 30
0.0
 40
8.1596768787058718
100
AcDbArc
 50
230.08455398239994
 51
262.7615523421
  0
POLYLINE
  5
299
100
AcDbEntity
  8
0
  6
CONTINUOUS
 62
               7
100
AcDb2dPolyline
 66
               1
 10
0.0
 20
0.0
 30
0.0
 75
               5
  0
VERTEX
  5
29A
100
AcDbEntity
  8
0
  6
CONTINUOUS
 62
               7
100
AcDbVertex
100
AcDb2dVertex
 10
-56.529939394587949
 20
-10.628315043209142
 30
0.0
  0
VERTEX
  5
29B
100
AcDbEntity
  8
0
  6
CONTINUOUS
 62
               7
100
AcDbVertex
100
AcDb2dVertex
 10
-56.615466716387935
 20
-10.095999884509155
 30
0.0
  0
VERTEX
  5
29C
100
AcDbEntity
  8
0
  6
CONTINUOUS
 62
               7
100
AcDbVertex
100
AcDb2dVertex
 10
-56.687228432587936
 20
-9.0490818964091488
 30
0.0
  0
SEQEND
  5
29D
100
AcDbEntity
  8
0
  6
CONTINUOUS
 62
               7
  0
LINE
  5
29E
100
AcDbEntity
  8
0
  6
CONTINUOUS
 62
               7
100
AcDbLine
 10
-42.742799689687949
 20
-18.596907297409132
 30
0.0
 11
-49.113136653187944
 21
-17.870642619709145
 31
0.0
  0
ARC
  5
29F
100
AcDbEntity
  8
0
  6
CONTINUOUS
 62
               7
100
AcDbCircle
 10
-42.018827161187936
 20
-11.888131340009153
 30
0.0
 40
6.7477263628113775
100
AcDbArc
 50
263.84080404709999
 51
3.3882353873999023
  0
LINE
  5
2A0
100
AcDbEntity
  8
0
  6
CONTINUOUS
 62
               7
100
AcDbLine
 10
-35.338192924887942
 20
-3.7754592709091526
 30
0.0
 11
-35.282895929787962
 21
-11.48933124820914
 31
0.0
  0
ARC
  5
2A1
100
AcDbEntity
  8
0
  6
CONTINUOUS
 62
               7
100
AcDbCircle
 10
-44.292314264687938
 20
-3.8010675682091346
 30
0.0
 40
8.9541579589631439
100
AcDbArc
 50
0.1638623487000581
 51
81.134142018899908
  0
LINE
  5
2A2
100
AcDbEntity
  8
0
  6
CONTINUOUS
 62
               7
100
AcDbLine
 10
-49.282621693587963
 20
5.7723697220908434
 30
0.0
 11
-42.912284729987952
 21
5.0461050443908562
 31
0.0
  0
ARC
  5
2A3
100
AcDbEntity
  8
0
  6
CONTINUOUS
 62
               7
100
AcDbCircle
 10
-50.006585195987945
 20
-0.9364158857091525
 30
0.0
 40
6.7477349892539209
100
AcDbArc
 50
83.840889037199915
 51
183.38817951720006
  0
LINE
  5
2A4
100
AcDbEntity
  8
0
  6
CONTINUOUS
 62
               7
100
AcDbLine
 10
-73.842770624287937
 20
69.160103994390852
 30
0.0
 11
-73.839713108987951
 21
68.733583862690864
 31
0.0
  0
LINE
  5
2A5
100
AcDbEntity
  8
0
  6
CONTINUOUS
 62
               7
100
AcDbLine
 10
-72.550451130787962
 20
67.928869945590861
 30
0.0
 11
-73.839713108987951
 21
68.733583862690864
 31
0.0
  0
ARC
  5
2A6
100
AcDbEntity
  8
0
  6
CONTINUOUS
 62
               7
100
AcDbCircle
 10
-33.404952213687942
 20
-16.195639235809153
 30
0.0
 40
4.6947756522375927
100
AcDbArc
 50
83.776636417500015
 51
95.934743818399937
  0
LINE
  5
2A7
100
AcDbEntity
  8
0
  6
CONTINUOUS
 62
               7
100
AcDbLine
 10
-33.890371827187941
 20
-11.526026165809157
 30
0.0
 11
-33.945668822187962
 21
-3.8121541885091403
 31
0.0
  0
LINE
  5
2A8
100
AcDbEntity
  8
0
  6
CONTINUOUS
 62
               7
100
AcDbLine
 10
-33.996632512587944
 20
-3.8175470796091417
 30
0.0
 11
-33.941335517587952
 21
-11.531419056909158
 31
0.0
  0
ARC
  5
2A9
100
AcDbEntity
  8
0
  6
CONTINUOUS
 62
               7
100
AcDbCircle
 10
-34.426757606687936
 20
-6.8617932447091334
 30
0.0
 40
4.6947885820871447
100
AcDbArc
 50
263.77666413480011
 51
275.9347577904
  0
LINE
  5
2AA
100
AcDbEntity
  8
0
  6
CONTINUOUS
 62
               7
100
AcDbLine
 10
-33.890371827187941
 20
-11.526026165809157
 30
0.0
 11
-33.941335517587952
 21
-11.531419056909158
 31
0.0
  0
LINE
  5
2AB
100
AcDbEntity
  8
0
  6
CONTINUOUS
 62
               7
100
AcDbLine
 10
-49.133808065687951
 20
7.1194751043908582
 30
0.0
 11
-42.763471102087941
 21
6.3932104266908425
 31
0.0
  0
ARC
  5
2AC
100
AcDbEntity
  8
0
  6
CONTINUOUS
 62
               7
100
AcDbCircle
 10
-46.205316866087962
 20
6.1652179927908435
 30
0.0
 40
3.0800433992029634
100
AcDbArc
 50
161.95165465230019
 51
180.46453968119988
  0
ARC
  5
2AD
100
AcDbEntity
  8
0
  6
CONTINUOUS
 62
               7
100
AcDbCircle
 10
-52.046616547887957
 20
8.120216210290863
 30
0.0
 40
3.0800411941617929
100
AcDbArc
 50
341.95170580999985
 51
0.4645933628002013
  0
LINE
  5
2AE
100
AcDbEntity
  8
0
  6
CONTINUOUS
 62
               7
100
AcDbLine
 10
-42.747789841187959
 20
6.4396977430908464
 30
0.0
 11
-49.118126592887954
 21
7.1659623965908565
 31
0.0
  0
LINE
  5
2AF
100
AcDbEntity
  8
0
  6
CONTINUOUS
 62
               7
100
AcDbLine
 10
-49.133808065687951
 20
7.1194751043908582
 30
0.0
 11
-49.118126592887954
 21
7.1659623965908565
 31
0.0
  0
ARC
  5
2B0
100
AcDbEntity
  8
0
  6
CONTINUOUS
 62
               7
100
AcDbCircle
 10
-44.074215872787953
 20
-20.513027126409156
 30
0.0
 40
1.6798983963487573
100
AcDbArc
 50
357.73267029650009
 51
25.64430576829966
  0
ARC
  5
2B1
100
AcDbEntity
  8
0
  6
CONTINUOUS
 62
               7
100
AcDbCircle
 10
-41.73061781268796
 20
-11.976703780309151
 30
0.0
 40
7.8531883604885495
100
AcDbArc
 50
263.93917280930003
 51
3.289889226899902
  0
ARC
  5
2B2
100
AcDbEntity
  8
0
  6
CONTINUOUS
 62
               7
100
AcDbCircle
 10
-41.73802988068794
 20
-11.993018522009152
 30
0.0
 40
7.8103467949671614
100
AcDbArc
 50
263.84086743170002
 51
3.3882134541999558
  0
ARC
  5
2B3
100
AcDbEntity
  8
0
  6
CONTINUOUS
 62
               7
100
AcDbCircle
 10
-41.061554204087962
 20
-19.031243921109137
 30
0.0
 40
1.6799231737696563
100
AcDbArc
 50
177.73294533319967
 51
205.64415065469984
  0
LINE
  5
2B4
100
AcDbEntity
  8
0
  6
CONTINUOUS
 62
               7
100
AcDbLine
 10
-42.559790605087947
 20
-19.785995675609144
 30
0.0
 11
-42.576003776887937
 21
-19.75828199520916
 31
0.0
  0
POLYLINE
  5
2B5
100
AcDbEntity
  8
0
  6
CONTINUOUS
 62
               7
100
AcDb2dPolyline
 66
               1
 10
0.0
 20
0.0
 30
0.0
 75
               5
  0
VERTEX
  5
2B6
100
AcDbEntity
  8
0
  6
CONTINUOUS
 62
               7
100
AcDbVertex
100
AcDb2dVertex
 10
-39.807070638087957
 20
-18.190228539109143
 30
0.0
  0
VERTEX
  5
2B7
100
AcDbEntity
  8
0
  6
CONTINUOUS
 62
               7
100
AcDbVertex
100
AcDb2dVertex
 10
-39.428835140687958
 20
-18.079549363109152
 30
0.0
  0
VERTEX
  5
2B8
100
AcDbEntity
  8
0
  6
CONTINUOUS
 62
               7
100
AcDbVertex
100
AcDb2dVertex
 10
-38.591769543587951
 20
-17.740023213209156
 30
0.0
  0
SEQEND
  5
2B9
100
AcDbEntity
  8
0
  6
CONTINUOUS
 62
               7
  0
ARC
  5
2BA
100
AcDbEntity
  8
0
  6
CONTINUOUS
 62
               7
100
AcDbCircle
 10
-49.971786254887938
 20
-0.6457834863091421
 30
0.0
 40
7.8103424013503329
100
AcDbArc
 50
83.840832277799947
 51
183.38822502240009
  0
ARC
  5
2BB
100
AcDbEntity
  8
0
  6
CONTINUOUS
 62
               7
100
AcDbCircle
 10
-57.001314127687955
 20
0.3409787481908495
 30
0.0
 40
1.6389914497491467
100
AcDbArc
 50
242.09093952790028
 51
266.90770669449989
  0
ARC
  5
2BC
100
AcDbEntity
  8
0
  6
CONTINUOUS
 62
               7
100
AcDbCircle
 10
-58.554706684987956
 20
-2.5423723683091453
 30
0.0
 40
1.6389931038580068
100
AcDbArc
 50
62.090997730500135
 51
86.907731575100101
  0
ARC
  5
2BD
100
AcDbEntity
  8
0
  6
CONTINUOUS
 62
               7
100
AcDbCircle
 10
-49.947294978287935
 20
-0.6433341241091455
 30
0.0
 40
7.8531924947732206
100
AcDbArc
 50
83.939208345500077
 51
183.28985369070011
  0
LINE
  5
2BE
100
AcDbEntity
  8
0
  6
CONTINUOUS
 62
               7
100
AcDbLine
 10
-57.787545370787946
 20
-1.0940071131091429
 30
0.0
 11
-57.768476138887955
 21
-1.1073842660091486
 31
0.0
  0
ARC
  5
2BF
100
AcDbEntity
  8
0
  6
CONTINUOUS
 62
               7
100
AcDbCircle
 10
-49.718659893687935
 20
-0.3443528339091415
 30
0.0
 40
6.4360298566293555
100
AcDbArc
 50
124.84772159050007
 51
136.72030897630003
  0
SPLINE
  5
2C0
100
AcDbEntity
  8
0
  6
CONTINUOUS
 62
               7
100
AcDbSpline
210
0.0
220
0.0
230
1.0
 70
               8
 71
               2
 72
              16
 73
              13
 74
               0
 42
0.000001
 43
0.000001
 40
0.0
 40
0.0
 40
0.0
 40
1.0
 40
1.0
 40
2.0
 40
3.0
 40
4.0
 40
5.0
 40
6.0
 40
7.0
 40
8.0
 40
8.0
 40
9.0
 40
9.0
 40
9.0
 10
-19.011695246560457
 20
-52.485962327060946
 30
0.0
 10
-19.01169346845824
 20
-52.48607273493969
 30
0.0
 10
-19.011691690356024
 20
-52.486183142818433
 30
0.0
 10
-19.011467367442485
 20
-52.503366597658214
 30
0.0
 10
-19.010219869388997
 20
-52.546828284947765
 30
0.0
 10
-19.008207029533814
 20
-52.582468188225988
 30
0.0
 10
-19.006312508464923
 20
-52.608107028859607
 30
0.0
 10
-19.004216164083566
 20
-52.621915314654245
 30
0.0
 10
-19.002821515184245
 20
-52.627437843789949
 30
0.0
 10
-19.001674275746829
 20
-52.628610026408424
 30
0.0
 10
-19.00116222037942
 20
-52.628498366506307
 30
0.0
 10
-19.001158126215635
 20
-52.628498132279425
 30
0.0
 10
-19.001154032051851
 20
-52.628497898052544
 30
0.0
  0
SPLINE
  5
2C1
100
AcDbEntity
  8
0
  6
CONTINUOUS
 62
               7
100
AcDbSpline
210
0.0
220
0.0
230
1.0
 70
               8
 71
               2
 72
              16
 73
              13
 74
               0
 42
0.000001
 43
0.000001
 40
0.0
 40
0.0
 40
0.0
 40
1.0
 40
1.0
 40
2.0
 40
3.0
 40
4.0
 40
5.0
 40
6.0
 40
7.0
 40
8.0
 40
8.0
 40
9.0
 40
9.0
 40
9.0
 10
-15.831012759954938
 20
-52.255986419586051
 30
0.0
 10
-15.830951952441218
 20
-52.255979133389424
 30
0.0
 10
-15.830891144927499
 20
-52.255971847192797
 30
0.0
 10
-15.82319811505203
 20
-52.255235479268777
 30
0.0
 10
-15.805788329871085
 20
-52.251342697044592
 30
0.0
 10
-15.788571497841666
 20
-52.241316095863766
 30
0.0
 10
-15.765106843476865
 20
-52.220422888297605
 30
0.0
 10
-15.748091701616765
 20
-52.185752535947813
 30
0.0
 10
-15.738914606899719
 20
-52.154329910255299
 30
0.0
 10
-15.735728615272642
 20
-52.119977437785167
 30
0.0
 10
-15.735286795247383
 20
-52.103628862548078
 30
0.0
 10
-15.735282282339917
 20
-52.103499706249565
 30
0.0
 10
-15.73527776943245
 20
-52.103370549951052
 30
0.0
  0
SPLINE
  5
2C2
100
AcDbEntity
  8
0
  6
CONTINUOUS
 62
               7
100
AcDbSpline
210
0.0
220
0.0
230
1.0
 70
               8
 71
               2
 72
              16
 73
              13
 74
               0
 42
0.000001
 43
0.000001
 40
0.0
 40
0.0
 40
0.0
 40
1.0
 40
1.0
 40
2.0
 40
3.0
 40
4.0
 40
5.0
 40
6.0
 40
7.0
 40
8.0
 40
8.0
 40
9.0
 40
9.0
 40
9.0
 10
-71.620023860868542
 20
-46.629503705851647
 30
0.0
 10
-71.62008880273828
 20
-46.629496817672504
 30
0.0
 10
-71.620153744608018
 20
-46.62948992949336
 30
0.0
 10
-71.628380379678674
 20
-46.628795695358647
 30
0.0
 10
-71.647475719789867
 20
-46.625003954150884
 30
0.0
 10
-71.666973442068098
 20
-46.614775584293568
 30
0.0
 10
-71.687797887992247
 20
-46.597967391140713
 30
0.0
 10
-71.712943212274297
 20
-46.564363418565364
 30
0.0
 10
-71.726163603348994
 20
-46.522691194228116
 30
0.0
 10
-71.729732567874947
 20
-46.491471768227314
 30
0.0
 10
-71.730328292243172
 20
-46.475900067773097
 30
0.0
 10
-71.730334139541611
 20
-46.475777015693623
 30
0.0
 10
-71.73033998684005
 20
-46.47565396361415
 30
0.0
  0
SPLINE
  5
2C3
100
AcDbEntity
  8
0
  6
CONTINUOUS
 62
               7
100
AcDbSpline
210
0.0
220
0.0
230
1.0
 70
               8
 71
               2
 72
              16
 73
              13
 74
               0
 42
0.000001
 43
0.000001
 40
0.0
 40
0.0
 40
0.0
 40
1.0
 40
1.0
 40
2.0
 40
3.0
 40
4.0
 40
5.0
 40
6.0
 40
7.0
 40
8.0
 40
8.0
 40
9.0
 40
9.0
 40
9.0
 10
-5.5213447386665493
 20
-46.277061884958343
 30
0.0
 10
-5.5212405053755518
 20
-46.27700894660105
 30
0.0
 10
-5.5211362720845543
 20
-46.276956008243758
 30
0.0
 10
-5.5146491166421967
 20
-46.273707211505439
 30
0.0
 10
-5.501950260008293
 20
-46.266837785332228
 30
0.0
 10
-5.4848422322029009
 20
-46.255058473343325
 30
0.0
 10
-5.467215985500637
 20
-46.233554361787853
 30
0.0
 10
-5.4512368077284847
 20
-46.203116517721483
 30
0.0
 10
-5.4417974725953613
 20
-46.171998680722197
 30
0.0
 10
-5.4384119104560611
 20
-46.144019415736494
 30
0.0
 10
-5.4378385217680361
 20
-46.128313813717156
 30
0.0
 10
-5.4378326764996885
 20
-46.128189594314499
 30
0.0
 10
-5.4378268312313409
 20
-46.128065374911841
 30
0.0
  0
LINE
  5
2C4
100
AcDbEntity
  8
0
  6
CONTINUOUS
 62
               7
100
AcDbLine
 10
-42.576003776887937
 20
-19.75828199520916
 30
0.0
 11
-48.946340316687944
 21
-19.032017365809139
 31
0.0
  0
ARC
  5
2C5
100
AcDbEntity
  8
0
  6
CONTINUOUS
 62
               7
100
AcDbCircle
 10
-47.431890743887941
 20
-18.304979291709145
 30
0.0
 40
1.6799231737696563
100
AcDbArc
 50
177.73294533319967
 51
205.64415065469984
  0
ARC
  5
2C6
100
AcDbEntity
  8
0
  6
CONTINUOUS
 62
               7
100
AcDbCircle
 10
-47.348987025587938
 20
-8.7916160422091423
 30
0.0
 40
10.364234501636773
100
AcDbArc
 50
180.16385780729988
 51
261.13413953999986
  0
ARC
  5
2C7
100
AcDbEntity
  8
0
  6
CONTINUOUS
 62
               7
100
AcDbCircle
 10
-56.946017132587947
 20
-7.3728932291091382
 30
0.0
 40
1.6389914497490263
100
AcDbArc
 50
242.09093952789976
 51
266.90770669450018
  0
LINE
  5
2C8
100
AcDbEntity
  8
0
  6
CONTINUOUS
 62
               7
100
AcDbLine
 10
-48.930127144887955
 20
-19.059731046209151
 30
0.0
 11
-42.559790605087947
 21
-19.785995675609144
 31
0.0
  0
LINE
  5
2C9
100
AcDbEntity
  8
0
  6
CONTINUOUS
 62
               7
100
AcDbLine
 10
-48.930127144887955
 20
-19.059731046209151
 30
0.0
 11
-48.946340316687944
 21
-19.032017365809139
 31
0.0
  0
ARC
  5
2CA
100
AcDbEntity
  8
0
  6
CONTINUOUS
 62
               7
100
AcDbCircle
 10
-50.444552412687948
 20
-19.786762497009136
 30
0.0
 40
1.6798983963495819
100
AcDbArc
 50
357.7326702965002
 51
25.644305768300512
  0
ARC
  5
2CB
100
AcDbEntity
  8
0
  6
CONTINUOUS
 62
               7
100
AcDbCircle
 10
-47.341469808787956
 20
-8.7911026790091569
 30
0.0
 40
10.390792110127093
100
AcDbArc
 50
180.09250670959995
 51
261.20550543619993
  0
LINE
  5
2CC
100
AcDbEntity
  8
0
  6
CONTINUOUS
 62
               7
100
AcDbLine
 10
-57.732248375787954
 20
-8.8078790904091591
 30
0.0
 11
-57.713179143887949
 21
-8.8212562433091364
 31
0.0
  0
ARC
  5
2CD
100
AcDbEntity
  8
0
  6
CONTINUOUS
 62
               7
100
AcDbCircle
 10
-58.499409689987949
 20
-10.256244345609133
 30
0.0
 40
1.638993103858458
100
AcDbArc
 50
62.090997730500057
 51
86.907731575099959
  0
LINE
  5
2CE
100
AcDbEntity
  8
0
  6
CONTINUOUS
 62
               7
100
AcDbLine
 10
-73.554399332987941
 20
28.932615665490857
 30
0.0
 11
-73.575556635987937
 21
31.884036914090842
 31
0.0
  0
LINE
  5
2CF
100
AcDbEntity
  8
0
  6
CONTINUOUS
 62
               7
100
AcDbLine
 10
-72.264905942587944
 20
28.095619986290842
 30
0.0
 11
-73.554399332987941
 21
28.932615665490857
 31
0.0
  0
LINE
  5
2D0
100
AcDbEntity
  8
0
  6
CONTINUOUS
 62
               7
100
AcDbLine
 10
-57.713179143887949
 20
-8.8212562433091364
 30
0.0
 11
-57.768476138887955
 21
-1.1073842660091486
 31
0.0
  0
LINE
  5
2D1
100
AcDbEntity
  8
0
  6
CONTINUOUS
 62
               7
100
AcDbLine
 10
-73.020308676987952
 20
-45.57246262750914
 30
0.0
 11
-71.730340758787946
 21
-46.475654417909141
 31
0.0
  0
LINE
  5
2D2
100
AcDbEntity
  8
0
  6
CONTINUOUS
 62
               7
100
AcDbLine
 10
-73.549852572987959
 20
28.298347470090846
 30
0.0
 11
-73.020308676987952
 21
-45.57246262750914
 31
0.0
  0
LINE
  5
2D3
100
AcDbEntity
  8
0
  6
CONTINUOUS
 62
               7
100
AcDbLine
 10
-73.011170020987947
 20
28.302599770990867
 30
0.0
 11
-73.01316795048794
 21
28.581308801490849
 31
0.0
  0
LINE
  5
2D4
100
AcDbEntity
  8
0
  6
CONTINUOUS
 62
               7
100
AcDbLine
 10
-57.787545370787946
 20
-1.0940071131091429
 30
0.0
 11
-57.732248375787954
 21
-8.8078790904091591
 31
0.0
  0
SPLINE
  5
2D5
100
AcDbEntity
  8
0
  6
CONTINUOUS
 62
               7
100
AcDbSpline
210
0.0
220
0.0
230
1.0
 70
               8
 71
               2
 72
              17
 73
              14
 74
               0
 42
0.000001
 43
0.000001
 40
0.0
 40
0.0
 40
0.0
 40
1.0
 40
1.0
 40
2.0
 40
3.0
 40
4.0
 40
5.0
 40
6.0
 40
7.0
 40
8.0
 40
9.0
 40
9.0
 40
10.0
 40
10.0
 40
10.0
 10
-73.020299580722963
 20
-45.572462037624049
 30
0.0
 10
-73.020289126998847
 20
-45.572590056311256
 30
0.0
 10
-73.020278673274731
 20
-45.572718074998463
 30
0.0
 10
-73.0196614857594
 20
-45.580661029322968
 30
0.0
 10
-73.017920996659342
 20
-45.598527145211605
 30
0.0
 10
-73.012571462983061
 20
-45.625039513547648
 30
0.0
 10
-72.998830764078036
 20
-45.655714149777637
 30
0.0
 10
-72.980668397241629
 20
-45.682786209014679
 30
0.0
 10
-72.964572166328566
 20
-45.700915829968778
 30
0.0
 10
-72.954079421182342
 20
-45.709696298211668
 30
0.0
 10
-72.94368276413411
 20
-45.716251658178493
 30
0.0
 10
-72.937558025003199
 20
-45.71955012473174
 30
0.0
 10
-72.937509719330222
 20
-45.719576686273044
 30
0.0
 10
-72.937461413657246
 20
-45.719603247814348
 30
0.0
  0
ARC
  5
2D6
100
AcDbEntity
  8
0
  6
CONTINUOUS
 62
               7
100
AcDbCircle
 10
-43.909508964987957
 20
-3.5935973402091577
 30
0.0
 40
6.1134480238463533
100
AcDbArc
 50
0.0728553588001233
 51
81.225164405000015
  0
LINE
  5
2D7
100
AcDbEntity
  8
0
  6
CONTINUOUS
 62
               7
100
AcDbLine
 10
-37.796072679987951
 20
-3.5858288810091494
 30
0.0
 11
-38.325874792387957
 21
-3.6418895170091332
 31
0.0
  0
SPLINE
  5
2D8
100
AcDbEntity
  8
0
  6
CONTINUOUS
 62
               7
100
AcDbSpline
210
0.0
220
0.0
230
1.0
 70
               8
 71
               2
 72
              17
 73
              14
 74
               0
 42
0.000001
 43
0.000001
 40
0.0
 40
0.0
 40
0.0
 40
1.0
 40
1.0
 40
2.0
 40
3.0
 40
4.0
 40
5.0
 40
6.0
 40
7.0
 40
8.0
 40
9.0
 40
9.0
 40
10.0
 40
10.0
 40
10.0
 10
-43.139910473236647
 20
1.9650274253981479
 30
0.0
 10
-43.129245618529787
 20
1.9631697973897531
 30
0.0
 10
-43.118580763822926
 20
1.9613121693813582
 30
0.0
 10
-42.798294199563365
 20
1.9087859805361234
 30
0.0
 10
-42.120227204119224
 20
1.7527281286343168
 30
0.0
 10
-41.341089500630567
 20
1.4099995287966749
 30
0.0
 10
-40.305990599340241
 20
0.7335086508712152
 30
0.0
 10
-39.287284152581968
 20
-0.4347800759617826
 30
0.0
 10
-38.694813646743846
 20
-1.6117701650497906
 30
0.0
 10
-38.424592012715657
 20
-2.5522086862636684
 30
0.0
 10
-38.346214400624824
 20
-3.2781845269542487
 30
0.0
 10
-38.327254618628835
 20
-3.6191544412021415
 30
0.0
 10
-38.326567449967136
 20
-3.6305185158724385
 30
0.0
 10
-38.325880281305437
 20
-3.6418825905427354
 30
0.0
  0
LINE
  5
2D9
100
AcDbEntity
  8
0
  6
CONTINUOUS
 62
               7
100
AcDbLine
 10
-42.976895334587958
 20
2.4482862396908445
 30
0.0
 11
-43.13991047318796
 21
1.9650274253908435
 31
0.0
  0
LINE
  5
2DA
100
AcDbEntity
  8
0
  6
CONTINUOUS
 62
               7
100
AcDbLine
 10
-38.325872325287939
 20
-3.6418892559091489
 30
0.0
 11
-38.270575407487961
 21
-11.355750457109139
 31
0.0
  0
SPLINE
  5
2DB
100
AcDbEntity
  8
0
  6
CONTINUOUS
 62
               7
100
AcDbSpline
210
0.0
220
0.0
230
1.0
 70
               8
 71
               2
 72
              16
 73
              13
 74
               0
 42
0.000001
 43
0.000001
 40
0.0
 40
0.0
 40
0.0
 40
1.0
 40
1.0
 40
2.0
 40
3.0
 40
4.0
 40
5.0
 40
6.0
 40
7.0
 40
8.0
 40
8.0
 40
9.0
 40
9.0
 40
9.0
 10
-38.270584185312252
 20
-11.355747287089457
 30
0.0
 10
-38.271065599130502
 20
-11.366037697113711
 30
0.0
 10
-38.271547012948751
 20
-11.376328107137965
 30
0.0
 10
-38.284405418097656
 20
-11.768735171806185
 30
0.0
 10
-38.411806639340845
 20
-12.781094828741857
 30
0.0
 10
-38.917413016674168
 20
-13.941216476563596
 30
0.0
 10
-39.699633265256146
 20
-14.889013690378135
 30
0.0
 10
-40.678803139803556
 20
-15.533887220854098
 30
0.0
 10
-41.805099206053278
 20
-15.898323670324118
 30
0.0
 10
-42.699264713979851
 20
-15.891419460950488
 30
0.0
 10
-42.992491888853969
 20
-15.874328837955034
 30
0.0
 10
-43.002259561861912
 20
-15.873803576199293
 30
0.0
 10
-43.012027234869855
 20
-15.873278314443553
 30
0.0
  0
LINE
  5
2DC
100
AcDbEntity
  8
0
  6
CONTINUOUS
 62
               7
100
AcDbLine
 10
-43.012031043187953
 20
-15.873287770109158
 30
0.0
 11
-49.382368218687951
 21
-15.147023068209137
 31
0.0
  0
SPLINE
  5
2DD
100
AcDbEntity
  8
0
  6
CONTINUOUS
 62
               7
100
AcDbSpline
210
0.0
220
0.0
230
1.0
 70
               8
 71
               2
 72
              17
 73
              14
 74
               0
 42
0.000001
 43
0.000001
 40
0.0
 40
0.0
 40
0.0
 40
1.0
 40
1.0
 40
2.0
 40
3.0
 40
4.0
 40
5.0
 40
6.0
 40
7.0
 40
8.0
 40
9.0
 40
9.0
 40
10.0
 40
10.0
 40
10.0
 10
-49.382364410345154
 20
-15.147013612603047
 30
0.0
 10
-49.393029267935255
 20
-15.145156034954056
 30
0.0
 10
-49.403694125525355
 20
-15.143298457305065
 30
0.0
 10
-49.723980783168678
 20
-15.090773861328671
 30
0.0
 10
-50.402048122126295
 20
-14.934718286699308
 30
0.0
 10
-51.181186347575611
 20
-14.591989135281125
 30
0.0
 10
-52.216285860766526
 20
-13.915497659948358
 30
0.0
 10
-53.234996028755084
 20
-12.747211114582342
 30
0.0
 10
-53.827465633224755
 20
-11.570220652868585
 30
0.0
 10
-54.097690343154675
 20
-10.629783120699301
 30
0.0
 10
-54.176068702572444
 20
-9.9038080324793327
 30
0.0
 10
-54.195028475010069
 20
-9.5628379953684828
 30
0.0
 10
-54.195715644691909
 20
-9.5514739170112648
 30
0.0
 10
-54.196402814373748
 20
-9.5401098386540468
 30
0.0
  0
LINE
  5
2DE
100
AcDbEntity
  8
0
  6
CONTINUOUS
 62
               7
100
AcDbLine
 10
-54.196415997187948
 20
-9.5401110473091535
 30
0.0
 11
-54.251712992287956
 21
-1.8262390700091373
 31
0.0
  0
SPLINE
  5
2DF
100
AcDbEntity
  8
0
  6
CONTINUOUS
 62
               7
100
AcDbSpline
210
0.0
220
0.0
230
1.0
 70
               8
 71
               2
 72
              16
 73
              13
 74
               0
 42
0.000001
 43
0.000001
 40
0.0
 40
0.0
 40
0.0
 40
1.0
 40
1.0
 40
2.0
 40
3.0
 40
4.0
 40
5.0
 40
6.0
 40
7.0
 40
8.0
 40
8.0
 40
9.0
 40
9.0
 40
9.0
 10
-54.251699809414553
 20
-1.8262378613787575
 30
0.0
 10
-54.25121838236668
 20
-1.8159474539303915
 30
0.0
 10
-54.250736955318807
 20
-1.8056570464820254
 30
0.0
 10
-54.237877978710053
 20
-1.4132501067722956
 30
0.0
 10
-54.110476633367419
 20
-0.4008882754952765
 30
0.0
 10
-53.60486841010313
 20
0.7592343865257192
 30
0.0
 10
-52.822648065905604
 20
1.7070318833622764
 30
0.0
 10
-51.843474478635805
 20
2.3518996994001498
 30
0.0
 10
-50.717178129913002
 20
2.7163422370962849
 30
0.0
 10
-49.823010809155782
 20
2.7094352782376632
 30
0.0
 10
-49.529783033927906
 20
2.6923427717919708
 30
0.0
 10
-49.520015341319926
 20
2.6918174495153693
 30
0.0
 10
-49.510247648711946
 20
2.6912921272387678
 30
0.0
  0
LINE
  5
2E0
100
AcDbEntity
  8
0
  6
CONTINUOUS
 62
               7
100
AcDbLine
 10
-49.510251559987942
 20
2.691297039790868
 30
0.0
 11
-43.139914384587961
 21
1.9650323379908627
 31
0.0
  0
POLYLINE
  5
2E1
100
AcDbEntity
  8
0
  6
CONTINUOUS
 62
               7
100
AcDb2dPolyline
 66
               1
 10
0.0
 20
0.0
 30
0.0
 75
               5
  0
VERTEX
  5
2E2
100
AcDbEntity
  8
0
  6
CONTINUOUS
 62
               7
100
AcDbVertex
100
AcDb2dVertex
 10
-43.986016099087941
 20
-6.8503756187091369
 30
0.0
  0
VERTEX
  5
2E3
100
AcDbEntity
  8
0
  6
CONTINUOUS
 62
               7
100
AcDbVertex
100
AcDb2dVertex
 10
-44.051327490187951
 20
-6.2874638028091567
 30
0.0
  0
VERTEX
  5
2E4
100
AcDbEntity
  8
0
  6
CONTINUOUS
 62
               7
100
AcDbVertex
100
AcDb2dVertex
 10
-44.235770067387953
 20
-5.7409177448091384
 30
0.0
  0
VERTEX
  5
2E5
100
AcDbEntity
  8
0
  6
CONTINUOUS
 62
               7
100
AcDbVertex
100
AcDb2dVertex
 10
-44.529400774787938
 20
-5.2401999123091514
 30
0.0
  0
VERTEX
  5
2E6
100
AcDbEntity
  8
0
  6
CONTINUOUS
 62
               7
100
AcDbVertex
100
AcDb2dVertex
 10
-44.916389793487944
 20
-4.8122998419091516
 30
0.0
  0
VERTEX
  5
2E7
100
AcDbEntity
  8
0
  6
CONTINUOUS
 62
               7
100
AcDbVertex
100
AcDb2dVertex
 10
-45.375874437087951
 20
-4.480294459509139
 30
0.0
  0
VERTEX
  5
2E8
100
AcDbEntity
  8
0
  6
CONTINUOUS
 62
               7
100
AcDbVertex
100
AcDb2dVertex
 10
-45.883083771787959
 20
-4.2620749373091371
 30
0.0
  0
VERTEX
  5
2E9
100
AcDbEntity
  8
0
  6
CONTINUOUS
 62
               7
100
AcDbVertex
100
AcDb2dVertex
 10
-46.410674045787935
 20
-4.1694084298091525
 30
0.0
  0
VERTEX
  5
2EA
100
AcDbEntity
  8
0
  6
CONTINUOUS
 62
               7
100
AcDbVertex
100
AcDb2dVertex
 10
-46.930202729287963
 20
-4.2072890800091329
 30
0.0
  0
VERTEX
  5
2EB
100
AcDbEntity
  8
0
  6
CONTINUOUS
 62
               7
100
AcDbVertex
100
AcDb2dVertex
 10
-47.413661843887944
 20
-4.3736770708091512
 30
0.0
  0
VERTEX
  5
2EC
100
AcDbEntity
  8
0
  6
CONTINUOUS
 62
               7
100
AcDbVertex
100
AcDb2dVertex
 10
-47.834988058987953
 20
-4.6596028245091361
 30
0.0
  0
VERTEX
  5
2ED
100
AcDbEntity
  8
0
  6
CONTINUOUS
 62
               7
100
AcDbVertex
100
AcDb2dVertex
 10
-48.17146759588794
 20
-5.0496492853091581
 30
0.0
  0
VERTEX
  5
2EE
100
AcDbEntity
  8
0
  6
CONTINUOUS
 62
               7
100
AcDbVertex
100
AcDb2dVertex
 10
-48.404960485987935
 20
-5.5227885842091382
 30
0.0
  0
VERTEX
  5
2EF
100
AcDbEntity
  8
0
  6
CONTINUOUS
 62
               7
100
AcDbVertex
100
AcDb2dVertex
 10
-48.522879400487959
 20
-6.0535158687091553
 30
0.0
  0
VERTEX
  5
2F0
100
AcDbEntity
  8
0
  6
CONTINUOUS
 62
               7
100
AcDbVertex
100
AcDb2dVertex
 10
-48.518867139087938
 20
-6.6132220661091594
 30
0.0
  0
VERTEX
  5
2F1
100
AcDbEntity
  8
0
  6
CONTINUOUS
 62
               7
100
AcDbVertex
100
AcDb2dVertex
 10
-48.393140050387949
 20
-7.1717267644091578
 30
0.0
  0
VERTEX
  5
2F2
100
AcDbEntity
  8
0
  6
CONTINUOUS
 62
               7
100
AcDbVertex
100
AcDb2dVertex
 10
-48.152476238987951
 20
-7.6989233708091547
 30
0.0
  0
VERTEX
  5
2F3
100
AcDbEntity
  8
0
  6
CONTINUOUS
 62
               7
100
AcDbVertex
100
AcDb2dVertex
 10
-47.809849587387951
 20
-8.1663928690091439
 30
0.0
  0
VERTEX
  5
2F4
100
AcDbEntity
  8
0
  6
CONTINUOUS
 62
               7
100
AcDbVertex
100
AcDb2dVertex
 10
-47.383731462487951
 20
-8.5489334319091483
 30
0.0
  0
VERTEX
  5
2F5
100
AcDbEntity
  8
0
  6
CONTINUOUS
 62
               7
100
AcDbVertex
100
AcDb2dVertex
 10
-46.897094015187939
 20
-8.8259194760091475
 30
0.0
  0
VERTEX
  5
2F6
100
AcDbEntity
  8
0
  6
CONTINUOUS
 62
               7
100
AcDbVertex
100
AcDb2dVertex
 10
-46.376171914287958
 20
-8.9824190718091472
 30
0.0
  0
VERTEX
  5
2F7
100
AcDbEntity
  8
0
  6
CONTINUOUS
 62
               7
100
AcDbVertex
100
AcDb2dVertex
 10
-45.849048224187946
 20
-9.0099976159091568
 30
0.0
  0
VERTEX
  5
2F8
100
AcDbEntity
  8
0
  6
CONTINUOUS
 62
               7
100
AcDbVertex
100
AcDb2dVertex
 10
-45.344140343187938
 20
-8.9071668067091423
 30
0.0
  0
VERTEX
  5
2F9
100
AcDbEntity
  8
0
  6
CONTINUOUS
 62
               7
100
AcDbVertex
100
AcDb2dVertex
 10
-44.888667909487957
 20
-8.6794731758091359
 30
0.0
  0
VERTEX
  5
2FA
100
AcDbEntity
  8
0
  6
CONTINUOUS
 62
               7
100
AcDbVertex
100
AcDb2dVertex
 10
-44.507185662687952
 20
-8.3391844107091515
 30
0.0
  0
VERTEX
  5
2FB
100
AcDbEntity
  8
0
  6
CONTINUOUS
 62
               7
100
AcDbVertex
100
AcDb2dVertex
 10
-44.220259292787937
 20
-7.904654301209149
 30
0.0
  0
VERTEX
  5
2FC
100
AcDbEntity
  8
0
  6
CONTINUOUS
 62
               7
100
AcDbVertex
100
AcDb2dVertex
 10
-44.043357247587942
 20
-7.3993041543091351
 30
0.0
  0
VERTEX
  5
2FD
100
AcDbEntity
  8
0
  6
CONTINUOUS
 62
               7
100
AcDbVertex
100
AcDb2dVertex
 10
-43.986016099087941
 20
-6.8503756187091369
 30
0.0
  0
SEQEND
  5
2FE
100
AcDbEntity
  8
0
  6
CONTINUOUS
 62
               7
  0
POLYLINE
  5
2FF
100
AcDbEntity
  8
0
  6
CONTINUOUS
 62
               7
100
AcDb2dPolyline
 66
               1
 10
0.0
 20
0.0
 30
0.0
 75
               5
  0
VERTEX
  5
300
100
AcDbEntity
  8
0
  6
CONTINUOUS
 62
               7
100
AcDbVertex
100
AcDb2dVertex
 10
-43.068068504287957
 20
-3.5487317605091562
 30
0.0
  0
VERTEX
  5
301
100
AcDbEntity
  8
0
  6
CONTINUOUS
 62
               7
100
AcDbVertex
100
AcDb2dVertex
 10
-43.216438132287941
 20
-3.4273948244091343
 30
0.0
  0
VERTEX
  5
302
100
AcDbEntity
  8
0
  6
CONTINUOUS
 62
               7
100
AcDbVertex
100
AcDb2dVertex
 10
-43.390831301887935
 20
-3.370842745409135
 30
0.0
  0
VERTEX
  5
303
100
AcDbEntity
  8
0
  6
CONTINUOUS
 62
               7
100
AcDbVertex
100
AcDb2dVertex
 10
-43.564698514687954
 20
-3.3876906116091448
 30
0.0
  0
VERTEX
  5
304
100
AcDbEntity
  8
0
  6
CONTINUOUS
 62
               7
100
AcDbVertex
100
AcDb2dVertex
 10
-43.711569609287942
 20
-3.4753679612091446
 30
0.0
  0
VERTEX
  5
305
100
AcDbEntity
  8
0
  6
CONTINUOUS
 62
               7
100
AcDbVertex
100
AcDb2dVertex
 10
-43.809085198287953
 20
-3.6205349133091431
 30
0.0
  0
VERTEX
  5
306
100
AcDbEntity
  8
0
  6
CONTINUOUS
 62
               7
100
AcDbVertex
100
AcDb2dVertex
 10
-43.842399377787949
 20
-3.8010845849091481
 30
0.0
  0
VERTEX
  5
307
100
AcDbEntity
  8
0
  6
CONTINUOUS
 62
               7
100
AcDbVertex
100
AcDb2dVertex
 10
-43.806440038187951
 20
-3.9895319408091439
 30
0.0
  0
VERTEX
  5
308
100
AcDbEntity
  8
0
  6
CONTINUOUS
 62
               7
100
AcDbVertex
100
AcDb2dVertex
 10
-43.706681987987956
 20
-4.1571859313091579
 30
0.0
  0
SEQEND
  5
309
100
AcDbEntity
  8
0
  6
CONTINUOUS
 62
               7
  0
ARC
  5
30A
100
AcDbEntity
  8
0
  6
CONTINUOUS
 62
               7
100
AcDbCircle
 10
-46.627676851687959
 20
-6.9055299660091407
 30
0.0
 40
4.0106864657633974
100
AcDbArc
 50
317.56575111260008
 51
43.255685949499878
  0
POLYLINE
  5
30B
100
AcDbEntity
  8
0
  6
CONTINUOUS
 62
               7
100
AcDb2dPolyline
 66
               1
 10
0.0
 20
0.0
 30
0.0
 75
               5
  0
VERTEX
  5
30C
100
AcDbEntity
  8
0
  6
CONTINUOUS
 62
               7
100
AcDbVertex
100
AcDb2dVertex
 10
-43.667581120587947
 20
-9.6117153236091326
 30
0.0
  0
VERTEX
  5
30D
100
AcDbEntity
  8
0
  6
CONTINUOUS
 62
               7
100
AcDbVertex
100
AcDb2dVertex
 10
-43.765096735487951
 20
-9.756878683609159
 30
0.0
  0
VERTEX
  5
30E
100
AcDbEntity
  8
0
  6
CONTINUOUS
 62
               7
100
AcDbVertex
100
AcDb2dVertex
 10
-43.79841091488796
 20
-9.9374283552091356
 30
0.0
  0
VERTEX
  5
30F
100
AcDbEntity
  8
0
  6
CONTINUOUS
 62
               7
100
AcDbVertex
100
AcDb2dVertex
 10
-43.762451575287962
 20
-10.12587571110916
 30
0.0
  0
VERTEX
  5
310
100
AcDbEntity
  8
0
  6
CONTINUOUS
 62
               7
100
AcDbVertex
100
AcDb2dVertex
 10
-43.662693499387949
 20
-10.293533293709146
 30
0.0
  0
VERTEX
  5
311
100
AcDbEntity
  8
0
  6
CONTINUOUS
 62
               7
100
AcDbVertex
100
AcDb2dVertex
 10
-43.514324083287953
 20
-10.414870205609134
 30
0.0
  0
VERTEX
  5
312
100
AcDbEntity
  8
0
  6
CONTINUOUS
 62
               7
100
AcDbVertex
100
AcDb2dVertex
 10
-43.339930701787942
 20
-10.471422308809139
 30
0.0
  0
VERTEX
  5
313
100
AcDbEntity
  8
0
  6
CONTINUOUS
 62
               7
100
AcDbVertex
100
AcDb2dVertex
 10
-43.166063700787952
 20
-10.454574418509139
 30
0.0
  0
VERTEX
  5
314
100
AcDbEntity
  8
0
  6
CONTINUOUS
 62
               7
100
AcDbVertex
100
AcDb2dVertex
 10
-43.019192394387936
 20
-10.366897093009158
 30
0.0
  0
SEQEND
  5
315
100
AcDbEntity
  8
0
  6
CONTINUOUS
 62
               7
  0
ARC
  5
316
100
AcDbEntity
  8
0
  6
CONTINUOUS
 62
               7
100
AcDbCircle
 10
-46.733058368187947
 20
-6.9842621404091574
 30
0.0
 40
5.0234469931833745
100
AcDbArc
 50
317.67235584790001
 51
43.14908121419996
  0
POLYLINE
  5
317
100
AcDbEntity
  8
0
  6
CONTINUOUS
 62
               7
100
AcDb2dPolyline
 66
               1
 10
0.0
 20
0.0
 30
0.0
 75
               5
  0
VERTEX
  5
318
100
AcDbEntity
  8
0
  6
CONTINUOUS
 62
               7
100
AcDbVertex
100
AcDb2dVertex
 10
-42.046609131787953
 20
-11.499664383109149
 30
0.0
  0
VERTEX
  5
319
100
AcDbEntity
  8
0
  6
CONTINUOUS
 62
               7
100
AcDbVertex
100
AcDb2dVertex
 10
-42.144124720887952
 20
-11.644831335209147
 30
0.0
  0
VERTEX
  5
31A
100
AcDbEntity
  8
0
  6
CONTINUOUS
 62
               7
100
AcDbVertex
100
AcDb2dVertex
 10
-42.17743890028796
 20
-11.825381006809152
 30
0.0
  0
VERTEX
  5
31B
100
AcDbEntity
  8
0
  6
CONTINUOUS
 62
               7
100
AcDbVertex
100
AcDb2dVertex
 10
-42.141479560687962
 20
-12.013828362709148
 30
0.0
  0
VERTEX
  5
31C
100
AcDbEntity
  8
0
  6
CONTINUOUS
 62
               7
100
AcDbVertex
100
AcDb2dVertex
 10
-42.041721510487939
 20
-12.181482353209134
 30
0.0
  0
VERTEX
  5
31D
100
AcDbEntity
  8
0
  6
CONTINUOUS
 62
               7
100
AcDbVertex
100
AcDb2dVertex
 10
-41.893351856787937
 20
-12.302822881409156
 30
0.0
  0
VERTEX
  5
31E
100
AcDbEntity
  8
0
  6
CONTINUOUS
 62
               7
100
AcDbVertex
100
AcDb2dVertex
 10
-41.718958712887961
 20
-12.359371368409143
 30
0.0
  0
VERTEX
  5
31F
100
AcDbEntity
  8
0
  6
CONTINUOUS
 62
               7
100
AcDbVertex
100
AcDb2dVertex
 10
-41.545091686187952
 20
-12.34252707000914
 30
0.0
  0
VERTEX
  5
320
100
AcDbEntity
  8
0
  6
CONTINUOUS
 62
               7
100
AcDbVertex
100
AcDb2dVertex
 10
-41.398220405587942
 20
-12.254846152509145
 30
0.0
  0
SEQEND
  5
321
100
AcDbEntity
  8
0
  6
CONTINUOUS
 62
               7
  0
ARC
  5
322
100
AcDbEntity
  8
0
  6
CONTINUOUS
 62
               7
100
AcDbCircle
 10
-46.948397201187952
 20
-7.1807476895091327
 30
0.0
 40
7.5200357495542569
100
AcDbArc
 50
317.56573207299999
 51
43.255704989100025
  0
POLYLINE
  5
323
100
AcDbEntity
  8
0
  6
CONTINUOUS
 62
               7
100
AcDb2dPolyline
 66
               1
 10
0.0
 20
0.0
 30
0.0
 75
               5
  0
VERTEX
  5
324
100
AcDbEntity
  8
0
  6
CONTINUOUS
 62
               7
100
AcDbVertex
100
AcDb2dVertex
 10
-41.471534544687948
 20
-2.027601745909152
 30
0.0
  0
VERTEX
  5
325
100
AcDbEntity
  8
0
  6
CONTINUOUS
 62
               7
100
AcDbVertex
100
AcDb2dVertex
 10
-41.61990419838795
 20
-1.906261217709158
 30
0.0
  0
VERTEX
  5
326
100
AcDbEntity
  8
0
  6
CONTINUOUS
 62
               7
100
AcDbVertex
100
AcDb2dVertex
 10
-41.794297342187939
 20
-1.8497127307091432
 30
0.0
  0
VERTEX
  5
327
100
AcDbEntity
  8
0
  6
CONTINUOUS
 62
               7
100
AcDbVertex
100
AcDb2dVertex
 10
-41.968164368987935
 20
-1.8665570291091456
 30
0.0
  0
VERTEX
  5
328
100
AcDbEntity
  8
0
  6
CONTINUOUS
 62
               7
100
AcDbVertex
100
AcDb2dVertex
 10
-42.115035649587945
 20
-1.9542379466091404
 30
0.0
  0
VERTEX
  5
329
100
AcDbEntity
  8
0
  6
CONTINUOUS
 62
               7
100
AcDbVertex
100
AcDb2dVertex
 10
-42.212551264387962
 20
-2.0994013066091384
 30
0.0
  0
VERTEX
  5
32A
100
AcDbEntity
  8
0
  6
CONTINUOUS
 62
               7
100
AcDbVertex
100
AcDb2dVertex
 10
-42.245865443887958
 20
-2.2799509782091434
 30
0.0
  0
VERTEX
  5
32B
100
AcDbEntity
  8
0
  6
CONTINUOUS
 62
               7
100
AcDbVertex
100
AcDb2dVertex
 10
-42.20990610428796
 20
-2.4683983341091391
 30
0.0
  0
VERTEX
  5
32C
100
AcDbEntity
  8
0
  6
CONTINUOUS
 62
               7
100
AcDbVertex
100
AcDb2dVertex
 10
-42.110148028287959
 20
-2.6360559167091537
 30
0.0
  0
SEQEND
  5
32D
100
AcDbEntity
  8
0
  6
CONTINUOUS
 62
               7
  0
ARC
  5
32E
100
AcDbEntity
  8
0
  6
CONTINUOUS
 62
               7
100
AcDbCircle
 10
-46.801940192787946
 20
-7.1017210649091567
 30
0.0
 40
6.4772740354815088
100
AcDbArc
 50
317.23596631810005
 51
43.585470743999906
  0
POLYLINE
  5
32F
100
AcDbEntity
  8
0
  6
CONTINUOUS
 62
               7
100
AcDb2dPolyline
 66
               1
 10
0.0
 20
0.0
 30
0.0
 75
               5
  0
VERTEX
  5
330
100
AcDbEntity
  8
0
  6
CONTINUOUS
 62
               7
100
AcDbVertex
100
AcDb2dVertex
 10
-50.47566366388795
 20
-1.6823263806091404
 30
0.0
  0
VERTEX
  5
331
100
AcDbEntity
  8
0
  6
CONTINUOUS
 62
               7
100
AcDbVertex
100
AcDb2dVertex
 10
-50.378148074787951
 20
-1.5371594286091579
 30
0.0
  0
VERTEX
  5
332
100
AcDbEntity
  8
0
  6
CONTINUOUS
 62
               7
100
AcDbVertex
100
AcDb2dVertex
 10
-50.344834319187946
 20
-1.3566097086091418
 30
0.0
  0
VERTEX
  5
333
100
AcDbEntity
  8
0
  6
CONTINUOUS
 62
               7
100
AcDbVertex
100
AcDb2dVertex
 10
-50.380793234987941
 20
-1.1681624010091411
 30
0.0
  0
VERTEX
  5
334
100
AcDbEntity
  8
0
  6
CONTINUOUS
 62
               7
100
AcDbVertex
100
AcDb2dVertex
 10
-50.480551285187936
 20
-1.0005084105091555
 30
0.0
  0
VERTEX
  5
335
100
AcDbEntity
  8
0
  6
CONTINUOUS
 62
               7
100
AcDbVertex
100
AcDb2dVertex
 10
-50.628920938887937
 20
-0.8791678824091491
 30
0.0
  0
VERTEX
  5
336
100
AcDbEntity
  8
0
  6
CONTINUOUS
 62
               7
100
AcDbVertex
100
AcDb2dVertex
 10
-50.803314082787942
 20
-0.8226193954091343
 30
0.0
  0
VERTEX
  5
337
100
AcDbEntity
  8
0
  6
CONTINUOUS
 62
               7
100
AcDbVertex
100
AcDb2dVertex
 10
-50.977181533287954
 20
-0.839463645409154
 30
0.0
  0
VERTEX
  5
338
100
AcDbEntity
  8
0
  6
CONTINUOUS
 62
               7
100
AcDbVertex
100
AcDb2dVertex
 10
-51.124052813887936
 20
-0.9271445629091488
 30
0.0
  0
SEQEND
  5
339
100
AcDbEntity
  8
0
  6
CONTINUOUS
 62
               7
  0
ARC
  5
33A
100
AcDbEntity
  8
0
  6
CONTINUOUS
 62
               7
100
AcDbCircle
 10
-45.573874146787936
 20
-6.0012430125091498
 30
0.0
 40
7.520037121796765
100
AcDbArc
 50
137.56574176990003
 51
223.25569529219996
  0
POLYLINE
  5
33B
100
AcDbEntity
  8
0
  6
CONTINUOUS
 62
               7
100
AcDb2dPolyline
 66
               1
 10
0.0
 20
0.0
 30
0.0
 75
               5
  0
VERTEX
  5
33C
100
AcDbEntity
  8
0
  6
CONTINUOUS
 62
               7
100
AcDbVertex
100
AcDb2dVertex
 10
-51.050738674787958
 20
-11.154388969509142
 30
0.0
  0
VERTEX
  5
33D
100
AcDbEntity
  8
0
  6
CONTINUOUS
 62
               7
100
AcDbVertex
100
AcDb2dVertex
 10
-50.902369021087956
 20
-11.275729497709136
 30
0.0
  0
VERTEX
  5
33E
100
AcDbEntity
  8
0
  6
CONTINUOUS
 62
               7
100
AcDbVertex
100
AcDb2dVertex
 10
-50.727975453487936
 20
-11.332278033009146
 30
0.0
  0
VERTEX
  5
33F
100
AcDbEntity
  8
0
  6
CONTINUOUS
 62
               7
100
AcDbVertex
100
AcDb2dVertex
 10
-50.554108426787955
 20
-11.31543373470916
 30
0.0
  0
VERTEX
  5
340
100
AcDbEntity
  8
0
  6
CONTINUOUS
 62
               7
100
AcDbVertex
100
AcDb2dVertex
 10
-50.407237146087958
 20
-11.227752817109149
 30
0.0
  0
VERTEX
  5
341
100
AcDbEntity
  8
0
  6
CONTINUOUS
 62
               7
100
AcDbVertex
100
AcDb2dVertex
 10
-50.309721531287941
 20
-11.082589457209139
 30
0.0
  0
VERTEX
  5
342
100
AcDbEntity
  8
0
  6
CONTINUOUS
 62
               7
100
AcDbVertex
100
AcDb2dVertex
 10
-50.276407775587948
 20
-10.902039737209151
 30
0.0
  0
VERTEX
  5
343
100
AcDbEntity
  8
0
  6
CONTINUOUS
 62
               7
100
AcDbVertex
100
AcDb2dVertex
 10
-50.312366691387943
 20
-10.71359242960915
 30
0.0
  0
VERTEX
  5
344
100
AcDbEntity
  8
0
  6
CONTINUOUS
 62
               7
100
AcDbVertex
100
AcDb2dVertex
 10
-50.412124767387944
 20
-10.545934847109152
 30
0.0
  0
SEQEND
  5
345
100
AcDbEntity
  8
0
  6
CONTINUOUS
 62
               7
  0
ARC
  5
346
100
AcDbEntity
  8
0
  6
CONTINUOUS
 62
               7
100
AcDbCircle
 10
-45.720332602887957
 20
-6.0802696989091487
 30
0.0
 40
6.4772740354814689
100
AcDbArc
 50
137.23596631810008
 51
223.58547074400005
  0
POLYLINE
  5
347
100
AcDbEntity
  8
0
  6
CONTINUOUS
 62
               7
100
AcDb2dPolyline
 66
               1
 10
0.0
 20
0.0
 30
0.0
 75
               5
  0
VERTEX
  5
348
100
AcDbEntity
  8
0
  6
CONTINUOUS
 62
               7
100
AcDbVertex
100
AcDb2dVertex
 10
-48.854691675087956
 20
-3.5702754401091568
 30
0.0
  0
VERTEX
  5
349
100
AcDbEntity
  8
0
  6
CONTINUOUS
 62
               7
100
AcDbVertex
100
AcDb2dVertex
 10
-48.757176272087939
 20
-3.4251120560091408
 30
0.0
  0
VERTEX
  5
34A
100
AcDbEntity
  8
0
  6
CONTINUOUS
 62
               7
100
AcDbVertex
100
AcDb2dVertex
 10
-48.723862092687959
 20
-3.2445623844091358
 30
0.0
  0
VERTEX
  5
34B
100
AcDbEntity
  8
0
  6
CONTINUOUS
 62
               7
100
AcDbVertex
100
AcDb2dVertex
 10
-48.759821432287957
 20
-3.0561150284091525
 30
0.0
  0
VERTEX
  5
34C
100
AcDbEntity
  8
0
  6
CONTINUOUS
 62
               7
100
AcDbVertex
100
AcDb2dVertex
 10
-48.859579296387942
 20
-2.8884574701091594
 30
0.0
  0
VERTEX
  5
34D
100
AcDbEntity
  8
0
  6
CONTINUOUS
 62
               7
100
AcDbVertex
100
AcDb2dVertex
 10
-49.007948924287938
 20
-2.76712053390915
 30
0.0
  0
VERTEX
  5
34E
100
AcDbEntity
  8
0
  6
CONTINUOUS
 62
               7
100
AcDbVertex
100
AcDb2dVertex
 10
-49.182342305787948
 20
-2.7105684307091451
 30
0.0
  0
VERTEX
  5
34F
100
AcDbEntity
  8
0
  6
CONTINUOUS
 62
               7
100
AcDbVertex
100
AcDb2dVertex
 10
-49.356209306787939
 20
-2.727416321109132
 30
0.0
  0
VERTEX
  5
350
100
AcDbEntity
  8
0
  6
CONTINUOUS
 62
               7
100
AcDbVertex
100
AcDb2dVertex
 10
-49.503080613187954
 20
-2.8150936466091423
 30
0.0
  0
SEQEND
  5
351
100
AcDbEntity
  8
0
  6
CONTINUOUS
 62
               7
  0
ARC
  5
352
100
AcDbEntity
  8
0
  6
CONTINUOUS
 62
               7
100
AcDbCircle
 10
-45.789215623387939
 20
-6.1977286062091537
 30
0.0
 40
5.0234462704828475
100
AcDbArc
 50
137.67234823129999
 51
223.14908883079985
  0
POLYLINE
  5
353
100
AcDbEntity
  8
0
  6
CONTINUOUS
 62
               7
100
AcDb2dPolyline
 66
               1
 10
0.0
 20
0.0
 30
0.0
 75
               5
  0
VERTEX
  5
354
100
AcDbEntity
  8
0
  6
CONTINUOUS
 62
               7
100
AcDbVertex
100
AcDb2dVertex
 10
-49.454204503287961
 20
-9.6332589790091561
 30
0.0
  0
VERTEX
  5
355
100
AcDbEntity
  8
0
  6
CONTINUOUS
 62
               7
100
AcDbVertex
100
AcDb2dVertex
 10
-49.30583487528795
 20
-9.754595915209137
 30
0.0
  0
VERTEX
  5
356
100
AcDbEntity
  8
0
  6
CONTINUOUS
 62
               7
100
AcDbVertex
100
AcDb2dVertex
 10
-49.131441705687955
 20
-9.8111479942091364
 30
0.0
  0
VERTEX
  5
357
100
AcDbEntity
  8
0
  6
CONTINUOUS
 62
               7
100
AcDbVertex
100
AcDb2dVertex
 10
-48.957574492887936
 20
-9.7943001280091551
 30
0.0
  0
VERTEX
  5
358
100
AcDbEntity
  8
0
  6
CONTINUOUS
 62
               7
100
AcDbVertex
100
AcDb2dVertex
 10
-48.810703186487949
 20
-9.7066228025091448
 30
0.0
  0
VERTEX
  5
359
100
AcDbEntity
  8
0
  6
CONTINUOUS
 62
               7
100
AcDbVertex
100
AcDb2dVertex
 10
-48.713187809287938
 20
-9.5614558263091567
 30
0.0
  0
VERTEX
  5
35A
100
AcDbEntity
  8
0
  6
CONTINUOUS
 62
               7
100
AcDbVertex
100
AcDb2dVertex
 10
-48.679873629787942
 20
-9.3809061547091517
 30
0.0
  0
VERTEX
  5
35B
100
AcDbEntity
  8
0
  6
CONTINUOUS
 62
               7
100
AcDbVertex
100
AcDb2dVertex
 10
-48.715832969387939
 20
-9.192458798809156
 30
0.0
  0
VERTEX
  5
35C
100
AcDbEntity
  8
0
  6
CONTINUOUS
 62
               7
100
AcDbVertex
100
AcDb2dVertex
 10
-48.815590807787963
 20
-9.0248048324091599
 30
0.0
  0
SEQEND
  5
35D
100
AcDbEntity
  8
0
  6
CONTINUOUS
 62
               7
  0
ARC
  5
35E
100
AcDbEntity
  8
0
  6
CONTINUOUS
 62
               7
100
AcDbCircle
 10
-45.894596612787943
 20
-6.2764608026091366
 30
0.0
 40
4.0106859754631543
100
AcDbArc
 50
137.56574461630012
 51
223.25569244579992
  0
LINE
  5
35F
100
AcDbEntity
  8
0
  6
CONTINUOUS
 62
               7
100
AcDbLine
 10
-37.796072831087962
 20
-3.5858277791091382
 30
0.0
 11
-37.740775836087941
 21
-11.299699756409154
 31
0.0
  0
LINE
  5
360
100
AcDbEntity
  8
0
  6
CONTINUOUS
 62
               7
100
AcDbLine
 10
-38.27057787458795
 20
-11.355750718109135
 30
0.0
 11
-37.740774912987938
 21
-11.299700403909156
 31
0.0
  0
ARC
  5
361
100
AcDbEntity
  8
0
  6
CONTINUOUS
 62
               7
100
AcDbCircle
 10
-41.533263567487943
 20
-2.1688377438091493
 30
0.0
 40
0.5058255777173389
100
AcDbArc
 50
141.86130036750029
 51
223.04566539410064
  0
ARC
  5
362
100
AcDbEntity
  8
0
  6
CONTINUOUS
 62
               7
100
AcDbCircle
 10
-41.45621628218796
 20
-11.721911099709132
 30
0.0
 40
0.5150650762403454
100
AcDbArc
 50
138.06700500909966
 51
279.36312839869981
  0
ARC
  5
363
100
AcDbEntity
  8
0
  6
CONTINUOUS
 62
               7
100
AcDbCircle
 10
-46.594718076387942
 20
-6.9797698412091336
 30
0.0
 40
6.4772740354815088
100
AcDbArc
 50
317.23596631810005
 51
43.585470744000027
  0
LINE
  5
364
100
AcDbEntity
  8
0
  6
CONTINUOUS
 62
               7
100
AcDbLine
 10
-49.347235649387947
 20
3.1745563083908621
 30
0.0
 11
-42.97689847388795
 21
2.4482916065908569
 31
0.0
  0
LINE
  5
365
100
AcDbEntity
  8
0
  6
CONTINUOUS
 62
               7
100
AcDbLine
 10
-49.347236447087958
 20
3.1745594461908411
 30
0.0
 11
-49.510251559987942
 21
2.691297039790868
 31
0.0
  0
LINE
  5
366
100
AcDbEntity
  8
0
  6
CONTINUOUS
 62
               7
100
AcDbLine
 10
-41.902925911887955
 20
-2.5141046930091591
 30
0.0
 11
-42.110148028287959
 21
-2.6360559167091537
 31
0.0
  0
LINE
  5
367
100
AcDbEntity
  8
0
  6
CONTINUOUS
 62
               7
100
AcDbLine
 10
-41.839387015287961
 20
-11.377713159509142
 30
0.0
 11
-42.046609131787953
 21
-11.499664383109149
 31
0.0
  0
ARC
  5
368
100
AcDbEntity
  8
0
  6
CONTINUOUS
 62
               7
100
AcDbCircle
 10
-42.357423222387943
 20
-11.562886642909149
 30
0.0
 40
4.6241503791499055
100
AcDbArc
 50
263.96624837740006
 51
3.2628449645000046
  0
LINE
  5
369
100
AcDbEntity
  8
0
  6
CONTINUOUS
 62
               7
100
AcDbLine
 10
-42.843495249187946
 20
-16.161424454109152
 30
0.0
 11
-43.012031043187953
 21
-15.873287770109158
 31
0.0
  0
ARC
  5
36A
100
AcDbEntity
  8
0
  6
CONTINUOUS
 62
               7
100
AcDbCircle
 10
-43.077183776187944
 20
-9.8339618999091556
 30
0.0
 40
0.5150683262939795
100
AcDbArc
 50
138.06735074679906
 51
279.35107416060055
  0
ARC
  5
36B
100
AcDbEntity
  8
0
  6
CONTINUOUS
 62
               7
100
AcDbCircle
 10
-46.420454735187938
 20
-6.7835787424091336
 30
0.0
 40
4.0106864657634373
100
AcDbArc
 50
317.56575111260003
 51
43.255685949499934
  0
ARC
  5
36C
100
AcDbEntity
  8
0
  6
CONTINUOUS
 62
               7
100
AcDbCircle
 10
-43.129796173787945
 20
-3.6899675608091513
 30
0.0
 40
0.505826701685853
100
AcDbArc
 50
141.86142531800041
 51
223.04557711609931
  0
LINE
  5
36D
100
AcDbEntity
  8
0
  6
CONTINUOUS
 62
               7
100
AcDbLine
 10
-43.499459871487936
 20
-4.0352347077091508
 30
0.0
 11
-43.706681987987956
 21
-4.1571859313091579
 31
0.0
  0
LINE
  5
36E
100
AcDbEntity
  8
0
  6
CONTINUOUS
 62
               7
100
AcDbLine
 10
-43.460359004187943
 20
-9.4897641000091539
 30
0.0
 11
-43.667581120587947
 21
-9.6117153236091326
 31
0.0
  0
ARC
  5
36F
100
AcDbEntity
  8
0
  6
CONTINUOUS
 62
               7
100
AcDbCircle
 10
-45.830500498887936
 20
-6.3375631261091598
 30
0.0
 40
2.5249129049190455
100
AcDbArc
 50
129.1203786648004
 51
291.83364811080014
  0
ARC
  5
370
100
AcDbEntity
  8
0
  6
CONTINUOUS
 62
               7
100
AcDbCircle
 10
-46.187704949287955
 20
-6.5403238858091584
 30
0.0
 40
1.5012342580959661
100
AcDbArc
 50
356.77908087939966
 51
114.68664813779985
  0
ARC
  5
371
100
AcDbEntity
  8
0
  6
CONTINUOUS
 62
               7
100
AcDbCircle
 10
-45.959290034487957
 20
-6.6786611357091488
 30
0.0
 40
1.2715945039116721
100
AcDbArc
 50
301.59297110980077
 51
2.4333723765001878
  0
ARC
  5
372
100
AcDbEntity
  8
0
  6
CONTINUOUS
 62
               7
100
AcDbCircle
 10
-49.833298736287951
 20
-1.4239666896091592
 30
0.0
 40
4.6241448340456763
100
AcDbArc
 50
83.966169752999974
 51
183.26288101699996
  0
LINE
  5
373
100
AcDbEntity
  8
0
  6
CONTINUOUS
 62
               7
100
AcDbLine
 10
-54.449941905387952
 20
-1.6871635886091383
 30
0.0
 11
-54.251699809387951
 21
-1.8262378614091404
 31
0.0
  0
POLYLINE
  5
374
100
AcDbEntity
  8
0
  6
CONTINUOUS
 62
               7
100
AcDb2dPolyline
 66
               1
 10
0.0
 20
0.0
 30
0.0
 75
               5
  0
VERTEX
  5
375
100
AcDbEntity
  8
0
  6
CONTINUOUS
 62
               7
100
AcDbVertex
100
AcDb2dVertex
 10
-44.896064282187943
 20
-6.7466235167091497
 30
0.0
  0
VERTEX
  5
376
100
AcDbEntity
  8
0
  6
CONTINUOUS
 62
               7
100
AcDbVertex
100
AcDb2dVertex
 10
-44.959766679587936
 20
-6.3133904185091581
 30
0.0
  0
VERTEX
  5
377
100
AcDbEntity
  8
0
  6
CONTINUOUS
 62
               7
100
AcDbVertex
100
AcDb2dVertex
 10
-45.13910148238795
 20
-5.9048216072091577
 30
0.0
  0
VERTEX
  5
378
100
AcDbEntity
  8
0
  6
CONTINUOUS
 62
               7
100
AcDbVertex
100
AcDb2dVertex
 10
-45.418134069287952
 20
-5.5572251438091484
 30
0.0
  0
VERTEX
  5
379
100
AcDbEntity
  8
0
  6
CONTINUOUS
 62
               7
100
AcDbVertex
100
AcDb2dVertex
 10
-45.772071062287942
 20
-5.3014837678091453
 30
0.0
  0
VERTEX
  5
37A
100
AcDbEntity
  8
0
  6
CONTINUOUS
 62
               7
100
AcDbVertex
100
AcDb2dVertex
 10
-46.169463714387938
 20
-5.1603200275091581
 30
0.0
  0
VERTEX
  5
37B
100
AcDbEntity
  8
0
  6
CONTINUOUS
 62
               7
100
AcDbVertex
100
AcDb2dVertex
 10
-46.575001894487961
 20
-5.1462765051091424
 30
0.0
  0
VERTEX
  5
37C
100
AcDbEntity
  8
0
  6
CONTINUOUS
 62
               7
100
AcDbVertex
100
AcDb2dVertex
 10
-46.952651728987938
 20
-5.260604388009142
 30
0.0
  0
VERTEX
  5
37D
100
AcDbEntity
  8
0
  6
CONTINUOUS
 62
               7
100
AcDbVertex
100
AcDb2dVertex
 10
-47.268857358887935
 20
-5.4931425054091392
 30
0.0
  0
VERTEX
  5
37E
100
AcDbEntity
  8
0
  6
CONTINUOUS
 62
               7
100
AcDbVertex
100
AcDb2dVertex
 10
-47.49552261308795
 20
-5.8232299972091539
 30
0.0
  0
VERTEX
  5
37F
100
AcDbEntity
  8
0
  6
CONTINUOUS
 62
               7
100
AcDbVertex
100
AcDb2dVertex
 10
-47.612507254687948
 20
-6.2215393016091411
 30
0.0
  0
VERTEX
  5
380
100
AcDbEntity
  8
0
  6
CONTINUOUS
 62
               7
100
AcDbVertex
100
AcDb2dVertex
 10
-47.609416676887939
 20
-6.6526716268091377
 30
0.0
  0
VERTEX
  5
381
100
AcDbEntity
  8
0
  6
CONTINUOUS
 62
               7
100
AcDbVertex
100
AcDb2dVertex
 10
-47.486525422387949
 20
-7.0783285253091321
 30
0.0
  0
VERTEX
  5
382
100
AcDbEntity
  8
0
  6
CONTINUOUS
 62
               7
100
AcDbVertex
100
AcDb2dVertex
 10
-47.254753030987949
 20
-7.4606812381091459
 30
0.0
  0
VERTEX
  5
383
100
AcDbEntity
  8
0
  6
CONTINUOUS
 62
               7
100
AcDbVertex
100
AcDb2dVertex
 10
-46.934693500187954
 20
-7.765758204709158
 30
0.0
  0
VERTEX
  5
384
100
AcDbEntity
  8
0
  6
CONTINUOUS
 62
               7
100
AcDbVertex
100
AcDb2dVertex
 10
-46.554785419987944
 20
-7.9664531915091459
 30
0.0
  0
VERTEX
  5
385
100
AcDbEntity
  8
0
  6
CONTINUOUS
 62
               7
100
AcDbVertex
100
AcDb2dVertex
 10
-46.148785342387946
 20
-8.0449309242091545
 30
0.0
  0
VERTEX
  5
386
100
AcDbEntity
  8
0
  6
CONTINUOUS
 62
               7
100
AcDbVertex
100
AcDb2dVertex
 10
-45.752768134387956
 20
-7.9942216700091535
 30
0.0
  0
VERTEX
  5
387
100
AcDbEntity
  8
0
  6
CONTINUOUS
 62
               7
100
AcDbVertex
100
AcDb2dVertex
 10
-45.401921719287962
 20
-7.8188307209091477
 30
0.0
  0
VERTEX
  5
388
100
AcDbEntity
  8
0
  6
CONTINUOUS
 62
               7
100
AcDbVertex
100
AcDb2dVertex
 10
-45.127420249487948
 20
-7.5343411599091326
 30
0.0
  0
VERTEX
  5
389
100
AcDbEntity
  8
0
  6
CONTINUOUS
 62
               7
100
AcDbVertex
100
AcDb2dVertex
 10
-44.953654532987962
 20
-7.1660283722091549
 30
0.0
  0
VERTEX
  5
38A
100
AcDbEntity
  8
0
  6
CONTINUOUS
 62
               7
100
AcDbVertex
100
AcDb2dVertex
 10
-44.896064282187943
 20
-6.7466235167091497
 30
0.0
  0
SEQEND
  5
38B
100
AcDbEntity
  8
0
  6
CONTINUOUS
 62
               7
  0
ARC
  5
38C
100
AcDbEntity
  8
0
  6
CONTINUOUS
 62
               7
100
AcDbCircle
 10
-45.581993506887947
 20
-6.0757773826091466
 30
0.0
 40
5.0234462704827463
100
AcDbArc
 50
137.67234823129982
 51
223.14908883079985
  0
LINE
  5
38D
100
AcDbEntity
  8
0
  6
CONTINUOUS
 62
               7
100
AcDbLine
 10
-49.246982386787941
 20
-9.511307755409149
 30
0.0
 11
-49.454204503287961
 21
-9.6332589790091561
 31
0.0
  0
ARC
  5
38E
100
AcDbEntity
  8
0
  6
CONTINUOUS
 62
               7
100
AcDbCircle
 10
-48.874314829387963
 20
-9.2131988956091391
 30
0.0
 40
0.477231600663875
100
AcDbArc
 50
218.65744705420181
 51
280.49189303520154
  0
ARC
  5
38F
100
AcDbEntity
  8
0
  6
CONTINUOUS
 62
               7
100
AcDbCircle
 10
-45.366652030287945
 20
-5.8792917889091427
 30
0.0
 40
7.520037121796765
100
AcDbArc
 50
137.56574176990003
 51
223.25569529219996
  0
LINE
  5
390
100
AcDbEntity
  8
0
  6
CONTINUOUS
 62
               7
100
AcDbLine
 10
-50.843516558387954
 20
-11.032437745909135
 30
0.0
 11
-51.050738674787958
 21
-11.154388969509142
 31
0.0
  0
ARC
  5
391
100
AcDbEntity
  8
0
  6
CONTINUOUS
 62
               7
100
AcDbCircle
 10
-50.470844376187948
 20
-10.734326329509145
 30
0.0
 40
0.4772368090691221
100
AcDbArc
 50
218.65733990709967
 51
280.49121570700157
  0
LINE
  5
392
100
AcDbEntity
  8
0
  6
CONTINUOUS
 62
               7
100
AcDbLine
 10
-42.843494477187953
 20
-16.161423999809159
 30
0.0
 11
-49.213831652687951
 21
-15.435159297909138
 31
0.0
  0
LINE
  5
393
100
AcDbEntity
  8
0
  6
CONTINUOUS
 62
               7
100
AcDbLine
 10
-49.213828667887945
 20
-15.435143112509138
 30
0.0
 11
-49.382364410387957
 21
-15.147013612609157
 31
0.0
  0
LINE
  5
394
100
AcDbEntity
  8
0
  6
CONTINUOUS
 62
               7
100
AcDbLine
 10
-54.394657321187957
 20
-9.4010363202091582
 30
0.0
 11
-54.449954316287936
 21
-1.6871643429091421
 31
0.0
  0
LINE
  5
395
100
AcDbEntity
  8
0
  6
CONTINUOUS
 62
               7
100
AcDbLine
 10
-54.394659788287946
 20
-9.401036581209155
 30
0.0
 11
-54.196415997187948
 21
-9.5401110473091535
 31
0.0
  0
ARC
  5
396
100
AcDbEntity
  8
0
  6
CONTINUOUS
 62
               7
100
AcDbCircle
 10
-48.281191540487946
 20
-9.3932486074091344
 30
0.0
 40
6.1134637880424716
100
AcDbArc
 50
180.07294864960005
 51
261.22504812869994
  0
SPLINE
  5
397
100
AcDbEntity
  8
0
  6
CONTINUOUS
 62
               7
100
AcDbSpline
210
0.0
220
0.0
230
1.0
 70
               8
 71
               2
 72
              12
 73
               9
 74
               0
 42
0.000001
 43
0.000001
 40
0.0
 40
0.0
 40
0.0
 40
1.0
 40
1.0
 40
2.0
 40
3.0
 40
4.0
 40
4.0
 40
5.0
 40
5.0
 40
5.0
 10
-37.192970670834647
 20
-16.611117400445636
 30
0.0
 10
-37.196666214201421
 20
-16.614591364647524
 30
0.0
 10
-37.200361757568196
 20
-16.618065328849411
 30
0.0
 10
-37.296192217377431
 20
-16.708814657518644
 30
0.0
 10
-37.506170182543052
 20
-16.898269225971632
 30
0.0
 10
-37.771902781228441
 20
-17.089130461193776
 30
0.0
 10
-37.926352229352339
 20
-17.157965730102433
 30
0.0
 10
-37.926554263216794
 20
-17.158056380962734
 30
0.0
 10
-37.926756297081248
 20
-17.158147031823034
 30
0.0
  0
LINE
  5
398
100
AcDbEntity
  8
0
  6
CONTINUOUS
 62
               7
100
AcDbLine
 10
-52.565217513087951
 20
5.2360435986908556
 30
0.0
 11
-51.741145319387947
 21
5.6103150117908456
 31
0.0
  0
SPLINE
  5
399
100
AcDbEntity
  8
0
  6
CONTINUOUS
 62
               7
100
AcDbSpline
210
0.0
220
0.0
230
1.0
 70
               8
 71
               2
 72
              17
 73
              14
 74
               0
 42
0.000001
 43
0.000001
 40
0.0
 40
0.0
 40
0.0
 40
1.0
 40
1.0
 40
2.0
 40
3.0
 40
4.0
 40
5.0
 40
6.0
 40
7.0
 40
8.0
 40
9.0
 40
9.0
 40
10.0
 40
10.0
 40
10.0
 10
-35.511392739947745
 20
-11.521511372334345
 30
0.0
 10
-35.512284096500984
 20
-11.540563323337253
 30
0.0
 10
-35.513175453054224
 20
-11.55961527434016
 30
0.0
 10
-35.532827808807774
 20
-12.132652675003158
 30
0.0
 10
-35.67665453416307
 20
-13.408677342974045
 30
0.0
 10
-36.263133720091382
 20
-15.082789705501938
 30
0.0
 10
-37.177296952806635
 20
-16.356968030743388
 30
0.0
 10
-38.290543535422721
 20
-17.440840081215697
 30
0.0
 10
-39.734063091480969
 20
-18.152792859424153
 30
0.0
 10
-41.029205317802244
 20
-18.50880259133686
 30
0.0
 10
-42.247627987059722
 20
-18.526369094941089
 30
0.0
 10
-42.790625823753992
 20
-18.493361470542538
 30
0.0
 10
-42.808710022365325
 20
-18.492388938307897
 30
0.0
 10
-42.826794220976659
 20
-18.491416406073256
 30
0.0
  0
LINE
  5
39A
100
AcDbEntity
  8
0
  6
CONTINUOUS
 62
               7
100
AcDbLine
 10
-42.826794220987942
 20
-18.491416406109153
 30
0.0
 11
-49.19713139648794
 21
-17.76515170420916
 31
0.0
  0
SPLINE
  5
39B
100
AcDbEntity
  8
0
  6
CONTINUOUS
 62
               7
100
AcDbSpline
210
0.0
220
0.0
230
1.0
 70
               8
 71
               2
 72
              17
 73
              14
 74
               0
 42
0.000001
 43
0.000001
 40
0.0
 40
0.0
 40
0.0
 40
1.0
 40
1.0
 40
2.0
 40
3.0
 40
4.0
 40
5.0
 40
6.0
 40
7.0
 40
8.0
 40
9.0
 40
9.0
 40
10.0
 40
10.0
 40
10.0
 10
-49.197131396451958
 20
-17.765151704232636
 30
0.0
 10
-49.215231223693316
 20
-17.761998994737766
 30
0.0
 10
-49.233331050934673
 20
-17.758846285242896
 30
0.0
 10
-49.776951945304681
 20
-17.671323694641217
 30
0.0
 10
-50.926416301102158
 20
-17.389404948350887
 30
0.0
 10
-52.376773832458234
 20
-16.699233442980301
 30
0.0
 10
-53.92480716889974
 20
-15.503276415186235
 30
0.0
 10
-55.384660501754716
 20
-13.706389837035374
 30
0.0
 10
-56.17936858685794
 20
-11.87625637304609
 30
0.0
 10
-56.472747993605303
 20
-10.731902782344548
 30
0.0
 10
-56.590770726593512
 20
-9.7317979304552011
 30
0.0
 10
-56.622176942732686
 20
-9.1530358028369108
 30
0.0
 10
-56.623343129172973
 20
-9.1337492769900734
 30
0.0
 10
-56.62450931561326
 20
-9.1144627511432361
 30
0.0
  0
LINE
  5
39C
100
AcDbEntity
  8
0
  6
CONTINUOUS
 62
               7
100
AcDbLine
 10
-56.624509315587936
 20
-9.1144627511091585
 30
0.0
 11
-56.679806310687944
 21
-1.4005907739091583
 31
0.0
  0
SPLINE
  5
39D
100
AcDbEntity
  8
0
  6
CONTINUOUS
 62
               7
100
AcDbSpline
210
0.0
220
0.0
230
1.0
 70
               8
 71
               2
 72
              17
 73
              14
 74
               0
 42
0.000001
 43
0.000001
 40
0.0
 40
0.0
 40
0.0
 40
1.0
 40
1.0
 40
2.0
 40
3.0
 40
4.0
 40
5.0
 40
6.0
 40
7.0
 40
8.0
 40
9.0
 40
9.0
 40
10.0
 40
10.0
 40
10.0
 10
-56.679806310654037
 20
-1.4005907738680321
 30
0.0
 10
-56.678914945945031
 20
-1.3815388268285744
 30
0.0
 10
-56.678023581236026
 20
-1.3624868797891168
 30
0.0
 10
-56.658370829064459
 20
-0.7894496772711079
 30
0.0
 10
-56.514544879914915
 20
0.4865767395280045
 30
0.0
 10
-55.928065603242196
 20
2.16068756988318
 30
0.0
 10
-55.013900898807343
 20
3.4348608593327867
 30
0.0
 10
-53.900658153813133
 20
4.5187416044466602
 30
0.0
 10
-52.457135571973048
 20
5.2306908768723304
 30
0.0
 10
-51.16199370900528
 20
5.5867009664786735
 30
0.0
 10
-49.943571195484417
 20
5.6042654267253624
 30
0.0
 10
-49.400573209049121
 20
5.5712558547945719
 30
0.0
 10
-49.382489006462286
 20
5.5702832613072104
 30
0.0
 10
-49.364404803875452
 20
5.569310667819849
 30
0.0
  0
LINE
  5
39E
100
AcDbEntity
  8
0
  6
CONTINUOUS
 62
               7
100
AcDbLine
 10
-49.364404803887957
 20
5.5693106677908588
 30
0.0
 11
-42.99406762838796
 21
4.8430459659908536
 31
0.0
  0
SPLINE
  5
39F
100
AcDbEntity
  8
0
  6
CONTINUOUS
 62
               7
100
AcDbSpline
210
0.0
220
0.0
230
1.0
 70
               8
 71
               2
 72
              17
 73
              14
 74
               0
 42
0.000001
 43
0.000001
 40
0.0
 40
0.0
 40
0.0
 40
1.0
 40
1.0
 40
2.0
 40
3.0
 40
4.0
 40
5.0
 40
6.0
 40
7.0
 40
8.0
 40
9.0
 40
9.0
 40
10.0
 40
10.0
 40
10.0
 10
-42.994067628400238
 20
4.8430459659793428
 30
0.0
 10
-42.975967798055784
 20
4.839893316930187
 30
0.0
 10
-42.95786796771133
 20
4.8367406678810312
 30
0.0
 10
-42.414246918434252
 20
4.7492201068049269
 30
0.0
 10
-41.264782812773426
 20
4.4673031026795229
 30
0.0
 10
-39.814425203852572
 20
3.7771324075820587
 30
0.0
 10
-38.266391502925067
 20
2.5811744300229122
 30
0.0
 10
-36.806540540101075
 20
0.784285713298658
 30
0.0
 10
-36.01182927136113
 20
-1.0458438274337993
 30
0.0
 10
-35.718451202104568
 20
-2.1901987764474029
 30
0.0
 10
-35.600428625735553
 20
-3.1903042942913089
 30
0.0
 10
-35.5690221240936
 20
-3.7690663475829638
 30
0.0
 10
-35.567855929541075
 20
-3.7883528713210097
 30
0.0
 10
-35.56668973498855
 20
-3.8076393950590557
 30
0.0
  0
LINE
  5
3A0
100
AcDbEntity
  8
0
  6
CONTINUOUS
 62
               7
100
AcDbLine
 10
-35.566689734987953
 20
-3.8076393950091472
 30
0.0
 11
-35.511392739987961
 21
-11.521511372309135
 31
0.0
  0
SPLINE
  5
3A1
100
AcDbEntity
  8
0
  6
CONTINUOUS
 62
               7
100
AcDbSpline
210
0.0
220
0.0
230
1.0
 70
               8
 71
               2
 72
              17
 73
              14
 74
               0
 42
0.000001
 43
0.000001
 40
0.0
 40
0.0
 40
0.0
 40
1.0
 40
1.0
 40
2.0
 40
3.0
 40
4.0
 40
5.0
 40
6.0
 40
7.0
 40
8.0
 40
9.0
 40
9.0
 40
10.0
 40
10.0
 40
10.0
 10
-42.977478535037839
 20
2.5288850912069449
 30
0.0
 10
-42.965899520175832
 20
2.5268682495000974
 30
0.0
 10
-42.954320505313824
 20
2.5248514077932498
 30
0.0
 10
-42.606579884641569
 20
2.4678234332520219
 30
0.0
 10
-41.870390918886777
 20
2.2983886700574203
 30
0.0
 10
-41.024468270823881
 20
1.9262790688687232
 30
0.0
 10
-39.900643308081719
 20
1.1918018738703609
 30
0.0
 10
-38.794616273490128
 20
-0.0766283587808516
 30
0.0
 10
-38.151361230526469
 20
-1.3545061416270983
 30
0.0
 10
-37.857977331857988
 20
-2.3755564891469589
 30
0.0
 10
-37.77288181948537
 20
-3.163760958345847
 30
0.0
 10
-37.752297077883149
 20
-3.5339580436117899
 30
0.0
 10
-37.751551014220546
 20
-3.5462962211060187
 30
0.0
 10
-37.750804950557942
 20
-3.5586343986002476
 30
0.0
  0
LINE
  5
3A2
100
AcDbEntity
  8
0
  6
CONTINUOUS
 62
               7
100
AcDbLine
 10
-49.347815710487957
 20
3.2551497930908511
 30
0.0
 11
-42.977478534987959
 21
2.5288850911908582
 31
0.0
  0
SPLINE
  5
3A3
100
AcDbEntity
  8
0
  6
CONTINUOUS
 62
               7
100
AcDbSpline
210
0.0
220
0.0
230
1.0
 70
               8
 71
               2
 72
              17
 73
              14
 74
               0
 42
0.000001
 43
0.000001
 40
0.0
 40
0.0
 40
0.0
 40
1.0
 40
1.0
 40
2.0
 40
3.0
 40
4.0
 40
5.0
 40
6.0
 40
7.0
 40
8.0
 40
9.0
 40
9.0
 40
10.0
 40
10.0
 40
10.0
 10
-54.495691095084645
 20
-1.6495957703269539
 30
0.0
 10
-54.495120848433565
 20
-1.6374076617680373
 30
0.0
 10
-54.494550601782485
 20
-1.6252195532091207
 30
0.0
 10
-54.480770171220193
 20
-1.2587793224389543
 30
0.0
 10
-54.405594364335649
 20
-0.4886077038328835
 30
0.0
 10
-54.124542146325318
 20
0.4677004232596005
 30
0.0
 10
-53.499247611048496
 20
1.6016579934342303
 30
0.0
 10
-52.442156601525191
 20
2.5875199390720809
 30
0.0
 10
-51.339317076769468
 20
3.0890943213354944
 30
0.0
 10
-50.452886459229596
 20
3.2765533556906234
 30
0.0
 10
-49.718293698665427
 20
3.2769970610859502
 30
0.0
 10
-49.370953745251278
 20
3.2563941972023542
 30
0.0
 10
-49.359384727882208
 20
3.2557719951249595
 30
0.0
 10
-49.347815710513139
 20
3.2551497930475648
 30
0.0
  0
LINE
  5
3A4
100
AcDbEntity
  8
0
  6
CONTINUOUS
 62
               7
100
AcDbLine
 10
-54.44039410008795
 20
-9.3634677476091497
 30
0.0
 11
-54.495691095087942
 21
-1.6495957703091335
 31
0.0
  0
SPLINE
  5
3A5
100
AcDbEntity
  8
0
  6
CONTINUOUS
 62
               7
100
AcDbSpline
210
0.0
220
0.0
230
1.0
 70
               8
 71
               2
 72
              17
 73
              14
 74
               0
 42
0.000001
 43
0.000001
 40
0.0
 40
0.0
 40
0.0
 40
1.0
 40
1.0
 40
2.0
 40
3.0
 40
4.0
 40
5.0
 40
6.0
 40
7.0
 40
8.0
 40
9.0
 40
9.0
 40
10.0
 40
10.0
 40
10.0
 10
-49.213720515563857
 20
-15.45098723740935
 30
0.0
 10
-49.225299524980052
 20
-15.448970380433892
 30
0.0
 10
-49.236878534396247
 20
-15.446953523458433
 30
0.0
 10
-49.584618933457783
 20
-15.389924935483918
 30
0.0
 10
-50.320807891213853
 20
-15.220490836017802
 30
0.0
 10
-51.166731759105907
 20
-14.848385548499152
 30
0.0
 10
-52.290555299721341
 20
-14.113905376532216
 30
0.0
 10
-53.396582347405563
 20
-12.845475323907294
 30
0.0
 10
-54.039837896805459
 20
-11.567596073379434
 30
0.0
 10
-54.333221718615668
 20
-10.546545656939287
 30
0.0
 10
-54.418317206483771
 20
-9.7583411655207897
 30
0.0
 10
-54.438901971411632
 20
-9.3881441014054872
 30
0.0
 10
-54.439648035727735
 20
-9.3758059245038226
 30
0.0
 10
-54.440394100043839
 20
-9.3634677476021579
 30
0.0
  0
LINE
  5
3A6
100
AcDbEntity
  8
0
  6
CONTINUOUS
 62
               7
100
AcDbLine
 10
-42.843383340087961
 20
-16.177251939209157
 30
0.0
 11
-49.213720515587958
 21
-15.450987237409151
 31
0.0
  0
SPLINE
  5
3A7
100
AcDbEntity
  8
0
  6
CONTINUOUS
 62
               7
100
AcDbSpline
210
0.0
220
0.0
230
1.0
 70
               8
 71
               2
 72
              17
 73
              14
 74
               0
 42
0.000001
 43
0.000001
 40
0.0
 40
0.0
 40
0.0
 40
1.0
 40
1.0
 40
2.0
 40
3.0
 40
4.0
 40
5.0
 40
6.0
 40
7.0
 40
8.0
 40
9.0
 40
9.0
 40
10.0
 40
10.0
 40
10.0
 10
-37.695507955517137
 20
-11.272506375875537
 30
0.0
 10
-37.696078202831295
 20
-11.284694483691794
 30
0.0
 10
-37.696648450145453
 20
-11.296882591508052
 30
0.0
 10
-37.710428909119479
 20
-11.66332279045713
 30
0.0
 10
-37.785604677032602
 20
-12.43349445270286
 30
0.0
 10
-38.066656970920995
 20
-13.389802490566609
 30
0.0
 10
-38.691950103766338
 20
-14.523763877242175
 30
0.0
 10
-39.749044359017539
 20
-15.509621235112149
 30
0.0
 10
-40.851880825880635
 20
-16.011201129968242
 30
0.0
 10
-41.73831290782865
 20
-16.198655274985583
 30
0.0
 10
-42.472905559290972
 20
-16.199098604601545
 30
0.0
 10
-42.820245316698127
 20
-16.178496310332008
 30
0.0
 10
-42.831814328393385
 20
-16.177874124790932
 30
0.0
 10
-42.843383340088643
 20
-16.177251939249857
 30
0.0
  0
LINE
  5
3A8
100
AcDbEntity
  8
0
  6
CONTINUOUS
 62
               7
100
AcDbLine
 10
-37.750804950587955
 20
-3.5586343986091435
 30
0.0
 11
-37.695507955487948
 21
-11.27250637590916
 31
0.0
  0
SPLINE
  5
3A9
100
AcDbEntity
  8
0
  6
CONTINUOUS
 62
               7
100
AcDbSpline
210
0.0
220
0.0
230
1.0
 70
               8
 71
               2
 72
              13
 73
              10
 74
               0
 42
0.000001
 43
0.000001
 40
0.0
 40
0.0
 40
0.0
 40
1.0
 40
1.0
 40
2.0
 40
3.0
 40
4.0
 40
5.0
 40
5.0
 40
6.0
 40
6.0
 40
6.0
 10
-52.086441242436841
 20
2.6474133541243532
 30
0.0
 10
-52.087560199517675
 20
2.6467397888671513
 30
0.0
 10
-52.088679156598509
 20
2.6460662236099495
 30
0.0
 10
-52.12232123860479
 20
2.6259447227901944
 30
0.0
 10
-52.188661214292118
 20
2.5846019819599917
 30
0.0
 10
-52.256056399810653
 20
2.5365808297882211
 30
0.0
 10
-52.31742302837457
 20
2.4820586285415516
 30
0.0
 10
-52.344062751365463
 20
2.4502918363901642
 30
0.0
 10
-52.344074693436959
 20
2.45027760615136
 30
0.0
 10
-52.344086635508454
 20
2.4502633759125558
 30
0.0
  0
POLYLINE
  5
3AA
100
AcDbEntity
  8
0
  6
CONTINUOUS
 62
               7
100
AcDb2dPolyline
 66
               1
 10
0.0
 20
0.0
 30
0.0
 75
               5
  0
VERTEX
  5
3AB
100
AcDbEntity
  8
0
  6
CONTINUOUS
 62
               7
100
AcDbVertex
100
AcDb2dVertex
 10
-30.865616929787954
 20
49.050495930990849
 30
0.0
  0
VERTEX
  5
3AC
100
AcDbEntity
  8
0
  6
CONTINUOUS
 62
               7
100
AcDbVertex
100
AcDb2dVertex
 10
-31.481955858187938
 20
49.189289126390861
 30
0.0
  0
VERTEX
  5
3AD
100
AcDbEntity
  8
0
  6
CONTINUOUS
 62
               7
100
AcDbVertex
100
AcDb2dVertex
 10
-32.072340124287955
 20
49.459180796690845
 30
0.0
  0
VERTEX
  5
3AE
100
AcDbEntity
  8
0
  6
CONTINUOUS
 62
               7
100
AcDbVertex
100
AcDb2dVertex
 10
-32.61096869878795
 20
49.848374640890853
 30
0.0
  0
VERTEX
  5
3AF
100
AcDbEntity
  8
0
  6
CONTINUOUS
 62
               7
100
AcDbVertex
100
AcDb2dVertex
 10
-33.074300708887954
 20
50.339862220890865
 30
0.0
  0
VERTEX
  5
3B0
100
AcDbEntity
  8
0
  6
CONTINUOUS
 62
               7
100
AcDbVertex
100
AcDb2dVertex
 10
-33.442085435587948
 20
50.912162650790862
 30
0.0
  0
VERTEX
  5
3B1
100
AcDbEntity
  8
0
  6
CONTINUOUS
 62
               7
100
AcDbVertex
100
AcDb2dVertex
 10
-33.698248939287957
 20
51.540263083490856
 30
0.0
  0
VERTEX
  5
3B2
100
AcDbEntity
  8
0
  6
CONTINUOUS
 62
               7
100
AcDbVertex
100
AcDb2dVertex
 10
-33.831596326587963
 20
52.196713147690843
 30
0.0
  0
VERTEX
  5
3B3
100
AcDbEntity
  8
0
  6
CONTINUOUS
 62
               7
100
AcDbVertex
100
AcDb2dVertex
 10
-33.836299657487949
 20
52.852822808890863
 30
0.0
  0
VERTEX
  5
3B4
100
AcDbEntity
  8
0
  6
CONTINUOUS
 62
               7
100
AcDbVertex
100
AcDb2dVertex
 10
-33.712153375687954
 20
53.479917173490861
 30
0.0
  0
VERTEX
  5
3B5
100
AcDbEntity
  8
0
  6
CONTINUOUS
 62
               7
100
AcDbVertex
100
AcDb2dVertex
 10
-33.464583282187952
 20
54.05058831779084
 30
0.0
  0
VERTEX
  5
3B6
100
AcDbEntity
  8
0
  6
CONTINUOUS
 62
               7
100
AcDbVertex
100
AcDb2dVertex
 10
-33.104408704987939
 20
54.539895651590854
 30
0.0
  0
VERTEX
  5
3B7
100
AcDbEntity
  8
0
  6
CONTINUOUS
 62
               7
100
AcDbVertex
100
AcDb2dVertex
 10
-32.647370981887939
 20
54.926454397890865
 30
0.0
  0
VERTEX
  5
3B8
100
AcDbEntity
  8
0
  6
CONTINUOUS
 62
               7
100
AcDbVertex
100
AcDb2dVertex
 10
-32.113445735087957
 20
55.19336976589085
 30
0.0
  0
VERTEX
  5
3B9
100
AcDbEntity
  8
0
  6
CONTINUOUS
 62
               7
100
AcDbVertex
100
AcDb2dVertex
 10
-31.525968287587936
 20
55.328976198090857
 30
0.0
  0
VERTEX
  5
3BA
100
AcDbEntity
  8
0
  6
CONTINUOUS
 62
               7
100
AcDbVertex
100
AcDb2dVertex
 10
-30.910612622987962
 20
55.327347264890847
 30
0.0
  0
SEQEND
  5
3BB
100
AcDbEntity
  8
0
  6
CONTINUOUS
 62
               7
  0
POLYLINE
  5
3BC
100
AcDbEntity
  8
0
  6
CONTINUOUS
 62
               7
100
AcDb2dPolyline
 66
               1
 10
0.0
 20
0.0
 30
0.0
 75
               5
  0
VERTEX
  5
3BD
100
AcDbEntity
  8
0
  6
CONTINUOUS
 62
               7
100
AcDbVertex
100
AcDb2dVertex
 10
-30.910612622987962
 20
55.327347264890847
 30
0.0
  0
VERTEX
  5
3BE
100
AcDbEntity
  8
0
  6
CONTINUOUS
 62
               7
100
AcDbVertex
100
AcDb2dVertex
 10
-30.29427369458795
 20
55.188554069490863
 30
0.0
  0
VERTEX
  5
3BF
100
AcDbEntity
  8
0
  6
CONTINUOUS
 62
               7
100
AcDbVertex
100
AcDb2dVertex
 10
-29.703889431687962
 20
54.918662848190849
 30
0.0
  0
VERTEX
  5
3C0
100
AcDbEntity
  8
0
  6
CONTINUOUS
 62
               7
100
AcDbVertex
100
AcDb2dVertex
 10
-29.16526000638796
 20
54.529468458290864
 30
0.0
  0
VERTEX
  5
3C1
100
AcDbEntity
  8
0
  6
CONTINUOUS
 62
               7
100
AcDbVertex
100
AcDb2dVertex
 10
-28.70192969148794
 20
54.037981071590849
 30
0.0
  0
VERTEX
  5
3C2
100
AcDbEntity
  8
0
  6
CONTINUOUS
 62
               7
100
AcDbVertex
100
AcDb2dVertex
 10
-28.334144967987946
 20
53.46568109069085
 30
0.0
  0
VERTEX
  5
3C3
100
AcDbEntity
  8
0
  6
CONTINUOUS
 62
               7
100
AcDbVertex
100
AcDb2dVertex
 10
-28.077980616787947
 20
52.837580561390865
 30
0.0
  0
VERTEX
  5
3C4
100
AcDbEntity
  8
0
  6
CONTINUOUS
 62
               7
100
AcDbVertex
100
AcDb2dVertex
 10
-27.944632378687963
 20
52.181129951590862
 30
0.0
  0
VERTEX
  5
3C5
100
AcDbEntity
  8
0
  6
CONTINUOUS
 62
               7
100
AcDbVertex
100
AcDb2dVertex
 10
-27.939929047787949
 20
51.525020290290854
 30
0.0
  0
VERTEX
  5
3C6
100
AcDbEntity
  8
0
  6
CONTINUOUS
 62
               7
100
AcDbVertex
100
AcDb2dVertex
 10
-28.064076180287962
 20
50.897926471390861
 30
0.0
  0
VERTEX
  5
3C7
100
AcDbEntity
  8
0
  6
CONTINUOUS
 62
               7
100
AcDbVertex
100
AcDb2dVertex
 10
-28.311647121387942
 20
50.327255423790859
 30
0.0
  0
VERTEX
  5
3C8
100
AcDbEntity
  8
0
  6
CONTINUOUS
 62
               7
100
AcDbVertex
100
AcDb2dVertex
 10
-28.671821695387955
 20
49.83794764089086
 30
0.0
  0
VERTEX
  5
3C9
100
AcDbEntity
  8
0
  6
CONTINUOUS
 62
               7
100
AcDbVertex
100
AcDb2dVertex
 10
-29.128857723387959
 20
49.451388701290853
 30
0.0
  0
VERTEX
  5
3CA
100
AcDbEntity
  8
0
  6
CONTINUOUS
 62
               7
100
AcDbVertex
100
AcDb2dVertex
 10
-29.662783820987947
 20
49.184473878990843
 30
0.0
  0
VERTEX
  5
3CB
100
AcDbEntity
  8
0
  6
CONTINUOUS
 62
               7
100
AcDbVertex
100
AcDb2dVertex
 10
-30.250261265187952
 20
49.048866997690851
 30
0.0
  0
VERTEX
  5
3CC
100
AcDbEntity
  8
0
  6
CONTINUOUS
 62
               7
100
AcDbVertex
100
AcDb2dVertex
 10
-30.865616929787954
 20
49.050495930990849
 30
0.0
  0
SEQEND
  5
3CD
100
AcDbEntity
  8
0
  6
CONTINUOUS
 62
               7
  0
POLYLINE
  5
3CE
100
AcDbEntity
  8
0
  6
CONTINUOUS
 62
               7
100
AcDb2dPolyline
 66
               1
 10
0.0
 20
0.0
 30
0.0
 75
               5
  0
VERTEX
  5
3CF
100
AcDbEntity
  8
0
  6
CONTINUOUS
 62
               7
100
AcDbVertex
100
AcDb2dVertex
 10
-46.513599406987957
 20
40.237801304290855
 30
0.0
  0
VERTEX
  5
3D0
100
AcDbEntity
  8
0
  6
CONTINUOUS
 62
               7
100
AcDbVertex
100
AcDb2dVertex
 10
-47.381477532787947
 20
40.399561063890843
 30
0.0
  0
VERTEX
  5
3D1
100
AcDbEntity
  8
0
  6
CONTINUOUS
 62
               7
100
AcDbVertex
100
AcDb2dVertex
 10
-48.23408996408795
 20
40.684040175290846
 30
0.0
  0
VERTEX
  5
3D2
100
AcDbEntity
  8
0
  6
CONTINUOUS
 62
               7
100
AcDbVertex
100
AcDb2dVertex
 10
-49.055554415987949
 20
41.085939771190851
 30
0.0
  0
VERTEX
  5
3D3
100
AcDbEntity
  8
0
  6
CONTINUOUS
 62
               7
100
AcDbVertex
100
AcDb2dVertex
 10
-49.830568259487954
 20
41.597773104990864
 30
0.0
  0
VERTEX
  5
3D4
100
AcDbEntity
  8
0
  6
CONTINUOUS
 62
               7
100
AcDbVertex
100
AcDb2dVertex
 10
-50.544694334787941
 20
42.210005808790868
 30
0.0
  0
VERTEX
  5
3D5
100
AcDbEntity
  8
0
  6
CONTINUOUS
 62
               7
100
AcDbVertex
100
AcDb2dVertex
 10
-51.18463040878796
 20
42.91123286999084
 30
0.0
  0
VERTEX
  5
3D6
100
AcDbEntity
  8
0
  6
CONTINUOUS
 62
               7
100
AcDbVertex
100
AcDb2dVertex
 10
-51.738455021987953
 20
43.688391947790848
 30
0.0
  0
VERTEX
  5
3D7
100
AcDbEntity
  8
0
  6
CONTINUOUS
 62
               7
100
AcDbVertex
100
AcDb2dVertex
 10
-52.195852163387961
 20
44.527006129490843
 30
0.0
  0
VERTEX
  5
3D8
100
AcDbEntity
  8
0
  6
CONTINUOUS
 62
               7
100
AcDbVertex
100
AcDb2dVertex
 10
-52.548300569187937
 20
45.411453384590857
 30
0.0
  0
VERTEX
  5
3D9
100
AcDbEntity
  8
0
  6
CONTINUOUS
 62
               7
100
AcDbVertex
100
AcDb2dVertex
 10
-52.789235446387941
 20
46.325258336590849
 30
0.0
  0
VERTEX
  5
3DA
100
AcDbEntity
  8
0
  6
CONTINUOUS
 62
               7
100
AcDbVertex
100
AcDb2dVertex
 10
-52.914168804287947
 20
47.251398494090864
 30
0.0
  0
VERTEX
  5
3DB
100
AcDbEntity
  8
0
  6
CONTINUOUS
 62
               7
100
AcDbVertex
100
AcDb2dVertex
 10
-52.920772603787945
 20
48.172621497490866
 30
0.0
  0
VERTEX
  5
3DC
100
AcDbEntity
  8
0
  6
CONTINUOUS
 62
               7
100
AcDbVertex
100
AcDb2dVertex
 10
-52.80892382898795
 20
49.071766772190841
 30
0.0
  0
VERTEX
  5
3DD
100
AcDbEntity
  8
0
  6
CONTINUOUS
 62
               7
100
AcDbVertex
100
AcDb2dVertex
 10
-52.580706777787945
 20
49.932084997190856
 30
0.0
  0
VERTEX
  5
3DE
100
AcDbEntity
  8
0
  6
CONTINUOUS
 62
               7
100
AcDbVertex
100
AcDb2dVertex
 10
-52.240372530687942
 20
50.73754999859085
 30
0.0
  0
VERTEX
  5
3DF
100
AcDbEntity
  8
0
  6
CONTINUOUS
 62
               7
100
AcDbVertex
100
AcDb2dVertex
 10
-51.794260218887949
 20
51.473157540990854
 30
0.0
  0
VERTEX
  5
3E0
100
AcDbEntity
  8
0
  6
CONTINUOUS
 62
               7
100
AcDbVertex
100
AcDb2dVertex
 10
-51.250680889087953
 20
52.125204599590859
 30
0.0
  0
VERTEX
  5
3E1
100
AcDbEntity
  8
0
  6
CONTINUOUS
 62
               7
100
AcDbVertex
100
AcDb2dVertex
 10
-50.619759702287944
 20
52.681544703590845
 30
0.0
  0
VERTEX
  5
3E2
100
AcDbEntity
  8
0
  6
CONTINUOUS
 62
               7
100
AcDbVertex
100
AcDb2dVertex
 10
-49.913250191387952
 20
53.131814633290844
 30
0.0
  0
VERTEX
  5
3E3
100
AcDbEntity
  8
0
  6
CONTINUOUS
 62
               7
100
AcDbVertex
100
AcDb2dVertex
 10
-49.144312702487944
 20
53.46762630239084
 30
0.0
  0
VERTEX
  5
3E4
100
AcDbEntity
  8
0
  6
CONTINUOUS
 62
               7
100
AcDbVertex
100
AcDb2dVertex
 10
-48.327271206287939
 20
53.682724320790868
 30
0.0
  0
VERTEX
  5
3E5
100
AcDbEntity
  8
0
  6
CONTINUOUS
 62
               7
100
AcDbVertex
100
AcDb2dVertex
 10
-47.477345939287936
 20
53.773101770090847
 30
0.0
  0
VERTEX
  5
3E6
100
AcDbEntity
  8
0
  6
CONTINUOUS
 62
               7
100
AcDbVertex
100
AcDb2dVertex
 10
-46.610369135387963
 20
53.737075468490843
 30
0.0
  0
VERTEX
  5
3E7
100
AcDbEntity
  8
0
  6
CONTINUOUS
 62
               7
100
AcDbVertex
100
AcDb2dVertex
 10
-45.742491009587944
 20
53.575315708990843
 30
0.0
  0
VERTEX
  5
3E8
100
AcDbEntity
  8
0
  6
CONTINUOUS
 62
               7
100
AcDbVertex
100
AcDb2dVertex
 10
-44.889878578287941
 20
53.290836597590868
 30
0.0
  0
VERTEX
  5
3E9
100
AcDbEntity
  8
0
  6
CONTINUOUS
 62
               7
100
AcDbVertex
100
AcDb2dVertex
 10
-44.068414126387943
 20
52.888937001590847
 30
0.0
  0
VERTEX
  5
3EA
100
AcDbEntity
  8
0
  6
CONTINUOUS
 62
               7
100
AcDbVertex
100
AcDb2dVertex
 10
-43.293400282887937
 20
52.377103667790863
 30
0.0
  0
VERTEX
  5
3EB
100
AcDbEntity
  8
0
  6
CONTINUOUS
 62
               7
100
AcDbVertex
100
AcDb2dVertex
 10
-42.57927420758795
 20
51.764870964090846
 30
0.0
  0
VERTEX
  5
3EC
100
AcDbEntity
  8
0
  6
CONTINUOUS
 62
               7
100
AcDbVertex
100
AcDb2dVertex
 10
-41.93933813358796
 20
51.063643902890846
 30
0.0
  0
VERTEX
  5
3ED
100
AcDbEntity
  8
0
  6
CONTINUOUS
 62
               7
100
AcDbVertex
100
AcDb2dVertex
 10
-41.385513520387939
 20
50.28648482499085
 30
0.0
  0
VERTEX
  5
3EE
100
AcDbEntity
  8
0
  6
CONTINUOUS
 62
               7
100
AcDbVertex
100
AcDb2dVertex
 10
-40.928116378887943
 20
49.447870643390843
 30
0.0
  0
VERTEX
  5
3EF
100
AcDbEntity
  8
0
  6
CONTINUOUS
 62
               7
100
AcDbVertex
100
AcDb2dVertex
 10
-40.575667973087938
 20
48.563423388290857
 30
0.0
  0
VERTEX
  5
3F0
100
AcDbEntity
  8
0
  6
CONTINUOUS
 62
               7
100
AcDbVertex
100
AcDb2dVertex
 10
-40.33473309598795
 20
47.649618436290865
 30
0.0
  0
VERTEX
  5
3F1
100
AcDbEntity
  8
0
  6
CONTINUOUS
 62
               7
100
AcDbVertex
100
AcDb2dVertex
 10
-40.209799738087945
 20
46.72347827879085
 30
0.0
  0
VERTEX
  5
3F2
100
AcDbEntity
  8
0
  6
CONTINUOUS
 62
               7
100
AcDbVertex
100
AcDb2dVertex
 10
-40.203195938587946
 20
45.802255275390849
 30
0.0
  0
VERTEX
  5
3F3
100
AcDbEntity
  8
0
  6
CONTINUOUS
 62
               7
100
AcDbVertex
100
AcDb2dVertex
 10
-40.315044713387941
 20
44.903110000590857
 30
0.0
  0
VERTEX
  5
3F4
100
AcDbEntity
  8
0
  6
CONTINUOUS
 62
               7
100
AcDbVertex
100
AcDb2dVertex
 10
-40.543261764587946
 20
44.042791775690858
 30
0.0
  0
VERTEX
  5
3F5
100
AcDbEntity
  8
0
  6
CONTINUOUS
 62
               7
100
AcDbVertex
100
AcDb2dVertex
 10
-40.883596011687949
 20
43.237326774290864
 30
0.0
  0
VERTEX
  5
3F6
100
AcDbEntity
  8
0
  6
CONTINUOUS
 62
               7
100
AcDbVertex
100
AcDb2dVertex
 10
-41.329708323487942
 20
42.50171923189086
 30
0.0
  0
VERTEX
  5
3F7
100
AcDbEntity
  8
0
  6
CONTINUOUS
 62
               7
100
AcDbVertex
100
AcDb2dVertex
 10
-41.873287653287939
 20
41.849672173290855
 30
0.0
  0
VERTEX
  5
3F8
100
AcDbEntity
  8
0
  6
CONTINUOUS
 62
               7
100
AcDbVertex
100
AcDb2dVertex
 10
-42.504208840087948
 20
41.293332069290841
 30
0.0
  0
VERTEX
  5
3F9
100
AcDbEntity
  8
0
  6
CONTINUOUS
 62
               7
100
AcDbVertex
100
AcDb2dVertex
 10
-43.210718350987939
 20
40.843062139590842
 30
0.0
  0
VERTEX
  5
3FA
100
AcDbEntity
  8
0
  6
CONTINUOUS
 62
               7
100
AcDbVertex
100
AcDb2dVertex
 10
-43.979655839887947
 20
40.507250470390858
 30
0.0
  0
VERTEX
  5
3FB
100
AcDbEntity
  8
0
  6
CONTINUOUS
 62
               7
100
AcDbVertex
100
AcDb2dVertex
 10
-44.796697336087952
 20
40.292152451990859
 30
0.0
  0
VERTEX
  5
3FC
100
AcDbEntity
  8
0
  6
CONTINUOUS
 62
               7
100
AcDbVertex
100
AcDb2dVertex
 10
-45.646622603087955
 20
40.201775002690852
 30
0.0
  0
VERTEX
  5
3FD
100
AcDbEntity
  8
0
  6
CONTINUOUS
 62
               7
100
AcDbVertex
100
AcDb2dVertex
 10
-46.513599406987957
 20
40.237801304290855
 30
0.0
  0
SEQEND
  5
3FE
100
AcDbEntity
  8
0
  6
CONTINUOUS
 62
               7
  0
POLYLINE
  5
3FF
100
AcDbEntity
  8
0
  6
CONTINUOUS
 62
               7
100
AcDb2dPolyline
 66
               1
 10
0.0
 20
0.0
 30
0.0
 75
               5
  0
VERTEX
  5
400
100
AcDbEntity
  8
0
  6
CONTINUOUS
 62
               7
100
AcDbVertex
100
AcDb2dVertex
 10
-46.60345701098796
 20
52.772841471390848
 30
0.0
  0
VERTEX
  5
401
100
AcDbEntity
  8
0
  6
CONTINUOUS
 62
               7
100
AcDbVertex
100
AcDb2dVertex
 10
-47.398039476687948
 20
52.801826964990852
 30
0.0
  0
VERTEX
  5
402
100
AcDbEntity
  8
0
  6
CONTINUOUS
 62
               7
100
AcDbVertex
100
AcDb2dVertex
 10
-48.174802939987948
 20
52.706889223090855
 30
0.0
  0
VERTEX
  5
403
100
AcDbEntity
  8
0
  6
CONTINUOUS
 62
               7
100
AcDbVertex
100
AcDb2dVertex
 10
-48.917191900087936
 20
52.490051139490845
 30
0.0
  0
VERTEX
  5
404
100
AcDbEntity
  8
0
  6
CONTINUOUS
 62
               7
100
AcDbVertex
100
AcDb2dVertex
 10
-49.609383595087955
 20
52.155934217990847
 30
0.0
  0
VERTEX
  5
405
100
AcDbEntity
  8
0
  6
CONTINUOUS
 62
               7
100
AcDbVertex
100
AcDb2dVertex
 10
-50.236625298487944
 20
51.711660192090847
 30
0.0
  0
VERTEX
  5
406
100
AcDbEntity
  8
0
  6
CONTINUOUS
 62
               7
100
AcDbVertex
100
AcDb2dVertex
 10
-50.785548669187953
 20
51.166697087990855
 30
0.0
  0
VERTEX
  5
407
100
AcDbEntity
  8
0
  6
CONTINUOUS
 62
               7
100
AcDbVertex
100
AcDb2dVertex
 10
-51.244453824087962
 20
50.532660562090854
 30
0.0
  0
VERTEX
  5
408
100
AcDbEntity
  8
0
  6
CONTINUOUS
 62
               7
100
AcDbVertex
100
AcDb2dVertex
 10
-51.603560331787939
 20
49.823063910990868
 30
0.0
  0
VERTEX
  5
409
100
AcDbEntity
  8
0
  6
CONTINUOUS
 62
               7
100
AcDbVertex
100
AcDb2dVertex
 10
-51.855214749787955
 20
49.053030712790843
 30
0.0
  0
VERTEX
  5
40A
100
AcDbEntity
  8
0
  6
CONTINUOUS
 62
               7
100
AcDbVertex
100
AcDb2dVertex
 10
-51.994052607687955
 20
48.238973001490848
 30
0.0
  0
VERTEX
  5
40B
100
AcDbEntity
  8
0
  6
CONTINUOUS
 62
               7
100
AcDbVertex
100
AcDb2dVertex
 10
-52.017115726387935
 20
47.398241048090853
 30
0.0
  0
VERTEX
  5
40C
100
AcDbEntity
  8
0
  6
CONTINUOUS
 62
               7
100
AcDbVertex
100
AcDb2dVertex
 10
-51.923911810587946
 20
46.548753493490864
 30
0.0
  0
VERTEX
  5
40D
100
AcDbEntity
  8
0
  6
CONTINUOUS
 62
               7
100
AcDbVertex
100
AcDb2dVertex
 10
-51.716428227787951
 20
45.708615837490868
 30
0.0
  0
VERTEX
  5
40E
100
AcDbEntity
  8
0
  6
CONTINUOUS
 62
               7
100
AcDbVertex
100
AcDb2dVertex
 10
-51.399086047787954
 20
44.895733911890858
 30
0.0
  0
VERTEX
  5
40F
100
AcDbEntity
  8
0
  6
CONTINUOUS
 62
               7
100
AcDbVertex
100
AcDb2dVertex
 10
-50.978650087487942
 20
44.127433188490841
 30
0.0
  0
VERTEX
  5
410
100
AcDbEntity
  8
0
  6
CONTINUOUS
 62
               7
100
AcDbVertex
100
AcDb2dVertex
 10
-50.464080173087943
 20
43.420088378490846
 30
0.0
  0
VERTEX
  5
411
100
AcDbEntity
  8
0
  6
CONTINUOUS
 62
               7
100
AcDbVertex
100
AcDb2dVertex
 10
-49.866343818687959
 20
42.788775354490866
 30
0.0
  0
VERTEX
  5
412
100
AcDbEntity
  8
0
  6
CONTINUOUS
 62
               7
100
AcDbVertex
100
AcDb2dVertex
 10
-49.198180826087956
 20
42.246949894190863
 30
0.0
  0
VERTEX
  5
413
100
AcDbEntity
  8
0
  6
CONTINUOUS
 62
               7
100
AcDbVertex
100
AcDb2dVertex
 10
-48.473831918887946
 20
41.806159447190851
 30
0.0
  0
VERTEX
  5
414
100
AcDbEntity
  8
0
  6
CONTINUOUS
 62
               7
100
AcDbVertex
100
AcDb2dVertex
 10
-47.708735299887955
 20
41.47579902639086
 30
0.0
  0
VERTEX
  5
415
100
AcDbEntity
  8
0
  6
CONTINUOUS
 62
               7
100
AcDbVertex
100
AcDb2dVertex
 10
-46.919197657187958
 20
41.262909497790844
 30
0.0
  0
VERTEX
  5
416
100
AcDbEntity
  8
0
  6
CONTINUOUS
 62
               7
100
AcDbVertex
100
AcDb2dVertex
 10
-46.122046678887948
 20
41.172028497090849
 30
0.0
  0
VERTEX
  5
417
100
AcDbEntity
  8
0
  6
CONTINUOUS
 62
               7
100
AcDbVertex
100
AcDb2dVertex
 10
-45.33427216078794
 20
41.205092984290843
 30
0.0
  0
VERTEX
  5
418
100
AcDbEntity
  8
0
  6
CONTINUOUS
 62
               7
100
AcDbVertex
100
AcDb2dVertex
 10
-44.572664209487947
 20
41.361397996590853
 30
0.0
  0
VERTEX
  5
419
100
AcDbEntity
  8
0
  6
CONTINUOUS
 62
               7
100
AcDbVertex
100
AcDb2dVertex
 10
-43.853455160787938
 20
41.637612352890841
 30
0.0
  0
VERTEX
  5
41A
100
AcDbEntity
  8
0
  6
CONTINUOUS
 62
               7
100
AcDbVertex
100
AcDb2dVertex
 10
-43.191973665787962
 20
42.027848685290849
 30
0.0
  0
VERTEX
  5
41B
100
AcDbEntity
  8
0
  6
CONTINUOUS
 62
               7
100
AcDbVertex
100
AcDb2dVertex
 10
-42.602318052087945
 20
42.523790401490857
 30
0.0
  0
VERTEX
  5
41C
100
AcDbEntity
  8
0
  6
CONTINUOUS
 62
               7
100
AcDbVertex
100
AcDb2dVertex
 10
-42.09705588868794
 20
43.114866948290853
 30
0.0
  0
VERTEX
  5
41D
100
AcDbEntity
  8
0
  6
CONTINUOUS
 62
               7
100
AcDbVertex
100
AcDb2dVertex
 10
-41.686956310987959
 20
43.788480588690845
 30
0.0
  0
VERTEX
  5
41E
100
AcDbEntity
  8
0
  6
CONTINUOUS
 62
               7
100
AcDbVertex
100
AcDb2dVertex
 10
-41.380758845387952
 20
44.530274466290848
 30
0.0
  0
VERTEX
  5
41F
100
AcDbEntity
  8
0
  6
CONTINUOUS
 62
               7
100
AcDbVertex
100
AcDb2dVertex
 10
-41.18499077628794
 20
45.324438505390845
 30
0.0
  0
VERTEX
  5
420
100
AcDbEntity
  8
0
  6
CONTINUOUS
 62
               7
100
AcDbVertex
100
AcDb2dVertex
 10
-41.103823479287961
 20
46.154046475390857
 30
0.0
  0
VERTEX
  5
421
100
AcDbEntity
  8
0
  6
CONTINUOUS
 62
               7
100
AcDbVertex
100
AcDb2dVertex
 10
-41.138987781687938
 20
47.001416777690849
 30
0.0
  0
VERTEX
  5
422
100
AcDbEntity
  8
0
  6
CONTINUOUS
 62
               7
100
AcDbVertex
100
AcDb2dVertex
 10
-41.289733472687935
 20
47.848489116590855
 30
0.0
  0
VERTEX
  5
423
100
AcDbEntity
  8
0
  6
CONTINUOUS
 62
               7
100
AcDbVertex
100
AcDb2dVertex
 10
-41.552848579287961
 20
48.677209779090845
 30
0.0
  0
VERTEX
  5
424
100
AcDbEntity
  8
0
  6
CONTINUOUS
 62
               7
100
AcDbVertex
100
AcDb2dVertex
 10
-41.92272436318796
 20
49.469915705590864
 30
0.0
  0
VERTEX
  5
425
100
AcDbEntity
  8
0
  6
CONTINUOUS
 62
               7
100
AcDbVertex
100
AcDb2dVertex
 10
-42.391477857487949
 20
50.209712054490865
 30
0.0
  0
VERTEX
  5
426
100
AcDbEntity
  8
0
  6
CONTINUOUS
 62
               7
100
AcDbVertex
100
AcDb2dVertex
 10
-42.949118732487953
 20
50.880831518890858
 30
0.0
  0
VERTEX
  5
427
100
AcDbEntity
  8
0
  6
CONTINUOUS
 62
               7
100
AcDbVertex
100
AcDb2dVertex
 10
-43.583761295387937
 20
51.468969515490841
 30
0.0
  0
VERTEX
  5
428
100
AcDbEntity
  8
0
  6
CONTINUOUS
 62
               7
100
AcDbVertex
100
AcDb2dVertex
 10
-44.281879481887948
 20
51.961591860390854
 30
0.0
  0
VERTEX
  5
429
100
AcDbEntity
  8
0
  6
CONTINUOUS
 62
               7
100
AcDbVertex
100
AcDb2dVertex
 10
-45.02859424418795
 20
52.348198582790843
 30
0.0
  0
VERTEX
  5
42A
100
AcDbEntity
  8
0
  6
CONTINUOUS
 62
               7
100
AcDbVertex
100
AcDb2dVertex
 10
-45.807990623787951
 20
52.620549848190848
 30
0.0
  0
VERTEX
  5
42B
100
AcDbEntity
  8
0
  6
CONTINUOUS
 62
               7
100
AcDbVertex
100
AcDb2dVertex
 10
-46.60345701098796
 20
52.772841471390848
 30
0.0
  0
SEQEND
  5
42C
100
AcDbEntity
  8
0
  6
CONTINUOUS
 62
               7
  0
POLYLINE
  5
42D
100
AcDbEntity
  8
0
  6
CONTINUOUS
 62
               7
100
AcDb2dPolyline
 66
               1
 10
0.0
 20
0.0
 30
0.0
 75
               5
  0
VERTEX
  5
42E
100
AcDbEntity
  8
0
  6
CONTINUOUS
 62
               7
100
AcDbVertex
100
AcDb2dVertex
 10
-49.563696139787957
 20
52.18282462699085
 30
0.0
  0
VERTEX
  5
42F
100
AcDbEntity
  8
0
  6
CONTINUOUS
 62
               7
100
AcDbVertex
100
AcDb2dVertex
 10
-49.567939171787962
 20
52.18032446279085
 30
0.0
  0
VERTEX
  5
430
100
AcDbEntity
  8
0
  6
CONTINUOUS
 62
               7
100
AcDbVertex
100
AcDb2dVertex
 10
-50.195180875187951
 20
51.736050436790862
 30
0.0
  0
VERTEX
  5
431
100
AcDbEntity
  8
0
  6
CONTINUOUS
 62
               7
100
AcDbVertex
100
AcDb2dVertex
 10
-50.744104245987948
 20
51.191087332690842
 30
0.0
  0
VERTEX
  5
432
100
AcDbEntity
  8
0
  6
CONTINUOUS
 62
               7
100
AcDbVertex
100
AcDb2dVertex
 10
-51.203009400787941
 20
50.557050806790841
 30
0.0
  0
VERTEX
  5
433
100
AcDbEntity
  8
0
  6
CONTINUOUS
 62
               7
100
AcDbVertex
100
AcDb2dVertex
 10
-51.562115908487947
 20
49.847454155690855
 30
0.0
  0
VERTEX
  5
434
100
AcDbEntity
  8
0
  6
CONTINUOUS
 62
               7
100
AcDbVertex
100
AcDb2dVertex
 10
-51.813770326487962
 20
49.077420957490858
 30
0.0
  0
VERTEX
  5
435
100
AcDbEntity
  8
0
  6
CONTINUOUS
 62
               7
100
AcDbVertex
100
AcDb2dVertex
 10
-51.95260818448795
 20
48.263363246290851
 30
0.0
  0
VERTEX
  5
436
100
AcDbEntity
  8
0
  6
CONTINUOUS
 62
               7
100
AcDbVertex
100
AcDb2dVertex
 10
-51.975671303087942
 20
47.422631292790868
 30
0.0
  0
VERTEX
  5
437
100
AcDbEntity
  8
0
  6
CONTINUOUS
 62
               7
100
AcDbVertex
100
AcDb2dVertex
 10
-51.882467387287953
 20
46.573143738190851
 30
0.0
  0
VERTEX
  5
438
100
AcDbEntity
  8
0
  6
CONTINUOUS
 62
               7
100
AcDbVertex
100
AcDb2dVertex
 10
-51.674983804487958
 20
45.733006082190855
 30
0.0
  0
VERTEX
  5
439
100
AcDbEntity
  8
0
  6
CONTINUOUS
 62
               7
100
AcDbVertex
100
AcDb2dVertex
 10
-51.357641624487961
 20
44.920124156590845
 30
0.0
  0
VERTEX
  5
43A
100
AcDbEntity
  8
0
  6
CONTINUOUS
 62
               7
100
AcDbVertex
100
AcDb2dVertex
 10
-50.93720566418795
 20
44.151823433190856
 30
0.0
  0
VERTEX
  5
43B
100
AcDbEntity
  8
0
  6
CONTINUOUS
 62
               7
100
AcDbVertex
100
AcDb2dVertex
 10
-50.42263574978795
 20
43.444478623190861
 30
0.0
  0
VERTEX
  5
43C
100
AcDbEntity
  8
0
  6
CONTINUOUS
 62
               7
100
AcDbVertex
100
AcDb2dVertex
 10
-49.824899395387938
 20
42.813165599290841
 30
0.0
  0
VERTEX
  5
43D
100
AcDbEntity
  8
0
  6
CONTINUOUS
 62
               7
100
AcDbVertex
100
AcDb2dVertex
 10
-49.156736402887951
 20
42.271340138890849
 30
0.0
  0
VERTEX
  5
43E
100
AcDbEntity
  8
0
  6
CONTINUOUS
 62
               7
100
AcDbVertex
100
AcDb2dVertex
 10
-48.432387495687941
 20
41.830549691990853
 30
0.0
  0
VERTEX
  5
43F
100
AcDbEntity
  8
0
  6
CONTINUOUS
 62
               7
100
AcDbVertex
100
AcDb2dVertex
 10
-47.667290876587963
 20
41.500189271090846
 30
0.0
  0
VERTEX
  5
440
100
AcDbEntity
  8
0
  6
CONTINUOUS
 62
               7
100
AcDbVertex
100
AcDb2dVertex
 10
-46.877753233887937
 20
41.287299742590847
 30
0.0
  0
VERTEX
  5
441
100
AcDbEntity
  8
0
  6
CONTINUOUS
 62
               7
100
AcDbVertex
100
AcDb2dVertex
 10
-46.080602255587955
 20
41.196418741790865
 30
0.0
  0
VERTEX
  5
442
100
AcDbEntity
  8
0
  6
CONTINUOUS
 62
               7
100
AcDbVertex
100
AcDb2dVertex
 10
-45.292827737487947
 20
41.229483228990858
 30
0.0
  0
VERTEX
  5
443
100
AcDbEntity
  8
0
  6
CONTINUOUS
 62
               7
100
AcDbVertex
100
AcDb2dVertex
 10
-44.531219786187954
 20
41.385788241290868
 30
0.0
  0
VERTEX
  5
444
100
AcDbEntity
  8
0
  6
CONTINUOUS
 62
               7
100
AcDbVertex
100
AcDb2dVertex
 10
-43.812010737487945
 20
41.662002597590856
 30
0.0
  0
VERTEX
  5
445
100
AcDbEntity
  8
0
  6
CONTINUOUS
 62
               7
100
AcDbVertex
100
AcDb2dVertex
 10
-43.477383555987949
 20
41.840832635290866
 30
0.0
  0
SEQEND
  5
446
100
AcDbEntity
  8
0
  6
CONTINUOUS
 62
               7
  0
SPLINE
  5
447
100
AcDbEntity
  8
0
  6
CONTINUOUS
 62
               8
100
AcDbSpline
210
0.0
220
0.0
230
1.0
 70
               8
 71
               2
 72
              16
 73
              13
 74
               0
 42
0.000001
 43
0.000001
 40
0.0
 40
0.0
 40
0.0
 40
1.0
 40
1.0
 40
2.0
 40
3.0
 40
4.0
 40
5.0
 40
6.0
 40
7.0
 40
8.0
 40
8.0
 40
9.0
 40
9.0
 40
9.0
 10
-61.581924934161243
 20
36.524408016845456
 30
0.0
 10
-61.582631477440231
 20
36.516966210710706
 30
0.0
 10
-61.583338020719218
 20
36.509524404575956
 30
0.0
 10
-61.598250802837178
 20
36.345532166156147
 30
0.0
 10
-61.641823284035432
 20
35.961614208525702
 30
0.0
 10
-61.747537230287485
 20
35.571869228017846
 30
0.0
 10
-61.918138458491633
 20
35.223382192807492
 30
0.0
 10
-62.193435766179412
 20
34.863532450121852
 30
0.0
 10
-62.573398599973139
 20
34.535590231155538
 30
0.0
 10
-62.881509360163271
 20
34.408715957549362
 30
0.0
 10
-62.954699932840448
 20
34.380521058376786
 30
0.0
 10
-62.957136520635601
 20
34.37957543883212
 30
0.0
 10
-62.959573108430753
 20
34.378629819287454
 30
0.0
  0
ARC
  5
448
100
AcDbEntity
  8
0
  6
CONTINUOUS
 62
               8
100
AcDbCircle
 10
-63.775655985187946
 20
36.439190968890841
 30
0.0
 40
2.3271546441088731
100
AcDbArc
 50
298.64349436350022
 51
2.4282441156003074
  0
ARC
  5
449
100
AcDbEntity
  8
0
  6
CONTINUOUS
 62
               8
100
AcDbCircle
 10
-64.199424190487946
 20
36.678034434090847
 30
0.0
 40
2.7524085911886949
100
AcDbArc
 50
357.07928697940025
 51
116.95672477599992
  0
LINE
  5
44A
100
AcDbEntity
  8
0
  6
CONTINUOUS
 62
               8
100
AcDbLine
 10
-9.5858743321879487
 20
65.601708771890856
 30
0.0
 11
-9.4250537227879576
 21
65.583374054490861
 31
0.0
  0
LINE
  5
44B
100
AcDbEntity
  8
0
  6
CONTINUOUS
 62
               8
100
AcDbLine
 10
-9.1645676016879563
 20
29.357090145890851
 30
0.0
 11
-9.3078236184879515
 21
29.373422372190845
 31
0.0
  0
LINE
  5
44C
100
AcDbEntity
  8
0
  6
CONTINUOUS
 62
               8
100
AcDbLine
 10
-8.4700254181879515
 20
64.149154071090862
 30
0.0
 11
-8.5159150774879535
 21
64.15438582559085
 31
0.0
  0
LINE
  5
44D
100
AcDbEntity
  8
0
  6
CONTINUOUS
 62
               8
100
AcDbLine
 10
-8.2844537672879355
 20
31.880428112790867
 30
0.0
 11
-8.2386692039879605
 21
31.875208340090865
 31
0.0
  0
LINE
  5
44E
100
AcDbEntity
  8
0
  6
CONTINUOUS
 62
               8
100
AcDbLine
 10
-42.554986405487959
 20
-18.494039968909135
 30
0.0
 11
-42.742799689687949
 21
-18.596907297409132
 31
0.0
  0
LINE
  5
44F
100
AcDbEntity
  8
0
  6
CONTINUOUS
 62
               8
100
AcDbLine
 10
-56.670274711587943
 20
-1.2906674032091416
 30
0.0
 11
-56.742525427587957
 21
-1.3352099191091327
 31
0.0
  0
LINE
  5
450
100
AcDbEntity
  8
0
  6
CONTINUOUS
 62
               8
100
AcDbLine
 10
-48.968184457487943
 20
-17.791253363109149
 30
0.0
 11
-49.113136653187944
 21
-17.870642619709145
 31
0.0
  0
LINE
  5
451
100
AcDbEntity
  8
0
  6
CONTINUOUS
 62
               8
100
AcDbLine
 10
-56.625251558387951
 20
-9.0108731709091501
 30
0.0
 11
-56.687228432587936
 21
-9.0490818964091488
 31
0.0
  0
LINE
  5
452
100
AcDbEntity
  8
0
  6
CONTINUOUS
 62
               8
100
AcDbLine
 10
-37.750801011087951
 20
-3.5591850928091446
 30
0.0
 11
-37.796072831087962
 21
-3.5858277791091382
 31
0.0
  0
LINE
  5
453
100
AcDbEntity
  8
0
  6
CONTINUOUS
 62
               8
100
AcDbLine
 10
-42.877152252687942
 20
2.5069927429908603
 30
0.0
 11
-42.97689847388795
 21
2.4482916065908569
 31
0.0
  0
LINE
  5
454
100
AcDbEntity
  8
0
  6
CONTINUOUS
 62
               8
100
AcDbLine
 10
-49.232609824987939
 20
3.2420141636908681
 30
0.0
 11
-49.347235649387947
 21
3.1745563083908621
 31
0.0
  0
LINE
  5
455
100
AcDbEntity
  8
0
  6
CONTINUOUS
 62
               8
100
AcDbLine
 10
-49.351587339187937
 20
-2.7259391178091334
 30
0.0
 11
-49.503080613187954
 21
-2.8150936466091423
 31
0.0
  0
LINE
  5
456
100
AcDbEntity
  8
0
  6
CONTINUOUS
 62
               8
100
AcDbLine
 10
-50.972559539887946
 20
-0.837990034209156
 30
0.0
 11
-51.124052813887936
 21
-0.9271445629091488
 31
0.0
  0
LINE
  5
457
100
AcDbEntity
  8
0
  6
CONTINUOUS
 62
               8
100
AcDbLine
 10
-42.696420754287935
 20
5.0182125993908642
 30
0.0
 11
-42.99406762838796
 21
4.8430459659908536
 31
0.0
  0
LINE
  5
458
100
AcDbEntity
  8
0
  6
CONTINUOUS
 62
               8
100
AcDbLine
 10
-35.339529336187944
 20
-3.6739543953091527
 30
0.0
 11
-35.566689734987953
 21
-3.8076393950091472
 31
0.0
  0
LINE
  5
459
100
AcDbEntity
  8
0
  6
CONTINUOUS
 62
               8
100
AcDbLine
 10
-35.283626349487939
 20
-11.387469743509143
 30
0.0
 11
-35.511392739987961
 21
-11.521511372309135
 31
0.0
  0
LINE
  5
45A
100
AcDbEntity
  8
0
  6
CONTINUOUS
 62
               8
100
AcDbLine
 10
-49.062086776487938
 20
5.7472262976908439
 30
0.0
 11
-49.364404803887957
 21
5.5693106677908588
 31
0.0
  0
LINE
  5
45B
100
AcDbEntity
  8
0
  6
CONTINUOUS
 62
               8
100
AcDbLine
 10
-42.843383340087961
 20
-16.177251939209157
 30
0.0
 11
-42.820783326387946
 21
-16.163951721209145
 31
0.0
  0
LINE
  5
45C
100
AcDbEntity
  8
0
  6
CONTINUOUS
 62
               8
100
AcDbLine
 10
-54.450049504287954
 20
-1.6227354721091558
 30
0.0
 11
-54.495691095087942
 21
-1.6495957703091335
 31
0.0
  0
LINE
  5
45D
100
AcDbEntity
  8
0
  6
CONTINUOUS
 62
               8
100
AcDbLine
 10
-49.191203101987945
 20
-15.437735630009144
 30
0.0
 11
-49.213720515587958
 21
-15.450987237409151
 31
0.0
  0
LINE
  5
45E
100
AcDbEntity
  8
0
  6
CONTINUOUS
 62
               8
100
AcDbLine
 10
-54.44039410008795
 20
-9.3634677476091497
 30
0.0
 11
-54.395117648187941
 21
-9.3368223354091526
 31
0.0
  0
POLYLINE
  5
45F
100
AcDbEntity
  8
0
  6
CONTINUOUS
 62
               8
100
AcDb2dPolyline
 66
               1
 10
0.0
 20
0.0
 30
0.0
 75
               5
  0
VERTEX
  5
460
100
AcDbEntity
  8
0
  6
CONTINUOUS
 62
               8
100
AcDbVertex
100
AcDb2dVertex
 10
-32.384054535587943
 20
56.297907448390845
 30
0.0
  0
VERTEX
  5
461
100
AcDbEntity
  8
0
  6
CONTINUOUS
 62
               8
100
AcDbVertex
100
AcDb2dVertex
 10
-32.19322229848796
 20
56.401265055590841
 30
0.0
  0
VERTEX
  5
462
100
AcDbEntity
  8
0
  6
CONTINUOUS
 62
               8
100
AcDbVertex
100
AcDb2dVertex
 10
-31.577204125387958
 20
56.636224163690855
 30
0.0
  0
VERTEX
  5
463
100
AcDbEntity
  8
0
  6
CONTINUOUS
 62
               8
100
AcDbVertex
100
AcDb2dVertex
 10
-30.919671101787962
 20
56.748163803890861
 30
0.0
  0
VERTEX
  5
464
100
AcDbEntity
  8
0
  6
CONTINUOUS
 62
               8
100
AcDbVertex
100
AcDb2dVertex
 10
-30.240600736987936
 20
56.733683576890854
 30
0.0
  0
VERTEX
  5
465
100
AcDbEntity
  8
0
  6
CONTINUOUS
 62
               8
100
AcDbVertex
100
AcDb2dVertex
 10
-29.56062727988796
 20
56.593222938290864
 30
0.0
  0
VERTEX
  5
466
100
AcDbEntity
  8
0
  6
CONTINUOUS
 62
               8
100
AcDbVertex
100
AcDb2dVertex
 10
-28.90041242868795
 20
56.331050470390863
 30
0.0
  0
VERTEX
  5
467
100
AcDbEntity
  8
0
  6
CONTINUOUS
 62
               8
100
AcDbVertex
100
AcDb2dVertex
 10
-28.280016011887959
 20
55.955131119690861
 30
0.0
  0
VERTEX
  5
468
100
AcDbEntity
  8
0
  6
CONTINUOUS
 62
               8
100
AcDbVertex
100
AcDb2dVertex
 10
-27.718286232287959
 20
55.476887094790868
 30
0.0
  0
VERTEX
  5
469
100
AcDbEntity
  8
0
  6
CONTINUOUS
 62
               8
100
AcDbVertex
100
AcDb2dVertex
 10
-27.232293165287949
 20
54.91084974129086
 30
0.0
  0
VERTEX
  5
46A
100
AcDbEntity
  8
0
  6
CONTINUOUS
 62
               8
100
AcDbVertex
100
AcDb2dVertex
 10
-26.836802231687948
 20
54.274217272490858
 30
0.0
  0
VERTEX
  5
46B
100
AcDbEntity
  8
0
  6
CONTINUOUS
 62
               8
100
AcDbVertex
100
AcDb2dVertex
 10
-26.543831800887936
 20
53.586335056590855
 30
0.0
  0
VERTEX
  5
46C
100
AcDbEntity
  8
0
  6
CONTINUOUS
 62
               8
100
AcDbVertex
100
AcDb2dVertex
 10
-26.362283103787938
 20
52.868103392090859
 30
0.0
  0
VERTEX
  5
46D
100
AcDbEntity
  8
0
  6
CONTINUOUS
 62
               8
100
AcDbVertex
100
AcDb2dVertex
 10
-26.297671475087945
 20
52.141344344390859
 30
0.0
  0
VERTEX
  5
46E
100
AcDbEntity
  8
0
  6
CONTINUOUS
 62
               8
100
AcDbVertex
100
AcDb2dVertex
 10
-26.351960716187953
 20
51.428141307990842
 30
0.0
  0
VERTEX
  5
46F
100
AcDbEntity
  8
0
  6
CONTINUOUS
 62
               8
100
AcDbVertex
100
AcDb2dVertex
 10
-26.523500669587939
 20
50.750163865290858
 30
0.0
  0
VERTEX
  5
470
100
AcDbEntity
  8
0
  6
CONTINUOUS
 62
               8
100
AcDbVertex
100
AcDb2dVertex
 10
-26.807080103987936
 20
50.128012072490861
 30
0.0
  0
VERTEX
  5
471
100
AcDbEntity
  8
0
  6
CONTINUOUS
 62
               8
100
AcDbVertex
100
AcDb2dVertex
 10
-27.194083130187941
 20
49.580590495190847
 30
0.0
  0
VERTEX
  5
472
100
AcDbEntity
  8
0
  6
CONTINUOUS
 62
               8
100
AcDbVertex
100
AcDb2dVertex
 10
-27.67274928438794
 20
49.124531298590853
 30
0.0
  0
VERTEX
  5
473
100
AcDbEntity
  8
0
  6
CONTINUOUS
 62
               8
100
AcDbVertex
100
AcDb2dVertex
 10
-28.071882706787953
 20
48.857331940790857
 30
0.0
  0
SEQEND
  5
474
100
AcDbEntity
  8
0
  6
CONTINUOUS
 62
               8
  0
ENDBLK
  5
475
100
AcDbEntity
  8
__
100
AcDbBlockEnd
  0
BLOCK
  5
476
100
AcDbEntity
  8
__
100
AcDbBlockBegin
  2
*U2
 70
               1
 10
0.0
 20
0.0
 30
0.0
  3
*U2
  1

  0
INSERT
  5
477
100
AcDbEntity
  8
__
 62
               7
100
AcDbBlockReference
  2
*U0
 10
0.0
 20
0.0
 30
0.0
  0
INSERT
  5
478
100
AcDbEntity
  8
__
 62
               7
100
AcDbBlockReference
  2
*U1
 10
0.0
 20
0.0
 30
0.0
  0
ENDBLK
  5
479
100
AcDbEntity
  8
__
100
AcDbBlockEnd
  0
ENDSEC
  0
SECTION
  2
ENTITIES
  0
INSERT
  5
47A
100
AcDbEntity
  8
__
 62
               7
100
AcDbBlockReference
  2
*U2
 10
210.0
 20
148.5
 30
0.0
  0
MTEXT
  5
47B
100
AcDbEntity
  8
0
 62
               7
100
AcDbMText
 10
262.45522313849978
 20
83.386416666666676
 30
0.0
 40
2.910416666666666
 41
0.0
 71
               1
 72
               1
  1
HIC-019K
  7
________
  0
ENDSEC
  0
SECTION
  2
OBJECTS
  0
DICTIONARY
  5
19
100
AcDbDictionary
  3
ACAD_GROUP
350
1A
  3
ACAD_MLINESTYLE
350
1B
  0
DICTIONARY
  5
1A
102
{ACAD_REACTORS
330
19
102
}
100
AcDbDictionary
  0
DICTIONARY
  5
1B
102
{ACAD_REACTORS
330
19
102
}
100
AcDbDictionary
  3
STANDARD
350
1C
  0
MLINESTYLE
  5
1C
102
{ACAD_REACTORS
330
1B
102
}
100
AcDbMlineStyle
  2
STANDARD
 70
               0
  3

 62
               0
 51
90.0
 52
90.0
 71
               2
 49
0.5
 62
             256
  6
BYLAYER
 49
-0.5
 62
             256
  6
BYLAYER
  0
ENDSEC
  0
EOF
