  0
SECTION
  2
HEADER
  9
$ACADVER
  1
AC1015
  9
$ACADMAINTVER
 70
     6
  9
$DWGCODEPAGE
  3
ANSI_932
  9
$INSBASE
 10
0.0
 20
0.0
 30
0.0
  9
$EXTMIN
 10
251.0170879333
 20
442.9805290302505
 30
0.0
  9
$EXTMAX
 10
880.2177623885985
 20
1051.720968265073
 30
0.0
  9
$LIMMIN
 10
0.0
 20
0.0
  9
$LIMMAX
 10
1050.0
 20
1485.0
  9
$ORTHOMODE
 70
     0
  9
$REGENMODE
 70
     1
  9
$FILLMODE
 70
     1
  9
$QTEXTMODE
 70
     0
  9
$MIRRTEXT
 70
     1
  9
$LTSCALE
 40
5.0
  9
$ATTMODE
 70
     1
  9
$TEXTSIZE
 40
17.5
  9
$TRACEWID
 40
1.0
  9
$TEXTSTYLE
  7
STANDARD
  9
$CLAYER
  8
0
  9
$CELTYPE
  6
ByLayer
  9
$CECOLOR
 62
   256
  9
$CELTSCALE
 40
1.0
  9
$DISPSILH
 70
     0
  9
$DIMSCALE
 40
1.0
  9
$DIMASZ
 40
16.51
  9
$DIMEXO
 40
5.0
  9
$DIMDLI
 40
3.75
  9
$DIMRND
 40
0.0
  9
$DIMDLE
 40
0.0
  9
$DIMEXE
 40
5.0
  9
$DIMTP
 40
0.0
  9
$DIMTM
 40
0.0
  9
$DIMTXT
 40
17.5
  9
$DIMCEN
 40
2.5
  9
$DIMTSZ
 40
0.0
  9
$DIMTOL
 70
     0
  9
$DIMLIM
 70
     0
  9
$DIMTIH
 70
     1
  9
$DIMTOH
 70
     1
  9
$DIMSE1
 70
     0
  9
$DIMSE2
 70
     0
  9
$DIMTAD
 70
     1
  9
$DIMZIN
 70
     1
  9
$DIMBLK
  1

  9
$DIMASO
 70
     1
  9
$DIMSHO
 70
     1
  9
$DIMPOST
  1

  9
$DIMAPOST
  1

  9
$DIMALT
 70
     0
  9
$DIMALTD
 70
     3
  9
$DIMALTF
 40
0.0393700787
  9
$DIMLFAC
 40
1.0
  9
$DIMTOFL
 70
     1
  9
$DIMTVP
 40
0.0
  9
$DIMTIX
 70
     0
  9
$DIMSOXD
 70
     0
  9
$DIMSAH
 70
     0
  9
$DIMBLK1
  1

  9
$DIMBLK2
  1

  9
$DIMSTYLE
  2
ISO-25
  9
$DIMCLRD
 70
     0
  9
$DIMCLRE
 70
     0
  9
$DIMCLRT
 70
     0
  9
$DIMTFAC
 40
1.0
  9
$DIMGAP
 40
7.62
  9
$DIMJUST
 70
     0
  9
$DIMSD1
 70
     0
  9
$DIMSD2
 70
     0
  9
$DIMTOLJ
 70
     0
  9
$DIMTZIN
 70
     1
  9
$DIMALTZ
 70
     0
  9
$DIMALTTZ
 70
     0
  9
$DIMUPT
 70
     0
  9
$DIMDEC
 70
     2
  9
$DIMTDEC
 70
     2
  9
$DIMALTU
 70
     2
  9
$DIMALTTD
 70
     3
  9
$DIMTXSTY
  7
STANDARD
  9
$DIMAUNIT
 70
     0
  9
$DIMADEC
 70
     2
  9
$DIMALTRND
 40
0.0
  9
$DIMAZIN
 70
     0
  9
$DIMDSEP
 70
    44
  9
$DIMATFIT
 70
     3
  9
$DIMFRAC
 70
     0
  9
$DIMLDRBLK
  1

  9
$DIMLUNIT
 70
     2
  9
$DIMLWD
 70
    -2
  9
$DIMLWE
 70
    -2
  9
$DIMTMOVE
 70
     0
  9
$LUNITS
 70
     2
  9
$LUPREC
 70
     2
  9
$SKETCHINC
 40
1.0
  9
$FILLETRAD
 40
10.0
  9
$AUNITS
 70
     0
  9
$AUPREC
 70
     2
  9
$MENU
  1
.
  9
$ELEVATION
 40
0.0
  9
$PELEVATION
 40
0.0
  9
$THICKNESS
 40
0.0
  9
$LIMCHECK
 70
     0
  9
$CHAMFERA
 40
0.0
  9
$CHAMFERB
 40
0.0
  9
$CHAMFERC
 40
0.0
  9
$CHAMFERD
 40
0.0
  9
$SKPOLY
 70
     0
  9
$TDCREATE
 40
2458871.657751505
  9
$TDUCREATE
 40
2458871.282751505
  9
$TDUPDATE
 40
2458871.663430752
  9
$TDUUPDATE
 40
2458871.288430752
  9
$TDINDWG
 40
0.0045032407
  9
$TDUSRTIMER
 40
0.0027206829
  9
$USRTIMER
 70
     1
  9
$ANGBASE
 50
0.0
  9
$ANGDIR
 70
     0
  9
$PDMODE
 70
     0
  9
$PDSIZE
 40
-1.0
  9
$PLINEWID
 40
0.0
  9
$SPLFRAME
 70
     0
  9
$SPLINETYPE
 70
     6
  9
$SPLINESEGS
 70
     8
  9
$HANDSEED
  5
120
  9
$SURFTAB1
 70
     6
  9
$SURFTAB2
 70
     6
  9
$SURFTYPE
 70
     6
  9
$SURFU
 70
     6
  9
$SURFV
 70
     6
  9
$UCSBASE
  2

  9
$UCSNAME
  2

  9
$UCSORG
 10
0.0
 20
0.0
 30
0.0
  9
$UCSXDIR
 10
1.0
 20
0.0
 30
0.0
  9
$UCSYDIR
 10
0.0
 20
1.0
 30
0.0
  9
$UCSORTHOREF
  2

  9
$UCSORTHOVIEW
 70
     0
  9
$UCSORGTOP
 10
0.0
 20
0.0
 30
0.0
  9
$UCSORGBOTTOM
 10
0.0
 20
0.0
 30
0.0
  9
$UCSORGLEFT
 10
0.0
 20
0.0
 30
0.0
  9
$UCSORGRIGHT
 10
0.0
 20
0.0
 30
0.0
  9
$UCSORGFRONT
 10
0.0
 20
0.0
 30
0.0
  9
$UCSORGBACK
 10
0.0
 20
0.0
 30
0.0
  9
$PUCSBASE
  2

  9
$PUCSNAME
  2

  9
$PUCSORG
 10
0.0
 20
0.0
 30
0.0
  9
$PUCSXDIR
 10
1.0
 20
0.0
 30
0.0
  9
$PUCSYDIR
 10
0.0
 20
1.0
 30
0.0
  9
$PUCSORTHOREF
  2

  9
$PUCSORTHOVIEW
 70
     0
  9
$PUCSORGTOP
 10
0.0
 20
0.0
 30
0.0
  9
$PUCSORGBOTTOM
 10
0.0
 20
0.0
 30
0.0
  9
$PUCSORGLEFT
 10
0.0
 20
0.0
 30
0.0
  9
$PUCSORGRIGHT
 10
0.0
 20
0.0
 30
0.0
  9
$PUCSORGFRONT
 10
0.0
 20
0.0
 30
0.0
  9
$PUCSORGBACK
 10
0.0
 20
0.0
 30
0.0
  9
$USERI1
 70
     0
  9
$USERI2
 70
     0
  9
$USERI3
 70
     0
  9
$USERI4
 70
     0
  9
$USERI5
 70
     0
  9
$USERR1
 40
0.0
  9
$USERR2
 40
0.0
  9
$USERR3
 40
0.0
  9
$USERR4
 40
0.0
  9
$USERR5
 40
0.0
  9
$WORLDVIEW
 70
     1
  9
$SHADEDGE
 70
     3
  9
$SHADEDIF
 70
    70
  9
$TILEMODE
 70
     1
  9
$MAXACTVP
 70
    64
  9
$PINSBASE
 10
0.0
 20
0.0
 30
0.0
  9
$PLIMCHECK
 70
     0
  9
$PEXTMIN
 10
1.000000000000000E+20
 20
1.000000000000000E+20
 30
1.000000000000000E+20
  9
$PEXTMAX
 10
-1.000000000000000E+20
 20
-1.000000000000000E+20
 30
-1.000000000000000E+20
  9
$PLIMMIN
 10
0.0
 20
0.0
  9
$PLIMMAX
 10
0.0
 20
0.0
  9
$UNITMODE
 70
     0
  9
$VISRETAIN
 70
     1
  9
$PLINEGEN
 70
     0
  9
$PSLTSCALE
 70
     1
  9
$TREEDEPTH
 70
  3020
  9
$CMLSTYLE
  2
Standard
  9
$CMLJUST
 70
     0
  9
$CMLSCALE
 40
20.0
  9
$PROXYGRAPHICS
 70
     1
  9
$MEASUREMENT
 70
     1
  9
$CELWEIGHT
370
    -1
  9
$ENDCAPS
280
     0
  9
$JOINSTYLE
280
     0
  9
$LWDISPLAY
290
     1
  9
$INSUNITS
 70
     4
  9
$HYPERLINKBASE
  1

  9
$STYLESHEET
  1

  9
$XEDIT
290
     1
  9
$CEPSNTYPE
380
     0
  9
$PSTYLEMODE
290
     1
  9
$FINGERPRINTGUID
  2
{D215062C-7FDD-4207-B48C-C901861B70F7}
  9
$VERSIONGUID
  2
{FAEB1C32-E019-11D5-929B-00C0DF256EC4}
  9
$EXTNAMES
290
     1
  9
$PSVPSCALE
 40
0.0
  9
$OLESTARTUP
290
     0
  0
ENDSEC
  0
SECTION
  2
CLASSES
  0
CLASS
  1
ACDBDICTIONARYWDFLT
  2
AcDbDictionaryWithDefault
  3
ObjectDBX Classes
 90
        0
280
     0
281
     0
  0
CLASS
  1
VISUALSTYLE
  2
AcDbVisualStyle
  3
ObjectDBX Classes
 90
     4095
280
     0
281
     0
  0
CLASS
  1
MATERIAL
  2
AcDbMaterial
  3
ObjectDBX Classes
 90
     1153
280
     0
281
     0
  0
CLASS
  1
SCALE
  2
AcDbScale
  3
ObjectDBX Classes
 90
     1153
280
     0
281
     0
  0
CLASS
  1
TABLESTYLE
  2
AcDbTableStyle
  3
ObjectDBX Classes
 90
     4095
280
     0
281
     0
  0
CLASS
  1
MLEADERSTYLE
  2
AcDbMLeaderStyle
  3
ACDB_MLEADERSTYLE_CLASS
 90
     4095
280
     0
281
     0
  0
CLASS
  1
SUN
  2
AcDbSun
  3
SCENEOE
 90
     1153
280
     0
281
     0
  0
CLASS
  1
ACDBPLACEHOLDER
  2
AcDbPlaceHolder
  3
ObjectDBX Classes
 90
        0
280
     0
281
     0
  0
CLASS
  1
LAYOUT
  2
AcDbLayout
  3
ObjectDBX Classes
 90
        0
280
     0
281
     0
  0
ENDSEC
  0
SECTION
  2
TABLES
  0
TABLE
  2
VPORT
  5
8
330
0
100
AcDbSymbolTable
 70
     1
  0
VPORT
  5
29
330
8
100
AcDbSymbolTableRecord
100
AcDbViewportTableRecord
  2
*Active
 70
     0
 10
0.0
 20
0.0
 11
1.0
 21
1.0
 12
425.3411105117585
 22
684.5159924861164
 13
0.0
 23
0.0
 14
10.0
 24
10.0
 15
10.0
 25
10.0
 16
0.0
 26
0.0
 36
1.0
 17
0.0
 27
0.0
 37
0.0
 40
760.3199999999986
 41
2.03099730458221
 42
50.0
 43
0.0
 44
0.0
 50
0.0
 51
0.0
 71
    16
 72
  2000
 73
     1
 74
     3
 75
     0
 76
     0
 77
     0
 78
     0
281
     0
 65
     1
110
0.0
120
0.0
130
0.0
111
1.0
121
0.0
131
0.0
112
0.0
122
1.0
132
0.0
 79
     0
146
0.0
  0
ENDTAB
  0
TABLE
  2
LTYPE
  5
5
330
0
100
AcDbSymbolTable
 70
     8
  0
LTYPE
  5
14
330
5
100
AcDbSymbolTableRecord
100
AcDbLinetypeTableRecord
  2
ByBlock
 70
     0
  3

 72
    65
 73
     0
 40
0.0
  0
LTYPE
  5
15
330
5
100
AcDbSymbolTableRecord
100
AcDbLinetypeTableRecord
  2
ByLayer
 70
     0
  3

 72
    65
 73
     0
 40
0.0
  0
LTYPE
  5
16
330
5
100
AcDbSymbolTableRecord
100
AcDbLinetypeTableRecord
  2
Continuous
 70
     0
  3
Solid line
 72
    65
 73
     0
 40
0.0
  0
LTYPE
  5
6E
330
5
100
AcDbSymbolTableRecord
100
AcDbLinetypeTableRecord
  2
SLD-実線
 70
     0
  3
SolidWorks Line Style
 72
    65
 73
     0
 40
0.0
  0
LTYPE
  5
6F
330
5
100
AcDbSymbolTableRecord
100
AcDbLinetypeTableRecord
  2
SLD-破線
 70
     0
  3
SolidWorks Line Style
 72
    65
 73
     2
 40
1.905
 49
1.27
 74
     0
 49
-0.635
 74
     0
  0
LTYPE
  5
70
330
5
100
AcDbSymbolTableRecord
100
AcDbLinetypeTableRecord
  2
SLD-2点鎖線
 70
     0
  3
SolidWorks Line Style
 72
    65
 73
     6
 40
12.7
 49
6.35
 74
     0
 49
-1.27
 74
     0
 49
1.27
 74
     0
 49
-1.27
 74
     0
 49
1.27
 74
     0
 49
-1.27
 74
     0
  0
LTYPE
  5
71
330
5
100
AcDbSymbolTableRecord
100
AcDbLinetypeTableRecord
  2
SLD-鎖線
 70
     0
  3
SolidWorks Line Style
 72
    65
 73
     4
 40
10.16
 49
6.35
 74
     0
 49
-1.27
 74
     0
 49
1.27
 74
     0
 49
-1.27
 74
     0
  0
LTYPE
  5
72
330
5
100
AcDbSymbolTableRecord
100
AcDbLinetypeTableRecord
  2
SLD-1点鎖線(中心線)
 70
     0
  3
SolidWorks Line Style
 72
    65
 73
     4
 40
34.29
 49
30.48
 74
     0
 49
-1.27
 74
     0
 49
1.27
 74
     0
 49
-1.27
 74
     0
  0
LTYPE
  5
73
330
5
100
AcDbSymbolTableRecord
100
AcDbLinetypeTableRecord
  2
SLD-点線
 70
     0
  3
SolidWorks Line Style
 72
    65
 73
     2
 40
0.635
 49
0.0
 74
     0
 49
-0.635
 74
     0
  0
LTYPE
  5
74
330
5
100
AcDbSymbolTableRecord
100
AcDbLinetypeTableRecord
  2
SLD-細-太鎖線(切断面)
 70
     0
  3
SolidWorks Line Style
 72
    65
 73
     4
 40
10.16
 49
6.35
 74
     0
 49
-1.27
 74
     0
 49
1.27
 74
     0
 49
-1.27
 74
     0
  0
ENDTAB
  0
TABLE
  2
LAYER
  5
2
330
0
100
AcDbSymbolTable
 70
     1
  0
LAYER
  5
10
330
2
100
AcDbSymbolTableRecord
100
AcDbLayerTableRecord
  2
0
 70
     0
 62
     7
  6
Continuous
370
    -3
390
F
  0
ENDTAB
  0
TABLE
  2
STYLE
  5
3
330
0
100
AcDbSymbolTable
 70
     2
  0
STYLE
  5
11
330
3
100
AcDbSymbolTableRecord
100
AcDbTextStyleTableRecord
  2
STANDARD
 70
     0
 40
0.0
 41
1.0
 50
0.0
 71
     0
 42
17.5
  3
MSGOTHIC.TTC
  4

1001
ACAD
1000
ＭＳ Ｐゴシック
1071
    32818
  0
STYLE
  5
75
330
3
100
AcDbSymbolTableRecord
100
AcDbTextStyleTableRecord
  2
SLDTEXTSTYLE0
 70
     0
 40
0.0
 41
1.0
 50
0.0
 71
     0
 42
17.5
  3
MSGOTHIC.TTC
  4

1001
ACAD
1000
ＭＳ Ｐゴシック
1071
      306
  0
ENDTAB
  0
TABLE
  2
VIEW
  5
6
330
0
100
AcDbSymbolTable
 70
     0
  0
ENDTAB
  0
TABLE
  2
UCS
  5
7
330
0
100
AcDbSymbolTable
 70
     0
  0
ENDTAB
  0
TABLE
  2
APPID
  5
9
330
0
100
AcDbSymbolTable
 70
     2
  0
APPID
  5
12
330
9
100
AcDbSymbolTableRecord
100
AcDbRegAppTableRecord
  2
ACAD
 70
     0
  0
APPID
  5
FA
330
9
100
AcDbSymbolTableRecord
100
AcDbRegAppTableRecord
  2
PLOTTRANSPARENCY
 70
     0
  0
ENDTAB
  0
TABLE
  2
DIMSTYLE
  5
A
330
0
100
AcDbSymbolTable
 70
     1
100
AcDbDimStyleTable
  0
DIMSTYLE
105
27
330
A
100
AcDbSymbolTableRecord
100
AcDbDimStyleTableRecord
  2
ISO-25
 70
     0
 41
2.5
 42
0.625
 43
3.75
 44
1.25
 73
     0
 74
     0
 77
     1
 78
     8
140
2.5
141
2.5
143
0.0393700787
147
0.625
171
     3
172
     1
178
     0
271
     2
272
     2
274
     3
278
    44
283
     0
284
     8
340
11
  0
ENDTAB
  0
TABLE
  2
BLOCK_RECORD
  5
1
330
0
100
AcDbSymbolTable
 70
     1
  0
BLOCK_RECORD
  5
1F
330
1
100
AcDbSymbolTableRecord
100
AcDbBlockTableRecord
  2
*Model_Space
340
22
  0
BLOCK_RECORD
  5
1B
330
1
100
AcDbSymbolTableRecord
100
AcDbBlockTableRecord
  2
*Paper_Space
340
1E
  0
BLOCK_RECORD
  5
23
330
1
100
AcDbSymbolTableRecord
100
AcDbBlockTableRecord
  2
*Paper_Space0
340
26
  0
ENDTAB
  0
ENDSEC
  0
SECTION
  2
BLOCKS
  0
BLOCK
  5
20
330
1F
100
AcDbEntity
  8
0
100
AcDbBlockBegin
  2
*Model_Space
 70
     0
 10
0.0
 20
0.0
 30
0.0
  3
*Model_Space
  1

  0
ENDBLK
  5
21
330
1F
100
AcDbEntity
  8
0
100
AcDbBlockEnd
  0
BLOCK
  5
1C
330
1B
100
AcDbEntity
 67
     1
  8
0
100
AcDbBlockBegin
  2
*Paper_Space
 70
     0
 10
0.0
 20
0.0
 30
0.0
  3
*Paper_Space
  1

  0
ENDBLK
  5
1D
330
1B
100
AcDbEntity
 67
     1
  8
0
100
AcDbBlockEnd
  0
BLOCK
  5
24
330
23
100
AcDbEntity
  8
0
100
AcDbBlockBegin
  2
*Paper_Space0
 70
     0
 10
0.0
 20
0.0
 30
0.0
  3
*Paper_Space0
  1

  0
ENDBLK
  5
25
330
23
100
AcDbEntity
  8
0
100
AcDbBlockEnd
  0
ENDSEC
  0
SECTION
  2
ENTITIES
  0
MTEXT
  5
76
330
1F
100
AcDbEntity
  8
0
  6
Continuous
 62
     7
370
     0
100
AcDbMText
 10
777.4892391924
 20
460.4750582287
 30
0.0
 40
17.5
 41
0.0
 71
     1
 72
     1
  1
{HIC-022S}
  7
SLDTEXTSTYLE0
 73
     1
 44
1.0
1001
ACAD
1000
ACAD_MTEXT_DEFINED_HEIGHT_BEGIN
1070
    46
1040
17.5
1000
ACAD_MTEXT_DEFINED_HEIGHT_END
  0
LINE
  5
77
330
1F
100
AcDbEntity
  8
0
  6
ByBlock
 62
     0
370
    25
100
AcDbLine
 10
444.7371098348
 20
932.6035408589
 30
0.0
 11
444.7073757929
 21
934.0636125715
 31
0.0
  0
LINE
  5
78
330
1F
100
AcDbEntity
  8
0
  6
ByBlock
 62
     0
370
    25
100
AcDbLine
 10
436.2078433034
 20
934.0636125715
 30
0.0
 11
436.1759997922
 21
932.4999566754
 31
0.0
  0
SPLINE
  5
79
330
1F
100
AcDbEntity
  8
0
  6
ByBlock
 62
     0
370
    25
100
AcDbSpline
210
0.0
220
0.0
230
1.0
 70
     8
 71
     3
 72
    32
 73
    28
 74
     0
 42
0.000000001
 43
0.00000001
 40
0.0
 40
0.0
 40
0.0
 40
0.0
 40
0.032354050846855
 40
0.0751613876728442
 40
0.1180570290275068
 40
0.161017361236933
 40
0.2040178590903559
 40
0.2470371521836161
 40
0.290058374739499
 40
0.3330688262023942
 40
0.3760556706593184
 40
0.4190117977796975
 40
0.4619311222039811
 40
0.5048063297893817
 40
0.547627702515344
 40
0.5903813761241216
 40
0.6330466168191258
 40
0.6755910559731663
 40
0.7179615376541922
 40
0.7600647657212793
 40
0.8017212929497689
 40
0.8425373263050683
 40
0.8814505681503074
 40
0.916014891738506
 40
0.9415846349996339
 40
0.9703838339001238
 40
1.0
 40
1.0
 40
1.0
 40
1.0
 10
844.0592719413601
 20
926.7675825369137
 30
0.0
 10
843.1413947184594
 20
929.0742893535237
 30
0.0
 10
841.0090828755604
 20
934.432978010826
 30
0.0
 10
836.4676486410325
 20
942.6595591387548
 30
0.0
 10
830.6564749758694
 20
951.4434268235933
 30
0.0
 10
823.8390819820261
 20
960.0083141298718
 30
0.0
 10
816.0864967863819
 20
968.3299705447344
 30
0.0
 10
807.4186346677453
 20
976.378609542849
 30
0.0
 10
797.8725651031306
 20
984.1285400964708
 30
0.0
 10
787.4840907690152
 20
991.55503140857
 30
0.0
 10
776.292466005391
 20
998.6349809964171
 30
0.0
 10
764.3391215261031
 20
1005.346536531559
 30
0.0
 10
751.6678956690718
 20
1011.669137656777
 30
0.0
 10
738.3255801429939
 20
1017.583229459352
 30
0.0
 10
724.3624427907166
 20
1023.070265010097
 30
0.0
 10
709.832838251675
 20
1028.112785048551
 30
0.0
 10
694.7963057665074
 20
1032.694490413932
 30
0.0
 10
679.3196605555057
 20
1036.800286403537
 30
0.0
 10
663.4813303779041
 20
1040.416238543501
 30
0.0
 10
647.3812698776433
 20
1043.529343750799
 30
0.0
 10
631.1670088803702
 20
1046.126526965191
 30
0.0
 10
615.1185586905466
 20
1048.191321756094
 30
0.0
 10
599.8267554431311
 20
1049.704998039437
 30
0.0
 10
586.4656569475279
 20
1050.671497008518
 30
0.0
 10
574.4126727705286
 20
1051.278309126162
 30
0.0
 10
562.9959733181286
 20
1051.648504336878
 30
0.0
 10
555.0423195125715
 20
1051.696589457765
 30
0.0
 10
551.009874757586
 20
1051.720968265073
 30
0.0
  0
SPLINE
  5
7A
330
1F
100
AcDbEntity
  8
0
  6
ByBlock
 62
     0
370
    25
100
AcDbSpline
210
0.0
220
0.0
230
1.0
 70
     8
 71
     3
 72
    33
 73
    29
 74
     0
 42
0.000000001
 43
0.00000001
 40
0.0
 40
0.0
 40
0.0
 40
0.0
 40
0.0478125248743167
 40
0.0668806801694916
 40
0.0985395880010505
 40
0.13130971091733
 40
0.1663716777943195
 40
0.2028674912587845
 40
0.2404504170546709
 40
0.2788436277865547
 40
0.3178508123753975
 40
0.3573272610792351
 40
0.3971647578413105
 40
0.4372812842760694
 40
0.4776141879530943
 40
0.518115592975993
 40
0.5587493221814351
 40
0.599488869343695
 40
0.6403161294473313
 40
0.6812207026101518
 40
0.7221996585948488
 40
0.7632553146714536
 40
0.8043981733299986
 40
0.8456485285640709
 40
0.8870371654205796
 40
0.9286079979151177
 40
0.970421786771425
 40
1.0
 40
1.0
 40
1.0
 40
1.0
 10
551.009874757586
 20
1051.720968265073
 30
0.0
 10
544.5014353651796
 20
1051.660959382715
 30
0.0
 10
535.3973595074358
 20
1051.577018304957
 30
0.0
 10
522.0270989862892
 20
1051.019165620083
 30
0.0
 10
510.7324837836547
 20
1050.358429255973
 30
0.0
 10
497.3549395195493
 20
1049.258620054702
 30
0.0
 10
483.4441563625788
 20
1047.771151690753
 30
0.0
 10
469.0553184139873
 20
1045.84737203977
 30
0.0
 10
454.4391862049923
 20
1043.47816163617
 30
0.0
 10
439.7585984362677
 20
1040.65665647601
 30
0.0
 10
425.1486491742613
 20
1037.382856978117
 30
0.0
 10
410.72081403144
 20
1033.661114514282
 30
0.0
 10
396.5697923334017
 20
1029.499334126415
 30
0.0
 10
382.7775336766241
 20
1024.908209234873
 30
0.0
 10
369.4159370647071
 20
1019.900649534725
 30
0.0
 10
356.548671596693
 20
1014.491290509366
 30
0.0
 10
344.232444423016
 20
1008.696055850513
 30
0.0
 10
332.5179296060538
 20
1002.531743838579
 30
0.0
 10
321.4504898787688
 20
996.0156241566705
 30
0.0
 10
311.070836364964
 20
989.1650311678521
 30
0.0
 10
301.4157357155017
 20
981.9971150691256
 30
0.0
 10
292.518958735128
 20
974.5284279973171
 30
0.0
 10
284.4105414901285
 20
966.774737372987
 30
0.0
 10
277.1226357530836
 20
958.7498403738748
 30
0.0
 10
270.6713531687136
 20
950.4680440583431
 30
0.0
 10
265.1301523233695
 20
941.9337220632821
 30
0.0
 10
260.8373504407895
 20
934.055870391659
 30
0.0
 10
258.8351572751928
 20
928.9649387763019
 30
0.0
 10
258.0056344344354
 20
926.8557296708884
 30
0.0
  0
LINE
  5
7B
330
1F
100
AcDbEntity
  8
0
  6
ByBlock
 62
     0
370
    25
100
AcDbLine
 10
850.8610970176
 20
887.4312650422
 30
0.0
 11
850.0761812963
 21
900.2627652215
 31
0.0
  0
LINE
  5
7C
330
1F
100
AcDbEntity
  8
0
  6
ByBlock
 62
     0
370
    25
100
AcDbLine
 10
251.9435682194
 20
900.2627652215
 30
0.0
 11
251.158652498
 21
887.4312650422
 31
0.0
  0
LINE
  5
7D
330
1F
100
AcDbEntity
  8
0
  6
ByBlock
 62
     0
370
    25
100
AcDbLine
 10
338.6049858397
 20
958.9716700924
 30
0.0
 11
338.5772011917
 21
960.3360180317
 31
0.0
  0
LINE
  5
7E
330
1F
100
AcDbEntity
  8
0
  6
ByBlock
 62
     0
370
    25
100
AcDbLine
 10
330.0776687021
 20
960.3360180317
 30
0.0
 11
330.0457142208
 21
958.7669130148
 31
0.0
  0
LINE
  5
7F
330
1F
100
AcDbEntity
  8
0
  6
ByBlock
 62
     0
370
    25
100
AcDbLine
 10
391.6754655339
 20
945.9992608674
 30
0.0
 11
391.6422884923
 21
947.6283989519
 31
0.0
  0
LINE
  5
80
330
1F
100
AcDbEntity
  8
0
  6
ByBlock
 62
     0
370
    25
100
AcDbLine
 10
383.1427560027
 20
947.6283989519
 30
0.0
 11
383.106390793
 21
945.842707845
 31
0.0
  0
LINE
  5
81
330
1F
100
AcDbEntity
  8
0
  6
ByBlock
 62
     0
370
    25
100
AcDbLine
 10
251.158652498
 20
875.5572882614
 30
0.0
 11
257.314736311
 21
774.9199989345
 31
0.0
  0
LINE
  5
82
330
1F
100
AcDbEntity
  8
0
  6
ByBlock
 62
     0
370
    25
100
AcDbLine
 10
844.7050132047
 20
774.9199989345
 30
0.0
 11
850.8610970176
 21
875.5572882614
 31
0.0
  0
SPLINE
  5
83
330
1F
100
AcDbEntity
  8
0
  6
ByBlock
 62
     0
370
    25
100
AcDbSpline
210
0.0
220
0.0
230
1.0
 70
     8
 71
     3
 72
    13
 73
     9
 74
     0
 42
0.000000001
 43
0.00000001
 40
0.0
 40
0.0
 40
0.0
 40
0.0
 40
0.1210535039482262
 40
0.3242444162287301
 40
0.5210176112707552
 40
0.6609035677857812
 40
0.8002492007798454
 40
1.0
 40
1.0
 40
1.0
 40
1.0
 10
472.7528776509998
 20
629.5605049820158
 30
0.0
 10
475.8306681982917
 20
629.1064511319512
 30
0.0
 10
484.0745964344194
 20
627.8902581201938
 30
0.0
 10
497.5681927219268
 20
626.4428525751689
 30
0.0
 10
511.6532464086043
 20
625.2674611573527
 30
0.0
 10
524.1538600446085
 20
624.5493895426143
 30
0.0
 10
536.7745973796002
 20
624.0511957728806
 30
0.0
 10
545.7328539855919
 20
623.9801718420514
 30
0.0
 10
551.0098747580653
 20
623.9383339292953
 30
0.0
  0
SPLINE
  5
84
330
1F
100
AcDbEntity
  8
0
  6
ByBlock
 62
     0
370
    25
100
AcDbSpline
210
0.0
220
0.0
230
1.0
 70
     8
 71
     3
 72
    22
 73
    18
 74
     0
 42
0.000000001
 43
0.00000001
 40
0.0
 40
0.0
 40
0.0
 40
0.0
 40
0.0397618270187503
 40
0.1150544396144762
 40
0.1924503849836233
 40
0.2627476597934063
 40
0.3334939503361671
 40
0.4046231655159891
 40
0.4760453860150923
 40
0.5476639117219684
 40
0.6193920901841897
 40
0.6911606826121994
 40
0.7629182634347206
 40
0.8346143958714354
 40
0.906229193324156
 40
0.9777457770473297
 40
1.0
 40
1.0
 40
1.0
 40
1.0
 10
257.5876530837156
 20
773.1632944031226
 30
0.0
 10
257.7126312276519
 20
771.3508911338597
 30
0.0
 10
258.0742667809645
 20
766.1065384937721
 30
0.0
 10
260.0248661904274
 20
757.4140169590303
 30
0.0
 10
263.2741966907244
 20
747.4864259998468
 30
0.0
 10
267.6279419263099
 20
737.9621800113863
 30
0.0
 10
272.8413339169377
 20
728.9289405989763
 30
0.0
 10
279.0625244530258
 20
720.0973675532863
 30
0.0
 10
286.2590144203223
 20
711.5046455536722
 30
0.0
 10
294.3990643911276
 20
703.1850106604096
 30
0.0
 10
303.445574804897
 20
695.1692501288156
 30
0.0
 10
313.3577343471981
 20
687.4836586096422
 30
0.0
 10
324.0973610180704
 20
680.1555917539589
 30
0.0
 10
335.6046546416442
 20
673.1962723862086
 30
0.0
 10
347.8929487228763
 20
666.6651801796913
 30
0.0
 10
357.7626891066951
 20
661.8606717138714
 30
0.0
 10
363.7331904199768
 20
659.3821725805557
 30
0.0
 10
365.1501438628995
 20
658.7939610224374
 30
0.0
  0
SPLINE
  5
85
330
1F
100
AcDbEntity
  8
0
  6
ByBlock
 62
     0
370
    25
100
AcDbSpline
210
0.0
220
0.0
230
1.0
 70
     8
 71
     3
 72
    35
 73
    31
 74
     0
 42
0.000000001
 43
0.00000001
 40
0.0
 40
0.0
 40
0.0
 40
0.0
 40
0.0433651962330566
 40
0.0607648825743625
 40
0.0896402411012991
 40
0.1195438211856087
 40
0.1515486425658392
 40
0.1848689834020559
 40
0.2191878155550271
 40
0.2542525072072704
 40
0.2898845100119841
 40
0.3259527423489028
 40
0.3623596762370924
 40
0.3990318334577705
 40
0.4359134449532199
 40
0.4729621354826815
 40
0.5101459434560688
 40
0.5474412279514769
 40
0.5848311661463438
 40
0.6223046423264247
 40
0.6598549716157264
 40
0.6974731879663122
 40
0.7351584366606174
 40
0.7729134865401073
 40
0.8107469230484796
 40
0.8486772599592916
 40
0.8867398015667753
 40
0.9249958128783352
 40
0.9635419732892628
 40
0.9999999999999999
 40
0.9999999999999999
 40
0.9999999999999999
 40
0.9999999999999999
 10
551.0098747580653
 20
623.9383339292953
 30
0.0
 10
557.4084562558714
 20
623.9979189138234
 30
0.0
 10
566.3743802486307
 20
624.0814115508352
 30
0.0
 10
579.5578381506184
 20
624.6373926852568
 30
0.0
 10
590.7267915410828
 20
625.2987503706223
 30
0.0
 10
603.956283897758
 20
626.400826654325
 30
0.0
 10
617.7158767743091
 20
627.8928444632805
 30
0.0
 10
631.948932094058
 20
629.8239072786735
 30
0.0
 10
646.4060397933607
 20
632.2034722048761
 30
0.0
 10
660.9252388459945
 20
635.0387955459072
 30
0.0
 10
675.3722785063384
 20
638.3303319515032
 30
0.0
 10
689.6364910395583
 20
642.0742981704993
 30
0.0
 10
703.6239607500232
 20
646.2635054302218
 30
0.0
 10
717.2534901868905
 20
650.8881596922981
 30
0.0
 10
730.4538761777271
 20
655.9364661777269
 30
0.0
 10
743.1620446089388
 20
661.3951481476299
 30
0.0
 10
755.3217138457395
 20
667.2499042193887
 30
0.0
 10
766.8823719815007
 20
673.4858249699115
 30
0.0
 10
777.7984222830705
 20
680.0877717833768
 30
0.0
 10
788.0283527621116
 20
687.0406818026304
 30
0.0
 10
797.5334110728884
 20
694.3294009356983
 30
0.0
 10
806.2773345942535
 20
701.9390225018575
 30
0.0
 10
814.225646771145
 20
709.8548754892462
 30
0.0
 10
821.3449973293064
 20
718.0629001887536
 30
0.0
 10
827.6029633173729
 20
726.5491739114561
 30
0.0
 10
832.9639191553292
 20
735.3000376773077
 30
0.0
 10
837.4013142823815
 20
744.3015469303507
 30
0.0
 10
840.8478746980608
 20
753.542161867266
 30
0.0
 10
843.3230249162555
 20
762.7982401744482
 30
0.0
 10
844.0779592436983
 20
769.0039427668924
 30
0.0
 10
844.4449176353695
 20
772.0204099743461
 30
0.0
  0
LINE
  5
86
330
1F
100
AcDbEntity
  8
0
  6
ByBlock
 62
     0
370
    25
100
AcDbLine
 10
328.8583825861
 20
677.4196287658
 30
0.0
 11
328.917821963
 21
675.4741870839
 31
0.0
  0
LINE
  5
87
330
1F
100
AcDbEntity
  8
0
  6
ByBlock
 62
     0
370
    25
100
AcDbLine
 10
773.1019275526
 20
675.4741870839
 30
0.0
 11
773.1610745828
 21
677.4100603026
 31
0.0
  0
SPLINE
  5
88
330
1F
100
AcDbEntity
  8
0
  6
ByBlock
 62
     0
370
    25
100
AcDbSpline
210
0.0
220
0.0
230
1.0
 70
     8
 71
     3
 72
    21
 73
    17
 74
     0
 42
0.000000001
 43
0.00000001
 40
0.0
 40
0.0
 40
0.0
 40
0.0
 40
0.0993291927600665
 40
0.139427272388583
 40
0.2058354979631107
 40
0.2744697389002989
 40
0.3477377478055073
 40
0.423760835946236
 40
0.5017588305619002
 40
0.5811058277979415
 40
0.6613549770103333
 40
0.7421775909554035
 40
0.8233342614127113
 40
0.9046587255208808
 40
0.9860528022550213
 40
1.0
 40
1.0
 40
1.0
 40
1.0
 10
365.1035241583431
 20
658.8133140162944
 30
0.0
 10
364.7134365139552
 20
658.975273274677
 30
0.0
 10
364.6964756131971
 20
658.7394914708714
 30
0.0
 10
374.0046882618934
 20
658.2124121714
 30
0.0
 10
381.8769766815241
 20
657.584690189525
 30
0.0
 10
391.1291161287969
 20
656.5428331364236
 30
0.0
 10
400.6474174484525
 20
655.1412056659576
 30
0.0
 10
410.3513003526263
 20
653.34245396456
 30
0.0
 10
420.0280754162882
 20
651.1495829329178
 30
0.0
 10
429.5289236823892
 20
648.570039482364
 30
0.0
 10
438.7302103302209
 20
645.6206041536684
 30
0.0
 10
447.5219740845666
 20
642.32212566647
 30
0.0
 10
455.838190044194
 20
638.7083683837968
 30
0.0
 10
463.5249998322361
 20
634.787792179905
 30
0.0
 10
468.8065594034161
 20
631.81650702409
 30
0.0
 10
471.2982124262098
 20
630.105783976095
 30
0.0
 10
471.6627090999813
 20
629.8555272770144
 30
0.0
  0
LINE
  5
89
330
1F
100
AcDbEntity
  8
0
  6
ByBlock
 62
     0
370
    25
100
AcDbLine
 10
422.585421195
 20
694.7190752067
 30
0.0
 11
424.3450452355
 21
695.802295273
 31
0.0
  0
SPLINE
  5
8A
330
1F
100
AcDbEntity
  8
0
  6
ByBlock
 62
     0
370
    25
100
AcDbSpline
210
0.0
220
0.0
230
1.0
 70
     8
 71
     3
 72
    18
 73
    14
 74
     0
 42
0.000000001
 43
0.00000001
 40
0.0
 40
0.0
 40
0.0
 40
0.0
 40
0.0684179464041924
 40
0.1330225873973813
 40
0.2503361381099952
 40
0.3556342462811232
 40
0.4551958523786007
 40
0.5499980310449776
 40
0.6687350060928011
 40
0.7484489859485994
 40
0.8422886712451113
 40
0.9505446127600495
 40
1.0
 40
1.0
 40
1.0
 40
1.0
 10
407.9247694785917
 20
712.6137345729725
 30
0.0
 10
407.4731503799066
 20
712.0977241857609
 30
0.0
 10
406.5950833787392
 20
711.09446348534
 30
0.0
 10
405.6117005685092
 20
708.7843172521619
 30
0.0
 10
405.2950084922298
 20
705.8641119752851
 30
0.0
 10
406.0043977631092
 20
702.572251983384
 30
0.0
 10
407.5089460888717
 20
699.6180275641705
 30
0.0
 10
409.7831600506435
 20
696.9147423700448
 30
0.0
 10
412.4749039591737
 20
694.9675006103582
 30
0.0
 10
415.4535137861077
 20
693.7618919416012
 30
0.0
 10
418.3735689921274
 20
693.3599547668634
 30
0.0
 10
420.9772009442642
 20
693.5978478227762
 30
0.0
 10
422.2015025964778
 20
694.4514128354207
 30
0.0
 10
422.5854211950132
 20
694.719075206717
 30
0.0
  0
LINE
  5
8B
330
1F
100
AcDbEntity
  8
0
  6
ByBlock
 62
     0
370
    25
100
AcDbLine
 10
413.5851209803
 20
718.1384130079
 30
0.0
 11
407.9277889929
 21
712.6166835546
 31
0.0
  0
LINE
  5
8C
330
1F
100
AcDbEntity
  8
0
  6
ByBlock
 62
     0
370
    25
100
AcDbLine
 10
424.3420257212
 20
695.7993462913
 30
0.0
 11
430.0481905516
 21
701.3687380964
 31
0.0
  0
LWPOLYLINE
  5
8D
330
1F
100
AcDbEntity
  8
0
  6
ByBlock
 62
     0
370
    25
100
AcDbPolyline
 90
       17
 70
   128
 43
0.0
 10
442.4410649511
 20
935.9765684095
 10
443.728505089
 20
935.4382735919
 10
444.5179810315
 20
934.687204033
 10
444.6893022231
 20
933.8377032647
 10
444.2163865653
 20
933.0191000782
 10
443.17123118
 20
932.356019388
 10
441.7129515003
 20
931.9494092184
 10
440.0635573881
 20
931.8611722817
 10
438.4741541452
 20
932.1047418517
 10
437.1867140073
 20
932.6430366693
 10
436.3972380648
 20
933.3941062282
 10
436.2259168732
 20
934.2436069965
 10
436.698832531
 20
935.062210183
 10
437.7439879163
 20
935.7252908732
 10
439.202267596
 20
936.1319010428
 10
440.8516617082
 20
936.2201379795
 10
442.4410649511
 20
935.9765684095
  0
LINE
  5
8E
330
1F
100
AcDbEntity
  8
0
  6
ByBlock
 62
     0
370
    25
100
AcDbLine
 10
330.1264488689
 20
960.889504535
 30
0.0
 11
330.471204839
 21
961.1237320973
 31
0.0
  0
SPLINE
  5
8F
330
1F
100
AcDbEntity
  8
0
  6
ByBlock
 62
     0
370
    25
100
AcDbSpline
210
0.0
220
0.0
230
1.0
 70
     8
 71
     3
 72
    22
 73
    18
 74
     0
 42
0.000000001
 43
0.00000001
 40
0.0
 40
0.0
 40
0.0
 40
0.0
 40
0.0075887887420433
 40
0.0841401856282969
 40
0.1606730852257755
 40
0.237167134601856
 40
0.2873581228335693
 40
0.3638072472262296
 40
0.4402557342819761
 40
0.516722652692788
 40
0.5932283672072044
 40
0.6436799046081655
 40
0.7202306647492621
 40
0.7967820637176057
 40
0.8733149665782721
 40
0.9498090179019276
 40
1.0
 40
1.0
 40
1.0
 40
1.0
 10
337.684770323707
 20
961.6336469399472
 30
0.0
 10
337.7271011334196
 20
961.6188538934244
 30
0.0
 10
338.1964411438082
 20
961.4548369833836
 30
0.0
 10
338.7441514345249
 20
960.945955002947
 30
0.0
 10
339.1620656493063
 20
960.1810407047357
 30
0.0
 10
339.0157516144376
 20
959.4530149492647
 30
0.0
 10
338.4962146818536
 20
958.7769787149412
 30
0.0
 10
337.6199552556352
 20
958.1808476570178
 30
0.0
 10
336.2605088757583
 20
957.7010765952045
 30
0.0
 10
334.6835560944139
 20
957.4661216347588
 30
0.0
 10
333.2479256493938
 20
957.4997789004902
 30
0.0
 10
331.9230003240594
 20
957.7284593689473
 30
0.0
 10
330.7776916824837
 20
958.1404450395778
 30
0.0
 10
329.886985442953
 20
958.8020479711513
 30
0.0
 10
329.5035687304825
 20
959.5833674990713
 30
0.0
 10
329.6232367908586
 20
960.3114342792932
 30
0.0
 10
329.9836555776382
 20
960.7254692147245
 30
0.0
 10
330.1264488688935
 20
960.889504535006
 30
0.0
  0
SPLINE
  5
90
330
1F
100
AcDbEntity
  8
0
  6
ByBlock
 62
     0
370
    25
100
AcDbSpline
210
0.0
220
0.0
230
1.0
 70
     8
 71
     3
 72
    21
 73
    17
 74
     0
 42
0.000000001
 43
0.00000001
 40
0.0
 40
0.0
 40
0.0
 40
0.0
 40
0.0250783654729614
 40
0.1065276679042592
 40
0.1879534036569931
 40
0.2414381380325105
 40
0.3228366001950738
 40
0.4042346754355198
 40
0.4856439415228995
 40
0.567076755481619
 40
0.6207195808722406
 40
0.7021797106485679
 40
0.7836402278628399
 40
0.8650895317887004
 40
0.9465152684343909
 40
1.0
 40
1.0
 40
1.0
 40
1.0
 10
391.4794516941242
 20
948.1751456140663
 30
0.0
 10
391.5741345754877
 20
948.1090352826064
 30
0.0
 10
391.9763277149477
 20
947.8282123780034
 30
0.0
 10
392.1998549003462
 20
947.1955403768967
 30
0.0
 10
392.0855127420955
 20
946.4761621177418
 30
0.0
 10
391.5599033487084
 20
945.7964316822004
 30
0.0
 10
390.6853571078533
 20
945.2025578473341
 30
0.0
 10
389.3249371349182
 20
944.7279116005898
 30
0.0
 10
387.7478253359787
 20
944.5014348169485
 30
0.0
 10
386.3123611567192
 20
944.5443795150304
 30
0.0
 10
384.9878943282965
 20
944.782781736975
 30
0.0
 10
383.8429938053609
 20
945.2043564422645
 30
0.0
 10
382.95234464693
 20
945.8755590265641
 30
0.0
 10
382.5687445138415
 20
946.6640854440045
 30
0.0
 10
382.6881213120359
 20
947.3961580109685
 30
0.0
 10
383.0486184701938
 20
947.8107477878558
 30
0.0
 10
383.1915361695383
 20
947.9751102959743
 30
0.0
  0
LINE
  5
91
330
1F
100
AcDbEntity
  8
0
  6
ByBlock
 62
     0
370
    25
100
AcDbLine
 10
436.2566234702
 20
934.6488737831
 30
0.0
 11
436.6512301332
 21
934.9154478271
 31
0.0
  0
SPLINE
  5
92
330
1F
100
AcDbEntity
  8
0
  6
ByBlock
 62
     0
370
    25
100
AcDbSpline
210
0.0
220
0.0
230
1.0
 70
     8
 71
     3
 72
    22
 73
    18
 74
     0
 42
0.000000001
 43
0.00000001
 40
0.0
 40
0.0
 40
0.0
 40
0.0
 40
0.002272082030156
 40
0.0791923349937794
 40
0.1561077566576566
 40
0.2330130205939606
 40
0.2835678498922974
 40
0.3604613515046833
 40
0.43735468624837
 40
0.5142528477007516
 40
0.5911611631459347
 40
0.6417841457123821
 40
0.71870423198333
 40
0.7956244852245944
 40
0.8725399073238276
 40
0.9494451715201488
 40
1.0
 40
1.0
 40
1.0
 40
1.0
 10
443.9027300908396
 20
935.2752879810336
 30
0.0
 10
443.9152396334107
 20
935.2706129085731
 30
0.0
 10
444.3512537705643
 20
935.1076654887567
 30
0.0
 10
444.8707194756112
 20
934.5974043417696
 30
0.0
 10
445.2929438631664
 20
933.8200292815729
 30
0.0
 10
445.1461116272164
 20
933.0838039968947
 30
0.0
 10
444.6267525597
 20
932.4053247137534
 30
0.0
 10
443.7498030132066
 20
931.8120967298435
 30
0.0
 10
442.389782220721
 20
931.3430911396242
 30
0.0
 10
440.8122597446199
 20
931.1249319166667
 30
0.0
 10
439.3769891016433
 20
931.1771514641273
 30
0.0
 10
438.0528385782609
 20
931.4252573195531
 30
0.0
 10
436.9082369889487
 20
931.8564602786722
 30
0.0
 10
436.0176275307164
 20
932.5373020928471
 30
0.0
 10
435.6338957323552
 20
933.3330786731475
 30
0.0
 10
435.753062572347
 20
934.0691298662305
 30
0.0
 10
436.1136161612798
 20
934.4842310998658
 30
0.0
 10
436.256623470184
 20
934.6488737831372
 30
0.0
  0
ARC
  5
93
330
1F
100
AcDbEntity
  8
0
  6
ByBlock
 62
     0
370
    25
100
AcDbCircle
 10
333.6913963731
 20
895.4443790016
 30
0.0
 40
81.85702311400156
100
AcDbArc
 50
158.2431335566
 51
193.501801881
  0
ARC
  5
94
330
1F
100
AcDbEntity
  8
0
  6
ByBlock
 62
     0
370
    25
100
AcDbCircle
 10
768.129982719
 20
895.421883206
 30
0.0
 40
82.04890252522966
100
AcDbArc
 50
347.5136103671999
 51
21.647036652
  0
LWPOLYLINE
  5
95
330
1F
100
AcDbEntity
  8
0
  6
ByBlock
 62
     0
370
    25
100
AcDbPolyline
 90
       15
 70
   128
 43
0.0
 10
362.0314377691
 20
762.5639086297
 10
347.033380989
 20
769.2648627262
 10
332.9287806993
 20
776.4620965583
 10
319.7794177768
 20
784.1240848498
 10
307.6428889742
 20
792.2172666103
 10
296.5723546348
 20
800.7061921384
 10
286.6163058398
 20
809.5536782988
 10
277.8183520085
 20
818.7209713909
 10
270.2170298801
 20
828.1679168981
 10
263.8456347155
 20
837.8531353722
 10
258.7320744578
 20
847.7342036832
 10
254.8987474898
 20
857.7678408408
 10
252.362444525
 20
867.9100975741
 10
251.1342750609
 20
878.1165488369
 10
251.158652498
 20
887.4312650422
  0
LWPOLYLINE
  5
96
330
1F
100
AcDbEntity
  8
0
  6
ByBlock
 62
     0
370
    25
100
AcDbPolyline
 90
       30
 70
   128
 43
0.0
 10
850.8610970176
 20
887.4312650422
 10
851.0025800006
 20
881.4882346245
 10
850.2071825684
 20
871.2704094789
 10
848.1012430655
 20
861.102060047
 10
844.693985914
 20
851.0277256657
 10
840.0003355594
 20
841.0915338678
 10
834.0408510977
 20
831.3370070952
 10
826.8416362236
 20
821.8068720614
 10
818.4342248903
 20
812.5428726011
 10
808.8554431856
 20
803.5855868233
 10
798.1472480257
 20
794.9742493722
 10
786.3565433763
 20
786.7465795711
 10
773.5349748041
 20
778.9386162049
 10
759.7387032589
 20
771.5845596632
 10
745.0281590782
 20
764.7166221358
 10
729.4677772905
 20
758.3648865173
 10
713.1257153772
 20
752.5571746381
 10
696.07355473
 20
747.3189253994
 10
678.3859871102
 20
742.6730833459
 10
660.1404874848
 20
738.6399981643
 10
641.4169746705
 20
735.2373355476
 10
622.2974612745
 20
732.4799998162
 10
602.8656944631
 20
730.3800686338
 10
583.2067891328
 20
728.9467401051
 10
563.4068550909
 20
728.1862924862
 10
543.5526198777
 20
728.1020566848
 10
523.731048883
 20
728.6944016699
 10
504.0289644212
 20
729.9607328561
 10
484.5326654325
 20
731.8955034677
 10
465.3275494767
 20
734.4902388354
  0
SPLINE
  5
97
330
1F
100
AcDbEntity
  8
0
  6
ByBlock
 62
     0
370
    25
100
AcDbSpline
210
0.0
220
0.0
230
1.0
 70
     8
 71
     3
 72
     8
 73
     4
 74
     0
 42
0.000000001
 43
0.00000001
 40
0.0
 40
0.0
 40
0.0
 40
0.0
 40
1.0
 40
1.0
 40
1.0
 40
1.0
 10
465.3275490709623
 20
734.49023813389
 30
0.0
 10
464.3609917733687
 20
734.638376904438
 30
0.0
 10
463.4980365693099
 20
734.9374652918741
 30
0.0
 10
462.8649026132383
 20
735.3416897468659
 30
0.0
  0
ARC
  5
98
330
1F
100
AcDbEntity
  8
0
  6
ByBlock
 62
     0
370
    25
100
AcDbCircle
 10
362.5106639391
 20
559.8584604104
 30
0.0
 40
202.1517659220743
100
AcDbArc
 50
60.2358978185
 51
89.35507586410002
  0
SPLINE
  5
99
330
1F
100
AcDbEntity
  8
0
  6
ByBlock
 62
     0
370
    25
100
AcDbSpline
210
0.0
220
0.0
230
1.0
 70
     8
 71
     3
 72
     8
 73
     4
 74
     0
 42
0.000000001
 43
0.00000001
 40
0.0
 40
0.0
 40
0.0
 40
0.0
 40
1.0
 40
1.0
 40
1.0
 40
1.0
 10
364.7860463427005
 20
761.9974213040939
 30
0.0
 10
363.7807595215037
 20
762.0384713034416
 30
0.0
 10
362.8144214039453
 20
762.2365544200402
 30
0.0
 10
362.0314368736023
 20
762.5639080611885
 30
0.0
  0
LWPOLYLINE
  5
9A
330
1F
100
AcDbEntity
  8
0
  6
ByBlock
 62
     0
370
    25
100
AcDbPolyline
 90
       17
 70
   128
 43
0.0
 10
336.3108903498
 20
962.2489738697
 10
337.5983304877
 20
961.7106790521
 10
338.3878064303
 20
960.9596094932
 10
338.5591276218
 20
960.1101087249
 10
338.086211964
 20
959.2915055384
 10
337.0410565787
 20
958.6284248482
 10
335.582776899
 20
958.2218146786
 10
333.9333827868
 20
958.1335777419
 10
332.3439795439
 20
958.3771473119
 10
331.056539406
 20
958.9154421295
 10
330.2670634635
 20
959.6665116884
 10
330.0957422719
 20
960.5160124567
 10
330.5686579297
 20
961.3346156432
 10
331.613813315
 20
961.9976963334
 10
333.0720929947
 20
962.404306503
 10
334.7214871069
 20
962.4925434397
 10
336.3108903498
 20
962.2489738697
  0
LWPOLYLINE
  5
9B
330
1F
100
AcDbEntity
  8
0
  6
ByBlock
 62
     0
370
    25
100
AcDbPolyline
 90
       17
 70
   128
 43
0.0
 10
389.3759776505
 20
949.5413547899
 10
390.6634177884
 20
949.0030599723
 10
391.4528937309
 20
948.2519904134
 10
391.6242149225
 20
947.402489645
 10
391.1512992646
 20
946.5838864585
 10
390.1061438794
 20
945.9208057684
 10
388.6478641997
 20
945.5141955987
 10
386.9984700875
 20
945.425958662
 10
385.4090668446
 20
945.669528232
 10
384.1216267067
 20
946.2078230496
 10
383.3321507641
 20
946.9588926085
 10
383.1608295726
 20
947.8083933769
 10
383.6337452304
 20
948.6269965634
 10
384.6789006157
 20
949.2900772535
 10
386.1371802953
 20
949.6966874232
 10
387.7865744075
 20
949.7849243599
 10
389.3759776505
 20
949.5413547899
  0
LWPOLYLINE
  5
9C
330
1F
100
AcDbEntity
  8
0
  6
ByBlock
 62
     0
370
    25
100
AcDbPolyline
 90
       30
 70
   128
 43
0.0
 10
466.2915949232
 20
732.200252477
 10
485.4914385401
 20
729.6412234265
 10
504.9776131497
 20
727.741145444
 10
524.6649595809
 20
726.5083223176
 10
544.4674394944
 20
725.9481417746
 10
564.2985113903
 20
726.063051936
 10
584.0715088154
 20
726.8525506172
 10
603.7000191153
 20
728.3131875231
 10
623.0982610783
 20
730.4385793266
 10
642.1814598198
 20
733.2194375651
 10
660.8662172681
 20
736.6436092332
 10
679.0708766338
 20
740.6961298945
 10
696.7158792691
 20
745.3592890797
 10
713.724112358
 20
750.6127076851
 10
730.0212459174
 20
756.4334270345
 10
745.5360576362
 20
762.7960092138
 10
760.2007441344
 20
769.6726482408
 10
773.9512172792
 20
777.0332915839
 10
786.7273842652
 20
784.8457714986
 10
798.4734102347
 20
793.0759456081
 10
809.1379622885
 20
801.6878461139
 10
818.6744338232
 20
810.6438369831
 10
827.0411482127
 20
819.9047784267
 10
834.2015409453
 20
829.4301979503
 10
840.1243194188
 20
839.1784672277
 10
844.7835996966
 20
849.106984027
 10
848.1590196271
 20
859.172358392
 10
850.2358278302
 20
869.3306022669
 10
851.0049481653
 20
879.5373217341
 10
851.0026615824
 20
881.4942766301
  0
LWPOLYLINE
  5
9D
330
1F
100
AcDbEntity
  8
0
  6
ByBlock
 62
     0
370
    25
100
AcDbPolyline
 90
       15
 70
   128
 43
0.0
 10
251.0170879333
 20
881.4942766306
 10
251.1146248431
 20
876.3400538694
 10
252.2936883971
 20
866.1437177431
 10
254.7782120187
 20
856.0097846449
 10
258.5573377546
 20
845.9825422484
 10
263.6145499356
 20
836.1058119639
 10
269.9277473537
 20
826.4227574283
 10
277.4693398498
 20
816.9756958696
 10
286.2063688889
 20
807.8059131713
 10
296.100651597
 20
798.9534834428
 10
307.1089476291
 20
790.4570938863
 10
319.1831481396
 20
782.3538757247
 10
332.2704860294
 20
774.6792419292
 10
346.3137665503
 20
767.4667324565
 10
361.2516172602
 20
760.7478676713
  0
LINE
  5
9E
330
1F
100
AcDbEntity
  8
0
  6
ByBlock
 62
     0
370
    25
100
AcDbLine
 10
363.6166509173
 20
663.1159737082
 30
0.0
 11
361.2516172602
 21
760.7478676713
 31
0.0
  0
LWPOLYLINE
  5
9F
330
1F
100
AcDbEntity
  8
0
  6
ByBlock
 62
     0
370
    25
100
AcDbPolyline
 90
        3
 70
   128
 43
0.0
 10
844.497492586
 20
772.2671180145
 10
844.4986537002
 20
772.279313081
 10
844.7050132047
 20
774.9199989345
  0
LINE
  5
A0
330
1F
100
AcDbEntity
  8
0
  6
ByBlock
 62
     0
370
    25
100
AcDbLine
 10
257.314736311
 20
774.9199989345
 30
0.0
 11
257.4299297862
 21
773.309392016
 31
0.0
  0
LINE
  5
A1
330
1F
100
AcDbEntity
  8
0
  6
ByBlock
 62
     0
370
    25
100
AcDbLine
 10
466.2915949232
 20
732.200252477
 30
0.0
 11
469.9339737884
 21
634.2212034565
 31
0.0
  0
ARC
  5
A2
330
1F
100
AcDbEntity
  8
0
  6
ByBlock
 62
     0
370
    25
100
AcDbCircle
 10
362.6180570789
 20
555.6019367189
 30
0.0
 40
205.5723902308224
100
AcDbArc
 50
60.03556897349999
 51
89.55540470909999
  0
LWPOLYLINE
  5
A3
330
1F
100
AcDbEntity
  8
0
  6
ByBlock
 62
     0
370
    25
100
AcDbPolyline
 90
       20
 70
   128
 43
0.0
 10
465.2937115704
 20
733.6966238939
 10
484.3427062855
 20
731.0957556209
 10
503.6842364029
 20
729.1501341977
 10
523.2334313269
 20
727.8682970071
 10
542.9045092292
 20
727.2558687482
 10
562.6111534594
 20
727.3155367549
 10
582.2668913017
 20
728.0470392042
 10
601.7854734178
 20
729.4471662647
 10
621.0812523083
 20
731.5097741817
 10
640.0695581339
 20
734.2258122359
 10
658.6670702466
 20
737.5833624575
 10
676.7921828002
 20
741.567691923
 10
694.3653628371
 20
746.1613174026
 10
711.3094992783
 20
751.3440820769
 10
727.550241287
 20
757.0932439848
 10
743.0163245195
 20
763.3835758154
 10
757.6398838336
 20
770.187475605
 10
771.3567510801
 20
777.4750878551
 10
784.1067366729
 20
785.2144345376
 10
789.8110360436
 20
789.0412803212
  0
ARC
  5
A4
330
1F
100
AcDbEntity
  8
0
  6
ByBlock
 62
     0
370
    25
100
AcDbCircle
 10
469.2265321255
 20
1019.5478660775
 30
0.0
 40
278.9047892233348
100
AcDbArc
 50
235.7378637341999
 51
247.8816908009
  0
ARC
  5
A5
330
1F
100
AcDbEntity
  8
0
  6
ByBlock
 62
     0
370
    25
100
AcDbCircle
 10
362.7484991217
 20
558.7362760269
 30
0.0
 40
202.0171374265626
100
AcDbArc
 50
59.1664265427
 51
90.42454713989999
  0
LINE
  5
A6
330
1F
100
AcDbEntity
  8
0
  6
ByBlock
 62
     0
370
    25
100
AcDbLine
 10
364.213211211
 20
761.1681379984
 30
0.0
 11
364.213211211
 21
762.0436904432
 31
0.0
  0
LINE
  5
A7
330
1F
100
AcDbEntity
  8
0
  6
ByBlock
 62
     0
370
    25
100
AcDbLine
 10
465.2937115704
 20
734.4969260164
 30
0.0
 11
465.2937115704
 21
733.6966238939
 31
0.0
  0
SPLINE
  5
A8
330
1F
100
AcDbEntity
  8
0
  6
ByBlock
 62
     0
370
    25
100
AcDbSpline
210
0.0
220
0.0
230
1.0
 70
     8
 71
     3
 72
    11
 73
     7
 74
     0
 42
0.000000001
 43
0.00000001
 40
0.0
 40
0.0
 40
0.0
 40
0.0
 40
0.195614382521126
 40
0.3962105468552128
 40
0.7906175240241805
 40
1.0
 40
1.0
 40
1.0
 40
1.0
 10
363.6166509172853
 20
663.1159737081923
 30
0.0
 10
363.64355243935
 20
662.6028764231834
 30
0.0
 10
363.6980405942144
 20
661.5636146201236
 30
0.0
 10
364.0509121865206
 20
659.9507486411145
 30
0.0
 10
364.6311112423201
 20
658.7496010293959
 30
0.0
 10
365.297374279259
 20
658.8011616432595
 30
0.0
 10
365.5284213828459
 20
658.8190418644815
 30
0.0
  0
SPLINE
  5
A9
330
1F
100
AcDbEntity
  8
0
  6
ByBlock
 62
     0
370
    25
100
AcDbSpline
210
0.0
220
0.0
230
1.0
 70
     8
 71
     3
 72
    11
 73
     7
 74
     0
 42
0.000000001
 43
0.00000001
 40
0.0
 40
0.0
 40
0.0
 40
0.0
 40
0.2094739230563648
 40
0.6038352584012207
 40
0.8043965154141995
 40
1.0
 40
1.0
 40
1.0
 40
1.0
 10
472.7690369981104
 20
629.6734066524992
 30
0.0
 10
472.4315928784387
 20
629.6843844528204
 30
0.0
 10
471.4588672320912
 20
629.7160293602003
 30
0.0
 10
470.5875313023617
 20
630.9963546186673
 30
0.0
 10
470.056070650243
 20
632.6577528014508
 30
0.0
 10
469.9743317707538
 20
633.7044193802714
 30
0.0
 10
469.933973788391
 20
634.2212034564884
 30
0.0
  0
SPLINE
  5
AA
330
1F
100
AcDbEntity
  8
0
  6
ByBlock
 62
     0
370
    25
100
AcDbSpline
210
0.0
220
0.0
230
1.0
 70
     8
 71
     3
 72
    20
 73
    16
 74
     0
 42
0.000000001
 43
0.00000001
 40
0.0
 40
0.0
 40
0.0
 40
0.0
 40
0.0044024443060187
 40
0.0922445328190455
 40
0.1800985830611856
 40
0.2681298589491059
 40
0.3268491682660057
 40
0.4149000921264252
 40
0.5029494887137925
 40
0.5910281770513075
 40
0.6790144386074894
 40
0.7371322721595941
 40
0.8254838213901975
 40
0.913821742792565
 40
1.0
 40
1.0
 40
1.0
 40
1.0
 10
410.3499607281523
 20
714.9807974233515
 30
0.0
 10
410.3586173872583
 20
715.0360580358587
 30
0.0
 10
410.5400005961071
 20
716.1939351217839
 30
0.0
 10
412.0679805095621
 20
717.9108296535927
 30
0.0
 10
414.786163979142
 20
719.6542058027477
 30
0.0
 10
417.9437011492938
 20
720.0645039551748
 30
0.0
 10
421.246467604626
 20
719.5368976873326
 30
0.0
 10
424.5564551767123
 20
718.077897301984
 30
0.0
 10
427.8367451469626
 20
715.3765586395346
 30
0.0
 10
430.3408382249468
 20
711.9449996429922
 30
0.0
 10
431.6447261096123
 20
708.6186652581979
 30
0.0
 10
432.0877698161319
 20
705.3962600338601
 30
0.0
 10
431.6315759600436
 20
702.4730764683476
 30
0.0
 10
430.0243999215406
 20
699.8832053209867
 30
0.0
 10
428.1665562336848
 20
699.0488059198416
 30
0.0
 10
427.2491299385491
 20
698.636769128878
 30
0.0
  0
LINE
  5
AB
330
1F
100
AcDbEntity
  8
0
  6
ByBlock
 62
     0
370
    25
100
AcDbLine
 10
469.8093759511
 20
591.8595462621
 30
0.0
 11
470.1168451226
 21
570.7304630818
 31
0.0
  0
SPLINE
  5
AC
330
1F
100
AcDbEntity
  8
0
  6
ByBlock
 62
     0
370
    25
100
AcDbSpline
210
0.0
220
0.0
230
1.0
 70
     8
 71
     3
 72
    36
 73
    32
 74
     0
 42
0.000000001
 43
0.00000001
 40
0.0
 40
0.0
 40
0.0
 40
0.0
 40
0.0418246170604064
 40
0.0701612691937486
 40
0.1133340565226855
 40
0.1599545855495216
 40
0.1787659082129376
 40
0.2266278439666527
 40
0.268588980706044
 40
0.2970178534701928
 40
0.3258618388946776
 40
0.3403543610154082
 40
0.3869603761007558
 40
0.4057692487722395
 40
0.453645789145721
 40
0.4998686443717636
 40
0.518521344627976
 40
0.5659893376389024
 40
0.6121260473397381
 40
0.6307413959346045
 40
0.6780988594053154
 40
0.7245577072559719
 40
0.7433028226272077
 40
0.7909908150271276
 40
0.837753564063538
 40
0.856623644496372
 40
0.890183703034834
 40
0.9046705842539862
 40
0.944036863601122
 40
0.9598824299331606
 40
1.0
 40
1.0
 40
1.0
 40
1.0
 10
425.8153821652968
 20
607.2169169097851
 30
0.0
 10
425.9735077191919
 20
608.0184921173822
 30
0.0
 10
426.2387651281771
 20
609.3631436138444
 30
0.0
 10
426.9796412738183
 20
611.3425511967523
 30
0.0
 10
427.9810400139315
 20
613.2373914203675
 30
0.0
 10
429.1789160220205
 20
614.7441775461003
 30
0.0
 10
430.6170446084245
 20
616.1200441020269
 30
0.0
 10
432.1794231443587
 20
617.2445446454201
 30
0.0
 10
434.1177269029291
 20
618.1604979501657
 30
0.0
 10
435.8818931040158
 20
618.7195228620853
 30
0.0
 10
437.2314602960547
 20
618.9985433674854
 30
0.0
 10
438.9827022787312
 20
619.228007217999
 30
0.0
 10
440.6125686420658
 20
619.2808547158259
 30
0.0
 10
442.9970831751573
 20
619.1266060712094
 30
0.0
 10
445.443519736065
 20
618.7411428754257
 30
0.0
 10
447.931686844618
 20
618.0376553161187
 30
0.0
 10
450.4054479615243
 20
617.1290448511431
 30
0.0
 10
452.8638216512084
 20
616.0122083340856
 30
0.0
 10
455.246611882716
 20
614.6222361297566
 30
0.0
 10
457.5397561100152
 20
613.0639190253565
 30
0.0
 10
459.7424606824171
 20
611.3316526748883
 30
0.0
 10
461.7583830101377
 20
609.3890632856219
 30
0.0
 10
463.6173161757612
 20
607.3213005586813
 30
0.0
 10
465.3080473985548
 20
605.1309129469153
 30
0.0
 10
466.7124703377912
 20
602.813554010729
 30
0.0
 10
467.747002076018
 20
600.7365664203415
 30
0.0
 10
468.3375051689584
 20
599.3122841070693
 30
0.0
 10
468.9731765143918
 20
597.4397026504926
 30
0.0
 10
469.3542964410266
 20
595.9376735048414
 30
0.0
 10
469.7069441259853
 20
593.892462145321
 30
0.0
 10
469.7666065328646
 20
592.7083706346912
 30
0.0
 10
469.8093759511344
 20
591.859546262078
 30
0.0
  0
LINE
  5
AD
330
1F
100
AcDbEntity
  8
0
  6
ByBlock
 62
     0
370
    25
100
AcDbLine
 10
425.7508232517
 20
582.7997518539
 30
0.0
 11
425.8153821653
 21
607.2169169098
 31
0.0
  0
LWPOLYLINE
  5
AE
330
1F
100
AcDbEntity
  8
0
  6
ByBlock
 62
     0
370
    25
100
AcDbPolyline
 90
       14
 70
   128
 43
0.0
 10
328.917821963
 20
675.4741870839
 10
329.1827405503
 20
671.4059776734
 10
330.7078255708
 20
662.6694000531
 10
333.5281360229
 20
654.0186884788
 10
337.6270904093
 20
645.5047032204
 10
342.9805896807
 20
637.1775006901
 10
349.5571589214
 20
629.0860391457
 10
357.3181324006
 20
621.2778908489
 10
366.2178809004
 20
613.7989623736
 10
376.2040799841
 20
606.6932247058
 10
387.2180176287
 20
600.002454725
 10
399.1949394109
 20
593.7659895842
 10
412.064429219
 20
588.0204954347
 10
425.7508232517
 20
582.7997518539
  0
LWPOLYLINE
  5
AF
330
1F
100
AcDbEntity
  8
0
  6
ByBlock
 62
     0
370
    25
100
AcDbPolyline
 90
       27
 70
   128
 43
0.0
 10
773.1019275526
 20
675.4741870839
 10
773.0593028753
 20
674.3998415474
 10
771.9780105237
 20
665.6409533553
 10
769.5961667007
 20
656.9505347343
 10
765.927790217
 20
648.3797348543
 10
760.9944720246
 20
639.9789988454
 10
754.8252481392
 20
631.7977708936
 10
747.4564287427
 20
623.8842032269
 10
738.9313844725
 20
616.284872706
 10
729.3002911553
 20
609.0445066869
 10
718.6198344871
 20
602.2057197695
 10
706.9528763987
 20
595.8087629807
 10
694.368085069
 20
589.8912868692
 10
680.9395307654
 20
584.488119906
 10
666.7462498883
 20
579.6310634939
 10
651.871779787
 20
575.3487047949
 10
636.403667084
 20
571.6662484743
 10
620.4329524023
 20
568.6053683538
 10
604.0536345278
 20
566.1840798461
 10
587.3621171608
 20
564.4166339214
 10
570.4566415135
 20
563.3134332308
 10
553.4367080914
 20
562.880970879
 10
536.4024910638
 20
563.1217922085
 10
519.4542486692
 20
564.0344798179
 10
502.6917331251
 20
565.6136619045
 10
486.2136035175
 20
567.8500438813
 10
470.1168451226
 20
570.7304630818
  0
LINE
  5
B0
330
1F
100
AcDbEntity
  8
0
  6
ByBlock
 62
     0
370
    25
100
AcDbLine
 10
446.9918909126
 20
603.531685066
 30
0.0
 11
425.7508232517
 21
582.7997518539
 31
0.0
  0
LINE
  5
B1
330
1F
100
AcDbEntity
  8
0
  6
ByBlock
 62
     0
370
    25
100
AcDbLine
 10
429.4024126734
 20
610.7179687453
 30
0.0
 11
425.8153821653
 21
607.2169169098
 31
0.0
  0
LINE
  5
B2
330
1F
100
AcDbEntity
  8
0
  6
ByBlock
 62
     0
370
    25
100
AcDbLine
 10
447.3917609479
 20
618.1288892595
 30
0.0
 11
446.9918909126
 21
603.531685066
 31
0.0
  0
SPLINE
  5
B3
330
1F
100
AcDbEntity
  8
0
  6
ByBlock
 62
     0
370
    25
100
AcDbSpline
210
0.0
220
0.0
230
1.0
 70
     8
 71
     3
 72
    12
 73
     8
 74
     0
 42
0.000000001
 43
0.00000001
 40
0.0
 40
0.0
 40
0.0
 40
0.0
 40
0.3605148134135087
 40
0.6047645054682381
 40
0.8525663642924622
 40
0.9770661962588231
 40
1.0
 40
1.0
 40
1.0
 40
1.0
 10
429.4024126733542
 20
610.7179687453464
 30
0.0
 10
429.5808768823764
 20
611.5361363052372
 30
0.0
 10
429.8802510414883
 20
612.908614442994
 30
0.0
 10
430.5640752794935
 20
614.6819258027175
 30
0.0
 10
431.1877410281656
 20
615.8625079483681
 30
0.0
 10
431.6026977861362
 20
616.6104365650583
 30
0.0
 10
431.7987067065922
 20
616.851622248331
 30
0.0
 10
431.8291965611744
 20
616.8891395021029
 30
0.0
  0
LWPOLYLINE
  5
B4
330
1F
100
AcDbEntity
  8
0
  6
ByBlock
 62
     0
370
    25
100
AcDbPolyline
 90
        3
 70
   128
 43
0.0
 10
424.3420257212
 20
695.7993462913
 10
424.0955745102
 20
695.5705020535
 10
422.8252618637
 20
694.682938799
  0
SPLINE
  5
B5
330
1F
100
AcDbEntity
  8
0
  6
ByBlock
 62
     0
370
    25
100
AcDbSpline
210
0.0
220
0.0
230
1.0
 70
     8
 71
     3
 72
    10
 73
     6
 74
     0
 42
0.000000001
 43
0.00000001
 40
0.0
 40
0.0
 40
0.0
 40
0.0
 40
0.5
 40
0.5
 40
1.0
 40
1.0
 40
1.0
 40
1.0
 10
467.1555991409008
 20
754.112147778006
 30
0.0
 10
454.7634761964441
 20
762.4055485329181
 30
0.0
 10
439.3395564039597
 20
769.156041452638
 30
0.0
 10
404.2513170500347
 20
778.6922786456723
 30
0.0
 10
385.0404747081851
 20
781.3547647713415
 30
0.0
 10
365.3584897538104
 20
781.7784303940912
 30
0.0
  0
LWPOLYLINE
  5
B6
330
1F
100
AcDbEntity
  8
0
  6
ByBlock
 62
     0
370
    25
100
AcDbPolyline
 90
       89
 70
   128
 43
0.0
 10
365.3584897628
 20
781.77843009
 10
350.4919271986
 20
788.4366851388
 10
336.5232345554
 20
795.5921119394
 10
323.5149601942
 20
803.2126702552
 10
311.5253519595
 20
811.2642371053
 10
300.6080963604
 20
819.7107595588
 10
290.8120781753
 20
828.5144161712
 10
282.1811615579
 20
837.6357863391
 10
274.7539936243
 20
847.0340268163
 10
268.5638314011
 20
856.6670545995
 10
263.6383929081
 20
866.4917353658
 10
259.9997330444
 20
876.4640766177
 10
257.6641448314
 20
886.5394246701
 10
256.6420864573
 20
896.6726645991
 10
256.9381344473
 20
906.8184222551
 10
258.5509631716
 20
916.9312674375
 10
261.4733507809
 20
926.9659173191
 10
265.6922115442
 20
936.8774392126
 10
271.1886544433
 20
946.621451767
 10
277.9380677624
 20
956.154323697
 10
285.9102292929
 20
965.433369153
 10
295.0694416617
 20
974.4170388576
 10
305.3746921743
 20
983.0651061533
 10
316.7798364603
 20
991.3388471273
 10
329.2338050961
 20
999.201214008
 10
342.6808322813
 20
1006.6170010553
 10
357.0607055442
 20
1013.5530022036
 10
372.3090353586
 20
1019.9781597501
 10
388.3575434637
 20
1025.8637034238
 10
405.1343685978
 20
1031.1832792115
 10
422.5643882753
 20
1035.9130673648
 10
440.5695551663
 20
1040.0318890585
 10
459.0692465736
 20
1043.5213012249
 10
477.9806254411
 20
1046.3656791368
 10
497.2190112778
 20
1048.5522863714
 10
516.6982593362
 20
1050.0713318406
 10
536.3311463472
 20
1050.9160136334
 10
556.0297610842
 20
1051.0825494731
 10
575.7058980081
 20
1050.5701936533
 10
595.27145223
 20
1049.381240377
 10
614.638814023
 20
1047.5210134837
 10
633.721261117
 20
1044.9978426107
 10
652.4333470198
 20
1041.823025895
 10
670.691283625
 20
1038.010779383
 10
688.413316395
 20
1033.5781733743
 10
705.5200904375
 20
1028.5450559856
 10
721.9350058367
 20
1022.9339642755
 10
737.5845606495
 20
1016.7700233288
 10
752.3986800287
 20
1010.080833753
 10
766.3110300008
 20
1002.8963480896
 10
779.2593144936
 20
995.2487366936
 10
791.1855542821
 20
987.172243683
 10
802.0363466056
 20
978.7030336017
 10
811.7631042919
 20
969.8790294839
 10
820.3222733188
 20
960.7397430442
 10
827.675527838
 20
951.3260977533
 10
833.7899417891
 20
941.6802455935
 10
838.6381363344
 20
931.845378312
 10
842.1984024541
 20
921.8655340193
 10
844.4547981547
 20
911.785399997
 10
845.3972198525
 20
901.6501125995
 10
845.0214476156
 20
891.5050551444
 10
843.3291640595
 20
881.3956546971
 10
840.3279468125
 20
871.3671786599
 10
836.0312345854
 20
861.4645320754
 10
830.4582669959
 20
851.7320565529
 10
823.6339984187
 20
842.2133317179
 10
815.5889862456
 20
832.9509800729
 10
806.359254057
 20
823.9864761442
 10
795.9861303177
 20
815.3599607699
 10
784.5160633178
 20
807.1100613586
 10
772.0004131888
 20
799.2737189252
 10
758.4952219254
 20
791.8860226788
 10
744.0609624438
 20
784.9800529014
 10
728.7622677985
 20
778.5867328225
 10
712.6676417712
 20
772.7346901529
 10
695.8491521285
 20
767.4501288965
 10
678.3821079195
 20
762.7567120155
 10
660.3447222607
 20
758.6754554732
 10
641.817762117
 20
755.2246341299
 10
622.8841866471
 20
752.4196999128
 10
603.628775733
 20
750.2732126254
 10
584.1377503563
 20
748.7947837086
 10
564.4983865221
 20
747.9910332024
 10
544.7986244585
 20
747.8655601034
 10
525.126674842
 20
748.4189262492
 10
505.5706238118
 20
749.6486538027
 10
486.218038542
 20
751.5492363471
 10
467.155575137
 20
754.1121635424
  0
SPLINE
  5
B7
330
1F
100
AcDbEntity
  8
0
  6
ByBlock
 62
     0
370
    25
100
AcDbSpline
210
0.0
220
0.0
230
1.0
 70
     8
 71
     3
 72
     8
 73
     4
 74
     0
 42
0.000000001
 43
0.00000001
 40
0.0
 40
0.0
 40
0.0
 40
0.0
 40
1.0
 40
1.0
 40
1.0
 40
1.0
 10
466.2111603294305
 20
751.2427976197698
 30
0.0
 10
465.9613063951235
 20
750.0674601944968
 30
0.0
 10
465.8077964495285
 20
748.772660492311
 30
0.0
 10
465.7894352340899
 20
747.685676219767
 30
0.0
  0
SPLINE
  5
B8
330
1F
100
AcDbEntity
  8
0
  6
ByBlock
 62
     0
370
    25
100
AcDbSpline
210
0.0
220
0.0
230
1.0
 70
     8
 71
     3
 72
     8
 73
     4
 74
     0
 42
0.000000001
 43
0.00000001
 40
0.0
 40
0.0
 40
0.0
 40
0.0
 40
1.0
 40
1.0
 40
1.0
 40
1.0
 10
467.155575136966
 20
754.1121635424423
 30
0.0
 10
466.8047844116156
 20
753.4625902602021
 30
0.0
 10
466.4610142627772
 20
752.4181350405255
 30
0.0
 10
466.2111603294305
 20
751.2427976197698
 30
0.0
  0
SPLINE
  5
B9
330
1F
100
AcDbEntity
  8
0
  6
ByBlock
 62
     0
370
    25
100
AcDbSpline
210
0.0
220
0.0
230
1.0
 70
     8
 71
     3
 72
     8
 73
     4
 74
     0
 42
0.000000001
 43
0.00000001
 40
0.0
 40
0.0
 40
0.0
 40
0.0
 40
1.0
 40
1.0
 40
1.0
 40
1.0
 10
363.2674650210431
 20
779.2206881710151
 30
0.0
 10
363.8206736569306
 20
780.3135802868363
 30
0.0
 10
364.5818102703652
 20
781.244604248034
 30
0.0
 10
365.358489762763
 20
781.7784300899822
 30
0.0
  0
SPLINE
  5
BA
330
1F
100
AcDbEntity
  8
0
  6
ByBlock
 62
     0
370
    25
100
AcDbSpline
210
0.0
220
0.0
230
1.0
 70
     8
 71
     3
 72
     8
 73
     4
 74
     0
 42
0.000000001
 43
0.00000001
 40
0.0
 40
0.0
 40
0.0
 40
0.0
 40
1.0
 40
1.0
 40
1.0
 40
1.0
 10
362.3336615054761
 20
775.8027387301231
 30
0.0
 10
362.3743507825934
 20
776.8836547087537
 30
0.0
 10
362.714256386652
 20
778.1277960581511
 30
0.0
 10
363.2674650210431
 20
779.2206881710151
 30
0.0
  0
LWPOLYLINE
  5
BB
330
1F
100
AcDbEntity
  8
0
  6
ByBlock
 62
     0
370
    25
100
AcDbPolyline
 90
       13
 70
   128
 43
0.0
 10
362.3336615055
 20
775.8027387301
 10
347.3897025592
 20
782.4905799619
 10
333.3371379052
 20
789.6727518918
 10
320.237485888
 20
797.3178129049
 10
308.1480932575
 20
805.3922949823
 10
297.1218841196
 20
813.8608502155
 10
287.2071282492
 20
822.6864055496
 10
278.4472297782
 20
831.8303250796
 10
270.8805371837
 20
841.2525791876
 10
264.5401754085
 20
850.911919782
 10
259.4539008495
 20
860.7660608702
 10
255.6439798474
 20
870.7718636756
 10
254.0966903218
 20
876.3327332926
  0
LWPOLYLINE
  5
BC
330
1F
100
AcDbEntity
  8
0
  6
ByBlock
 62
     0
370
    25
100
AcDbPolyline
 90
       28
 70
   128
 43
0.0
 10
848.2382148701
 20
877.6822792864
 10
847.3378501088
 20
874.0550464648
 10
843.9473668105
 20
864.0092901553
 10
839.2744820408
 20
854.1009975784
 10
833.3396524313
 20
844.3735445714
 10
826.1688590681
 20
834.8695153044
 10
817.7934937539
 20
825.630515859
 10
808.250221583
 20
816.6969920871
 10
797.5808204319
 20
808.1080525507
 10
785.8319980659
 20
799.9012973146
 10
773.0551876664
 20
792.1126533436
 10
759.3063226692
 20
784.7762172242
 10
744.6455919037
 20
777.9241058983
 10
729.137176102
 20
771.5863160647
 10
712.848966933
 20
765.7905928607
 10
695.8522697912
 20
760.5623084023
 10
678.2214916405
 20
755.924350711
 10
660.0338152808
 20
751.897023517
 10
641.3688614626
 20
748.4979573745
 10
622.3083403283
 20
745.7420324799
 10
602.9356937078
 20
743.6413135303
 10
583.3357298321
 20
742.2049969078
 10
563.5942520662
 20
741.4393704197
 10
543.7976832846
 20
741.3477857729
 10
524.0326875354
 20
741.9306439001
 10
504.3857906488
 20
743.1853932054
 10
484.9430014495
 20
745.1065407341
 10
465.7894352341
 20
747.6856762198
  0
LINE
  5
BD
330
1F
100
AcDbEntity
  8
0
  6
ByBlock
 62
     0
370
    25
100
AcDbLine
 10
465.7894352341
 20
747.6856762198
 30
0.0
 11
465.3275494767
 21
734.4902388354
 31
0.0
  0
LINE
  5
BE
330
1F
100
AcDbEntity
  8
0
  6
ByBlock
 62
     0
370
    25
100
AcDbLine
 10
362.0314377691
 20
762.5639086296
 30
0.0
 11
362.3336615055
 21
775.8027387301
 31
0.0
  0
SPLINE
  5
BF
330
1F
100
AcDbEntity
  8
0
  6
ByBlock
 62
     0
370
    25
100
AcDbSpline
210
0.0
220
0.0
230
1.0
 70
     8
 71
     3
 72
    10
 73
     6
 74
     0
 42
0.000000001
 43
0.00000001
 40
0.0
 40
0.0
 40
0.0
 40
0.0
 40
0.5
 40
0.5
 40
1.0
 40
1.0
 40
1.0
 40
1.0
 10
365.1452606268005
 20
778.8401455965119
 30
0.0
 10
365.1186080933242
 20
778.2122081412571
 30
0.0
 10
365.0995283297249
 20
777.5528690220618
 30
0.0
 10
365.0791739039954
 20
776.3124648966932
 30
0.0
 10
365.0777952087892
 20
775.7334109525918
 30
0.0
 10
365.0831601006341
 20
775.2352289645994
 30
0.0
  0
SPLINE
  5
C0
330
1F
100
AcDbEntity
  8
0
  6
ByBlock
 62
     0
370
    25
100
AcDbSpline
210
0.0
220
0.0
230
1.0
 70
     8
 71
     3
 72
    10
 73
     6
 74
     0
 42
0.000000001
 43
0.00000001
 40
0.0
 40
0.0
 40
0.0
 40
0.0
 40
0.5
 40
0.5
 40
1.0
 40
1.0
 40
1.0
 40
1.0
 10
365.3584897546056
 20
781.7784304004197
 30
0.0
 10
365.3201315788756
 20
781.4731597213558
 30
0.0
 10
365.2802260266074
 20
781.0640906663399
 30
0.0
 10
365.206025336902
 20
780.0612620106781
 30
0.0
 10
365.1719505537181
 20
779.4680822357358
 30
0.0
 10
365.1452978918219
 20
778.8401447813567
 30
0.0
  0
SPLINE
  5
C1
330
1F
100
AcDbEntity
  8
0
  6
ByBlock
 62
     0
370
    25
100
AcDbSpline
210
0.0
220
0.0
230
1.0
 70
     8
 71
     3
 72
    10
 73
     6
 74
     0
 42
0.000000001
 43
0.00000001
 40
0.0
 40
0.0
 40
0.0
 40
0.0
 40
0.5
 40
0.5
 40
1.0
 40
1.0
 40
1.0
 40
1.0
 10
464.5251890213099
 20
751.8308100140584
 30
0.0
 10
464.892281935844
 20
752.3662230029624
 30
0.0
 10
465.3295191417862
 20
752.8498318170085
 30
0.0
 10
466.2409357052992
 20
753.6251232148994
 30
0.0
 10
466.7128223054333
 20
753.9167892079219
 30
0.0
 10
467.1555991500801
 20
754.1121477820559
 30
0.0
  0
SPLINE
  5
C2
330
1F
100
AcDbEntity
  8
0
  6
ByBlock
 62
     0
370
    25
100
AcDbSpline
210
0.0
220
0.0
230
1.0
 70
     8
 71
     3
 72
    10
 73
     6
 74
     0
 42
0.000000001
 43
0.00000001
 40
0.0
 40
0.0
 40
0.0
 40
0.0
 40
0.5
 40
0.5
 40
1.0
 40
1.0
 40
1.0
 40
1.0
 10
463.3280562530306
 20
748.5343622805543
 30
0.0
 10
463.356074381487
 20
749.0234714441648
 30
0.0
 10
463.4624940173178
 20
749.5739774166201
 30
0.0
 10
463.8631241451603
 20
750.7110305236733
 30
0.0
 10
464.1581190335726
 20
751.2953816900459
 30
0.0
 10
464.5252120316911
 20
751.83079463058
 30
0.0
  0
SPLINE
  5
C3
330
1F
100
AcDbEntity
  8
0
  6
ByBlock
 62
     0
370
    25
100
AcDbSpline
210
0.0
220
0.0
230
1.0
 70
     8
 71
     3
 72
     8
 73
     4
 74
     0
 42
0.000000001
 43
0.00000001
 40
0.0
 40
0.0
 40
0.0
 40
0.0
 40
1.0
 40
1.0
 40
1.0
 40
1.0
 10
419.5512718479638
 20
767.6752105667487
 30
0.0
 10
436.4834610969577
 20
763.0734043566281
 30
0.0
 10
451.3689747571357
 20
756.5515399301734
 30
0.0
 10
463.3280562530306
 20
748.5343622805543
 30
0.0
  0
SPLINE
  5
C4
330
1F
100
AcDbEntity
  8
0
  6
ByBlock
 62
     0
370
    25
100
AcDbSpline
210
0.0
220
0.0
230
1.0
 70
     8
 71
     3
 72
     8
 73
     4
 74
     0
 42
0.000000001
 43
0.00000001
 40
0.0
 40
0.0
 40
0.0
 40
0.0
 40
1.0
 40
1.0
 40
1.0
 40
1.0
 10
365.0831601006341
 20
775.2352289645994
 30
0.0
 10
384.078389366726
 20
774.839672342526
 30
0.0
 10
402.6191009685463
 20
772.2770117844118
 30
0.0
 10
419.5512718479638
 20
767.6752105667485
 30
0.0
  0
SPLINE
  5
C5
330
1F
100
AcDbEntity
  8
0
  6
ByBlock
 62
     0
370
    25
100
AcDbSpline
210
0.0
220
0.0
230
1.0
 70
     8
 71
     3
 72
     9
 73
     5
 74
     0
 42
0.000000001
 43
0.00000001
 40
0.0
 40
0.0
 40
0.0
 40
0.0
 40
0.5
 40
1.0
 40
1.0
 40
1.0
 40
1.0
 10
464.8966218743378
 20
750.3964700047288
 30
0.0
 10
465.1065326902294
 20
750.5630816075911
 30
0.0
 10
465.5307370494258
 20
750.8698323281599
 30
0.0
 10
465.9104251150042
 20
751.0904947719463
 30
0.0
 10
466.2111603441398
 20
751.2427976004153
 30
0.0
  0
SPLINE
  5
C6
330
1F
100
AcDbEntity
  8
0
  6
ByBlock
 62
     0
370
    25
100
AcDbSpline
210
0.0
220
0.0
230
1.0
 70
     8
 71
     3
 72
     9
 73
     5
 74
     0
 42
0.000000001
 43
0.00000001
 40
0.0
 40
0.0
 40
0.0
 40
0.0
 40
0.5
 40
1.0
 40
1.0
 40
1.0
 40
1.0
 10
464.8966218743378
 20
750.3964700047288
 30
0.0
 10
464.820656062505
 20
750.6516167568317
 30
0.0
 10
464.6765121237328
 20
751.1377180023784
 30
0.0
 10
464.5805241310898
 20
751.5310600418867
 30
0.0
 10
464.5252027717088
 20
751.8308002691136
 30
0.0
  0
SPLINE
  5
C7
330
1F
100
AcDbEntity
  8
0
  6
ByBlock
 62
     0
370
    25
100
AcDbSpline
210
0.0
220
0.0
230
1.0
 70
     8
 71
     3
 72
     8
 73
     4
 74
     0
 42
0.000000001
 43
0.00000001
 40
0.0
 40
0.0
 40
0.0
 40
0.0
 40
1.0
 40
1.0
 40
1.0
 40
1.0
 10
464.434027672378
 20
748.0267960616715
 30
0.0
 10
464.8537245697412
 20
747.882177973158
 30
0.0
 10
465.3164441570473
 20
747.7666916651796
 30
0.0
 10
465.7894351797178
 20
747.6856761342191
 30
0.0
  0
SPLINE
  5
C8
330
1F
100
AcDbEntity
  8
0
  6
ByBlock
 62
     0
370
    25
100
AcDbSpline
210
0.0
220
0.0
230
1.0
 70
     8
 71
     3
 72
     9
 73
     5
 74
     0
 42
0.000000001
 43
0.00000001
 40
0.0
 40
0.0
 40
0.0
 40
0.0
 40
0.5
 40
1.0
 40
1.0
 40
1.0
 40
1.0
 10
464.8966218743378
 20
750.3964700047288
 30
0.0
 10
464.7626768702785
 20
749.9747116497634
 30
0.0
 10
464.5482186646769
 20
749.1517494393523
 30
0.0
 10
464.4541444980346
 20
748.4901252806947
 30
0.0
 10
464.434027672378
 20
748.0267960616715
 30
0.0
  0
SPLINE
  5
C9
330
1F
100
AcDbEntity
  8
0
  6
ByBlock
 62
     0
370
    25
100
AcDbSpline
210
0.0
220
0.0
230
1.0
 70
     8
 71
     3
 72
     8
 73
     4
 74
     0
 42
0.000000001
 43
0.00000001
 40
0.0
 40
0.0
 40
0.0
 40
0.0
 40
1.0
 40
1.0
 40
1.0
 40
1.0
 10
463.3280562534416
 20
748.5343622802787
 30
0.0
 10
463.6384737028534
 20
748.344869263772
 30
0.0
 10
464.0143307750143
 20
748.1714141501844
 30
0.0
 10
464.434027672378
 20
748.0267960616715
 30
0.0
  0
LINE
  5
CA
330
1F
100
AcDbEntity
  8
0
  6
ByBlock
 62
     0
370
    25
100
AcDbLine
 10
463.3280870256
 20
748.5343732379
 30
0.0
 11
462.864901075
 21
735.3416891084
 31
0.0
  0
LINE
  5
CB
330
1F
100
AcDbEntity
  8
0
  6
ByBlock
 62
     0
370
    25
100
AcDbLine
 10
364.7860461938
 20
761.9974202895
 30
0.0
 11
365.0831270814
 21
775.2352460695
 31
0.0
  0
SPLINE
  5
CC
330
1F
100
AcDbEntity
  8
0
  6
ByBlock
 62
     0
370
    25
100
AcDbSpline
210
0.0
220
0.0
230
1.0
 70
     8
 71
     3
 72
     8
 73
     4
 74
     0
 42
0.000000001
 43
0.00000001
 40
0.0
 40
0.0
 40
0.0
 40
0.0
 40
1.0
 40
1.0
 40
1.0
 40
1.0
 10
363.6250821591258
 20
775.4245074103555
 30
0.0
 10
364.0937514047944
 20
775.3276866303003
 30
0.0
 10
364.5909729142793
 20
775.2638771773918
 30
0.0
 10
365.0831271552925
 20
775.2352484190455
 30
0.0
  0
SPLINE
  5
CD
330
1F
100
AcDbEntity
  8
0
  6
ByBlock
 62
     0
370
    25
100
AcDbSpline
210
0.0
220
0.0
230
1.0
 70
     8
 71
     3
 72
     9
 73
     5
 74
     0
 42
0.000000001
 43
0.00000001
 40
0.0
 40
0.0
 40
0.0
 40
0.0
 40
0.5
 40
1.0
 40
1.0
 40
1.0
 40
1.0
 10
363.8936594381187
 20
777.8469179865541
 30
0.0
 10
363.8118951448419
 20
777.4109788006513
 30
0.0
 10
363.6829639914686
 20
776.5647723572663
 30
0.0
 10
363.6314012328194
 20
775.8915866076096
 30
0.0
 10
363.6250821591258
 20
775.4245074103555
 30
0.0
  0
SPLINE
  5
CE
330
1F
100
AcDbEntity
  8
0
  6
ByBlock
 62
     0
370
    25
100
AcDbSpline
210
0.0
220
0.0
230
1.0
 70
     8
 71
     3
 72
     9
 73
     5
 74
     0
 42
0.000000001
 43
0.00000001
 40
0.0
 40
0.0
 40
0.0
 40
0.0
 40
0.5
 40
1.0
 40
1.0
 40
1.0
 40
1.0
 10
363.8936594381187
 20
777.8469179865541
 30
0.0
 10
364.0908986068046
 20
778.0278143878791
 30
0.0
 10
364.4892921986257
 20
778.366466014939
 30
0.0
 10
364.8522977510142
 20
778.635055530687
 30
0.0
 10
365.1452624526298
 20
778.8401390924091
 30
0.0
  0
SPLINE
  5
CF
330
1F
100
AcDbEntity
  8
0
  6
ByBlock
 62
     0
370
    25
100
AcDbSpline
210
0.0
220
0.0
230
1.0
 70
     8
 71
     3
 72
     9
 73
     5
 74
     0
 42
0.000000001
 43
0.00000001
 40
0.0
 40
0.0
 40
0.0
 40
0.0
 40
0.5
 40
1.0
 40
1.0
 40
1.0
 40
1.0
 10
363.8936594381187
 20
777.8469179865541
 30
0.0
 10
363.7781845627103
 20
778.1019607711319
 30
0.0
 10
363.5562239218983
 20
778.5843220303282
 30
0.0
 10
363.3875036145942
 20
778.9540282319161
 30
0.0
 10
363.2674650536093
 20
779.2206881468076
 30
0.0
  0
SPLINE
  5
D0
330
1F
100
AcDbEntity
  8
0
  6
ByBlock
 62
     0
370
    25
100
AcDbSpline
210
0.0
220
0.0
230
1.0
 70
     8
 71
     3
 72
     8
 73
     4
 74
     0
 42
0.000000001
 43
0.00000001
 40
0.0
 40
0.0
 40
0.0
 40
0.0
 40
1.0
 40
1.0
 40
1.0
 40
1.0
 10
362.3336615051459
 20
775.8027387213492
 30
0.0
 10
362.7172295023576
 20
775.6509598784572
 30
0.0
 10
363.1564129134564
 20
775.5213281904108
 30
0.0
 10
363.6250821591258
 20
775.4245074103555
 30
0.0
  0
LWPOLYLINE
  5
D1
330
1F
100
AcDbEntity
  8
0
  6
ByBlock
 62
     0
370
    25
100
AcDbPolyline
 90
       28
 70
   128
 43
0.0
 10
469.9339737884
 20
634.2212034565
 10
488.9437936913
 20
631.7609508645
 10
508.2297842976
 20
629.9589074557
 10
527.7061302069
 20
628.823091645
 10
547.2861690096
 20
628.3585573853
 10
566.8827769016
 20
628.5673716793
 10
586.4087563524
 20
629.448605382
 10
605.7772241019
 20
630.998337335
 10
624.9019977574
 20
633.2096718143
 10
643.6979792734
 20
636.0727692137
 10
662.0815336057
 20
639.5748898272
 10
679.9708608557
 20
643.7004505361
 10
697.2863602496
 20
648.4310941478
 10
713.9509843314
 20
653.7457710784
 10
729.8905817953
 20
659.6208330158
 10
745.0342274312
 20
666.0301381453
 10
759.3145377149
 20
672.945167471
 10
772.6679706399
 20
680.3351517149
 10
785.035108455
 20
688.167208228
 10
796.360922051
 20
696.4064873064
 10
806.5950158196
 20
705.0163272588
 10
815.6918518949
 20
713.9584175376
 10
823.61095278
 20
723.1929692063
 10
830.317081456
 20
732.6788919851
 10
835.780398174
 20
742.3739770876
 10
839.9765932306
 20
752.2350850335
 10
842.8869951371
 20
762.2183376037
 10
844.497492586
 20
772.2671180145
  0
LWPOLYLINE
  5
D2
330
1F
100
AcDbEntity
  8
0
  6
ByBlock
 62
     0
370
    25
100
AcDbPolyline
 90
       14
 70
   128
 43
0.0
 10
257.4299297862
 20
773.309392016
 10
258.0767915511
 20
767.7988437974
 10
260.2671819119
 20
757.766917311
 10
263.7512678405
 20
747.832520877
 10
268.5135464656
 20
738.0398588209
 10
274.5328274396
 20
728.4325048035
 10
281.7823272275
 20
719.0532079346
 10
290.2297882833
 20
709.9437025556
 10
299.8376225843
 20
701.1445225373
 10
310.5630788838
 20
692.6948209193
 10
322.3584329374
 20
684.632195694
 10
335.1711998585
 20
676.9925225093
 10
348.9443676563
 20
669.809795036
 10
363.6166509173
 20
663.1159737082
  0
ARC
  5
D3
330
1F
100
AcDbEntity
  8
0
  6
ByBlock
 62
     0
370
    25
100
AcDbCircle
 10
362.8751502971
 20
450.3447783508
 30
0.0
 40
212.7724874060704
100
AcDbArc
 50
59.7906467821
 51
89.8003269006
  0
SPLINE
  5
D4
330
1F
100
AcDbEntity
  8
0
  6
ByBlock
 62
     0
370
    25
100
AcDbSpline
210
0.0
220
0.0
230
1.0
 70
     8
 71
     3
 72
    10
 73
     6
 74
     0
 42
0.000000001
 43
0.00000001
 40
0.0
 40
0.0
 40
0.0
 40
0.0
 40
0.5
 40
0.5
 40
1.0
 40
1.0
 40
1.0
 40
1.0
 10
414.9681688847157
 20
695.1404448744777
 30
0.0
 10
410.4530252479994
 20
696.3675641671118
 30
0.0
 10
406.7873012591996
 20
700.9166045635255
 30
0.0
 10
406.7873012591996
 20
709.6686493000718
 30
0.0
 10
410.4530252479994
 20
712.2251592301014
 30
0.0
 10
414.9681688847157
 20
710.9980399374672
 30
0.0
  0
SPLINE
  5
D5
330
1F
100
AcDbEntity
  8
0
  6
ByBlock
 62
     0
370
    25
100
AcDbSpline
210
0.0
220
0.0
230
1.0
 70
     8
 71
     3
 72
    10
 73
     6
 74
     0
 42
0.000000001
 43
0.00000001
 40
0.0
 40
0.0
 40
0.0
 40
0.0
 40
0.5
 40
0.5
 40
1.0
 40
1.0
 40
1.0
 40
1.0
 10
414.9681688847157
 20
710.9980399374672
 30
0.0
 10
419.4833125214321
 20
709.7709206448328
 30
0.0
 10
423.1490365102319
 20
705.2218802484192
 30
0.0
 10
423.1490365102319
 20
696.4698355118728
 30
0.0
 10
419.4833125214321
 20
693.9133255818433
 30
0.0
 10
414.9681688847157
 20
695.1404448744777
 30
0.0
  0
LWPOLYLINE
  5
D6
330
1F
100
AcDbEntity
  8
0
  6
ByBlock
 62
     0
370
    25
100
AcDbPolyline
 90
       11
 70
   128
 43
0.0
 10
407.8085323796
 20
712.4973404989
 10
408.1742402039
 20
712.8455277925
 10
410.9389508922
 20
714.3425262822
 10
414.3303706143
 20
714.6171531326
 10
417.9394440998
 20
713.6362842923
 10
421.3308638219
 20
711.5182270197
 10
424.0955745102
 20
708.518450281
 10
425.9001112529
 20
704.9987714228
 10
426.5268202868
 20
701.3837156604
 10
425.9001112529
 20
698.1093120714
 10
424.3420257212
 20
695.7993462913
  0
ENDSEC
  0
SECTION
  2
OBJECTS
  0
DICTIONARY
  5
C
330
0
100
AcDbDictionary
281
     1
  3
ACAD_GROUP
350
D
  3
ACAD_LAYOUT
350
1A
  3
ACAD_MLINESTYLE
350
17
  3
ACAD_PLOTSETTINGS
350
19
  3
ACAD_PLOTSTYLENAME
350
E
  3
ACAD_SCALELIST
350
47
  3
APPDATA
350
F8
  3
DWGPROPS
350
11F
  0
DICTIONARY
  5
D
102
{ACAD_REACTORS
330
C
102
}
330
C
100
AcDbDictionary
281
     1
  0
DICTIONARY
  5
1A
102
{ACAD_REACTORS
330
C
102
}
330
C
100
AcDbDictionary
281
     1
  3
Layout1
350
1E
  3
Layout2
350
26
  3
Model
350
22
  0
DICTIONARY
  5
17
102
{ACAD_REACTORS
330
C
102
}
330
C
100
AcDbDictionary
281
     1
  3
Standard
350
18
  0
DICTIONARY
  5
19
102
{ACAD_REACTORS
330
C
102
}
330
C
100
AcDbDictionary
281
     1
  0
ACDBDICTIONARYWDFLT
  5
E
102
{ACAD_REACTORS
330
C
102
}
330
C
100
AcDbDictionary
281
     1
  3
Normal
350
F
100
AcDbDictionaryWithDefault
340
F
  0
DICTIONARY
  5
47
102
{ACAD_REACTORS
330
C
102
}
330
C
100
AcDbDictionary
281
     1
  3
A0
350
48
  3
A1
350
49
  3
A2
350
4A
  3
A3
350
4B
  3
A4
350
4C
  3
A5
350
4D
  3
A6
350
4E
  3
A7
350
4F
  3
A8
350
50
  3
A9
350
51
  3
B0
350
52
  3
B1
350
53
  3
B2
350
54
  3
B3
350
55
  3
B4
350
56
  3
B5
350
57
  3
B6
350
58
  3
B7
350
59
  3
B8
350
5A
  3
B9
350
5B
  3
C0
350
5C
  3
C1
350
5D
  3
C2
350
5E
  3
C3
350
5F
  3
C4
350
60
  3
C5
350
61
  3
C6
350
62
  3
C7
350
63
  3
C8
350
64
  3
C9
350
65
  3
D0
350
66
  3
D1
350
67
  3
D2
350
68
  0
DICTIONARY
  5
F8
102
{ACAD_REACTORS
330
C
102
}
330
C
100
AcDbDictionary
281
     1
  0
XRECORD
  5
11F
102
{ACAD_REACTORS
330
C
102
}
330
C
100
AcDbXrecord
280
     1
  1
DWGPROPS COOKIE
  2

  3

  4

  6

  7

  8
9176
  9

300
=
301
=
302
=
303
=
304
=
305
=
306
=
307
=
308
=
309
=
 40
0.0
 41
2458871.282751505
 42
2458871.288430752
  1

 90
        0
  0
LAYOUT
  5
1E
102
{ACAD_REACTORS
330
1A
102
}
330
1A
100
AcDbPlotSettings
  1

  2
none_device
  4

  6

 40
0.0
 41
0.0
 42
0.0
 43
0.0
 44
0.0
 45
0.0
 46
0.0
 47
0.0
 48
0.0
 49
0.0
140
0.0
141
0.0
142
1.0
143
1.0
 70
   688
 72
     1
 73
     0
 74
     5
  7

 75
    16
147
1.0
148
0.0
149
0.0
100
AcDbLayout
  1
Layout1
 70
     1
 71
     1
 10
0.0
 20
0.0
 11
420.0
 21
297.0
 12
0.0
 22
0.0
 32
0.0
 14
1.000000000000000E+20
 24
1.000000000000000E+20
 34
1.000000000000000E+20
 15
-1.000000000000000E+20
 25
-1.000000000000000E+20
 35
-1.000000000000000E+20
146
0.0
 13
0.0
 23
0.0
 33
0.0
 16
1.0
 26
0.0
 36
0.0
 17
0.0
 27
1.0
 37
0.0
 76
     0
330
1B
  0
LAYOUT
  5
26
102
{ACAD_REACTORS
330
1A
102
}
330
1A
100
AcDbPlotSettings
  1

  2
none_device
  4

  6

 40
0.0
 41
0.0
 42
0.0
 43
0.0
 44
0.0
 45
0.0
 46
0.0
 47
0.0
 48
0.0
 49
0.0
140
0.0
141
0.0
142
1.0
143
1.0
 70
   688
 72
     1
 73
     0
 74
     5
  7

 75
    16
147
1.0
148
0.0
149
0.0
100
AcDbLayout
  1
Layout2
 70
     1
 71
     2
 10
0.0
 20
0.0
 11
0.0
 21
0.0
 12
0.0
 22
0.0
 32
0.0
 14
0.0
 24
0.0
 34
0.0
 15
0.0
 25
0.0
 35
0.0
146
0.0
 13
0.0
 23
0.0
 33
0.0
 16
1.0
 26
0.0
 36
0.0
 17
0.0
 27
1.0
 37
0.0
 76
     0
330
23
  0
LAYOUT
  5
22
102
{ACAD_REACTORS
330
1A
102
}
330
1A
100
AcDbPlotSettings
  1

  2
none_device
  4
Letter_(8.50_x_11.00_Inches)
  6

 40
6.35
 41
6.35
 42
6.35000508
 43
6.35000508
 44
215.9
 45
279.4
 46
0.0
 47
0.0
 48
0.0
 49
0.0
140
0.0
141
0.0
142
1.0
143
23.19167594046317
 70
  1712
 72
     1
 73
     0
 74
     0
  7

 75
     0
147
0.0431189191573375
148
1346.085478232303
149
1171.445596900686
100
AcDbLayout
  1
Model
 70
     1
 71
     0
 10
0.0
 20
0.0
 11
1050.0
 21
1485.0
 12
0.0
 22
0.0
 32
0.0
 14
251.0170879333
 24
442.9805290302505
 34
0.0
 15
880.2177623885985
 25
1051.720968265073
 35
0.0
146
0.0
 13
0.0
 23
0.0
 33
0.0
 16
1.0
 26
0.0
 36
0.0
 17
0.0
 27
1.0
 37
0.0
 76
     0
330
1F
331
29
1001
PLOTTRANSPARENCY
1071
        0
  0
MLINESTYLE
  5
18
102
{ACAD_REACTORS
330
17
102
}
330
17
100
AcDbMlineStyle
  2
Standard
 70
     0
  3

 62
   256
 51
90.0
 52
90.0
 71
     2
 49
0.5
 62
   256
  6
BYLAYER
 49
-0.5
 62
   256
  6
BYLAYER
  0
ACDBPLACEHOLDER
  5
F
102
{ACAD_REACTORS
330
E
102
}
330
E
  0
SCALE
  5
48
102
{ACAD_REACTORS
330
47
102
}
330
47
100
AcDbScale
 70
     0
300
1:1
140
1.0
141
1.0
290
     1
  0
SCALE
  5
49
102
{ACAD_REACTORS
330
47
102
}
330
47
100
AcDbScale
 70
     0
300
1:2
140
1.0
141
2.0
290
     0
  0
SCALE
  5
4A
102
{ACAD_REACTORS
330
47
102
}
330
47
100
AcDbScale
 70
     0
300
1:4
140
1.0
141
4.0
290
     0
  0
SCALE
  5
4B
102
{ACAD_REACTORS
330
47
102
}
330
47
100
AcDbScale
 70
     0
300
1:5
140
1.0
141
5.0
290
     0
  0
SCALE
  5
4C
102
{ACAD_REACTORS
330
47
102
}
330
47
100
AcDbScale
 70
     0
300
1:8
140
1.0
141
8.0
290
     0
  0
SCALE
  5
4D
102
{ACAD_REACTORS
330
47
102
}
330
47
100
AcDbScale
 70
     0
300
1:10
140
1.0
141
10.0
290
     0
  0
SCALE
  5
4E
102
{ACAD_REACTORS
330
47
102
}
330
47
100
AcDbScale
 70
     0
300
1:16
140
1.0
141
16.0
290
     0
  0
SCALE
  5
4F
102
{ACAD_REACTORS
330
47
102
}
330
47
100
AcDbScale
 70
     0
300
1:20
140
1.0
141
20.0
290
     0
  0
SCALE
  5
50
102
{ACAD_REACTORS
330
47
102
}
330
47
100
AcDbScale
 70
     0
300
1:30
140
1.0
141
30.0
290
     0
  0
SCALE
  5
51
102
{ACAD_REACTORS
330
47
102
}
330
47
100
AcDbScale
 70
     0
300
1:40
140
1.0
141
40.0
290
     0
  0
SCALE
  5
52
102
{ACAD_REACTORS
330
47
102
}
330
47
100
AcDbScale
 70
     0
300
1:50
140
1.0
141
50.0
290
     0
  0
SCALE
  5
53
102
{ACAD_REACTORS
330
47
102
}
330
47
100
AcDbScale
 70
     0
300
1:100
140
1.0
141
100.0
290
     0
  0
SCALE
  5
54
102
{ACAD_REACTORS
330
47
102
}
330
47
100
AcDbScale
 70
     0
300
2:1
140
2.0
141
1.0
290
     0
  0
SCALE
  5
55
102
{ACAD_REACTORS
330
47
102
}
330
47
100
AcDbScale
 70
     0
300
4:1
140
4.0
141
1.0
290
     0
  0
SCALE
  5
56
102
{ACAD_REACTORS
330
47
102
}
330
47
100
AcDbScale
 70
     0
300
8:1
140
8.0
141
1.0
290
     0
  0
SCALE
  5
57
102
{ACAD_REACTORS
330
47
102
}
330
47
100
AcDbScale
 70
     0
300
10:1
140
10.0
141
1.0
290
     0
  0
SCALE
  5
58
102
{ACAD_REACTORS
330
47
102
}
330
47
100
AcDbScale
 70
     0
300
100:1
140
100.0
141
1.0
290
     0
  0
SCALE
  5
59
102
{ACAD_REACTORS
330
47
102
}
330
47
100
AcDbScale
 70
     0
300
1/128" = 1'-0"
140
0.0078125
141
12.0
290
     0
  0
SCALE
  5
5A
102
{ACAD_REACTORS
330
47
102
}
330
47
100
AcDbScale
 70
     0
300
1/64" = 1'-0"
140
0.015625
141
12.0
290
     0
  0
SCALE
  5
5B
102
{ACAD_REACTORS
330
47
102
}
330
47
100
AcDbScale
 70
     0
300
1/32" = 1'-0"
140
0.03125
141
12.0
290
     0
  0
SCALE
  5
5C
102
{ACAD_REACTORS
330
47
102
}
330
47
100
AcDbScale
 70
     0
300
1/16" = 1'-0"
140
0.0625
141
12.0
290
     0
  0
SCALE
  5
5D
102
{ACAD_REACTORS
330
47
102
}
330
47
100
AcDbScale
 70
     0
300
3/32" = 1'-0"
140
0.09375
141
12.0
290
     0
  0
SCALE
  5
5E
102
{ACAD_REACTORS
330
47
102
}
330
47
100
AcDbScale
 70
     0
300
1/8" = 1'-0"
140
0.125
141
12.0
290
     0
  0
SCALE
  5
5F
102
{ACAD_REACTORS
330
47
102
}
330
47
100
AcDbScale
 70
     0
300
3/16" = 1'-0"
140
0.1875
141
12.0
290
     0
  0
SCALE
  5
60
102
{ACAD_REACTORS
330
47
102
}
330
47
100
AcDbScale
 70
     0
300
1/4" = 1'-0"
140
0.25
141
12.0
290
     0
  0
SCALE
  5
61
102
{ACAD_REACTORS
330
47
102
}
330
47
100
AcDbScale
 70
     0
300
3/8" = 1'-0"
140
0.375
141
12.0
290
     0
  0
SCALE
  5
62
102
{ACAD_REACTORS
330
47
102
}
330
47
100
AcDbScale
 70
     0
300
1/2" = 1'-0"
140
0.5
141
12.0
290
     0
  0
SCALE
  5
63
102
{ACAD_REACTORS
330
47
102
}
330
47
100
AcDbScale
 70
     0
300
3/4" = 1'-0"
140
0.75
141
12.0
290
     0
  0
SCALE
  5
64
102
{ACAD_REACTORS
330
47
102
}
330
47
100
AcDbScale
 70
     0
300
1" = 1'-0"
140
1.0
141
12.0
290
     0
  0
SCALE
  5
65
102
{ACAD_REACTORS
330
47
102
}
330
47
100
AcDbScale
 70
     0
300
1-1/2" = 1'-0"
140
1.5
141
12.0
290
     0
  0
SCALE
  5
66
102
{ACAD_REACTORS
330
47
102
}
330
47
100
AcDbScale
 70
     0
300
3" = 1'-0"
140
3.0
141
12.0
290
     0
  0
SCALE
  5
67
102
{ACAD_REACTORS
330
47
102
}
330
47
100
AcDbScale
 70
     0
300
6" = 1'-0"
140
6.0
141
12.0
290
     0
  0
SCALE
  5
68
102
{ACAD_REACTORS
330
47
102
}
330
47
100
AcDbScale
 70
     0
300
1'-0" = 1'-0"
140
12.0
141
12.0
290
     0
  0
ENDSEC
  0
EOF
