  0
SECTION
  2
HEADER
  9
$ACADVER
  1
AC1015
  9
$ACADMAINTVER
 70
     6
  9
$DWGCODEPAGE
  3
DOS932
  9
$INSBASE
 10
0.0
 20
0.0
 30
0.0
  9
$EXTMIN
 10
0.0
 20
0.0
 30
0.0
  9
$EXTMAX
 10
1050.0
 20
1485.0
 30
0.0
  9
$LIMMIN
 10
0.0
 20
0.0
  9
$LIMMAX
 10
1050.0
 20
1485.0
  9
$ORTHOMODE
 70
     0
  9
$REGENMODE
 70
     1
  9
$FILLMODE
 70
     1
  9
$QTEXTMODE
 70
     0
  9
$MIRRTEXT
 70
     1
  9
$LTSCALE
 40
5.0
  9
$ATTMODE
 70
     1
  9
$TEXTSIZE
 40
17.5
  9
$TRACEWID
 40
1.0
  9
$TEXTSTYLE
  7
STANDARD
  9
$CLAYER
  8
0
  9
$CELTYPE
  6
ByLayer
  9
$CECOLOR
 62
   256
  9
$CELTSCALE
 40
1.0
  9
$DISPSILH
 70
     0
  9
$DIMSCALE
 40
1.0
  9
$DIMASZ
 40
16.51
  9
$DIMEXO
 40
5.0
  9
$DIMDLI
 40
3.75
  9
$DIMRND
 40
0.0
  9
$DIMDLE
 40
0.0
  9
$DIMEXE
 40
5.0
  9
$DIMTP
 40
0.0
  9
$DIMTM
 40
0.0
  9
$DIMTXT
 40
17.5
  9
$DIMCEN
 40
2.5
  9
$DIMTSZ
 40
0.0
  9
$DIMTOL
 70
     0
  9
$DIMLIM
 70
     0
  9
$DIMTIH
 70
     1
  9
$DIMTOH
 70
     1
  9
$DIMSE1
 70
     0
  9
$DIMSE2
 70
     0
  9
$DIMTAD
 70
     1
  9
$DIMZIN
 70
     1
  9
$DIMBLK
  1

  9
$DIMASO
 70
     1
  9
$DIMSHO
 70
     1
  9
$DIMPOST
  1

  9
$DIMAPOST
  1

  9
$DIMALT
 70
     0
  9
$DIMALTD
 70
     3
  9
$DIMALTF
 40
0.0393700787
  9
$DIMLFAC
 40
1.0
  9
$DIMTOFL
 70
     1
  9
$DIMTVP
 40
0.0
  9
$DIMTIX
 70
     0
  9
$DIMSOXD
 70
     0
  9
$DIMSAH
 70
     0
  9
$DIMBLK1
  1

  9
$DIMBLK2
  1

  9
$DIMSTYLE
  2
ISO-25
  9
$DIMCLRD
 70
     0
  9
$DIMCLRE
 70
     0
  9
$DIMCLRT
 70
     0
  9
$DIMTFAC
 40
1.0
  9
$DIMGAP
 40
7.62
  9
$DIMJUST
 70
     0
  9
$DIMSD1
 70
     0
  9
$DIMSD2
 70
     0
  9
$DIMTOLJ
 70
     0
  9
$DIMTZIN
 70
     1
  9
$DIMALTZ
 70
     0
  9
$DIMALTTZ
 70
     0
  9
$DIMUPT
 70
     0
  9
$DIMDEC
 70
     2
  9
$DIMTDEC
 70
     2
  9
$DIMALTU
 70
     2
  9
$DIMALTTD
 70
     3
  9
$DIMTXSTY
  7
STANDARD
  9
$DIMAUNIT
 70
     0
  9
$DIMADEC
 70
     2
  9
$DIMALTRND
 40
0.0
  9
$DIMAZIN
 70
     0
  9
$DIMDSEP
 70
    44
  9
$DIMATFIT
 70
     3
  9
$DIMFRAC
 70
     0
  9
$DIMLDRBLK
  1

  9
$DIMLUNIT
 70
     2
  9
$DIMLWD
 70
    -2
  9
$DIMLWE
 70
    -2
  9
$DIMTMOVE
 70
     0
  9
$LUNITS
 70
     2
  9
$LUPREC
 70
     2
  9
$SKETCHINC
 40
1.0
  9
$FILLETRAD
 40
10.0
  9
$AUNITS
 70
     0
  9
$AUPREC
 70
     2
  9
$MENU
  1
.
  9
$ELEVATION
 40
0.0
  9
$PELEVATION
 40
0.0
  9
$THICKNESS
 40
0.0
  9
$LIMCHECK
 70
     0
  9
$CHAMFERA
 40
0.0
  9
$CHAMFERB
 40
0.0
  9
$CHAMFERC
 40
0.0
  9
$CHAMFERD
 40
0.0
  9
$SKPOLY
 70
     0
  9
$TDCREATE
 40
2458871.658186435
  9
$TDUCREATE
 40
2458871.283186435
  9
$TDUPDATE
 40
2458871.658186759
  9
$TDUUPDATE
 40
2458871.283186759
  9
$TDINDWG
 40
0.0000000116
  9
$TDUSRTIMER
 40
0.0000000116
  9
$USRTIMER
 70
     1
  9
$ANGBASE
 50
0.0
  9
$ANGDIR
 70
     0
  9
$PDMODE
 70
     0
  9
$PDSIZE
 40
-1.0
  9
$PLINEWID
 40
0.0
  9
$SPLFRAME
 70
     0
  9
$SPLINETYPE
 70
     6
  9
$SPLINESEGS
 70
     8
  9
$HANDSEED
  5
D7
  9
$SURFTAB1
 70
     6
  9
$SURFTAB2
 70
     6
  9
$SURFTYPE
 70
     6
  9
$SURFU
 70
     6
  9
$SURFV
 70
     6
  9
$UCSBASE
  2

  9
$UCSNAME
  2

  9
$UCSORG
 10
0.0
 20
0.0
 30
0.0
  9
$UCSXDIR
 10
1.0
 20
0.0
 30
0.0
  9
$UCSYDIR
 10
0.0
 20
1.0
 30
0.0
  9
$UCSORTHOREF
  2

  9
$UCSORTHOVIEW
 70
     0
  9
$UCSORGTOP
 10
0.0
 20
0.0
 30
0.0
  9
$UCSORGBOTTOM
 10
0.0
 20
0.0
 30
0.0
  9
$UCSORGLEFT
 10
0.0
 20
0.0
 30
0.0
  9
$UCSORGRIGHT
 10
0.0
 20
0.0
 30
0.0
  9
$UCSORGFRONT
 10
0.0
 20
0.0
 30
0.0
  9
$UCSORGBACK
 10
0.0
 20
0.0
 30
0.0
  9
$PUCSBASE
  2

  9
$PUCSNAME
  2

  9
$PUCSORG
 10
0.0
 20
0.0
 30
0.0
  9
$PUCSXDIR
 10
1.0
 20
0.0
 30
0.0
  9
$PUCSYDIR
 10
0.0
 20
1.0
 30
0.0
  9
$PUCSORTHOREF
  2

  9
$PUCSORTHOVIEW
 70
     0
  9
$PUCSORGTOP
 10
0.0
 20
0.0
 30
0.0
  9
$PUCSORGBOTTOM
 10
0.0
 20
0.0
 30
0.0
  9
$PUCSORGLEFT
 10
0.0
 20
0.0
 30
0.0
  9
$PUCSORGRIGHT
 10
0.0
 20
0.0
 30
0.0
  9
$PUCSORGFRONT
 10
0.0
 20
0.0
 30
0.0
  9
$PUCSORGBACK
 10
0.0
 20
0.0
 30
0.0
  9
$USERI1
 70
     0
  9
$USERI2
 70
     0
  9
$USERI3
 70
     0
  9
$USERI4
 70
     0
  9
$USERI5
 70
     0
  9
$USERR1
 40
0.0
  9
$USERR2
 40
0.0
  9
$USERR3
 40
0.0
  9
$USERR4
 40
0.0
  9
$USERR5
 40
0.0
  9
$WORLDVIEW
 70
     1
  9
$SHADEDGE
 70
     3
  9
$SHADEDIF
 70
    70
  9
$TILEMODE
 70
     1
  9
$MAXACTVP
 70
    64
  9
$PINSBASE
 10
0.0
 20
0.0
 30
0.0
  9
$PLIMCHECK
 70
     0
  9
$PEXTMIN
 10
1.0000000000E+20
 20
1.0000000000E+20
 30
1.0000000000E+20
  9
$PEXTMAX
 10
-1.0000000000E+20
 20
-1.0000000000E+20
 30
-1.0000000000E+20
  9
$PLIMMIN
 10
0.0
 20
0.0
  9
$PLIMMAX
 10
420.0
 20
297.0
  9
$UNITMODE
 70
     0
  9
$VISRETAIN
 70
     1
  9
$PLINEGEN
 70
     0
  9
$PSLTSCALE
 70
     1
  9
$TREEDEPTH
 70
  3020
  9
$CMLSTYLE
  2
Standard
  9
$CMLJUST
 70
     0
  9
$CMLSCALE
 40
20.0
  9
$PROXYGRAPHICS
 70
     1
  9
$MEASUREMENT
 70
     1
  9
$CELWEIGHT
370
    -1
  9
$ENDCAPS
280
     0
  9
$JOINSTYLE
280
     0
  9
$LWDISPLAY
290
     1
  9
$INSUNITS
 70
     4
  9
$HYPERLINKBASE
  1

  9
$STYLESHEET
  1

  9
$XEDIT
290
     1
  9
$CEPSNTYPE
380
     0
  9
$PSTYLEMODE
290
     1
  9
$FINGERPRINTGUID
  2
{310D143C-F3A4-4061-B4AF-2F20EE61D809}
  9
$VERSIONGUID
  2
{FAEB1C32-E019-11D5-929B-00C0DF256EC4}
  9
$EXTNAMES
290
     1
  9
$PSVPSCALE
 40
0.0
  9
$OLESTARTUP
290
     0
  0
ENDSEC
  0
SECTION
  2
CLASSES
  0
CLASS
  1
ACDBDICTIONARYWDFLT
  2
AcDbDictionaryWithDefault
  3
ObjectDBX Classes
 90
        0
280
     0
281
     0
  0
CLASS
  1
VISUALSTYLE
  2
AcDbVisualStyle
  3
ObjectDBX Classes
 90
     4095
280
     0
281
     0
  0
CLASS
  1
MATERIAL
  2
AcDbMaterial
  3
ObjectDBX Classes
 90
     1153
280
     0
281
     0
  0
CLASS
  1
SCALE
  2
AcDbScale
  3
ObjectDBX Classes
 90
     1153
280
     0
281
     0
  0
CLASS
  1
TABLESTYLE
  2
AcDbTableStyle
  3
ObjectDBX Classes
 90
     4095
280
     0
281
     0
  0
CLASS
  1
MLEADERSTYLE
  2
AcDbMLeaderStyle
  3
ACDB_MLEADERSTYLE_CLASS
 90
     4095
280
     0
281
     0
  0
CLASS
  1
SUN
  2
AcDbSun
  3
SCENEOE
 90
     1153
280
     0
281
     0
  0
CLASS
  1
ACDBPLACEHOLDER
  2
AcDbPlaceHolder
  3
ObjectDBX Classes
 90
        0
280
     0
281
     0
  0
CLASS
  1
LAYOUT
  2
AcDbLayout
  3
ObjectDBX Classes
 90
        0
280
     0
281
     0
  0
ENDSEC
  0
SECTION
  2
TABLES
  0
TABLE
  2
VPORT
  5
8
330
0
100
AcDbSymbolTable
 70
     1
  0
VPORT
  5
29
330
8
100
AcDbSymbolTableRecord
100
AcDbViewportTableRecord
  2
*Active
 70
     0
 10
0.0
 20
0.0
 11
1.0
 21
1.0
 12
525.0
 22
742.5
 13
0.0
 23
0.0
 14
10.0
 24
10.0
 15
10.0
 25
10.0
 16
0.0
 26
0.0
 36
1.0
 17
0.0
 27
0.0
 37
0.0
 40
1485.0
 41
0.7070707071
 42
50.0
 43
0.0
 44
0.0
 50
0.0
 51
0.0
 71
     0
 72
  2000
 73
     1
 74
     3
 75
     0
 76
     0
 77
     0
 78
     0
281
     0
 65
     1
110
0.0
120
0.0
130
0.0
111
1.0
121
0.0
131
0.0
112
0.0
122
1.0
132
0.0
 79
     0
146
0.0
  0
ENDTAB
  0
TABLE
  2
LTYPE
  5
5
330
0
100
AcDbSymbolTable
 70
     8
  0
LTYPE
  5
14
330
5
100
AcDbSymbolTableRecord
100
AcDbLinetypeTableRecord
  2
ByBlock
 70
     0
  3

 72
    65
 73
     0
 40
0.0
  0
LTYPE
  5
15
330
5
100
AcDbSymbolTableRecord
100
AcDbLinetypeTableRecord
  2
ByLayer
 70
     0
  3

 72
    65
 73
     0
 40
0.0
  0
LTYPE
  5
16
330
5
100
AcDbSymbolTableRecord
100
AcDbLinetypeTableRecord
  2
Continuous
 70
     0
  3
Solid line
 72
    65
 73
     0
 40
0.0
  0
LTYPE
  5
6E
330
5
100
AcDbSymbolTableRecord
100
AcDbLinetypeTableRecord
  2
SLD-実線
 70
     0
  3
SolidWorks Line Style
 72
    65
 73
     0
 40
0.0
  0
LTYPE
  5
6F
330
5
100
AcDbSymbolTableRecord
100
AcDbLinetypeTableRecord
  2
SLD-破線
 70
     0
  3
SolidWorks Line Style
 72
    65
 73
     2
 40
1.905
 49
1.27
 74
     0
 49
-0.635
 74
     0
  0
LTYPE
  5
70
330
5
100
AcDbSymbolTableRecord
100
AcDbLinetypeTableRecord
  2
SLD-2点鎖線
 70
     0
  3
SolidWorks Line Style
 72
    65
 73
     6
 40
12.7
 49
6.35
 74
     0
 49
-1.27
 74
     0
 49
1.27
 74
     0
 49
-1.27
 74
     0
 49
1.27
 74
     0
 49
-1.27
 74
     0
  0
LTYPE
  5
71
330
5
100
AcDbSymbolTableRecord
100
AcDbLinetypeTableRecord
  2
SLD-鎖線
 70
     0
  3
SolidWorks Line Style
 72
    65
 73
     4
 40
10.16
 49
6.35
 74
     0
 49
-1.27
 74
     0
 49
1.27
 74
     0
 49
-1.27
 74
     0
  0
LTYPE
  5
72
330
5
100
AcDbSymbolTableRecord
100
AcDbLinetypeTableRecord
  2
SLD-1点鎖線(中心線)
 70
     0
  3
SolidWorks Line Style
 72
    65
 73
     4
 40
34.29
 49
30.48
 74
     0
 49
-1.27
 74
     0
 49
1.27
 74
     0
 49
-1.27
 74
     0
  0
LTYPE
  5
73
330
5
100
AcDbSymbolTableRecord
100
AcDbLinetypeTableRecord
  2
SLD-点線
 70
     0
  3
SolidWorks Line Style
 72
    65
 73
     2
 40
0.635
 49
0.0
 74
     0
 49
-0.635
 74
     0
  0
LTYPE
  5
74
330
5
100
AcDbSymbolTableRecord
100
AcDbLinetypeTableRecord
  2
SLD-細-太鎖線(切断面)
 70
     0
  3
SolidWorks Line Style
 72
    65
 73
     4
 40
10.16
 49
6.35
 74
     0
 49
-1.27
 74
     0
 49
1.27
 74
     0
 49
-1.27
 74
     0
  0
ENDTAB
  0
TABLE
  2
LAYER
  5
2
330
0
100
AcDbSymbolTable
 70
     1
  0
LAYER
  5
10
330
2
100
AcDbSymbolTableRecord
100
AcDbLayerTableRecord
  2
0
 70
     0
 62
     7
  6
Continuous
370
    -3
390
F
  0
ENDTAB
  0
TABLE
  2
STYLE
  5
3
330
0
100
AcDbSymbolTable
 70
     2
  0
STYLE
  5
11
330
3
100
AcDbSymbolTableRecord
100
AcDbTextStyleTableRecord
  2
STANDARD
 70
     0
 40
0.0
 41
1.0
 50
0.0
 71
     0
 42
17.5
  3
MSGOTHIC.TTC
  4

1001
ACAD
1000
ＭＳ Ｐゴシック
1071
    32818
  0
STYLE
  5
75
330
3
100
AcDbSymbolTableRecord
100
AcDbTextStyleTableRecord
  2
SLDTEXTSTYLE0
 70
     0
 40
0.0
 41
1.0
 50
0.0
 71
     0
 42
17.5
  3
MSGOTHIC.TTC
  4

1001
ACAD
1000
ＭＳ Ｐゴシック
1071
      306
  0
ENDTAB
  0
TABLE
  2
VIEW
  5
6
330
0
100
AcDbSymbolTable
 70
     0
  0
ENDTAB
  0
TABLE
  2
UCS
  5
7
330
0
100
AcDbSymbolTable
 70
     0
  0
ENDTAB
  0
TABLE
  2
APPID
  5
9
330
0
100
AcDbSymbolTable
 70
     1
  0
APPID
  5
12
330
9
100
AcDbSymbolTableRecord
100
AcDbRegAppTableRecord
  2
ACAD
 70
     0
  0
ENDTAB
  0
TABLE
  2
DIMSTYLE
  5
A
330
0
100
AcDbSymbolTable
 70
     1
100
AcDbDimStyleTable
  0
DIMSTYLE
105
27
330
A
100
AcDbSymbolTableRecord
100
AcDbDimStyleTableRecord
  2
ISO-25
 70
     0
 41
2.5
 42
0.625
 43
3.75
 44
1.25
 73
     0
 74
     0
 77
     1
 78
     8
140
2.5
141
2.5
143
0.0393700787
147
0.625
171
     3
172
     1
178
     0
271
     2
272
     2
274
     3
278
    44
283
     0
284
     8
340
11
  0
ENDTAB
  0
TABLE
  2
BLOCK_RECORD
  5
1
330
0
100
AcDbSymbolTable
 70
     1
  0
BLOCK_RECORD
  5
1F
330
1
100
AcDbSymbolTableRecord
100
AcDbBlockTableRecord
  2
*Model_Space
340
22
  0
BLOCK_RECORD
  5
1B
330
1
100
AcDbSymbolTableRecord
100
AcDbBlockTableRecord
  2
*Paper_Space
340
1E
  0
BLOCK_RECORD
  5
23
330
1
100
AcDbSymbolTableRecord
100
AcDbBlockTableRecord
  2
*Paper_Space0
340
26
  0
ENDTAB
  0
ENDSEC
  0
SECTION
  2
BLOCKS
  0
BLOCK
  5
20
330
1F
100
AcDbEntity
  8
0
100
AcDbBlockBegin
  2
*Model_Space
 70
     0
 10
0.0
 20
0.0
 30
0.0
  3
*Model_Space
  1

  0
ENDBLK
  5
21
330
1F
100
AcDbEntity
  8
0
100
AcDbBlockEnd
  0
BLOCK
  5
1C
330
1B
100
AcDbEntity
 67
     1
  8
0
100
AcDbBlockBegin
  2
*Paper_Space
 70
     0
 10
0.0
 20
0.0
 30
0.0
  3
*Paper_Space
  1

  0
ENDBLK
  5
1D
330
1B
100
AcDbEntity
 67
     1
  8
0
100
AcDbBlockEnd
  0
BLOCK
  5
24
330
23
100
AcDbEntity
  8
0
100
AcDbBlockBegin
  2
*Paper_Space0
 70
     0
 10
0.0
 20
0.0
 30
0.0
  3
*Paper_Space0
  1

  0
ENDBLK
  5
25
330
23
100
AcDbEntity
  8
0
100
AcDbBlockEnd
  0
ENDSEC
  0
SECTION
  2
ENTITIES
  0
MTEXT
  5
76
330
1F
100
AcDbEntity
  8
0
  6
Continuous
 62
     7
370
     0
100
AcDbMText
 10
787.0064479514
 20
478.1693670285
 30
0.0
 40
17.5
 41
0.0
 71
     1
 72
     1
  1
HIC-023C
  7
SLDTEXTSTYLE0
 73
     1
 44
1.0
  0
LINE
  5
77
330
1F
100
AcDbEntity
  8
0
  6
SLD-実線
 62
     7
370
    25
100
AcDbLine
 10
447.1969230571
 20
960.3152256141
 30
0.0
 11
447.1671892049
 21
961.775296948
 31
0.0
  0
LINE
  5
78
330
1F
100
AcDbEntity
  8
0
  6
SLD-実線
 62
     7
370
    25
100
AcDbLine
 10
438.6676552544
 20
961.7752973559
 30
0.0
 11
438.6358093579
 21
960.2116426591
 31
0.0
  0
SPLINE
  5
79
330
1F
100
AcDbEntity
  8
0
  6
SLD-実線
 62
     7
370
    25
100
AcDbSpline
210
0.0
220
0.0
230
1.0
 70
     8
 71
     3
 72
    32
 73
    28
 74
     0
 42
0.000000001
 43
0.00000001
 40
0.0
 40
0.0
 40
0.0
 40
0.0
 40
0.0323540732639306
 40
0.0751614061644281
 40
0.1180570305392742
 40
0.1610173563636295
 40
0.2040178629078855
 40
0.2470371531075334
 40
0.2900583670901942
 40
0.3330688165703409
 40
0.376055659272928
 40
0.4190117984750995
 40
0.4619311244112733
 40
0.5048063254762994
 40
0.5476276943743118
 40
0.5903813723519659
 40
0.6330466120033303
 40
0.6755910508771255
 40
0.7179615318496457
 40
0.7600647610222424
 40
0.8017212905047071
 40
0.8425373308352381
 40
0.8814505741904549
 40
0.9160148891641308
 40
0.9415846476876536
 40
0.9703838410303964
 40
1.0
 40
1.0
 40
1.0
 40
1.0
 10
846.5190952499905
 20
954.4792685003878
 30
0.0
 10
845.6012143061396
 20
956.7859765458738
 30
0.0
 10
843.4688947719474
 20
962.1446656634761
 30
0.0
 10
838.9274607796594
 20
970.3712470324452
 30
0.0
 10
833.1162734140943
 20
979.1551100126791
 30
0.0
 10
826.2988996455394
 20
987.7199998764728
 30
0.0
 10
818.5463062997787
 20
996.041656154012
 30
0.0
 10
809.87846137061
 20
1004.090297975537
 30
0.0
 10
800.3323660017267
 20
1011.8402204038
 30
0.0
 10
789.9439086774493
 20
1019.266715552697
 30
0.0
 10
778.7522767238671
 20
1026.346664171131
 30
0.0
 10
766.7989414197338
 20
1033.058225134953
 30
0.0
 10
754.1277100376152
 20
1039.380824134343
 30
0.0
 10
740.7853888055657
 20
1045.294911147654
 30
0.0
 10
726.8222518683104
 20
1050.781945948798
 30
0.0
 10
712.2926460572723
 20
1055.824464961771
 30
0.0
 10
697.2561181032595
 20
1060.406175575251
 30
0.0
 10
681.7794787030912
 20
1064.511976716617
 30
0.0
 10
665.9411458846826
 20
1068.127926519969
 30
0.0
 10
649.8410839012071
 20
1071.24103000603
 30
0.0
 10
633.626823965878
 20
1073.838216463109
 30
0.0
 10
617.5783717599779
 20
1075.903011320036
 30
0.0
 10
602.2865653899885
 20
1077.416678677387
 30
0.0
 10
588.9254668277472
 20
1078.383181894583
 30
0.0
 10
576.8724818644679
 20
1078.989992158489
 30
0.0
 10
565.4557819738441
 20
1079.360184450419
 30
0.0
 10
557.5021299649178
 20
1079.408272183684
 30
0.0
 10
553.4696862157857
 20
1079.432652314873
 30
0.0
  0
SPLINE
  5
7A
330
1F
100
AcDbEntity
  8
0
  6
SLD-実線
 62
     7
370
    25
100
AcDbSpline
210
0.0
220
0.0
230
1.0
 70
     8
 71
     3
 72
    33
 73
    29
 74
     0
 42
0.000000001
 43
0.00000001
 40
0.0
 40
0.0
 40
0.0
 40
0.0
 40
0.0478125077611061
 40
0.066880665892542
 40
0.0985395899911291
 40
0.131309725757541
 40
0.1663716979685606
 40
0.2028674972975664
 40
0.2404504393858277
 40
0.2788436401431541
 40
0.3178508235817716
 40
0.3573272770113925
 40
0.3971647519295465
 40
0.4372812791280047
 40
0.4776141834104561
 40
0.5181156022764752
 40
0.5587493277164516
 40
0.5994888746968894
 40
0.6403161364428585
 40
0.6812207142878133
 40
0.7221996608506863
 40
0.7632553187865257
 40
0.8043981788933836
 40
0.8456485358272599
 40
0.8870371704142564
 40
0.9286080012080048
 40
0.9704217956583178
 40
1.0
 40
1.0
 40
1.0
 40
1.0
 10
553.4696862157857
 20
1079.432652314873
 30
0.0
 10
546.9612485964116
 20
1079.372648520326
 30
0.0
 10
537.8571739036821
 20
1079.288714547329
 30
0.0
 10
524.4869166162181
 20
1078.730841312353
 30
0.0
 10
513.1922932437064
 20
1078.07012367047
 30
0.0
 10
499.8147473154017
 20
1076.970302449033
 30
0.0
 10
485.9039618045623
 20
1075.482839669505
 30
0.0
 10
471.5151261821186
 20
1073.559054070894
 30
0.0
 10
456.898994478877
 20
1071.189844770598
 30
0.0
 10
442.2184049420873
 20
1068.368341468318
 30
0.0
 10
427.6084529324358
 20
1065.094546013077
 30
0.0
 10
413.1806302532297
 20
1061.372794250728
 30
0.0
 10
399.0296100476555
 20
1057.211015285488
 30
0.0
 10
385.2373476549189
 20
1052.619896072641
 30
0.0
 10
371.8757497868441
 20
1047.612335257503
 30
0.0
 10
359.0084892302461
 20
1042.202971708622
 30
0.0
 10
346.6922480927776
 20
1036.407744259064
 30
0.0
 10
334.977742894146
 20
1030.243427451789
 30
0.0
 10
323.910303797916
 20
1023.727307381979
 30
0.0
 10
313.5306393130697
 20
1016.876719034101
 30
0.0
 10
303.8755559559186
 20
1009.708797439177
 30
0.0
 10
294.9787734664399
 20
1002.240112248012
 30
0.0
 10
286.8703614467792
 20
994.4864202984227
 30
0.0
 10
279.5824501099451
 20
986.4615253850875
 30
0.0
 10
273.1311651348155
 20
978.17972926646
 30
0.0
 10
267.5899636112309
 20
969.6454071323542
 30
0.0
 10
263.2971783951622
 20
961.7675536985109
 30
0.0
 10
261.2949723620455
 20
956.676623754329
 30
0.0
 10
260.465444401157
 20
954.5674158777302
 30
0.0
  0
LINE
  5
7B
330
1F
100
AcDbEntity
  8
0
  6
SLD-実線
 62
     7
370
    25
100
AcDbLine
 10
853.3209130807
 20
915.1429512221
 30
0.0
 11
852.5359884029
 21
927.9744498645
 31
0.0
  0
LINE
  5
7C
330
1F
100
AcDbEntity
  8
0
  6
SLD-実線
 62
     7
370
    25
100
AcDbLine
 10
254.4033763865
 20
927.9744538974
 30
0.0
 11
253.6184726539
 21
915.1429483546
 31
0.0
  0
LINE
  5
7D
330
1F
100
AcDbEntity
  8
0
  6
SLD-実線
 62
     7
370
    25
100
AcDbLine
 10
341.064790646
 20
986.6833571806
 30
0.0
 11
341.0370219179
 21
988.0477007969
 31
0.0
  0
LINE
  5
7E
330
1F
100
AcDbEntity
  8
0
  6
SLD-実線
 62
     7
370
    25
100
AcDbLine
 10
332.5374797306
 20
988.0477034434
 30
0.0
 11
332.5055195278
 21
986.4785998492
 31
0.0
  0
LINE
  5
7F
330
1F
100
AcDbEntity
  8
0
  6
SLD-実線
 62
     7
370
    25
100
AcDbLine
 10
394.1352852569
 20
973.7109434689
 30
0.0
 11
394.102101443
 21
975.3400839119
 31
0.0
  0
LINE
  5
80
330
1F
100
AcDbEntity
  8
0
  6
SLD-実線
 62
     7
370
    25
100
AcDbLine
 10
385.6025757292
 20
975.3400820812
 30
0.0
 11
385.5661980555
 21
973.5543946668
 31
0.0
  0
LINE
  5
81
330
1F
100
AcDbEntity
  8
0
  6
SLD-実線
 62
     7
370
    25
100
AcDbLine
 10
253.6184624005
 20
903.2689721614
 30
0.0
 11
259.7745522941
 21
802.631682245
 31
0.0
  0
LINE
  5
82
330
1F
100
AcDbEntity
  8
0
  6
SLD-実線
 62
     7
370
    25
100
AcDbLine
 10
847.1648325605
 20
802.6316856481
 30
0.0
 11
853.3209028272
 21
903.2689750288
 31
0.0
  0
SPLINE
  5
83
330
1F
100
AcDbEntity
  8
0
  6
SLD-実線
 62
     7
370
    25
100
AcDbSpline
210
0.0
220
0.0
230
1.0
 70
     8
 71
     3
 72
    13
 73
     9
 74
     0
 42
0.000000001
 43
0.00000001
 40
0.0
 40
0.0
 40
0.0
 40
0.0
 40
0.1210535169159061
 40
0.3242444627630795
 40
0.5210176264296316
 40
0.6609035963126065
 40
0.800249208016378
 40
1.0
 40
1.0
 40
1.0
 40
1.0
 10
475.2126894341743
 20
657.2721902566592
 30
0.0
 10
478.2904802297484
 20
656.8181362307099
 30
0.0
 10
486.5344094309239
 20
655.6019427035809
 30
0.0
 10
500.0280070862657
 20
654.1545402735163
 30
0.0
 10
514.1130592322165
 20
652.9791491910585
 30
0.0
 10
526.6136703352875
 20
652.2610745780194
 30
0.0
 10
539.2344067438358
 20
651.7628817454482
 30
0.0
 10
548.1926619824537
 20
651.6918563283741
 30
0.0
 10
553.4696822022112
 20
651.6500175381151
 30
0.0
  0
SPLINE
  5
84
330
1F
100
AcDbEntity
  8
0
  6
SLD-実線
 62
     7
370
    25
100
AcDbSpline
210
0.0
220
0.0
230
1.0
 70
     8
 71
     3
 72
    22
 73
    18
 74
     0
 42
0.000000001
 43
0.00000001
 40
0.0
 40
0.0
 40
0.0
 40
0.0
 40
0.0397618252068909
 40
0.115054423376392
 40
0.1924504093730585
 40
0.2627476909098067
 40
0.333493983771215
 40
0.404623130729555
 40
0.4760453835804673
 40
0.5476638996443179
 40
0.6193920958584118
 40
0.6911606670650436
 40
0.762918256151696
 40
0.8346143978691706
 40
0.9062291886409156
 40
0.977745771936438
 40
0.9999999999999999
 40
0.9999999999999999
 40
0.9999999999999999
 40
0.9999999999999999
 10
260.0474701198377
 20
800.8749784041318
 30
0.0
 10
260.1724481121493
 20
799.0625759721581
 30
0.0
 10
260.5340831921623
 20
793.8182262560247
 30
0.0
 10
262.4846749223483
 20
785.1257058217509
 30
0.0
 10
265.7340206494886
 20
775.1981146187668
 30
0.0
 10
270.0877615444579
 20
765.6738574131201
 30
0.0
 10
275.3011443804255
 20
756.6406254385984
 30
0.0
 10
281.5223328798124
 20
747.8090477677983
 30
0.0
 10
288.7188333774537
 20
739.2163313290895
 30
0.0
 10
296.8588847384481
 20
730.8967034562558
 30
0.0
 10
305.9053898098766
 20
722.8809288854934
 30
0.0
 10
315.817550540398
 20
715.1953502899421
 30
0.0
 10
326.5571634823102
 20
707.8672719227602
 30
0.0
 10
338.0644634650633
 20
700.9079531076185
 30
0.0
 10
350.3527651994917
 20
694.3768598543394
 30
0.0
 10
360.2224977724189
 20
689.5723648699803
 30
0.0
 10
366.1930017170936
 20
687.0938566159516
 30
0.0
 10
367.6099560391627
 20
686.5056427875423
 30
0.0
  0
SPLINE
  5
85
330
1F
100
AcDbEntity
  8
0
  6
SLD-実線
 62
     7
370
    25
100
AcDbSpline
210
0.0
220
0.0
230
1.0
 70
     8
 71
     3
 72
    35
 73
    31
 74
     0
 42
0.000000001
 43
0.00000001
 40
0.0
 40
0.0
 40
0.0
 40
0.0
 40
0.0433651903190972
 40
0.0607648959230313
 40
0.0896402477842609
 40
0.1195438292023041
 40
0.1515486563585674
 40
0.1848690013131325
 40
0.2191878379760925
 40
0.2542525188798493
 40
0.2898845157330129
 40
0.3259527455135813
 40
0.362359702760144
 40
0.3990318510063278
 40
0.435913454615364
 40
0.4729621481397039
 40
0.5101459595238291
 40
0.5474412336388488
 40
0.5848311707597049
 40
0.6223046517055842
 40
0.6598549862984998
 40
0.6974731997353981
 40
0.7351584493145953
 40
0.7729134953467169
 40
0.8107469337825232
 40
0.848677268920821
 40
0.8867398016386417
 40
0.9249958198185042
 40
0.963541991820534
 40
1.0
 40
1.0
 40
1.0
 40
1.0
 10
553.4696822022112
 20
651.6500175381151
 30
0.0
 10
559.8682630698706
 20
651.7095988688753
 30
0.0
 10
568.8341893719904
 20
651.7930864158217
 30
0.0
 10
582.0176468945297
 20
652.3490774818571
 30
0.0
 10
593.1866031915816
 20
653.0104422885444
 30
0.0
 10
606.416092170887
 20
654.1125144465138
 30
0.0
 10
620.1756923568843
 20
655.6045223015028
 30
0.0
 10
634.4087520164611
 20
657.535590639717
 30
0.0
 10
648.8658500947683
 20
659.9151674933546
 30
0.0
 10
663.3850516022602
 20
662.7504808389157
 30
0.0
 10
677.8320902867173
 20
666.0420136608569
 30
0.0
 10
692.0963108234647
 20
669.7859828594895
 30
0.0
 10
706.0837748728185
 20
673.9751856137158
 30
0.0
 10
719.7133097780909
 20
678.599836762227
 30
0.0
 10
732.9136849132348
 20
683.6481579908432
 30
0.0
 10
745.6218666275877
 20
689.1068299263729
 30
0.0
 10
757.7815277020643
 20
694.9615899604435
 30
0.0
 10
769.3421787993614
 20
701.1975143671319
 30
0.0
 10
780.2582260887041
 20
707.7994623125599
 30
0.0
 10
790.4881601235468
 20
714.7523686106983
 30
0.0
 10
799.9932285079337
 20
722.0410817482267
 30
0.0
 10
808.7371443974746
 20
729.6507054784993
 30
0.0
 10
816.6854548670506
 20
737.5665617509659
 30
0.0
 10
823.8048111172413
 20
745.7745904314247
 30
0.0
 10
830.0627649925951
 20
754.2608572214041
 30
0.0
 10
835.4237265540028
 20
763.0117218937102
 30
0.0
 10
839.8611344551337
 20
772.0132310119064
 30
0.0
 10
843.3077029606899
 20
781.2538424825825
 30
0.0
 10
845.7828231187372
 20
790.5099288358265
 30
0.0
 10
846.5377705947689
 20
796.7156298655542
 30
0.0
 10
846.904735225135
 20
799.7320950592764
 30
0.0
  0
LINE
  5
86
330
1F
100
AcDbEntity
  8
0
  6
SLD-実線
 62
     7
370
    25
100
AcDbLine
 10
331.3181969616
 20
705.1313130427
 30
0.0
 11
331.3776413639
 21
703.185878406
 31
0.0
  0
LINE
  5
87
330
1F
100
AcDbEntity
  8
0
  6
SLD-実線
 62
     7
370
    25
100
AcDbLine
 10
775.561744007
 20
703.1858758215
 30
0.0
 11
775.6208810472
 21
705.1217563844
 31
0.0
  0
SPLINE
  5
88
330
1F
100
AcDbEntity
  8
0
  6
SLD-実線
 62
     7
370
    25
100
AcDbSpline
210
0.0
220
0.0
230
1.0
 70
     8
 71
     3
 72
    21
 73
    17
 74
     0
 42
0.000000001
 43
0.00000001
 40
0.0
 40
0.0
 40
0.0
 40
0.0
 40
0.0993291723997293
 40
0.1394272943898359
 40
0.2058355254188019
 40
0.2744697462101562
 40
0.3477377395165683
 40
0.4237608468277327
 40
0.5017588422635941
 40
0.5811058395474467
 40
0.6613549968378343
 40
0.7421775974677449
 40
0.8233342721701662
 40
0.904658740672892
 40
0.9860528269363261
 40
1.0
 40
1.0
 40
1.0
 40
1.0
 10
356.2908853919176
 20
686.5867739130439
 30
0.0
 10
360.8111874980746
 20
686.5303626322612
 30
0.0
 10
367.1562871023461
 20
686.4511787222118
 30
0.0
 10
376.4645032537097
 20
685.9240959687093
 30
0.0
 10
384.3367933552727
 20
685.2963819645444
 30
0.0
 10
393.588929349447
 20
684.2545171574898
 30
0.0
 10
403.1072263171334
 20
682.8528868953148
 30
0.0
 10
412.8111145414957
 20
681.0541452326257
 30
0.0
 10
422.4878911241162
 20
678.8612650236425
 30
0.0
 10
431.9887432100097
 20
676.2817337078827
 30
0.0
 10
441.1900166799215
 20
673.3322796494429
 30
0.0
 10
449.9817939042229
 20
670.0338144373086
 30
0.0
 10
458.2980070650033
 20
666.4200543697177
 30
0.0
 10
465.9848116559921
 20
662.4994816986521
 30
0.0
 10
471.2663716865577
 20
659.5281988327079
 30
0.0
 10
473.7580292006467
 20
657.8174699495189
 30
0.0
 10
474.1225259443405
 20
657.5672127999148
 30
0.0
  0
LINE
  5
89
330
1F
100
AcDbEntity
  8
0
  6
SLD-実線
 62
     7
370
    25
100
AcDbLine
 10
425.0452335636
 20
722.430761376
 30
0.0
 11
426.8048615167
 21
723.5139850862
 31
0.0
  0
SPLINE
  5
8A
330
1F
100
AcDbEntity
  8
0
  6
SLD-実線
 62
     7
370
    25
100
AcDbSpline
210
0.0
220
0.0
230
1.0
 70
     8
 71
     3
 72
    18
 73
    14
 74
     0
 42
0.000000001
 43
0.00000001
 40
0.0
 40
0.0
 40
0.0
 40
0.0
 40
0.0684180091349403
 40
0.1330226295233259
 40
0.250336251705806
 40
0.3556342855649464
 40
0.4551958839997233
 40
0.5499980218183552
 40
0.6687350036591584
 40
0.7484489808448679
 40
0.8422886716982405
 40
0.9505445700252844
 40
1.0
 40
1.0
 40
1.0
 40
1.0
 10
410.384585366097
 20
740.3254237927708
 30
0.0
 10
409.9329638945322
 20
739.8094116551596
 30
0.0
 10
409.0548928068708
 20
738.8061481536503
 30
0.0
 10
408.0715110983226
 20
736.4959998765178
 30
0.0
 10
407.7548264175609
 20
733.5758015476937
 30
0.0
 10
408.4642068664092
 20
730.2839326348985
 30
0.0
 10
409.9687588677999
 20
727.3297127255835
 30
0.0
 10
412.2429788543332
 20
724.6264334913275
 30
0.0
 10
414.9347146928446
 20
722.6791831069645
 30
0.0
 10
417.9133254151027
 20
721.4735724201363
 30
0.0
 10
420.8333840849843
 20
721.0716442010481
 30
0.0
 10
423.4370104721796
 20
721.3095286666747
 30
0.0
 10
424.6613140335462
 20
722.1630975567839
 30
0.0
 10
425.0452335636075
 20
722.4307613760411
 30
0.0
  0
LINE
  5
8B
330
1F
100
AcDbEntity
  8
0
  6
SLD-実線
 62
     7
370
    25
100
AcDbLine
 10
416.0449308462
 20
745.850094331
 30
0.0
 11
410.3876051776
 21
740.3283710452
 31
0.0
  0
LINE
  5
8C
330
1F
100
AcDbEntity
  8
0
  6
SLD-実線
 62
     7
370
    25
100
AcDbLine
 10
426.8018417051
 20
723.5110338423
 30
0.0
 11
432.5080039681
 21
729.0804231413
 31
0.0
  0
LWPOLYLINE
  5
8D
330
1F
100
AcDbEntity
  8
0
  6
SLD-実線
 62
     7
370
    25
100
AcDbPolyline
 90
       17
 70
   128
 43
0.0
 10
444.9008763128
 20
963.6882533701
 10
446.1883175427
 20
963.1499582087
 10
446.9777981477
 20
962.3988874477
 10
447.149118155
 20
961.5493869316
 10
446.6761956339
 20
960.7307856292
 10
445.6310471421
 20
960.0677030843
 10
444.172768535
 20
959.6610925535
 10
442.5233698646
 20
959.5728569207
 10
440.9339654543
 20
959.8164267609
 10
439.6465242243
 20
960.3547219224
 10
438.8570518561
 20
961.1057904448
 10
438.6857318488
 20
961.9552909609
 10
439.1586461332
 20
962.7738945019
 10
440.2038028618
 20
963.4369748082
 10
441.6620814689
 20
963.843585339
 10
443.3114719024
 20
963.9318232104
 10
444.9008763128
 20
963.6882533701
  0
SPLINE
  5
8E
330
1F
100
AcDbEntity
  8
0
  6
SLD-実線
 62
     7
370
    25
100
AcDbSpline
210
0.0
220
0.0
230
1.0
 70
     8
 71
     3
 72
    10
 73
     6
 74
     0
 42
0.000000001
 43
0.00000001
 40
0.0
 40
0.0
 40
0.0
 40
0.0
 40
0.5
 40
0.5
 40
1.0
 40
1.0
 40
1.0
 40
1.0
 10
469.6154121236279
 20
781.8238327185234
 30
0.0
 10
457.2232891791712
 20
790.1172334734355
 30
0.0
 10
441.7993693866868
 20
796.8677263931553
 30
0.0
 10
406.7111300327618
 20
806.4039635861897
 30
0.0
 10
387.5002876909122
 20
809.0664497118588
 30
0.0
 10
367.8183027365374
 20
809.4901153346086
 30
0.0
  0
LWPOLYLINE
  5
8F
330
1F
100
AcDbEntity
  8
0
  6
SLD-実線
 62
     7
370
    25
100
AcDbPolyline
 90
       89
 70
   128
 43
0.0
 10
367.8183083692
 20
809.4901187
 10
352.9517439915
 20
816.1483713676
 10
338.9830442255
 20
823.3037937654
 10
325.9747741195
 20
830.9243588833
 10
313.9851675456
 20
838.9759193272
 10
303.0679079854
 20
847.4224404501
 10
293.2718869133
 20
856.2260985591
 10
284.6409786395
 20
865.3474722733
 10
277.2138142409
 20
874.7457124348
 10
271.0236483775
 20
884.3787410109
 10
266.098208266
 20
894.203422305
 10
262.4595440228
 20
904.1757663352
 10
260.1239613741
 20
914.2511098289
 10
259.1019024232
 20
924.3843492976
 10
259.3979486024
 20
934.5301083642
 10
261.0107673336
 20
944.6429529301
 10
263.9331584449
 20
954.6776009245
 10
268.1520272592
 20
964.5891221541
 10
273.648461784
 20
974.3331369768
 10
280.3978855741
 20
983.866006613
 10
288.370049837
 20
993.1450515544
 10
297.5292524618
 20
1002.1287242313
 10
307.8345032811
 20
1010.776790869
 10
319.2396456172
 20
1019.0505323444
 10
331.6936190267
 20
1026.9128978532
 10
345.1406464695
 20
1034.3286875924
 10
359.5205204929
 20
1041.2646881944
 10
374.7688449825
 20
1047.6898470147
 10
390.817360716
 20
1053.5753843242
 10
407.5941795077
 20
1058.8949601736
 10
425.0241999109
 20
1063.6247512381
 10
443.0293625314
 20
1067.7435766751
 10
461.5290536026
 20
1071.2329836887
 10
480.4404392324
 20
1074.0773682056
 10
499.6788236901
 20
1076.2639751245
 10
519.1580712793
 20
1077.7830222944
 10
538.7909646249
 20
1078.6277007645
 10
558.489573933
 20
1078.7942371321
 10
578.1657145747
 20
1078.2818776522
 10
597.7312651015
 20
1077.092921125
 10
617.0986289476
 20
1075.2327018863
 10
636.1810776244
 20
1072.7095290748
 10
654.8931556786
 20
1069.5347067386
 10
673.1510964142
 20
1065.7224642387
 10
690.8731323387
 20
1061.2898610295
 10
707.9799037453
 20
1056.2567406971
 10
724.3948150419
 20
1050.645644964
 10
740.0443744303
 20
1044.4817105242
 10
754.8584978063
 20
1037.7925213674
 10
768.7708366644
 20
1030.6080305089
 10
781.7191242779
 20
1022.9604225168
 10
793.6453720268
 20
1014.8839299895
 10
804.4961604355
 20
1006.4147219169
 10
814.222927018
 20
997.5907169797
 10
822.7820930489
 20
988.4514297783
 10
830.1353472907
 20
979.0377852509
 10
836.2497544665
 20
969.3919264873
 10
841.0979570757
 20
959.5570622562
 10
844.65821478
 20
949.577217666
 10
846.9146062185
 20
939.4970816917
 10
847.8570285786
 20
929.3618011981
 10
847.4812664958
 20
919.2167398493
 10
845.7889778872
 20
909.1073409473
 10
842.7877619395
 20
899.0788648955
 10
838.4910455376
 20
889.1762166828
 10
832.918082836
 20
879.4437399058
 10
826.0938123496
 20
869.9250156179
 10
818.0488013989
 20
860.6626642149
 10
808.8190594854
 20
851.6981632832
 10
798.4459375649
 20
843.0716465089
 10
786.9758801467
 20
834.8217439418
 10
774.4602216513
 20
826.9854037906
 10
760.955035992
 20
819.5977044978
 10
746.5207815079
 20
812.6917342987
 10
731.2220822071
 20
806.2984188187
 10
715.1274528938
 20
800.4463761253
 10
698.3089636605
 20
795.1618153763
 10
680.841929896
 20
790.468398705
 10
662.80453731
 20
786.3871424592
 10
644.2775754051
 20
782.936321509
 10
625.3439966083
 20
780.1313883948
 10
606.0885881942
 20
777.9848997854
 10
586.5975618416
 20
776.5064653225
 10
566.9581939787
 20
775.7027152019
 10
547.2584400489
 20
775.5772423024
 10
527.5864934011
 20
776.1306135991
 10
508.0304338709
 20
777.3603355072
 10
488.6778516389
 20
779.2609235677
 10
469.6153910284
 20
781.8238528808
  0
LINE
  5
90
330
1F
100
AcDbEntity
  8
0
  6
SLD-実線
 62
     7
370
    25
100
AcDbLine
 10
332.5862622997
 20
988.6011896667
 30
0.0
 11
332.93102557
 21
988.8354147756
 31
0.0
  0
SPLINE
  5
91
330
1F
100
AcDbEntity
  8
0
  6
SLD-実線
 62
     7
370
    25
100
AcDbSpline
210
0.0
220
0.0
230
1.0
 70
     8
 71
     3
 72
    22
 73
    18
 74
     0
 42
0.000000001
 43
0.00000001
 40
0.0
 40
0.0
 40
0.0
 40
0.0
 40
0.0075884750060119
 40
0.0841402942919939
 40
0.1606729003345353
 40
0.2371670578765812
 40
0.2873580263305602
 40
0.3638070705809675
 40
0.4402558837465168
 40
0.5167221760503256
 40
0.5932285952240054
 40
0.6436794854331747
 40
0.7202304491122574
 40
0.7967822699932421
 40
0.8733148864610669
 40
0.9498090350137348
 40
1.0
 40
1.0
 40
1.0
 40
1.0
 10
340.144582039735
 20
989.3453326249702
 30
0.0
 10
340.1869108518221
 20
989.3305398316799
 30
0.0
 10
340.6562487231618
 20
989.166518736551
 30
0.0
 10
341.2039703073096
 20
988.6576431209819
 30
0.0
 10
341.621866127284
 20
987.8927263900673
 30
0.0
 10
341.4755675060745
 20
987.164700493762
 30
0.0
 10
340.9560172303779
 20
986.4886662442335
 30
0.0
 10
340.0797769833695
 20
985.8925263455634
 30
0.0
 10
338.7203151156783
 20
985.4127703816077
 30
0.0
 10
337.1433690979975
 20
985.1777993082197
 30
0.0
 10
335.7077413442181
 20
985.2114664168913
 30
0.0
 10
334.3828132439998
 20
985.4401422873972
 30
0.0
 10
333.2375077962739
 20
985.8521306985257
 30
0.0
 10
332.3467887247802
 20
986.5137311662643
 30
0.0
 10
331.9633885411769
 20
987.2950535800265
 30
0.0
 10
332.0830431505854
 20
988.0231192622782
 30
0.0
 10
332.4434671014795
 20
988.4371544185541
 30
0.0
 10
332.5862622997011
 20
988.6011896666682
 30
0.0
  0
SPLINE
  5
92
330
1F
100
AcDbEntity
  8
0
  6
SLD-実線
 62
     7
370
    25
100
AcDbSpline
210
0.0
220
0.0
230
1.0
 70
     8
 71
     3
 72
    21
 73
    17
 74
     0
 42
0.000000001
 43
0.00000001
 40
0.0
 40
0.0
 40
0.0
 40
0.0
 40
0.0250782146516787
 40
0.1065273723938775
 40
0.1879530745730358
 40
0.241437843418255
 40
0.322836357828338
 40
0.4042343625286831
 40
0.4856433086159258
 40
0.5670761180887417
 40
0.6207195014160676
 40
0.7021794150336323
 40
0.7836403741339235
 40
0.865089542973844
 40
0.9465152348463252
 40
1.0
 40
1.0
 40
1.0
 40
1.0
 10
393.939270470119
 20
975.8868290835807
 30
0.0
 10
394.0339522410591
 20
975.8207187615018
 30
0.0
 10
394.4361419667604
 20
975.5398949868836
 30
0.0
 10
394.6596684837246
 20
974.907225129897
 30
0.0
 10
394.545319271329
 20
974.1878484497533
 30
0.0
 10
394.0197238345671
 20
973.5081144278693
 30
0.0
 10
393.1451651350431
 20
972.9142455044379
 30
0.0
 10
391.7847525799474
 20
972.4395972689123
 30
0.0
 10
390.2076439330366
 20
972.2131173859092
 30
0.0
 10
388.7721780549791
 20
972.2560624686813
 30
0.0
 10
387.4477094082174
 20
972.4944665701507
 30
0.0
 10
386.302807021635
 20
972.9160432531603
 30
0.0
 10
385.4121500524846
 20
973.5872429112808
 30
0.0
 10
385.0285539799986
 20
974.3757718450199
 30
0.0
 10
385.1479353425991
 20
975.1078430104279
 30
0.0
 10
385.5084264304338
 20
975.5224341448771
 30
0.0
 10
385.6513418248208
 20
975.6867973080421
 30
0.0
  0
LINE
  5
93
330
1F
100
AcDbEntity
  8
0
  6
SLD-実線
 62
     7
370
    25
100
AcDbLine
 10
438.7164378235
 20
962.3605578854
 30
0.0
 11
439.1110437187
 21
962.6271324929
 31
0.0
  0
SPLINE
  5
94
330
1F
100
AcDbEntity
  8
0
  6
SLD-実線
 62
     7
370
    25
100
AcDbSpline
210
0.0
220
0.0
230
1.0
 70
     8
 71
     3
 72
    22
 73
    18
 74
     0
 42
0.000000001
 43
0.00000001
 40
0.0
 40
0.0
 40
0.0
 40
0.0
 40
0.0022724280064399
 40
0.0791925656818318
 40
0.1561079564878437
 40
0.2330131325818986
 40
0.283567980762596
 40
0.3604614803910462
 40
0.4373548550756152
 40
0.5142528945648901
 40
0.5911613297273693
 40
0.6417842663845481
 40
0.7187041034678662
 40
0.795624633858868
 40
0.8725400252868961
 40
0.949445201380951
 40
1.0
 40
1.0
 40
1.0
 40
1.0
 10
446.3625391477645
 20
962.9869741500652
 30
0.0
 10
446.3750508484097
 20
962.9822984767078
 30
0.0
 10
446.8110750799068
 20
962.819354450139
 30
0.0
 10
447.330528495699
 20
962.309088064297
 30
0.0
 10
447.7527610375483
 20
961.5317142659885
 30
0.0
 10
447.605917379959
 20
960.7954902562352
 30
0.0
 10
447.0865733734242
 20
960.1170082189345
 30
0.0
 10
446.2096153625835
 20
959.5237817393837
 30
0.0
 10
444.8495943754454
 20
959.054777943484
 30
0.0
 10
443.2720718793668
 20
958.8366154969938
 30
0.0
 10
441.8368011494835
 20
958.888837212036
 30
0.0
 10
440.5126507899615
 20
959.136942188088
 30
0.0
 10
439.3680510663758
 20
959.5681465432967
 30
0.0
 10
438.4774367494706
 20
960.2489867732266
 30
0.0
 10
438.093703961865
 20
961.0447639509259
 30
0.0
 10
438.2128745958652
 20
961.7808149455277
 30
0.0
 10
438.5734298186754
 20
962.1959154401108
 30
0.0
 10
438.7164378235117
 20
962.3605578853769
 30
0.0
  0
SPLINE
  5
95
330
1F
100
AcDbEntity
  8
0
  6
SLD-実線
 62
     7
370
    25
100
AcDbSpline
210
0.0
220
0.0
230
1.0
 70
     8
 71
     3
 72
     8
 73
     4
 74
     0
 42
0.000000001
 43
0.00000001
 40
0.0
 40
0.0
 40
0.0
 40
0.0
 40
1.0
 40
1.0
 40
1.0
 40
1.0
 10
468.6709733121577
 20
778.9544825602874
 30
0.0
 10
468.4211193778506
 20
777.7791451350141
 30
0.0
 10
468.2676094322556
 20
776.4843454328285
 30
0.0
 10
468.2492482168171
 20
775.3973611602845
 30
0.0
  0
SPLINE
  5
96
330
1F
100
AcDbEntity
  8
0
  6
SLD-実線
 62
     7
370
    25
100
AcDbSpline
210
0.0
220
0.0
230
1.0
 70
     8
 71
     3
 72
     8
 73
     4
 74
     0
 42
0.000000001
 43
0.00000001
 40
0.0
 40
0.0
 40
0.0
 40
0.0
 40
1.0
 40
1.0
 40
1.0
 40
1.0
 10
469.6153881196931
 20
781.8238484829599
 30
0.0
 10
469.2645973943427
 20
781.1742752007194
 30
0.0
 10
468.9208272455044
 20
780.1298199810429
 30
0.0
 10
468.6709733121577
 20
778.9544825602874
 30
0.0
  0
SPLINE
  5
97
330
1F
100
AcDbEntity
  8
0
  6
SLD-実線
 62
     7
370
    25
100
AcDbSpline
210
0.0
220
0.0
230
1.0
 70
     8
 71
     3
 72
     8
 73
     4
 74
     0
 42
0.000000001
 43
0.00000001
 40
0.0
 40
0.0
 40
0.0
 40
0.0
 40
1.0
 40
1.0
 40
1.0
 40
1.0
 10
365.7272780037702
 20
806.9323731115326
 30
0.0
 10
366.2804866396577
 20
808.0252652273537
 30
0.0
 10
367.0416232530924
 20
808.9562891885514
 30
0.0
 10
367.8183027454903
 20
809.4901150304995
 30
0.0
  0
SPLINE
  5
98
330
1F
100
AcDbEntity
  8
0
  6
SLD-実線
 62
     7
370
    25
100
AcDbSpline
210
0.0
220
0.0
230
1.0
 70
     8
 71
     3
 72
     8
 73
     4
 74
     0
 42
0.000000001
 43
0.00000001
 40
0.0
 40
0.0
 40
0.0
 40
0.0
 40
1.0
 40
1.0
 40
1.0
 40
1.0
 10
364.7934744882032
 20
803.5144236706404
 30
0.0
 10
364.8341637653205
 20
804.5953396492711
 30
0.0
 10
365.174069369379
 20
805.8394809986685
 30
0.0
 10
365.7272780037702
 20
806.9323731115326
 30
0.0
  0
ARC
  5
99
330
1F
100
AcDbEntity
  8
0
  6
SLD-実線
 62
     7
370
    25
100
AcDbCircle
 10
336.1513760382
 20
923.1560576203
 30
0.0
 40
81.85718873858671
100
AcDbArc
 50
158.2431750104
 51
193.501769208
  0
ARC
  5
9A
330
1F
100
AcDbEntity
  8
0
  6
SLD-実線
 62
     7
370
    25
100
AcDbCircle
 10
770.5898991476
 20
923.1335813503
 30
0.0
 40
82.04879794216262
100
AcDbArc
 50
347.513585254
 51
21.6470562657
  0
LWPOLYLINE
  5
9B
330
1F
100
AcDbEntity
  8
0
  6
SLD-実線
 62
     7
370
    25
100
AcDbPolyline
 90
       15
 70
   128
 43
0.0
 10
364.4912508798
 20
790.2755937458
 10
349.4931948625
 20
796.9765468325
 10
335.3885998113
 20
804.1737838316
 10
322.2392308535
 20
811.8357663105
 10
310.102701754
 20
819.9289492892
 10
299.0321623734
 20
828.4178770297
 10
289.0761229324
 20
837.2653609613
 10
280.2781615915
 20
846.4326567782
 10
272.6768388641
 20
855.8796070176
 10
266.3054386001
 20
865.5648199253
 10
261.1918855907
 20
875.4458870957
 10
257.3585515346
 20
885.4795229831
 10
254.8222641596
 20
895.6217793632
 10
253.5940820659
 20
905.8282366906
 10
253.6184726539
 20
915.1429483546
  0
LWPOLYLINE
  5
9C
330
1F
100
AcDbEntity
  8
0
  6
SLD-実線
 62
     7
370
    25
100
AcDbPolyline
 90
       30
 70
   128
 43
0.0
 10
853.3209130807
 20
915.1429512221
 10
853.4623998984
 20
909.1999201964
 10
852.6669887682
 20
898.9820970676
 10
850.5610501535
 20
888.8137467571
 10
847.153802266
 20
878.7394076284
 10
842.4601434513
 20
868.8032213827
 10
836.5006586287
 20
859.048692673
 10
829.3014429113
 20
849.518558064
 10
820.8940364469
 20
840.2545579877
 10
811.3152557212
 20
831.2972720906
 10
800.6070658617
 20
822.68593293
 10
788.8163524694
 20
814.4582649431
 10
775.9947958236
 20
806.650299999
 10
762.1985211511
 20
799.2962416095
 10
747.4879789044
 20
792.4283069654
 10
731.9275943903
 20
786.0765699658
 10
715.5855363619
 20
780.2688586923
 10
698.5333588664
 20
775.0306114005
 10
680.8458006115
 20
770.3847629181
 10
662.6002990215
 20
766.3516814671
 10
643.8767921261
 20
762.9490164124
 10
624.757284774
 20
760.1916859907
 10
605.3255100398
 20
758.0917523922
 10
585.6665961038
 20
756.6584255184
 10
565.8666709134
 20
755.8979751804
 10
546.0124293093
 20
755.8137402737
 10
526.1908561944
 20
756.4060846976
 10
506.4887776428
 20
757.6724217304
 10
486.9924765345
 20
759.6071883273
 10
467.7873626277
 20
762.2019239406
  0
LINE
  5
9D
330
1F
100
AcDbEntity
  8
0
  6
SLD-実線
 62
     7
370
    25
100
AcDbLine
 10
468.2492455871
 20
775.3973585024
 30
0.0
 11
467.7873626277
 21
762.2019239406
 31
0.0
  0
LINE
  5
9E
330
1F
100
AcDbEntity
  8
0
  6
SLD-実線
 62
     7
370
    25
100
AcDbLine
 10
364.4912508798
 20
790.2755937458
 30
0.0
 11
364.7934719866
 21
803.5144209779
 31
0.0
  0
SPLINE
  5
9F
330
1F
100
AcDbEntity
  8
0
  6
SLD-実線
 62
     7
370
    25
100
AcDbSpline
210
0.0
220
0.0
230
1.0
 70
     8
 71
     3
 72
    10
 73
     6
 74
     0
 42
0.000000001
 43
0.00000001
 40
0.0
 40
0.0
 40
0.0
 40
0.0
 40
0.5
 40
0.5
 40
1.0
 40
1.0
 40
1.0
 40
1.0
 10
367.6050736095276
 20
806.5518305370292
 30
0.0
 10
367.5784210760513
 20
805.9238930817744
 30
0.0
 10
367.559341312452
 20
805.2645539625792
 30
0.0
 10
367.5389868867225
 20
804.0241498372105
 30
0.0
 10
367.5376081915163
 20
803.4450958931093
 30
0.0
 10
367.5429730833612
 20
802.946913905117
 30
0.0
  0
SPLINE
  5
A0
330
1F
100
AcDbEntity
  8
0
  6
SLD-実線
 62
     7
370
    25
100
AcDbSpline
210
0.0
220
0.0
230
1.0
 70
     8
 71
     3
 72
    10
 73
     6
 74
     0
 42
0.000000001
 43
0.00000001
 40
0.0
 40
0.0
 40
0.0
 40
0.0
 40
0.5
 40
0.5
 40
1.0
 40
1.0
 40
1.0
 40
1.0
 10
367.8183027373327
 20
809.4901153409371
 30
0.0
 10
367.7799445616029
 20
809.1848446618734
 30
0.0
 10
367.7400390093344
 20
808.7757756068575
 30
0.0
 10
367.6658383196291
 20
807.7729469511954
 30
0.0
 10
367.6317635364452
 20
807.1797671762533
 30
0.0
 10
367.6051108745492
 20
806.551829721874
 30
0.0
  0
SPLINE
  5
A1
330
1F
100
AcDbEntity
  8
0
  6
SLD-実線
 62
     7
370
    25
100
AcDbSpline
210
0.0
220
0.0
230
1.0
 70
     8
 71
     3
 72
    10
 73
     6
 74
     0
 42
0.000000001
 43
0.00000001
 40
0.0
 40
0.0
 40
0.0
 40
0.0
 40
0.5
 40
0.5
 40
1.0
 40
1.0
 40
1.0
 40
1.0
 10
466.985002004037
 20
779.542494954576
 30
0.0
 10
467.3520949185711
 20
780.07790794348
 30
0.0
 10
467.7893321245133
 20
780.561516757526
 30
0.0
 10
468.7007486880264
 20
781.3368081554167
 30
0.0
 10
469.1726352881604
 20
781.6284741484393
 30
0.0
 10
469.6154121328073
 20
781.8238327225732
 30
0.0
  0
SPLINE
  5
A2
330
1F
100
AcDbEntity
  8
0
  6
SLD-実線
 62
     7
370
    25
100
AcDbSpline
210
0.0
220
0.0
230
1.0
 70
     8
 71
     3
 72
    10
 73
     6
 74
     0
 42
0.000000001
 43
0.00000001
 40
0.0
 40
0.0
 40
0.0
 40
0.0
 40
0.5
 40
0.5
 40
1.0
 40
1.0
 40
1.0
 40
1.0
 10
465.7878692357577
 20
776.2460472210716
 30
0.0
 10
465.8158873642141
 20
776.7351563846821
 30
0.0
 10
465.9223070000449
 20
777.2856623571374
 30
0.0
 10
466.3229371278874
 20
778.4227154641907
 30
0.0
 10
466.6179320162998
 20
779.0070666305635
 30
0.0
 10
466.9850250144182
 20
779.5424795710976
 30
0.0
  0
SPLINE
  5
A3
330
1F
100
AcDbEntity
  8
0
  6
SLD-実線
 62
     7
370
    25
100
AcDbSpline
210
0.0
220
0.0
230
1.0
 70
     8
 71
     3
 72
     8
 73
     4
 74
     0
 42
0.000000001
 43
0.00000001
 40
0.0
 40
0.0
 40
0.0
 40
0.0
 40
1.0
 40
1.0
 40
1.0
 40
1.0
 10
422.0110848306909
 20
795.386895507266
 30
0.0
 10
438.9432740796848
 20
790.7850892971454
 30
0.0
 10
453.8287877398629
 20
784.2632248706907
 30
0.0
 10
465.7878692357577
 20
776.2460472210718
 30
0.0
  0
SPLINE
  5
A4
330
1F
100
AcDbEntity
  8
0
  6
SLD-実線
 62
     7
370
    25
100
AcDbSpline
210
0.0
220
0.0
230
1.0
 70
     8
 71
     3
 72
     8
 73
     4
 74
     0
 42
0.000000001
 43
0.00000001
 40
0.0
 40
0.0
 40
0.0
 40
0.0
 40
1.0
 40
1.0
 40
1.0
 40
1.0
 10
367.5429730833612
 20
802.946913905117
 30
0.0
 10
386.5382023494532
 20
802.5513572830436
 30
0.0
 10
405.0789139512734
 20
799.9886967249292
 30
0.0
 10
422.0110848306908
 20
795.3868955072659
 30
0.0
  0
SPLINE
  5
A5
330
1F
100
AcDbEntity
  8
0
  6
SLD-実線
 62
     7
370
    25
100
AcDbSpline
210
0.0
220
0.0
230
1.0
 70
     8
 71
     3
 72
     9
 73
     5
 74
     0
 42
0.000000001
 43
0.00000001
 40
0.0
 40
0.0
 40
0.0
 40
0.0
 40
0.5
 40
1.0
 40
1.0
 40
1.0
 40
1.0
 10
467.356434857065
 20
778.1081549452462
 30
0.0
 10
467.5663456729565
 20
778.2747665481085
 30
0.0
 10
467.9905500321529
 20
778.5815172686773
 30
0.0
 10
468.3702380977313
 20
778.8021797124637
 30
0.0
 10
468.6709733268669
 20
778.9544825409328
 30
0.0
  0
SPLINE
  5
A6
330
1F
100
AcDbEntity
  8
0
  6
SLD-実線
 62
     7
370
    25
100
AcDbSpline
210
0.0
220
0.0
230
1.0
 70
     8
 71
     3
 72
     9
 73
     5
 74
     0
 42
0.000000001
 43
0.00000001
 40
0.0
 40
0.0
 40
0.0
 40
0.0
 40
0.5
 40
1.0
 40
1.0
 40
1.0
 40
1.0
 10
467.356434857065
 20
778.1081549452462
 30
0.0
 10
467.2804690452321
 20
778.363301697349
 30
0.0
 10
467.1363251064599
 20
778.8494029428958
 30
0.0
 10
467.0403371138169
 20
779.2427449824041
 30
0.0
 10
466.9850157544359
 20
779.5424852096311
 30
0.0
  0
SPLINE
  5
A7
330
1F
100
AcDbEntity
  8
0
  6
SLD-実線
 62
     7
370
    25
100
AcDbSpline
210
0.0
220
0.0
230
1.0
 70
     8
 71
     3
 72
     8
 73
     4
 74
     0
 42
0.000000001
 43
0.00000001
 40
0.0
 40
0.0
 40
0.0
 40
0.0
 40
1.0
 40
1.0
 40
1.0
 40
1.0
 10
466.8938406551051
 20
775.7384810021889
 30
0.0
 10
467.3135375524683
 20
775.5938629136755
 30
0.0
 10
467.7762571397744
 20
775.4783766056969
 30
0.0
 10
468.2492481624449
 20
775.3973610747365
 30
0.0
  0
SPLINE
  5
A8
330
1F
100
AcDbEntity
  8
0
  6
SLD-実線
 62
     7
370
    25
100
AcDbSpline
210
0.0
220
0.0
230
1.0
 70
     8
 71
     3
 72
     9
 73
     5
 74
     0
 42
0.000000001
 43
0.00000001
 40
0.0
 40
0.0
 40
0.0
 40
0.0
 40
0.5
 40
1.0
 40
1.0
 40
1.0
 40
1.0
 10
467.356434857065
 20
778.1081549452462
 30
0.0
 10
467.2224898530057
 20
777.686396590281
 30
0.0
 10
467.0080316474041
 20
776.8634343798699
 30
0.0
 10
466.9139574807617
 20
776.2018102212122
 30
0.0
 10
466.8938406551051
 20
775.7384810021889
 30
0.0
  0
SPLINE
  5
A9
330
1F
100
AcDbEntity
  8
0
  6
SLD-実線
 62
     7
370
    25
100
AcDbSpline
210
0.0
220
0.0
230
1.0
 70
     8
 71
     3
 72
     8
 73
     4
 74
     0
 42
0.000000001
 43
0.00000001
 40
0.0
 40
0.0
 40
0.0
 40
0.0
 40
1.0
 40
1.0
 40
1.0
 40
1.0
 10
465.7878692361687
 20
776.2460472207961
 30
0.0
 10
466.0982866855805
 20
776.0565542042895
 30
0.0
 10
466.4741437577414
 20
775.8830990907018
 30
0.0
 10
466.8938406551051
 20
775.7384810021889
 30
0.0
  0
LINE
  5
AA
330
1F
100
AcDbEntity
  8
0
  6
SLD-実線
 62
     7
370
    25
100
AcDbLine
 10
465.7878974897
 20
776.2460550703
 30
0.0
 11
465.3247150734
 21
763.0533733668
 31
0.0
  0
SPLINE
  5
AB
330
1F
100
AcDbEntity
  8
0
  6
SLD-実線
 62
     7
370
    25
100
AcDbSpline
210
0.0
220
0.0
230
1.0
 70
     8
 71
     3
 72
     8
 73
     4
 74
     0
 42
0.000000001
 43
0.00000001
 40
0.0
 40
0.0
 40
0.0
 40
0.0
 40
1.0
 40
1.0
 40
1.0
 40
1.0
 10
467.7873620536894
 20
762.2019230744073
 30
0.0
 10
466.8208047560958
 20
762.3500618449555
 30
0.0
 10
465.957849552037
 20
762.6491502323917
 30
0.0
 10
465.3247155959654
 20
763.0533746873832
 30
0.0
  0
LINE
  5
AC
330
1F
100
AcDbEntity
  8
0
  6
SLD-実線
 62
     7
370
    25
100
AcDbLine
 10
367.245857469
 20
789.709105288
 30
0.0
 11
367.5429368664
 21
802.9469282371
 31
0.0
  0
ARC
  5
AD
330
1F
100
AcDbEntity
  8
0
  6
SLD-実線
 62
     7
370
    25
100
AcDbCircle
 10
364.9704706146
 20
587.5701231045
 30
0.0
 40
202.1517882767996
100
AcDbArc
 50
60.235899051
 51
89.3550746317
  0
SPLINE
  5
AE
330
1F
100
AcDbEntity
  8
0
  6
SLD-実線
 62
     7
370
    25
100
AcDbSpline
210
0.0
220
0.0
230
1.0
 70
     8
 71
     3
 72
     8
 73
     4
 74
     0
 42
0.000000001
 43
0.00000001
 40
0.0
 40
0.0
 40
0.0
 40
0.0
 40
1.0
 40
1.0
 40
1.0
 40
1.0
 10
366.084895141853
 20
803.1361923508729
 30
0.0
 10
366.5535643875216
 20
803.0393715708177
 30
0.0
 10
367.0507858970064
 20
802.9755621179091
 30
0.0
 10
367.5429401380197
 20
802.9469333595631
 30
0.0
  0
SPLINE
  5
AF
330
1F
100
AcDbEntity
  8
0
  6
SLD-実線
 62
     7
370
    25
100
AcDbSpline
210
0.0
220
0.0
230
1.0
 70
     8
 71
     3
 72
     9
 73
     5
 74
     0
 42
0.000000001
 43
0.00000001
 40
0.0
 40
0.0
 40
0.0
 40
0.0
 40
0.5
 40
1.0
 40
1.0
 40
1.0
 40
1.0
 10
366.3534724208459
 20
805.5586029270715
 30
0.0
 10
366.271708127569
 20
805.1226637411687
 30
0.0
 10
366.1427769741957
 20
804.2764572977838
 30
0.0
 10
366.0912142155465
 20
803.6032715481272
 30
0.0
 10
366.084895141853
 20
803.1361923508729
 30
0.0
  0
SPLINE
  5
B0
330
1F
100
AcDbEntity
  8
0
  6
SLD-実線
 62
     7
370
    25
100
AcDbSpline
210
0.0
220
0.0
230
1.0
 70
     8
 71
     3
 72
     9
 73
     5
 74
     0
 42
0.000000001
 43
0.00000001
 40
0.0
 40
0.0
 40
0.0
 40
0.0
 40
0.5
 40
1.0
 40
1.0
 40
1.0
 40
1.0
 10
366.3534724208459
 20
805.5586029270715
 30
0.0
 10
366.5507115895317
 20
805.7394993283964
 30
0.0
 10
366.9491051813528
 20
806.0781509554564
 30
0.0
 10
367.3121107337414
 20
806.3467404712045
 30
0.0
 10
367.6050754353569
 20
806.5518240329264
 30
0.0
  0
SPLINE
  5
B1
330
1F
100
AcDbEntity
  8
0
  6
SLD-実線
 62
     7
370
    25
100
AcDbSpline
210
0.0
220
0.0
230
1.0
 70
     8
 71
     3
 72
     9
 73
     5
 74
     0
 42
0.000000001
 43
0.00000001
 40
0.0
 40
0.0
 40
0.0
 40
0.0
 40
0.5
 40
1.0
 40
1.0
 40
1.0
 40
1.0
 10
366.3534724208459
 20
805.5586029270715
 30
0.0
 10
366.2379975454373
 20
805.8136457116494
 30
0.0
 10
366.0160369046253
 20
806.2960069708455
 30
0.0
 10
365.8473165973214
 20
806.6657131724336
 30
0.0
 10
365.7272780363364
 20
806.9323730873249
 30
0.0
  0
SPLINE
  5
B2
330
1F
100
AcDbEntity
  8
0
  6
SLD-実線
 62
     7
370
    25
100
AcDbSpline
210
0.0
220
0.0
230
1.0
 70
     8
 71
     3
 72
     8
 73
     4
 74
     0
 42
0.000000001
 43
0.00000001
 40
0.0
 40
0.0
 40
0.0
 40
0.0
 40
1.0
 40
1.0
 40
1.0
 40
1.0
 10
364.7934744878731
 20
803.5144236618665
 30
0.0
 10
365.1770424850846
 20
803.3626448189746
 30
0.0
 10
365.6162258961836
 20
803.2330131309283
 30
0.0
 10
366.084895141853
 20
803.1361923508729
 30
0.0
  0
SPLINE
  5
B3
330
1F
100
AcDbEntity
  8
0
  6
SLD-実線
 62
     7
370
    25
100
AcDbSpline
210
0.0
220
0.0
230
1.0
 70
     8
 71
     3
 72
     8
 73
     4
 74
     0
 42
0.000000001
 43
0.00000001
 40
0.0
 40
0.0
 40
0.0
 40
0.0
 40
1.0
 40
1.0
 40
1.0
 40
1.0
 10
367.2458593254277
 20
789.7091062446112
 30
0.0
 10
366.2405725042308
 20
789.750156243959
 30
0.0
 10
365.2742343866724
 20
789.9482393605575
 30
0.0
 10
364.4912498563294
 20
790.2755930017058
 30
0.0
  0
LWPOLYLINE
  5
B4
330
1F
100
AcDbEntity
  8
0
  6
SLD-実線
 62
     7
370
    25
100
AcDbPolyline
 90
       17
 70
   128
 43
0.0
 10
338.7707090257
 20
989.960657219
 10
340.0581502557
 20
989.4223620576
 10
340.8476143871
 20
988.6712957738
 10
341.0189343944
 20
987.8217952576
 10
340.5460283469
 20
987.0031894781
 10
339.5008633815
 20
986.3401114104
 10
338.0425847744
 20
985.9335008796
 10
336.3932025776
 20
985.8452607696
 10
334.8037981672
 20
986.0888306098
 10
333.5163569373
 20
986.6271257713
 10
332.7268763323
 20
987.3781965323
 10
332.555556325
 20
988.2276970484
 10
333.0284788461
 20
989.0462983508
 10
334.073627338
 20
989.7093808957
 10
335.5319059451
 20
990.1159914265
 10
337.1813046154
 20
990.2042270593
 10
338.7707090257
 20
989.960657219
  0
LWPOLYLINE
  5
B5
330
1F
100
AcDbEntity
  8
0
  6
SLD-実線
 62
     7
370
    25
100
AcDbPolyline
 90
       17
 70
   128
 43
0.0
 10
391.8357885509
 20
977.253040334
 10
393.1232297808
 20
976.7147451726
 10
393.9127103858
 20
975.9636744116
 10
394.0840303931
 20
975.1141738955
 10
393.611107872
 20
974.2955725931
 10
392.5659593802
 20
973.6324900482
 10
391.1076807731
 20
973.2258795174
 10
389.4582821027
 20
973.1376438846
 10
387.8688776924
 20
973.3812137249
 10
386.5814364624
 20
973.9195088863
 10
385.7919558574
 20
974.6705796473
 10
385.6206358501
 20
975.5200801634
 10
386.0935583713
 20
976.3386814658
 10
387.1387068631
 20
977.0017640107
 10
388.5969854702
 20
977.4083745415
 10
390.2463841405
 20
977.4966101743
 10
391.8357885509
 20
977.253040334
  0
LWPOLYLINE
  5
B6
330
1F
100
AcDbEntity
  8
0
  6
SLD-実線
 62
     7
370
    25
100
AcDbPolyline
 90
       30
 70
   128
 43
0.0
 10
468.7514061446
 20
759.9119348569
 10
487.9512524446
 20
757.352907559
 10
507.4374224495
 20
755.4528281079
 10
527.1247709039
 20
754.2200092356
 10
546.9272570144
 20
753.6598288756
 10
566.7583237842
 20
753.7747355375
 10
586.5313139575
 20
754.5642328865
 10
606.1598278496
 20
756.0248692688
 10
625.5580660723
 20
758.150263884
 10
644.6412802497
 20
760.9311253017
 10
663.3260329192
 20
764.3552892969
 10
681.5306930801
 20
768.4078119583
 10
699.1756947264
 20
773.070975354
 10
716.1839205146
 20
778.3243947768
 10
732.4810515716
 20
784.1451134969
 10
747.9958713167
 20
790.5076937427
 10
762.660553722
 20
797.3843336046
 10
776.4110283331
 20
804.7449766364
 10
789.1871926814
 20
812.5574575078
 10
800.9332311438
 20
820.7876282195
 10
811.5977723269
 20
829.3995322696
 10
821.1342422321
 20
838.3555232402
 10
829.5009619937
 20
847.6164629709
 10
836.6613541398
 20
857.1418817652
 10
842.5841389003
 20
866.8901494364
 10
847.2434062345
 20
876.8186689443
 10
850.6188277974
 20
886.8840421692
 10
852.6956452416
 20
897.0422846086
 10
853.4647551873
 20
907.2490110898
 10
853.4624720014
 20
909.2059630033
  0
LWPOLYLINE
  5
B7
330
1F
100
AcDbEntity
  8
0
  6
SLD-実線
 62
     7
370
    25
100
AcDbPolyline
 90
       15
 70
   128
 43
0.0
 10
253.476893599
 20
909.2059619649
 10
253.57444372
 20
904.0517380476
 10
254.7535018433
 20
893.855404564
 10
257.238018158
 20
883.7214695098
 10
261.0171411371
 20
873.6942256465
 10
266.0743629192
 20
863.8175017243
 10
272.3875639533
 20
854.1344388314
 10
279.9291498318
 20
844.6873772762
 10
288.6661817377
 20
835.5175933461
 10
298.5604624883
 20
826.6651674527
 10
309.5687612362
 20
818.1687820507
 10
321.642964951
 20
810.0655611511
 10
334.730297164
 20
802.3909240944
 10
348.7735774401
 20
795.1784174084
 10
363.7114268552
 20
788.4595504933
  0
LINE
  5
B8
330
1F
100
AcDbEntity
  8
0
  6
SLD-実線
 62
     7
370
    25
100
AcDbLine
 10
366.0764660741
 20
690.8276620209
 30
0.0
 11
363.7114268552
 21
788.4595504933
 31
0.0
  0
LWPOLYLINE
  5
B9
330
1F
100
AcDbEntity
  8
0
  6
SLD-実線
 62
     7
370
    25
100
AcDbPolyline
 90
        3
 70
   128
 43
0.0
 10
846.9572982403
 20
799.9788039134
 10
846.9584626949
 20
799.9909995171
 10
847.1648325605
 20
802.6316856481
  0
LINE
  5
BA
330
1F
100
AcDbEntity
  8
0
  6
SLD-実線
 62
     7
370
    25
100
AcDbLine
 10
259.7745522941
 20
802.631682245
 30
0.0
 11
259.8897428756
 21
801.0210772941
 31
0.0
  0
LINE
  5
BB
330
1F
100
AcDbEntity
  8
0
  6
SLD-実線
 62
     7
370
    25
100
AcDbLine
 10
468.7514061446
 20
759.9119348569
 30
0.0
 11
472.393789604
 21
661.9328915901
 31
0.0
  0
ARC
  5
BC
330
1F
100
AcDbEntity
  8
0
  6
SLD-実線
 62
     7
370
    25
100
AcDbCircle
 10
365.0778381185
 20
583.3134966962
 30
0.0
 40
205.5725181698146
100
AcDbArc
 50
60.0355786035
 51
89.5553950792
  0
LWPOLYLINE
  5
BD
330
1F
100
AcDbEntity
  8
0
  6
SLD-実線
 62
     7
370
    25
100
AcDbPolyline
 90
       20
 70
   128
 43
0.0
 10
467.7535265775
 20
761.4083119665
 10
486.8025212423
 20
758.8074439542
 10
506.1440518011
 20
756.8618178965
 10
525.6932456842
 20
755.5799869802
 10
545.3643215161
 20
754.9675515046
 10
565.070966613
 20
755.0272189924
 10
584.7267003131
 20
755.7587271374
 10
604.2452825961
 20
757.1588520689
 10
623.5410659577
 20
759.2214537312
 10
642.5293710818
 20
761.9374931012
 10
661.1268789864
 20
765.2950449298
 10
679.2519842663
 20
769.2793752905
 10
696.8251725894
 20
773.8730016899
 10
713.7693071334
 20
779.0557670791
 10
730.0100573272
 20
784.8049294254
 10
745.4761445589
 20
791.0952576391
 10
760.099705936
 20
797.8991605004
 10
773.8165707675
 20
805.186771511
 10
786.5665428674
 20
812.9261216521
 10
792.2708474084
 20
816.7529646602
  0
ARC
  5
BE
330
1F
100
AcDbEntity
  8
0
  6
SLD-実線
 62
     7
370
    25
100
AcDbCircle
 10
471.6864734501
 20
1047.2598177092
 30
0.0
 40
278.9050807511736
100
AcDbArc
 50
235.7378721462
 51
247.8816874801
  0
ARC
  5
BF
330
1F
100
AcDbEntity
  8
0
  6
SLD-実線
 62
     7
370
    25
100
AcDbCircle
 10
365.2083787513
 20
586.4482133254
 30
0.0
 40
202.0168834759289
100
AcDbArc
 50
59.1664061454
 51
90.4245675373
  0
LINE
  5
C0
330
1F
100
AcDbEntity
  8
0
  6
SLD-実線
 62
     7
370
    25
100
AcDbLine
 10
366.6730277937
 20
788.8798256428
 30
0.0
 11
366.6730277937
 21
789.7553778161
 31
0.0
  0
LINE
  5
C1
330
1F
100
AcDbEntity
  8
0
  6
SLD-実線
 62
     7
370
    25
100
AcDbLine
 10
467.7535265775
 20
762.2086139571
 30
0.0
 11
467.7535265775
 21
761.4083119665
 31
0.0
  0
SPLINE
  5
C2
330
1F
100
AcDbEntity
  8
0
  6
SLD-実線
 62
     7
370
    25
100
AcDbSpline
210
0.0
220
0.0
230
1.0
 70
     8
 71
     3
 72
    11
 73
     7
 74
     0
 42
0.000000001
 43
0.00000001
 40
0.0
 40
0.0
 40
0.0
 40
0.0
 40
0.1956144448207909
 40
0.3962101762847083
 40
0.790616871254707
 40
1.0
 40
1.0
 40
1.0
 40
1.0
 10
366.0764660741006
 20
690.8276620208665
 30
0.0
 10
366.1033660925717
 20
690.3145614397536
 30
0.0
 10
366.1578511336445
 20
689.2752942635448
 30
0.0
 10
366.5107241182255
 20
687.6624278166453
 30
0.0
 10
367.0909206713474
 20
686.4612748653636
 30
0.0
 10
367.757188649323
 20
686.5128465957281
 30
0.0
 10
367.9882380448773
 20
686.5307307167158
 30
0.0
  0
SPLINE
  5
C3
330
1F
100
AcDbEntity
  8
0
  6
SLD-実線
 62
     7
370
    25
100
AcDbSpline
210
0.0
220
0.0
230
1.0
 70
     8
 71
     3
 72
    11
 73
     7
 74
     0
 42
0.000000001
 43
0.00000001
 40
0.0
 40
0.0
 40
0.0
 40
0.0
 40
0.2094747268690959
 40
0.6038358131751647
 40
0.8043963253135917
 40
1.0
 40
1.0
 40
1.0
 40
1.0
 10
475.2288507103135
 20
657.3850912009308
 30
0.0
 10
474.8914045892989
 20
657.3960673301824
 30
0.0
 10
473.9186760127726
 20
657.4277073281489
 30
0.0
 10
473.0473346508981
 20
658.7080273302654
 30
0.0
 10
472.5158859473902
 20
660.369443799842
 30
0.0
 10
472.4341474790893
 20
661.4161076401091
 30
0.0
 10
472.3937896040097
 20
661.9328915901137
 30
0.0
  0
ARC
  5
C4
330
1F
100
AcDbEntity
  8
0
  6
SLD-実線
 62
     7
370
    25
100
AcDbCircle
 10
365.3349282427
 20
478.0563284446
 30
0.0
 40
212.7726257538656
100
AcDbArc
 50
59.7906566726
 51
89.80031701
  0
SPLINE
  5
C5
330
1F
100
AcDbEntity
  8
0
  6
SLD-実線
 62
     7
370
    25
100
AcDbSpline
210
0.0
220
0.0
230
1.0
 70
     8
 71
     3
 72
    20
 73
    16
 74
     0
 42
0.000000001
 43
0.00000001
 40
0.0
 40
0.0
 40
0.0
 40
0.0
 40
0.0044023986865098
 40
0.0922445155654609
 40
0.1800985254517331
 40
0.2681298272865614
 40
0.3268491378795029
 40
0.4149000605676044
 40
0.5029494623385777
 40
0.591028220640415
 40
0.6790143948966394
 40
0.7371322900208435
 40
0.8254838719976438
 40
0.9138217970106267
 40
1.0
 40
1.0
 40
1.0
 40
1.0
 10
412.8097700451124
 20
742.6924803163091
 30
0.0
 10
412.8184276623809
 20
742.7477412419189
 30
0.0
 10
412.9998327934823
 20
743.9056366701975
 30
0.0
 10
414.5277786074741
 20
745.6225030518394
 30
0.0
 10
417.2459817647984
 20
747.3658905605203
 30
0.0
 10
420.4035160621944
 20
747.7761924761664
 30
0.0
 10
423.7062739350721
 20
747.2485774347576
 30
0.0
 10
427.0162718754818
 20
745.7895876329301
 30
0.0
 10
430.2965626365247
 20
743.0882478271469
 30
0.0
 10
432.8006484437057
 20
739.6566838551254
 30
0.0
 10
434.1045372701651
 20
736.3303477016882
 30
0.0
 10
434.5475792078984
 20
733.1079418292521
 30
0.0
 10
434.0913957073493
 20
730.1847678425135
 30
0.0
 10
432.484213024388
 20
727.5948872369974
 30
0.0
 10
430.6263668908053
 20
726.760488668224
 30
0.0
 10
429.7089396990861
 20
726.3484524280386
 30
0.0
  0
LINE
  5
C6
330
1F
100
AcDbEntity
  8
0
  6
SLD-実線
 62
     7
370
    25
100
AcDbLine
 10
472.2691848885
 20
619.5712288927
 30
0.0
 11
472.5766607124
 21
598.4421566759
 31
0.0
  0
SPLINE
  5
C7
330
1F
100
AcDbEntity
  8
0
  6
SLD-実線
 62
     7
370
    25
100
AcDbSpline
210
0.0
220
0.0
230
1.0
 70
     8
 71
     3
 72
    16
 73
    12
 74
     0
 42
0.000000001
 43
0.00000001
 40
0.0
 40
0.0
 40
0.0
 40
0.0
 40
0.1133135846556977
 40
0.2266070290689272
 40
0.3402907675030002
 40
0.4535705747141902
 40
0.5659086762699228
 40
0.6780211036755661
 40
0.7909156827353508
 40
0.9045641562785091
 40
1.0
 40
1.0
 40
1.0
 40
1.0
 10
428.2751915767903
 20
634.9285983346922
 30
0.0
 10
428.850012850029
 20
637.0235580687911
 30
0.0
 10
429.9995532283522
 20
641.2131051809547
 30
0.0
 10
434.5181338732042
 20
645.314393040513
 30
0.0
 10
440.6150757301024
 20
647.2562206849061
 30
0.0
 10
447.875387542002
 20
646.7659073808019
 30
0.0
 10
455.4190263098348
 20
643.9847159181279
 30
0.0
 10
462.4301748260754
 20
639.2214782193697
 30
0.0
 10
468.0484274623802
 20
632.940680123082
 30
0.0
 10
471.5845706144445
 20
626.0739546062881
 30
0.0
 10
472.0546285167242
 20
621.6091665876959
 30
0.0
 10
472.2691848884737
 20
619.571228892672
 30
0.0
  0
LINE
  5
C8
330
1F
100
AcDbEntity
  8
0
  6
SLD-実線
 62
     7
370
    25
100
AcDbLine
 10
428.2106376378
 20
610.5114432119
 30
0.0
 11
428.2751915768
 21
634.9285983347
 31
0.0
  0
LWPOLYLINE
  5
C9
330
1F
100
AcDbEntity
  8
0
  6
SLD-実線
 62
     7
370
    25
100
AcDbPolyline
 90
       14
 70
   128
 43
0.0
 10
331.3776413639
 20
703.185878406
 10
331.6425477486
 20
699.1176703034
 10
333.1676326078
 20
690.381091361
 10
335.9879548248
 20
681.7303794084
 10
340.086901462
 20
673.2163935272
 10
345.4404059122
 20
664.8891928888
 10
352.0169724212
 20
656.797731796
 10
359.7779518193
 20
648.9895840742
 10
368.6776957665
 20
641.5106516691
 10
378.6638919663
 20
634.4049162599
 10
389.6778350941
 20
627.7141486859
 10
401.6547503398
 20
621.4776800033
 10
414.5242382072
 20
615.7321829739
 10
428.2106376378
 20
610.5114432119
  0
LWPOLYLINE
  5
CA
330
1F
100
AcDbEntity
  8
0
  6
SLD-実線
 62
     7
370
    25
100
AcDbPolyline
 90
       27
 70
   128
 43
0.0
 10
775.561744007
 20
703.1858758215
 10
775.5191225021
 20
702.1115282488
 10
774.437821226
 20
693.3526461837
 10
772.0559716361
 20
684.6622270566
 10
768.38761005
 20
676.0914235468
 10
763.4542896955
 20
667.6906877214
 10
757.2850587037
 20
659.5094617738
 10
749.9162340741
 20
651.5958957392
 10
741.3911953733
 20
643.9965639145
 10
731.7601092792
 20
636.7561960051
 10
721.0796541253
 20
629.9174082719
 10
709.4126818111
 20
623.5204557686
 10
696.8278929251
 20
617.6029769196
 10
683.3993534786
 20
612.1998096199
 10
669.2060641248
 20
607.3427557818
 10
654.3315980087
 20
603.0603923134
 10
638.863480648
 20
599.3779386473
 10
622.89275663
 20
596.3170599391
 10
606.5134480768
 20
593.8957701857
 10
589.8219293748
 20
592.1283255607
 10
572.9164519896
 20
591.0251203481
 10
555.8965184983
 20
590.5926618196
 10
538.8623037603
 20
590.8334780659
 10
521.9140614267
 20
591.7461708241
 10
505.1515505984
 20
593.3253543586
 10
488.6734185369
 20
595.5617364508
 10
472.5766607124
 20
598.4421566759
  0
LINE
  5
CB
330
1F
100
AcDbEntity
  8
0
  6
SLD-実線
 62
     7
370
    25
100
AcDbLine
 10
449.4517049177
 20
631.2433760521
 30
0.0
 11
428.2106376378
 21
610.5114432119
 31
0.0
  0
LINE
  5
CC
330
1F
100
AcDbEntity
  8
0
  6
SLD-実線
 62
     7
370
    25
100
AcDbLine
 10
431.8622211771
 20
638.4296491901
 30
0.0
 11
428.2751915768
 21
634.9285983347
 31
0.0
  0
LINE
  5
CD
330
1F
100
AcDbEntity
  8
0
  6
SLD-実線
 62
     7
370
    25
100
AcDbLine
 10
449.8471181251
 20
645.6778502466
 30
0.0
 11
449.4517049177
 21
631.2433760521
 31
0.0
  0
LINE
  5
CE
330
1F
100
AcDbEntity
  8
0
  6
SLD-実線
 62
     7
370
    25
100
AcDbLine
 10
431.8622211771
 20
638.4296491901
 30
0.0
 11
434.1465171607
 21
644.3524736081
 31
0.0
  0
SPLINE
  5
CF
330
1F
100
AcDbEntity
  8
0
  6
SLD-実線
 62
     7
370
    25
100
AcDbSpline
210
0.0
220
0.0
230
1.0
 70
     8
 71
     3
 72
    10
 73
     6
 74
     0
 42
0.000000001
 43
0.00000001
 40
0.0
 40
0.0
 40
0.0
 40
0.0
 40
0.5
 40
0.5
 40
1.0
 40
1.0
 40
1.0
 40
1.0
 10
417.4279818674428
 20
722.8521298149951
 30
0.0
 10
412.9128382307265
 20
724.0792491076294
 30
0.0
 10
409.2471142419267
 20
728.6282895040429
 30
0.0
 10
409.2471142419267
 20
737.3803342405893
 30
0.0
 10
412.9128382307265
 20
739.9368441706189
 30
0.0
 10
417.4279818674428
 20
738.7097248779845
 30
0.0
  0
SPLINE
  5
D0
330
1F
100
AcDbEntity
  8
0
  6
SLD-実線
 62
     7
370
    25
100
AcDbSpline
210
0.0
220
0.0
230
1.0
 70
     8
 71
     3
 72
    10
 73
     6
 74
     0
 42
0.000000001
 43
0.00000001
 40
0.0
 40
0.0
 40
0.0
 40
0.0
 40
0.5
 40
0.5
 40
1.0
 40
1.0
 40
1.0
 40
1.0
 10
417.4279818674428
 20
738.7097248779845
 30
0.0
 10
421.9431255041592
 20
737.4826055853504
 30
0.0
 10
425.608849492959
 20
732.9335651889367
 30
0.0
 10
425.608849492959
 20
724.1815204523904
 30
0.0
 10
421.9431255041592
 20
721.6250105223608
 30
0.0
 10
417.4279818674428
 20
722.8521298149951
 30
0.0
  0
LWPOLYLINE
  5
D1
330
1F
100
AcDbEntity
  8
0
  6
SLD-実線
 62
     7
370
    25
100
AcDbPolyline
 90
        3
 70
   128
 43
0.0
 10
426.8018417051
 20
723.5110338423
 10
426.555390387
 20
723.2821882739
 10
425.2850777873
 20
722.3946264588
  0
LWPOLYLINE
  5
D2
330
1F
100
AcDbEntity
  8
0
  6
SLD-実線
 62
     8
370
    25
100
AcDbPolyline
 90
       13
 70
   128
 43
0.0
 10
364.7934719866
 20
803.5144209779
 10
349.8495163287
 20
810.2022652633
 10
335.7969554683
 20
817.3844384846
 10
322.6972918677
 20
825.0294952903
 10
310.6079013371
 20
833.1039770653
 10
299.5816966949
 20
841.5725358829
 10
289.6669511192
 20
850.3980909838
 10
280.9070391315
 20
859.5420076421
 10
273.3403519213
 20
868.9642611901
 10
266.9999879974
 20
878.6236078686
 10
261.9137101517
 20
888.4777483827
 10
258.1037967146
 20
898.4835527265
 10
256.5564980414
 20
904.0444186311
  0
LWPOLYLINE
  5
D3
330
1F
100
AcDbEntity
  8
0
  6
SLD-実線
 62
     8
370
    25
100
AcDbPolyline
 90
       28
 70
   128
 43
0.0
 10
850.6980214139
 20
905.3939649303
 10
849.7976691864
 20
901.7667292789
 10
846.4071762694
 20
891.7209742603
 10
841.7343027885
 20
881.8126808111
 10
835.7994638029
 20
872.0852289074
 10
828.6286779744
 20
862.5811982715
 10
820.253310429
 20
853.3421996207
 10
810.7100377516
 20
844.4086760539
 10
800.0406352047
 20
835.8197364821
 10
788.2918171709
 20
827.6129793397
 10
775.5149963149
 20
819.8243397428
 10
761.7661323497
 20
812.4879007684
 10
747.1053970727
 20
805.6357926342
 10
731.596997422
 20
799.29799944
 10
715.3087784212
 20
793.5022799682
 10
698.3120822687
 20
788.2739890384
 10
680.6813092933
 20
783.6360395484
 10
662.4936347376
 20
779.6087082697
 10
643.8286799846
 20
776.2096438487
 10
624.7681478857
 20
773.4537164337
 10
605.3955052018
 20
771.352995511
 10
585.7955383002
 20
769.9166862561
 10
566.0540667183
 20
769.1510555228
 10
546.2574947289
 20
769.0594669414
 10
526.4925006496
 20
769.6423243464
 10
506.845603969
 20
770.8970809513
 10
487.4028148409
 20
772.8182261383
 10
468.2492455871
 20
775.3973585024
  0
LWPOLYLINE
  5
D4
330
1F
100
AcDbEntity
  8
0
  6
SLD-実線
 62
     8
370
    25
100
AcDbPolyline
 90
       28
 70
   128
 43
0.0
 10
472.393789604
 20
661.9328915901
 10
491.4036099203
 20
659.4726397354
 10
510.6895989287
 20
657.6705920436
 10
530.1659410558
 20
656.5347770017
 10
549.7459814794
 20
656.0702404582
 10
569.3425889895
 20
656.2790554763
 10
588.8685627837
 20
657.1602877042
 10
608.2370337618
 20
658.7100273244
 10
627.3618132075
 20
660.9213593712
 10
646.1577881273
 20
663.7844515333
 10
664.5413472551
 20
667.2865793867
 10
682.4306647525
 20
671.4121360672
 10
699.7461646336
 20
676.1427772261
 10
716.4107889034
 20
681.4574566267
 10
732.3503890062
 20
687.3325204274
 10
747.4940349058
 20
693.7418238506
 10
761.7743493323
 20
700.6568518596
 10
775.1277773959
 20
708.0468384183
 10
787.4949273532
 20
715.878893531
 10
798.8207422918
 20
724.1181708117
 10
809.0548366475
 20
732.7280109325
 10
818.1516627271
 20
741.6701041549
 10
826.0707645864
 20
750.904655899
 10
832.7768908832
 20
760.3905791151
 10
838.2402095598
 20
770.0856627085
 10
842.4364061244
 20
779.9467702443
 10
845.3468086308
 20
789.9300235997
 10
846.9572982403
 20
799.9788039134
  0
LWPOLYLINE
  5
D5
330
1F
100
AcDbEntity
  8
0
  6
SLD-実線
 62
     8
370
    25
100
AcDbPolyline
 90
       14
 70
   128
 43
0.0
 10
259.8897428756
 20
801.0210772941
 10
260.5366050572
 20
795.5105243965
 10
262.7269996242
 20
785.4785990874
 10
266.2110865052
 20
775.5442090735
 10
270.9733562329
 20
765.7515408923
 10
276.9926418783
 20
756.1441926352
 10
284.242148833
 20
746.7648946774
 10
292.6895994219
 20
737.6553835984
 10
302.2974328941
 20
728.8562068175
 10
313.0228878176
 20
720.4065049532
 10
324.8182464465
 20
712.3438803276
 10
337.6310100008
 20
704.7042083172
 10
351.4041837615
 20
697.5214839405
 10
366.0764660741
 20
690.8276620209
  0
LWPOLYLINE
  5
D6
330
1F
100
AcDbEntity
  8
0
  6
SLD-実線
 62
     8
370
    25
100
AcDbPolyline
 90
       11
 70
   128
 43
0.0
 10
410.2683483622
 20
740.2090297949
 10
410.6340564958
 20
740.5572166135
 10
413.3987670515
 20
742.0542134345
 10
416.7901866972
 20
742.3288414857
 10
420.3992601855
 20
741.3479726446
 10
423.7906798313
 20
739.2299142127
 10
426.555390387
 20
736.2301392148
 10
428.3599270024
 20
732.7104585098
 10
428.9866362212
 20
729.0954032219
 10
428.3599270024
 20
725.8210002079
 10
426.8018417051
 20
723.5110338423
  0
ENDSEC
  0
SECTION
  2
OBJECTS
  0
DICTIONARY
  5
C
330
0
100
AcDbDictionary
281
     1
  3
ACAD_GROUP
350
D
  3
ACAD_LAYOUT
350
1A
  3
ACAD_MLINESTYLE
350
17
  3
ACAD_PLOTSETTINGS
350
19
  3
ACAD_PLOTSTYLENAME
350
E
  3
ACAD_SCALELIST
350
47
  0
DICTIONARY
  5
D
102
{ACAD_REACTORS
330
C
102
}
330
C
100
AcDbDictionary
281
     1
  0
DICTIONARY
  5
1A
102
{ACAD_REACTORS
330
C
102
}
330
C
100
AcDbDictionary
281
     1
  3
Layout1
350
1E
  3
Layout2
350
26
  3
Model
350
22
  0
DICTIONARY
  5
17
102
{ACAD_REACTORS
330
C
102
}
330
C
100
AcDbDictionary
281
     1
  3
Standard
350
18
  0
DICTIONARY
  5
19
102
{ACAD_REACTORS
330
C
102
}
330
C
100
AcDbDictionary
281
     1
  0
ACDBDICTIONARYWDFLT
  5
E
102
{ACAD_REACTORS
330
C
102
}
330
C
100
AcDbDictionary
281
     1
  3
Normal
350
F
100
AcDbDictionaryWithDefault
340
F
  0
DICTIONARY
  5
47
102
{ACAD_REACTORS
330
C
102
}
330
C
100
AcDbDictionary
281
     1
  3
A0
350
48
  3
A1
350
49
  3
A2
350
4A
  3
A3
350
4B
  3
A4
350
4C
  3
A5
350
4D
  3
A6
350
4E
  3
A7
350
4F
  3
A8
350
50
  3
A9
350
51
  3
B0
350
52
  3
B1
350
53
  3
B2
350
54
  3
B3
350
55
  3
B4
350
56
  3
B5
350
57
  3
B6
350
58
  3
B7
350
59
  3
B8
350
5A
  3
B9
350
5B
  3
C0
350
5C
  3
C1
350
5D
  3
C2
350
5E
  3
C3
350
5F
  3
C4
350
60
  3
C5
350
61
  3
C6
350
62
  3
C7
350
63
  3
C8
350
64
  3
C9
350
65
  3
D0
350
66
  3
D1
350
67
  3
D2
350
68
  0
LAYOUT
  5
1E
102
{ACAD_REACTORS
330
1A
102
}
330
1A
100
AcDbPlotSettings
  1

  2
none_device
  4

  6

 40
0.0
 41
0.0
 42
0.0
 43
0.0
 44
0.0
 45
0.0
 46
0.0
 47
0.0
 48
0.0
 49
0.0
140
0.0
141
0.0
142
1.0
143
1.0
 70
   688
 72
     1
 73
     0
 74
     5
  7

 75
    16
147
1.0
148
0.0
149
0.0
100
AcDbLayout
  1
Layout1
 70
     1
 71
     1
 10
0.0
 20
0.0
 11
420.0
 21
297.0
 12
0.0
 22
0.0
 32
0.0
 14
1.0000000000E+20
 24
1.0000000000E+20
 34
1.0000000000E+20
 15
-1.0000000000E+20
 25
-1.0000000000E+20
 35
-1.0000000000E+20
146
0.0
 13
0.0
 23
0.0
 33
0.0
 16
1.0
 26
0.0
 36
0.0
 17
0.0
 27
1.0
 37
0.0
 76
     0
330
1B
  0
LAYOUT
  5
26
102
{ACAD_REACTORS
330
1A
102
}
330
1A
100
AcDbPlotSettings
  1

  2
none_device
  4

  6

 40
0.0
 41
0.0
 42
0.0
 43
0.0
 44
0.0
 45
0.0
 46
0.0
 47
0.0
 48
0.0
 49
0.0
140
0.0
141
0.0
142
1.0
143
1.0
 70
   688
 72
     1
 73
     0
 74
     5
  7

 75
    16
147
1.0
148
0.0
149
0.0
100
AcDbLayout
  1
Layout2
 70
     1
 71
     2
 10
0.0
 20
0.0
 11
0.0
 21
0.0
 12
0.0
 22
0.0
 32
0.0
 14
0.0
 24
0.0
 34
0.0
 15
0.0
 25
0.0
 35
0.0
146
0.0
 13
0.0
 23
0.0
 33
0.0
 16
1.0
 26
0.0
 36
0.0
 17
0.0
 27
1.0
 37
0.0
 76
     0
330
23
  0
LAYOUT
  5
22
102
{ACAD_REACTORS
330
1A
102
}
330
1A
100
AcDbPlotSettings
  1

  2
none_device
  4
Letter_(8.50_x_11.00_Inches)
  6

 40
6.35
 41
6.35
 42
6.35000508
 43
6.35000508
 44
215.9
 45
279.4
 46
0.0
 47
0.0
 48
0.0
 49
0.0
140
0.0
141
0.0
142
1.0
143
1.0
 70
  1712
 72
     1
 73
     0
 74
     0
  7

 75
     0
147
1.0
148
0.0
149
0.0
100
AcDbLayout
  1
Model
 70
     1
 71
     0
 10
0.0
 20
0.0
 11
1050.0
 21
1485.0
 12
0.0
 22
0.0
 32
0.0
 14
0.0
 24
0.0
 34
0.0
 15
1050.0
 25
1485.0
 35
0.0
146
0.0
 13
0.0
 23
0.0
 33
0.0
 16
1.0
 26
0.0
 36
0.0
 17
0.0
 27
1.0
 37
0.0
 76
     0
330
1F
331
29
  0
MLINESTYLE
  5
18
102
{ACAD_REACTORS
330
17
102
}
330
17
100
AcDbMlineStyle
  2
Standard
 70
     0
  3

 62
   256
 51
90.0
 52
90.0
 71
     2
 49
0.5
 62
   256
  6
BYLAYER
 49
-0.5
 62
   256
  6
BYLAYER
  0
ACDBPLACEHOLDER
  5
F
102
{ACAD_REACTORS
330
E
102
}
330
E
  0
SCALE
  5
48
102
{ACAD_REACTORS
330
47
102
}
330
47
100
AcDbScale
 70
     0
300
1:1
140
1.0
141
1.0
290
     1
  0
SCALE
  5
49
102
{ACAD_REACTORS
330
47
102
}
330
47
100
AcDbScale
 70
     0
300
1:2
140
1.0
141
2.0
290
     0
  0
SCALE
  5
4A
102
{ACAD_REACTORS
330
47
102
}
330
47
100
AcDbScale
 70
     0
300
1:4
140
1.0
141
4.0
290
     0
  0
SCALE
  5
4B
102
{ACAD_REACTORS
330
47
102
}
330
47
100
AcDbScale
 70
     0
300
1:5
140
1.0
141
5.0
290
     0
  0
SCALE
  5
4C
102
{ACAD_REACTORS
330
47
102
}
330
47
100
AcDbScale
 70
     0
300
1:8
140
1.0
141
8.0
290
     0
  0
SCALE
  5
4D
102
{ACAD_REACTORS
330
47
102
}
330
47
100
AcDbScale
 70
     0
300
1:10
140
1.0
141
10.0
290
     0
  0
SCALE
  5
4E
102
{ACAD_REACTORS
330
47
102
}
330
47
100
AcDbScale
 70
     0
300
1:16
140
1.0
141
16.0
290
     0
  0
SCALE
  5
4F
102
{ACAD_REACTORS
330
47
102
}
330
47
100
AcDbScale
 70
     0
300
1:20
140
1.0
141
20.0
290
     0
  0
SCALE
  5
50
102
{ACAD_REACTORS
330
47
102
}
330
47
100
AcDbScale
 70
     0
300
1:30
140
1.0
141
30.0
290
     0
  0
SCALE
  5
51
102
{ACAD_REACTORS
330
47
102
}
330
47
100
AcDbScale
 70
     0
300
1:40
140
1.0
141
40.0
290
     0
  0
SCALE
  5
52
102
{ACAD_REACTORS
330
47
102
}
330
47
100
AcDbScale
 70
     0
300
1:50
140
1.0
141
50.0
290
     0
  0
SCALE
  5
53
102
{ACAD_REACTORS
330
47
102
}
330
47
100
AcDbScale
 70
     0
300
1:100
140
1.0
141
100.0
290
     0
  0
SCALE
  5
54
102
{ACAD_REACTORS
330
47
102
}
330
47
100
AcDbScale
 70
     0
300
2:1
140
2.0
141
1.0
290
     0
  0
SCALE
  5
55
102
{ACAD_REACTORS
330
47
102
}
330
47
100
AcDbScale
 70
     0
300
4:1
140
4.0
141
1.0
290
     0
  0
SCALE
  5
56
102
{ACAD_REACTORS
330
47
102
}
330
47
100
AcDbScale
 70
     0
300
8:1
140
8.0
141
1.0
290
     0
  0
SCALE
  5
57
102
{ACAD_REACTORS
330
47
102
}
330
47
100
AcDbScale
 70
     0
300
10:1
140
10.0
141
1.0
290
     0
  0
SCALE
  5
58
102
{ACAD_REACTORS
330
47
102
}
330
47
100
AcDbScale
 70
     0
300
100:1
140
100.0
141
1.0
290
     0
  0
SCALE
  5
59
102
{ACAD_REACTORS
330
47
102
}
330
47
100
AcDbScale
 70
     0
300
1/128" = 1'-0"
140
0.0078125
141
12.0
290
     0
  0
SCALE
  5
5A
102
{ACAD_REACTORS
330
47
102
}
330
47
100
AcDbScale
 70
     0
300
1/64" = 1'-0"
140
0.015625
141
12.0
290
     0
  0
SCALE
  5
5B
102
{ACAD_REACTORS
330
47
102
}
330
47
100
AcDbScale
 70
     0
300
1/32" = 1'-0"
140
0.03125
141
12.0
290
     0
  0
SCALE
  5
5C
102
{ACAD_REACTORS
330
47
102
}
330
47
100
AcDbScale
 70
     0
300
1/16" = 1'-0"
140
0.0625
141
12.0
290
     0
  0
SCALE
  5
5D
102
{ACAD_REACTORS
330
47
102
}
330
47
100
AcDbScale
 70
     0
300
3/32" = 1'-0"
140
0.09375
141
12.0
290
     0
  0
SCALE
  5
5E
102
{ACAD_REACTORS
330
47
102
}
330
47
100
AcDbScale
 70
     0
300
1/8" = 1'-0"
140
0.125
141
12.0
290
     0
  0
SCALE
  5
5F
102
{ACAD_REACTORS
330
47
102
}
330
47
100
AcDbScale
 70
     0
300
3/16" = 1'-0"
140
0.1875
141
12.0
290
     0
  0
SCALE
  5
60
102
{ACAD_REACTORS
330
47
102
}
330
47
100
AcDbScale
 70
     0
300
1/4" = 1'-0"
140
0.25
141
12.0
290
     0
  0
SCALE
  5
61
102
{ACAD_REACTORS
330
47
102
}
330
47
100
AcDbScale
 70
     0
300
3/8" = 1'-0"
140
0.375
141
12.0
290
     0
  0
SCALE
  5
62
102
{ACAD_REACTORS
330
47
102
}
330
47
100
AcDbScale
 70
     0
300
1/2" = 1'-0"
140
0.5
141
12.0
290
     0
  0
SCALE
  5
63
102
{ACAD_REACTORS
330
47
102
}
330
47
100
AcDbScale
 70
     0
300
3/4" = 1'-0"
140
0.75
141
12.0
290
     0
  0
SCALE
  5
64
102
{ACAD_REACTORS
330
47
102
}
330
47
100
AcDbScale
 70
     0
300
1" = 1'-0"
140
1.0
141
12.0
290
     0
  0
SCALE
  5
65
102
{ACAD_REACTORS
330
47
102
}
330
47
100
AcDbScale
 70
     0
300
1-1/2" = 1'-0"
140
1.5
141
12.0
290
     0
  0
SCALE
  5
66
102
{ACAD_REACTORS
330
47
102
}
330
47
100
AcDbScale
 70
     0
300
3" = 1'-0"
140
3.0
141
12.0
290
     0
  0
SCALE
  5
67
102
{ACAD_REACTORS
330
47
102
}
330
47
100
AcDbScale
 70
     0
300
6" = 1'-0"
140
6.0
141
12.0
290
     0
  0
SCALE
  5
68
102
{ACAD_REACTORS
330
47
102
}
330
47
100
AcDbScale
 70
     0
300
1'-0" = 1'-0"
140
12.0
141
12.0
290
     0
  0
ENDSEC
  0
EOF
