  0
SECTION
  2
HEADER
  9
$ACADVER
  1
AC1015
  9
$ACADMAINTVER
 70
     6
  9
$DWGCODEPAGE
  3
DOS932
  9
$INSBASE
 10
0.0
 20
0.0
 30
0.0
  9
$EXTMIN
 10
0.0
 20
0.0
 30
0.0
  9
$EXTMAX
 10
1050.0
 20
1485.0
 30
0.0
  9
$LIMMIN
 10
0.0
 20
0.0
  9
$LIMMAX
 10
1050.0
 20
1485.0
  9
$ORTHOMODE
 70
     0
  9
$REGENMODE
 70
     1
  9
$FILLMODE
 70
     1
  9
$QTEXTMODE
 70
     0
  9
$MIRRTEXT
 70
     1
  9
$LTSCALE
 40
5.0
  9
$ATTMODE
 70
     1
  9
$TEXTSIZE
 40
17.5
  9
$TRACEWID
 40
1.0
  9
$TEXTSTYLE
  7
STANDARD
  9
$CLAYER
  8
0
  9
$CELTYPE
  6
ByLayer
  9
$CECOLOR
 62
   256
  9
$CELTSCALE
 40
1.0
  9
$DISPSILH
 70
     0
  9
$DIMSCALE
 40
1.0
  9
$DIMASZ
 40
16.51
  9
$DIMEXO
 40
5.0
  9
$DIMDLI
 40
3.75
  9
$DIMRND
 40
0.0
  9
$DIMDLE
 40
0.0
  9
$DIMEXE
 40
5.0
  9
$DIMTP
 40
0.0
  9
$DIMTM
 40
0.0
  9
$DIMTXT
 40
17.5
  9
$DIMCEN
 40
2.5
  9
$DIMTSZ
 40
0.0
  9
$DIMTOL
 70
     0
  9
$DIMLIM
 70
     0
  9
$DIMTIH
 70
     1
  9
$DIMTOH
 70
     1
  9
$DIMSE1
 70
     0
  9
$DIMSE2
 70
     0
  9
$DIMTAD
 70
     1
  9
$DIMZIN
 70
     1
  9
$DIMBLK
  1

  9
$DIMASO
 70
     1
  9
$DIMSHO
 70
     1
  9
$DIMPOST
  1

  9
$DIMAPOST
  1

  9
$DIMALT
 70
     0
  9
$DIMALTD
 70
     3
  9
$DIMALTF
 40
0.0393700787
  9
$DIMLFAC
 40
1.0
  9
$DIMTOFL
 70
     1
  9
$DIMTVP
 40
0.0
  9
$DIMTIX
 70
     0
  9
$DIMSOXD
 70
     0
  9
$DIMSAH
 70
     0
  9
$DIMBLK1
  1

  9
$DIMBLK2
  1

  9
$DIMSTYLE
  2
ISO-25
  9
$DIMCLRD
 70
     0
  9
$DIMCLRE
 70
     0
  9
$DIMCLRT
 70
     0
  9
$DIMTFAC
 40
1.0
  9
$DIMGAP
 40
7.62
  9
$DIMJUST
 70
     0
  9
$DIMSD1
 70
     0
  9
$DIMSD2
 70
     0
  9
$DIMTOLJ
 70
     0
  9
$DIMTZIN
 70
     1
  9
$DIMALTZ
 70
     0
  9
$DIMALTTZ
 70
     0
  9
$DIMUPT
 70
     0
  9
$DIMDEC
 70
     2
  9
$DIMTDEC
 70
     2
  9
$DIMALTU
 70
     2
  9
$DIMALTTD
 70
     3
  9
$DIMTXSTY
  7
STANDARD
  9
$DIMAUNIT
 70
     0
  9
$DIMADEC
 70
     2
  9
$DIMALTRND
 40
0.0
  9
$DIMAZIN
 70
     0
  9
$DIMDSEP
 70
    44
  9
$DIMATFIT
 70
     3
  9
$DIMFRAC
 70
     0
  9
$DIMLDRBLK
  1

  9
$DIMLUNIT
 70
     2
  9
$DIMLWD
 70
    -2
  9
$DIMLWE
 70
    -2
  9
$DIMTMOVE
 70
     0
  9
$LUNITS
 70
     2
  9
$LUPREC
 70
     2
  9
$SKETCHINC
 40
1.0
  9
$FILLETRAD
 40
10.0
  9
$AUNITS
 70
     0
  9
$AUPREC
 70
     2
  9
$MENU
  1
.
  9
$ELEVATION
 40
0.0
  9
$PELEVATION
 40
0.0
  9
$THICKNESS
 40
0.0
  9
$LIMCHECK
 70
     0
  9
$CHAMFERA
 40
0.0
  9
$CHAMFERB
 40
0.0
  9
$CHAMFERC
 40
0.0
  9
$CHAMFERD
 40
0.0
  9
$SKPOLY
 70
     0
  9
$TDCREATE
 40
2458876.433922037
  9
$TDUCREATE
 40
2458876.058922037
  9
$TDUPDATE
 40
2458876.433922801
  9
$TDUUPDATE
 40
2458876.058922801
  9
$TDINDWG
 40
0.0000000116
  9
$TDUSRTIMER
 40
0.0000000116
  9
$USRTIMER
 70
     1
  9
$ANGBASE
 50
0.0
  9
$ANGDIR
 70
     0
  9
$PDMODE
 70
     0
  9
$PDSIZE
 40
-1.0
  9
$PLINEWID
 40
0.0
  9
$SPLFRAME
 70
     0
  9
$SPLINETYPE
 70
     6
  9
$SPLINESEGS
 70
     8
  9
$HANDSEED
  5
E4
  9
$SURFTAB1
 70
     6
  9
$SURFTAB2
 70
     6
  9
$SURFTYPE
 70
     6
  9
$SURFU
 70
     6
  9
$SURFV
 70
     6
  9
$UCSBASE
  2

  9
$UCSNAME
  2

  9
$UCSORG
 10
0.0
 20
0.0
 30
0.0
  9
$UCSXDIR
 10
1.0
 20
0.0
 30
0.0
  9
$UCSYDIR
 10
0.0
 20
1.0
 30
0.0
  9
$UCSORTHOREF
  2

  9
$UCSORTHOVIEW
 70
     0
  9
$UCSORGTOP
 10
0.0
 20
0.0
 30
0.0
  9
$UCSORGBOTTOM
 10
0.0
 20
0.0
 30
0.0
  9
$UCSORGLEFT
 10
0.0
 20
0.0
 30
0.0
  9
$UCSORGRIGHT
 10
0.0
 20
0.0
 30
0.0
  9
$UCSORGFRONT
 10
0.0
 20
0.0
 30
0.0
  9
$UCSORGBACK
 10
0.0
 20
0.0
 30
0.0
  9
$PUCSBASE
  2

  9
$PUCSNAME
  2

  9
$PUCSORG
 10
0.0
 20
0.0
 30
0.0
  9
$PUCSXDIR
 10
1.0
 20
0.0
 30
0.0
  9
$PUCSYDIR
 10
0.0
 20
1.0
 30
0.0
  9
$PUCSORTHOREF
  2

  9
$PUCSORTHOVIEW
 70
     0
  9
$PUCSORGTOP
 10
0.0
 20
0.0
 30
0.0
  9
$PUCSORGBOTTOM
 10
0.0
 20
0.0
 30
0.0
  9
$PUCSORGLEFT
 10
0.0
 20
0.0
 30
0.0
  9
$PUCSORGRIGHT
 10
0.0
 20
0.0
 30
0.0
  9
$PUCSORGFRONT
 10
0.0
 20
0.0
 30
0.0
  9
$PUCSORGBACK
 10
0.0
 20
0.0
 30
0.0
  9
$USERI1
 70
     0
  9
$USERI2
 70
     0
  9
$USERI3
 70
     0
  9
$USERI4
 70
     0
  9
$USERI5
 70
     0
  9
$USERR1
 40
0.0
  9
$USERR2
 40
0.0
  9
$USERR3
 40
0.0
  9
$USERR4
 40
0.0
  9
$USERR5
 40
0.0
  9
$WORLDVIEW
 70
     1
  9
$SHADEDGE
 70
     3
  9
$SHADEDIF
 70
    70
  9
$TILEMODE
 70
     1
  9
$MAXACTVP
 70
    64
  9
$PINSBASE
 10
0.0
 20
0.0
 30
0.0
  9
$PLIMCHECK
 70
     0
  9
$PEXTMIN
 10
1.0000000000E+20
 20
1.0000000000E+20
 30
1.0000000000E+20
  9
$PEXTMAX
 10
-1.0000000000E+20
 20
-1.0000000000E+20
 30
-1.0000000000E+20
  9
$PLIMMIN
 10
0.0
 20
0.0
  9
$PLIMMAX
 10
420.0
 20
297.0
  9
$UNITMODE
 70
     0
  9
$VISRETAIN
 70
     1
  9
$PLINEGEN
 70
     0
  9
$PSLTSCALE
 70
     1
  9
$TREEDEPTH
 70
  3020
  9
$CMLSTYLE
  2
Standard
  9
$CMLJUST
 70
     0
  9
$CMLSCALE
 40
20.0
  9
$PROXYGRAPHICS
 70
     1
  9
$MEASUREMENT
 70
     1
  9
$CELWEIGHT
370
    -1
  9
$ENDCAPS
280
     0
  9
$JOINSTYLE
280
     0
  9
$LWDISPLAY
290
     1
  9
$INSUNITS
 70
     4
  9
$HYPERLINKBASE
  1

  9
$STYLESHEET
  1

  9
$XEDIT
290
     1
  9
$CEPSNTYPE
380
     0
  9
$PSTYLEMODE
290
     1
  9
$FINGERPRINTGUID
  2
{59B7624F-9612-4BBB-B164-48F8231883C2}
  9
$VERSIONGUID
  2
{FAEB1C32-E019-11D5-929B-00C0DF256EC4}
  9
$EXTNAMES
290
     1
  9
$PSVPSCALE
 40
0.0
  9
$OLESTARTUP
290
     0
  0
ENDSEC
  0
SECTION
  2
CLASSES
  0
CLASS
  1
ACDBDICTIONARYWDFLT
  2
AcDbDictionaryWithDefault
  3
ObjectDBX Classes
 90
        0
280
     0
281
     0
  0
CLASS
  1
VISUALSTYLE
  2
AcDbVisualStyle
  3
ObjectDBX Classes
 90
     4095
280
     0
281
     0
  0
CLASS
  1
MATERIAL
  2
AcDbMaterial
  3
ObjectDBX Classes
 90
     1153
280
     0
281
     0
  0
CLASS
  1
SCALE
  2
AcDbScale
  3
ObjectDBX Classes
 90
     1153
280
     0
281
     0
  0
CLASS
  1
TABLESTYLE
  2
AcDbTableStyle
  3
ObjectDBX Classes
 90
     4095
280
     0
281
     0
  0
CLASS
  1
MLEADERSTYLE
  2
AcDbMLeaderStyle
  3
ACDB_MLEADERSTYLE_CLASS
 90
     4095
280
     0
281
     0
  0
CLASS
  1
SUN
  2
AcDbSun
  3
SCENEOE
 90
     1153
280
     0
281
     0
  0
CLASS
  1
ACDBPLACEHOLDER
  2
AcDbPlaceHolder
  3
ObjectDBX Classes
 90
        0
280
     0
281
     0
  0
CLASS
  1
LAYOUT
  2
AcDbLayout
  3
ObjectDBX Classes
 90
        0
280
     0
281
     0
  0
ENDSEC
  0
SECTION
  2
TABLES
  0
TABLE
  2
VPORT
  5
8
330
0
100
AcDbSymbolTable
 70
     1
  0
VPORT
  5
29
330
8
100
AcDbSymbolTableRecord
100
AcDbViewportTableRecord
  2
*Active
 70
     0
 10
0.0
 20
0.0
 11
1.0
 21
1.0
 12
525.0
 22
742.5
 13
0.0
 23
0.0
 14
10.0
 24
10.0
 15
10.0
 25
10.0
 16
0.0
 26
0.0
 36
1.0
 17
0.0
 27
0.0
 37
0.0
 40
1485.0
 41
0.7070707071
 42
50.0
 43
0.0
 44
0.0
 50
0.0
 51
0.0
 71
     0
 72
  2000
 73
     1
 74
     3
 75
     0
 76
     0
 77
     0
 78
     0
281
     0
 65
     1
110
0.0
120
0.0
130
0.0
111
1.0
121
0.0
131
0.0
112
0.0
122
1.0
132
0.0
 79
     0
146
0.0
  0
ENDTAB
  0
TABLE
  2
LTYPE
  5
5
330
0
100
AcDbSymbolTable
 70
     8
  0
LTYPE
  5
14
330
5
100
AcDbSymbolTableRecord
100
AcDbLinetypeTableRecord
  2
ByBlock
 70
     0
  3

 72
    65
 73
     0
 40
0.0
  0
LTYPE
  5
15
330
5
100
AcDbSymbolTableRecord
100
AcDbLinetypeTableRecord
  2
ByLayer
 70
     0
  3

 72
    65
 73
     0
 40
0.0
  0
LTYPE
  5
16
330
5
100
AcDbSymbolTableRecord
100
AcDbLinetypeTableRecord
  2
Continuous
 70
     0
  3
Solid line
 72
    65
 73
     0
 40
0.0
  0
LTYPE
  5
6E
330
5
100
AcDbSymbolTableRecord
100
AcDbLinetypeTableRecord
  2
SLD-実線
 70
     0
  3
SolidWorks Line Style
 72
    65
 73
     0
 40
0.0
  0
LTYPE
  5
6F
330
5
100
AcDbSymbolTableRecord
100
AcDbLinetypeTableRecord
  2
SLD-破線
 70
     0
  3
SolidWorks Line Style
 72
    65
 73
     2
 40
1.905
 49
1.27
 74
     0
 49
-0.635
 74
     0
  0
LTYPE
  5
70
330
5
100
AcDbSymbolTableRecord
100
AcDbLinetypeTableRecord
  2
SLD-2点鎖線
 70
     0
  3
SolidWorks Line Style
 72
    65
 73
     6
 40
12.7
 49
6.35
 74
     0
 49
-1.27
 74
     0
 49
1.27
 74
     0
 49
-1.27
 74
     0
 49
1.27
 74
     0
 49
-1.27
 74
     0
  0
LTYPE
  5
71
330
5
100
AcDbSymbolTableRecord
100
AcDbLinetypeTableRecord
  2
SLD-鎖線
 70
     0
  3
SolidWorks Line Style
 72
    65
 73
     4
 40
10.16
 49
6.35
 74
     0
 49
-1.27
 74
     0
 49
1.27
 74
     0
 49
-1.27
 74
     0
  0
LTYPE
  5
72
330
5
100
AcDbSymbolTableRecord
100
AcDbLinetypeTableRecord
  2
SLD-1点鎖線(中心線)
 70
     0
  3
SolidWorks Line Style
 72
    65
 73
     4
 40
34.29
 49
30.48
 74
     0
 49
-1.27
 74
     0
 49
1.27
 74
     0
 49
-1.27
 74
     0
  0
LTYPE
  5
73
330
5
100
AcDbSymbolTableRecord
100
AcDbLinetypeTableRecord
  2
SLD-点線
 70
     0
  3
SolidWorks Line Style
 72
    65
 73
     2
 40
0.635
 49
0.0
 74
     0
 49
-0.635
 74
     0
  0
LTYPE
  5
74
330
5
100
AcDbSymbolTableRecord
100
AcDbLinetypeTableRecord
  2
SLD-細-太鎖線(切断面)
 70
     0
  3
SolidWorks Line Style
 72
    65
 73
     4
 40
10.16
 49
6.35
 74
     0
 49
-1.27
 74
     0
 49
1.27
 74
     0
 49
-1.27
 74
     0
  0
ENDTAB
  0
TABLE
  2
LAYER
  5
2
330
0
100
AcDbSymbolTable
 70
     1
  0
LAYER
  5
10
330
2
100
AcDbSymbolTableRecord
100
AcDbLayerTableRecord
  2
0
 70
     0
 62
     7
  6
Continuous
370
    -3
390
F
  0
ENDTAB
  0
TABLE
  2
STYLE
  5
3
330
0
100
AcDbSymbolTable
 70
     2
  0
STYLE
  5
11
330
3
100
AcDbSymbolTableRecord
100
AcDbTextStyleTableRecord
  2
STANDARD
 70
     0
 40
0.0
 41
1.0
 50
0.0
 71
     0
 42
17.5
  3
MSGOTHIC.TTC
  4

1001
ACAD
1000
ＭＳ Ｐゴシック
1071
    32818
  0
STYLE
  5
75
330
3
100
AcDbSymbolTableRecord
100
AcDbTextStyleTableRecord
  2
SLDTEXTSTYLE0
 70
     0
 40
0.0
 41
1.0
 50
0.0
 71
     0
 42
17.5
  3
MSGOTHIC.TTC
  4

1001
ACAD
1000
ＭＳ Ｐゴシック
1071
      306
  0
ENDTAB
  0
TABLE
  2
VIEW
  5
6
330
0
100
AcDbSymbolTable
 70
     0
  0
ENDTAB
  0
TABLE
  2
UCS
  5
7
330
0
100
AcDbSymbolTable
 70
     0
  0
ENDTAB
  0
TABLE
  2
APPID
  5
9
330
0
100
AcDbSymbolTable
 70
     1
  0
APPID
  5
12
330
9
100
AcDbSymbolTableRecord
100
AcDbRegAppTableRecord
  2
ACAD
 70
     0
  0
ENDTAB
  0
TABLE
  2
DIMSTYLE
  5
A
330
0
100
AcDbSymbolTable
 70
     1
100
AcDbDimStyleTable
  0
DIMSTYLE
105
27
330
A
100
AcDbSymbolTableRecord
100
AcDbDimStyleTableRecord
  2
ISO-25
 70
     0
 41
2.5
 42
0.625
 43
3.75
 44
1.25
 73
     0
 74
     0
 77
     1
 78
     8
140
2.5
141
2.5
143
0.0393700787
147
0.625
171
     3
172
     1
178
     0
271
     2
272
     2
274
     3
278
    44
283
     0
284
     8
340
11
  0
ENDTAB
  0
TABLE
  2
BLOCK_RECORD
  5
1
330
0
100
AcDbSymbolTable
 70
     2
  0
BLOCK_RECORD
  5
1F
330
1
100
AcDbSymbolTableRecord
100
AcDbBlockTableRecord
  2
*Model_Space
340
22
  0
BLOCK_RECORD
  5
1B
330
1
100
AcDbSymbolTableRecord
100
AcDbBlockTableRecord
  2
*Paper_Space
340
1E
  0
BLOCK_RECORD
  5
23
330
1
100
AcDbSymbolTableRecord
100
AcDbBlockTableRecord
  2
*Paper_Space0
340
26
  0
BLOCK_RECORD
  5
77
330
1
100
AcDbSymbolTableRecord
100
AcDbBlockTableRecord
  2
SW_BROKEN_VIEW_0
340
0
102
{BLKREFS
331
B3
102
}
  0
ENDTAB
  0
ENDSEC
  0
SECTION
  2
BLOCKS
  0
BLOCK
  5
20
330
1F
100
AcDbEntity
  8
0
100
AcDbBlockBegin
  2
*Model_Space
 70
     0
 10
0.0
 20
0.0
 30
0.0
  3
*Model_Space
  1

  0
ENDBLK
  5
21
330
1F
100
AcDbEntity
  8
0
100
AcDbBlockEnd
  0
BLOCK
  5
1C
330
1B
100
AcDbEntity
 67
     1
  8
0
100
AcDbBlockBegin
  2
*Paper_Space
 70
     0
 10
0.0
 20
0.0
 30
0.0
  3
*Paper_Space
  1

  0
ENDBLK
  5
1D
330
1B
100
AcDbEntity
 67
     1
  8
0
100
AcDbBlockEnd
  0
BLOCK
  5
24
330
23
100
AcDbEntity
  8
0
100
AcDbBlockBegin
  2
*Paper_Space0
 70
     0
 10
0.0
 20
0.0
 30
0.0
  3
*Paper_Space0
  1

  0
ENDBLK
  5
25
330
23
100
AcDbEntity
  8
0
100
AcDbBlockEnd
  0
BLOCK
  5
78
330
77
100
AcDbEntity
  8
0
100
AcDbBlockBegin
  2
SW_BROKEN_VIEW_0
 70
     0
 10
0.0
 20
0.0
 30
0.0
  3
SW_BROKEN_VIEW_0
  1

  0
LINE
  5
7A
330
77
100
AcDbEntity
  8
0
  6
SLD-実線
 62
     0
100
AcDbLine
 10
0.0
 20
0.0
 30
0.0
 11
-0.116340816
 21
2.5266967714
 31
0.0
  0
LINE
  5
7B
330
77
100
AcDbEntity
  8
0
  6
SLD-実線
 62
     0
100
AcDbLine
 10
-0.116340816
 20
2.5266967714
 30
0.0
 11
-0.0983290374
 21
4.9708224833
 31
0.0
  0
LINE
  5
7C
330
77
100
AcDbEntity
  8
0
  6
SLD-実線
 62
     0
100
AcDbLine
 10
-0.0983290374
 20
4.9708224833
 30
0.0
 11
0.0540167093
 21
7.3323771358
 31
0.0
  0
LINE
  5
7D
330
77
100
AcDbEntity
  8
0
  6
SLD-実線
 62
     0
100
AcDbLine
 10
0.0540167093
 20
7.3323771358
 30
0.0
 11
0.3407150507
 21
9.6113607287
 31
0.0
  0
LINE
  5
7E
330
77
100
AcDbEntity
  8
0
  6
SLD-実線
 62
     0
100
AcDbLine
 10
0.3407150507
 20
9.6113607287
 30
0.0
 11
0.7617659867
 21
11.8077546358
 31
0.0
  0
LINE
  5
7F
330
77
100
AcDbEntity
  8
0
  6
SLD-実線
 62
     0
100
AcDbLine
 10
0.7617659867
 20
11.8077546358
 30
0.0
 11
1.3171508908
 21
13.9215774834
 31
0.0
  0
LINE
  5
80
330
77
100
AcDbEntity
  8
0
  6
SLD-実線
 62
     0
100
AcDbLine
 10
1.3171508908
 20
13.9215774834
 30
0.0
 11
1.9638612866
 21
15.8389657736
 31
0.0
  0
LINE
  5
81
330
77
100
AcDbEntity
  8
0
  6
SLD-実線
 62
     0
100
AcDbLine
 10
1.9638612866
 20
15.8389657736
 30
0.0
 11
2.7300044894
 21
17.6829658449
 31
0.0
  0
LINE
  5
82
330
77
100
AcDbEntity
  8
0
  6
SLD-実線
 62
     0
100
AcDbLine
 10
2.7300044894
 20
17.6829658449
 30
0.0
 11
3.6155618727
 21
19.4535404444
 31
0.0
  0
LINE
  5
83
330
77
100
AcDbEntity
  8
0
  6
SLD-実線
 62
     0
100
AcDbLine
 10
3.6155618727
 20
19.4535404444
 30
0.0
 11
4.6205706894
 21
21.1507081985
 31
0.0
  0
LINE
  5
84
330
77
100
AcDbEntity
  8
0
  6
SLD-実線
 62
     0
100
AcDbLine
 10
4.6205706894
 20
21.1507081985
 30
0.0
 11
5.7449936867
 21
22.7744691074
 31
0.0
  0
LINE
  5
85
330
77
100
AcDbEntity
  8
0
  6
SLD-実線
 62
     0
100
AcDbLine
 10
5.7449936867
 20
22.7744691074
 30
0.0
 11
7.1409717202
 21
24.5000235736
 31
0.0
  0
LINE
  5
86
330
77
100
AcDbEntity
  8
0
  6
SLD-実線
 62
     0
100
AcDbLine
 10
7.1409717202
 20
24.5000235736
 30
0.0
 11
8.6857005954
 21
26.1341407895
 31
0.0
  0
LINE
  5
87
330
77
100
AcDbEntity
  8
0
  6
SLD-実線
 62
     0
100
AcDbLine
 10
8.6857005954
 20
26.1341407895
 30
0.0
 11
10.3791989386
 21
27.6768021286
 31
0.0
  0
LINE
  5
88
330
77
100
AcDbEntity
  8
0
  6
SLD-実線
 62
     0
100
AcDbLine
 10
10.3791989386
 20
27.6768021286
 30
0.0
 11
12.2214853764
 21
29.1280448437
 31
0.0
  0
LINE
  5
89
330
77
100
AcDbEntity
  8
0
  6
SLD-実線
 62
     0
100
AcDbLine
 10
12.2214853764
 20
29.1280448437
 30
0.0
 11
14.2125040293
 21
30.487831682
 31
0.0
  0
LINE
  5
8A
330
77
100
AcDbEntity
  8
0
  6
SLD-実線
 62
     0
100
AcDbLine
 10
14.2125040293
 20
30.487831682
 30
0.0
 11
16.3523107767
 21
31.7561812699
 31
0.0
  0
LINE
  5
8B
330
77
100
AcDbEntity
  8
0
  6
SLD-実線
 62
     0
100
AcDbLine
 10
16.3523107767
 20
31.7561812699
 30
0.0
 11
18.6408683658
 21
32.9331122339
 31
0.0
  0
LINE
  5
8C
330
77
100
AcDbEntity
  8
0
  6
SLD-実線
 62
     0
100
AcDbLine
 10
18.6408683658
 20
32.9331122339
 30
0.0
 11
21.0781954229
 21
34.0185686946
 31
0.0
  0
LINE
  5
8D
330
77
100
AcDbEntity
  8
0
  6
SLD-実線
 62
     0
100
AcDbLine
 10
10.0862234831
 20
-5.2816234529
 30
0.0
 11
9.9698826671
 21
-2.7549266815
 31
0.0
  0
LINE
  5
8E
330
77
100
AcDbEntity
  8
0
  6
SLD-実線
 62
     0
100
AcDbLine
 10
9.9698826671
 20
-2.7549266815
 30
0.0
 11
9.9878944457
 21
-0.3108009696
 31
0.0
  0
LINE
  5
8F
330
77
100
AcDbEntity
  8
0
  6
SLD-実線
 62
     0
100
AcDbLine
 10
9.9878944457
 20
-0.3108009696
 30
0.0
 11
10.1402401924
 21
2.0507536829
 31
0.0
  0
LINE
  5
90
330
77
100
AcDbEntity
  8
0
  6
SLD-実線
 62
     0
100
AcDbLine
 10
10.1402401924
 20
2.0507536829
 30
0.0
 11
10.4269385338
 21
4.3297372758
 31
0.0
  0
LINE
  5
91
330
77
100
AcDbEntity
  8
0
  6
SLD-実線
 62
     0
100
AcDbLine
 10
10.4269385338
 20
4.3297372758
 30
0.0
 11
10.8479894698
 21
6.5261311829
 31
0.0
  0
LINE
  5
92
330
77
100
AcDbEntity
  8
0
  6
SLD-実線
 62
     0
100
AcDbLine
 10
10.8479894698
 20
6.5261311829
 30
0.0
 11
11.4033743739
 21
8.6399540305
 31
0.0
  0
LINE
  5
93
330
77
100
AcDbEntity
  8
0
  6
SLD-実線
 62
     0
100
AcDbLine
 10
11.4033743739
 20
8.6399540305
 30
0.0
 11
12.0500847697
 21
10.5573423207
 31
0.0
  0
LINE
  5
94
330
77
100
AcDbEntity
  8
0
  6
SLD-実線
 62
     0
100
AcDbLine
 10
12.0500847697
 20
10.5573423207
 30
0.0
 11
12.8162093461
 21
12.401342392
 31
0.0
  0
LINE
  5
95
330
77
100
AcDbEntity
  8
0
  6
SLD-実線
 62
     0
100
AcDbLine
 10
12.8162093461
 20
12.401342392
 30
0.0
 11
13.7017853558
 21
14.1719169915
 31
0.0
  0
LINE
  5
96
330
77
100
AcDbEntity
  8
0
  6
SLD-実線
 62
     0
100
AcDbLine
 10
13.7017853558
 20
14.1719169915
 30
0.0
 11
14.7067755461
 21
15.8690847456
 31
0.0
  0
LINE
  5
97
330
77
100
AcDbEntity
  8
0
  6
SLD-実線
 62
     0
100
AcDbLine
 10
14.7067755461
 20
15.8690847456
 30
0.0
 11
15.8312171698
 21
17.4928456545
 31
0.0
  0
LINE
  5
98
330
77
100
AcDbEntity
  8
0
  6
SLD-実線
 62
     0
100
AcDbLine
 10
15.8312171698
 20
17.4928456545
 30
0.0
 11
17.2271765769
 21
19.2184001207
 31
0.0
  0
LINE
  5
99
330
77
100
AcDbEntity
  8
0
  6
SLD-実線
 62
     0
100
AcDbLine
 10
17.2271765769
 20
19.2184001207
 30
0.0
 11
18.7719240785
 21
20.8525173366
 31
0.0
  0
LINE
  5
9A
330
77
100
AcDbEntity
  8
0
  6
SLD-実線
 62
     0
100
AcDbLine
 10
18.7719240785
 20
20.8525173366
 30
0.0
 11
20.4654224217
 21
22.3951786757
 31
0.0
  0
LINE
  5
9B
330
77
100
AcDbEntity
  8
0
  6
SLD-実線
 62
     0
100
AcDbLine
 10
20.4654224217
 20
22.3951786757
 30
0.0
 11
22.307690233
 21
23.8464213908
 31
0.0
  0
LINE
  5
9C
330
77
100
AcDbEntity
  8
0
  6
SLD-実線
 62
     0
100
AcDbLine
 10
22.307690233
 20
23.8464213908
 30
0.0
 11
24.2987275124
 21
25.2062082291
 31
0.0
  0
LINE
  5
9D
330
77
100
AcDbEntity
  8
0
  6
SLD-実線
 62
     0
100
AcDbLine
 10
24.2987275124
 20
25.2062082291
 30
0.0
 11
26.4385342598
 21
26.474557817
 31
0.0
  0
LINE
  5
9E
330
77
100
AcDbEntity
  8
0
  6
SLD-実線
 62
     0
100
AcDbLine
 10
26.4385342598
 20
26.474557817
 30
0.0
 11
28.7270918489
 21
27.651488781
 31
0.0
  0
LINE
  5
9F
330
77
100
AcDbEntity
  8
0
  6
SLD-実線
 62
     0
100
AcDbLine
 10
28.7270918489
 20
27.651488781
 30
0.0
 11
31.164418906
 21
28.7369452417
 31
0.0
  0
LINE
  5
A0
330
77
100
AcDbEntity
  8
0
  6
SLD-実線
 62
     0
100
AcDbLine
 10
20.789951086
 20
-11.3613158464
 30
0.0
 11
20.67361027
 21
-8.8346190751
 31
0.0
  0
LINE
  5
A1
330
77
100
AcDbEntity
  8
0
  6
SLD-実線
 62
     0
100
AcDbLine
 10
20.67361027
 20
-8.8346190751
 30
0.0
 11
20.6916220486
 21
-6.3904747367
 31
0.0
  0
LINE
  5
A2
330
77
100
AcDbEntity
  8
0
  6
SLD-実線
 62
     0
100
AcDbLine
 10
20.6916220486
 20
-6.3904747367
 30
0.0
 11
20.8439677954
 21
-4.0289387107
 31
0.0
  0
LINE
  5
A3
330
77
100
AcDbEntity
  8
0
  6
SLD-実線
 62
     0
100
AcDbLine
 10
20.8439677954
 20
-4.0289387107
 30
0.0
 11
21.1306661367
 21
-1.7499551177
 31
0.0
  0
LINE
  5
A4
330
77
100
AcDbEntity
  8
0
  6
SLD-実線
 62
     0
100
AcDbLine
 10
21.1306661367
 20
-1.7499551177
 30
0.0
 11
21.5517170727
 21
0.4464387894
 31
0.0
  0
LINE
  5
A5
330
77
100
AcDbEntity
  8
0
  6
SLD-実線
 62
     0
100
AcDbLine
 10
21.5517170727
 20
0.4464387894
 30
0.0
 11
22.1071019769
 21
2.560261637
 31
0.0
  0
LINE
  5
A6
330
77
100
AcDbEntity
  8
0
  6
SLD-実線
 62
     0
100
AcDbLine
 10
22.1071019769
 20
2.560261637
 30
0.0
 11
22.7538123727
 21
4.4776685536
 31
0.0
  0
LINE
  5
A7
330
77
100
AcDbEntity
  8
0
  6
SLD-実線
 62
     0
100
AcDbLine
 10
22.7538123727
 20
4.4776685536
 30
0.0
 11
23.5199555755
 21
6.3216499984
 31
0.0
  0
LINE
  5
A8
330
77
100
AcDbEntity
  8
0
  6
SLD-実線
 62
     0
100
AcDbLine
 10
23.5199555755
 20
6.3216499984
 30
0.0
 11
24.4055129588
 21
8.0922432244
 31
0.0
  0
LINE
  5
A9
330
77
100
AcDbEntity
  8
0
  6
SLD-実線
 62
     0
100
AcDbLine
 10
24.4055129588
 20
8.0922432244
 30
0.0
 11
25.4105217755
 21
9.7894109786
 31
0.0
  0
LINE
  5
AA
330
77
100
AcDbEntity
  8
0
  6
SLD-実線
 62
     0
100
AcDbLine
 10
25.4105217755
 20
9.7894109786
 30
0.0
 11
26.5349447727
 21
11.4131718874
 31
0.0
  0
LINE
  5
AB
330
77
100
AcDbEntity
  8
0
  6
SLD-実線
 62
     0
100
AcDbLine
 10
26.5349447727
 20
11.4131718874
 30
0.0
 11
27.930913493
 21
13.1387263536
 31
0.0
  0
LINE
  5
AC
330
77
100
AcDbEntity
  8
0
  6
SLD-実線
 62
     0
100
AcDbLine
 10
27.930913493
 20
13.1387263536
 30
0.0
 11
29.4756516814
 21
14.7728249431
 31
0.0
  0
LINE
  5
AD
330
77
100
AcDbEntity
  8
0
  6
SLD-実線
 62
     0
100
AcDbLine
 10
29.4756516814
 20
14.7728249431
 30
0.0
 11
31.1691593379
 21
16.3155049086
 31
0.0
  0
LINE
  5
AE
330
77
100
AcDbEntity
  8
0
  6
SLD-実線
 62
     0
100
AcDbLine
 10
31.1691593379
 20
16.3155049086
 30
0.0
 11
33.0114271492
 21
17.7667289972
 31
0.0
  0
LINE
  5
AF
330
77
100
AcDbEntity
  8
0
  6
SLD-実線
 62
     0
100
AcDbLine
 10
33.0114271492
 20
17.7667289972
 30
0.0
 11
35.0024644285
 21
19.126534462
 31
0.0
  0
LINE
  5
B0
330
77
100
AcDbEntity
  8
0
  6
SLD-実線
 62
     0
100
AcDbLine
 10
35.0024644285
 20
19.126534462
 30
0.0
 11
37.1422618628
 21
20.3948840499
 31
0.0
  0
LINE
  5
B1
330
77
100
AcDbEntity
  8
0
  6
SLD-実線
 62
     0
100
AcDbLine
 10
37.1422618628
 20
20.3948840499
 30
0.0
 11
39.430828765
 21
21.5717963874
 31
0.0
  0
LINE
  5
B2
330
77
100
AcDbEntity
  8
0
  6
SLD-実線
 62
     0
100
AcDbLine
 10
39.430828765
 20
21.5717963874
 30
0.0
 11
41.8681558222
 21
22.6572714746
 31
0.0
  0
ENDBLK
  5
79
330
77
100
AcDbEntity
  8
0
100
AcDbBlockEnd
  0
ENDSEC
  0
SECTION
  2
ENTITIES
  0
MTEXT
  5
76
330
1F
100
AcDbEntity
  8
0
  6
Continuous
 62
     7
370
     0
100
AcDbMText
 10
773.6367864123
 20
416.4568478941
 30
0.0
 40
17.5
 41
0.0
 71
     1
 72
     1
  1
HIC-024S
  7
SLDTEXTSTYLE0
 73
     1
 44
1.0
  0
INSERT
  5
B3
330
1F
100
AcDbEntity
  8
0
  6
Continuous
 62
     7
100
AcDbBlockReference
  2
SW_BROKEN_VIEW_0
 10
364.9422438605
 20
938.5004289411
 30
0.0
  0
LINE
  5
B4
330
1F
100
AcDbEntity
  8
0
  6
SLD-実線
 62
     7
370
    25
100
AcDbLine
 10
698.3229712924
 20
591.6880093478
 30
0.0
 11
729.5619891366
 21
573.6541025304
 31
0.0
  0
LINE
  5
B5
330
1F
100
AcDbEntity
  8
0
  6
SLD-実線
 62
     7
370
    25
100
AcDbLine
 10
735.3115276775
 20
583.6136661433
 30
0.0
 11
698.3349108478
 21
604.9598030709
 31
0.0
  0
LINE
  5
B6
330
1F
100
AcDbEntity
  8
0
  6
SLD-実線
 62
     7
370
    25
100
AcDbLine
 10
690.9780864945
 20
632.6664727144
 30
0.0
 11
761.3817983648
 21
592.0232854747
 31
0.0
  0
LINE
  5
B7
330
1F
100
AcDbEntity
  8
0
  6
SLD-実線
 62
     7
370
    25
100
AcDbLine
 10
767.1313182792
 20
601.9828490876
 30
0.0
 11
690.9900353631
 21
645.9382664375
 31
0.0
  0
LWPOLYLINE
  5
B8
330
1F
100
AcDbEntity
  8
0
  6
SLD-実線
 62
     7
370
    25
100
AcDbPolyline
 90
       20
 70
   128
 43
0.0
 10
733.7569454095
 20
583.8367178999
 10
732.436758407
 20
583.3289794587
 10
731.1165714046
 20
582.3124594949
 10
729.9394541761
 20
580.8973148428
 10
729.0329420349
 20
579.236878451
 10
728.495308139
 20
577.5111004673
 10
728.3847787759
 20
575.9070090913
 10
728.7133493802
 20
574.5983891152
 10
729.4454061767
 20
573.7270995938
 10
730.5016191086
 20
573.3875207566
 10
731.7675286314
 20
573.6164770983
 10
733.1059695563
 20
574.3891395591
 10
734.3718977055
 20
575.6217822395
 10
735.4281106373
 20
577.1808348559
 10
736.1601674339
 20
578.8973554932
 10
736.4887380382
 20
580.5853217803
 10
736.3782086751
 20
582.0618033372
 10
735.8405561527
 20
583.1668361984
 10
734.934062638
 20
583.7806336545
 10
733.7569454095
 20
583.8367178999
  0
LWPOLYLINE
  5
B9
330
1F
100
AcDbEntity
  8
0
  6
SLD-実線
 62
     7
370
    25
100
AcDbPolyline
 90
       20
 70
   128
 43
0.0
 10
765.5767360112
 20
602.2059008442
 10
764.2565490088
 20
601.698162403
 10
762.9363806328
 20
600.6816424392
 10
761.7592447778
 20
599.2664977871
 10
760.8527512631
 20
597.6060613953
 10
760.3151173672
 20
595.8802834116
 10
760.204588004
 20
594.2761920355
 10
760.5331399819
 20
592.9675720595
 10
761.2651967785
 20
592.096282538
 10
762.3214283368
 20
591.7567037009
 10
763.5873378596
 20
591.9856600426
 10
764.9257787844
 20
592.7583225034
 10
766.1916883072
 20
593.9909651838
 10
767.2479198655
 20
595.5500178002
 10
767.9799766621
 20
597.2665384375
 10
768.30852864
 20
598.9545047246
 10
768.1979992768
 20
600.4309862815
 10
767.6603653809
 20
601.5360191427
 10
766.7538718661
 20
602.1498165988
 10
765.5767360112
 20
602.2059008442
  0
LINE
  5
BA
330
1F
100
AcDbEntity
  8
0
  6
SLD-実線
 62
     7
370
    25
100
AcDbLine
 10
423.894171544
 20
950.6549708508
 30
0.0
 11
378.1890877864
 21
977.0399540626
 31
0.0
  0
LINE
  5
BB
330
1F
100
AcDbEntity
  8
0
  6
SLD-実線
 62
     7
370
    25
100
AcDbLine
 10
358.1907236358
 20
942.3979952894
 30
0.0
 11
404.4291385791
 21
915.7051261477
 31
0.0
  0
LINE
  5
BC
330
1F
100
AcDbEntity
  8
0
  6
SLD-実線
 62
     7
370
    25
100
AcDbLine
 10
533.2530065781
 20
675.7051147484
 30
0.0
 11
648.3229630968
 21
609.2766508423
 31
0.0
  0
LINE
  5
BD
330
1F
100
AcDbEntity
  8
0
  6
SLD-実線
 62
     7
370
    25
100
AcDbLine
 10
648.3349119654
 20
622.5484445654
 30
0.0
 11
539.0025392981
 21
685.6646690481
 31
0.0
  0
LINE
  5
BE
330
1F
100
AcDbEntity
  8
0
  6
SLD-実線
 62
     7
370
    25
100
AcDbLine
 10
565.0728117317
 20
694.074293036
 30
0.0
 11
640.9780876121
 21
650.2551142089
 31
0.0
  0
LINE
  5
BF
330
1F
100
AcDbEntity
  8
0
  6
SLD-実線
 62
     7
370
    25
100
AcDbLine
 10
640.9900364807
 20
663.526907932
 30
0.0
 11
570.8223450339
 21
704.033856649
 31
0.0
  0
LWPOLYLINE
  5
C0
330
1F
100
AcDbEntity
  8
0
  6
SLD-実線
 62
     7
370
    25
100
AcDbPolyline
 90
       20
 70
   128
 43
0.0
 10
358.1907236358
 20
942.3979952894
 10
357.3564076206
 20
942.9676666819
 10
355.9424550614
 20
944.4832637869
 10
354.9006403765
 20
946.4617840909
 10
354.2626099071
 20
948.8431014084
 10
354.0477724156
 20
951.5548892282
 10
354.2626099071
 20
954.5147441291
 10
354.9006403765
 20
957.6327189766
 10
355.9424550614
 20
960.8140796386
 10
357.3564076206
 20
963.9621734582
 10
359.0995082041
 20
966.9813349806
 10
361.1188390633
 20
969.7798289322
 10
363.353007414
 20
972.2726441883
 10
365.7341570934
 20
974.3840083443
 10
368.1899057111
 20
976.0497905277
 10
370.6456543287
 20
977.2193640433
 10
373.0268040082
 20
977.8571896218
 10
375.2609723589
 20
977.9439143799
 10
377.2802845916
 20
977.4768747352
 10
378.1890877864
 20
977.0399540626
  0
LWPOLYLINE
  5
C1
330
1F
100
AcDbEntity
  8
0
  6
SLD-実線
 62
     7
370
    25
100
AcDbPolyline
 90
       11
 70
   128
 43
0.0
 10
539.0025392981
 20
685.6646690481
 10
538.0629104903
 20
685.9312508218
 10
536.7969916543
 20
685.7022944801
 10
535.4585530577
 20
684.9296320193
 10
534.19263655
 20
683.6969893389
 10
533.1364189616
 20
682.1379274093
 10
532.4043644933
 20
680.4214160852
 10
532.0757962173
 20
678.7334497981
 10
532.1863232522
 20
677.256958928
 10
532.7239687896
 20
676.15193538
 10
533.2530065781
 20
675.7051147484
  0
LWPOLYLINE
  5
C2
330
1F
100
AcDbEntity
  8
0
  6
SLD-実線
 62
     7
370
    25
100
AcDbPolyline
 90
       11
 70
   128
 43
0.0
 10
570.8223450339
 20
704.033856649
 10
569.8827173902
 20
704.3004291095
 10
568.6167985542
 20
704.071482081
 10
567.2783593755
 20
703.2988149636
 10
566.0124405395
 20
702.0661676266
 10
564.9562252794
 20
700.5071150102
 10
564.2241684828
 20
698.7905990295
 10
563.8956013709
 20
697.102637399
 10
564.0061284058
 20
695.6261418723
 10
564.543772779
 20
694.5211183243
 10
565.0728117317
 20
694.074293036
  0
LINE
  5
C3
330
1F
100
AcDbEntity
  8
0
  6
SLD-実線
 62
     7
370
    25
100
AcDbLine
 10
503.4240856176
 20
763.8710648949
 30
0.0
 11
502.5401999584
 21
763.3608095544
 31
0.0
  0
LINE
  5
C4
330
1F
100
AcDbEntity
  8
0
  6
SLD-実線
 62
     7
370
    25
100
AcDbLine
 10
502.5401999584
 20
763.3608095544
 30
0.0
 11
403.5452482632
 21
820.5093791671
 31
0.0
  0
LINE
  5
C5
330
1F
100
AcDbEntity
  8
0
  6
SLD-実線
 62
     7
370
    25
100
AcDbLine
 10
403.5452482632
 20
820.5093791671
 30
0.0
 11
404.4291385791
 21
821.0196321793
 31
0.0
  0
LINE
  5
C6
330
1F
100
AcDbEntity
  8
0
  6
SLD-実線
 62
     7
370
    25
100
AcDbLine
 10
567.9475786738
 20
723.5483055897
 30
0.0
 11
514.9145712486
 21
692.9329991304
 31
0.0
  0
LINE
  5
C7
330
1F
100
AcDbEntity
  8
0
  6
SLD-実線
 62
     7
370
    25
100
AcDbLine
 10
514.9145712486
 20
692.9329991304
 30
0.0
 11
514.9145712486
 21
668.4367753528
 31
0.0
  0
LINE
  5
C8
330
1F
100
AcDbEntity
  8
0
  6
SLD-実線
 62
     7
370
    25
100
AcDbLine
 10
580.3219470537
 20
698.549852144
 30
0.0
 11
580.3219470537
 21
802.1401938945
 31
0.0
  0
LINE
  5
C9
330
1F
100
AcDbEntity
  8
0
  6
SLD-実線
 62
     7
370
    25
100
AcDbLine
 10
579.8793779096
 20
685.5266470425
 30
0.0
 11
559.5605081172
 21
673.7968068533
 31
0.0
  0
LINE
  5
CA
330
1F
100
AcDbEntity
  8
0
  6
SLD-実線
 62
     7
370
    25
100
AcDbLine
 10
548.059573338
 20
667.1574640982
 30
0.0
 11
502.5401999584
 21
640.879685428
 31
0.0
  0
LINE
  5
CB
330
1F
100
AcDbEntity
  8
0
  6
SLD-実線
 62
     7
370
    25
100
AcDbLine
 10
502.5401999584
 20
640.879685428
 30
0.0
 11
502.5401999584
 21
763.3608095544
 31
0.0
  0
LINE
  5
CC
330
1F
100
AcDbEntity
  8
0
  6
SLD-実線
 62
     7
370
    25
100
AcDbLine
 10
502.5401999584
 20
640.879685428
 30
0.0
 11
403.5452482632
 21
698.0282556229
 31
0.0
  0
LINE
  5
CD
330
1F
100
AcDbEntity
  8
0
  6
SLD-実線
 62
     7
370
    25
100
AcDbLine
 10
403.5452482632
 20
698.0282556229
 30
0.0
 11
403.5452482632
 21
820.5093791671
 31
0.0
  0
LINE
  5
CE
330
1F
100
AcDbEntity
  8
0
  6
SLD-実線
 62
     7
370
    25
100
AcDbLine
 10
525.5211712202
 20
662.3137205802
 30
0.0
 11
540.9856323959
 21
671.2411645763
 31
0.0
  0
LINE
  5
CF
330
1F
100
AcDbEntity
  8
0
  6
SLD-実線
 62
     7
370
    25
100
AcDbLine
 10
552.486566302
 20
677.8805073314
 30
0.0
 11
572.8054381317
 21
689.6103475206
 31
0.0
  0
LINE
  5
D0
330
1F
100
AcDbEntity
  8
0
  6
SLD-実線
 62
     7
370
    25
100
AcDbLine
 10
525.5211712202
 20
686.8099443577
 30
0.0
 11
525.5211712202
 21
662.3137205802
 31
0.0
  0
LINE
  5
D1
330
1F
100
AcDbEntity
  8
0
  6
SLD-実線
 62
     7
370
    25
100
AcDbLine
 10
578.5541803917
 20
717.4252461605
 30
0.0
 11
525.5211712202
 21
686.8099443577
 31
0.0
  0
LINE
  5
D2
330
1F
100
AcDbEntity
  8
0
  6
SLD-実線
 62
     7
370
    25
100
AcDbLine
 10
578.5541803917
 20
699.570362825
 30
0.0
 11
578.5541803917
 21
717.4252461605
 31
0.0
  0
LINE
  5
D3
330
1F
100
AcDbEntity
  8
0
  6
SLD-実線
 62
     7
370
    25
100
AcDbLine
 10
578.5541803917
 20
717.4252461605
 30
0.0
 11
567.9475786738
 21
723.5483055897
 31
0.0
  0
LINE
  5
D4
330
1F
100
AcDbEntity
  8
0
  6
SLD-実線
 62
     7
370
    25
100
AcDbLine
 10
525.5211712202
 20
686.8099443577
 30
0.0
 11
514.9145712486
 21
692.9329991304
 31
0.0
  0
LINE
  5
D5
330
1F
100
AcDbEntity
  8
0
  6
SLD-実線
 62
     7
370
    25
100
AcDbLine
 10
525.5211712202
 20
662.3137205802
 30
0.0
 11
514.9145712486
 21
668.4367753528
 31
0.0
  0
LINE
  5
D6
330
1F
100
AcDbEntity
  8
0
  6
SLD-実線
 62
     7
370
    25
100
AcDbLine
 10
480.4431143558
 20
983.2999877595
 30
0.0
 11
404.4291385791
 21
939.4180424474
 31
0.0
  0
LINE
  5
D7
330
1F
100
AcDbEntity
  8
0
  6
SLD-実線
 62
     7
370
    25
100
AcDbLine
 10
584.7413660368
 20
923.0898901783
 30
0.0
 11
480.4431143558
 21
983.2999877595
 31
0.0
  0
LINE
  5
D8
330
1F
100
AcDbEntity
  8
0
  6
SLD-実線
 62
     7
370
    25
100
AcDbLine
 10
508.7273856035
 20
879.2079541795
 30
0.0
 11
584.7413660368
 21
923.0898901783
 31
0.0
  0
LINE
  5
D9
330
1F
100
AcDbEntity
  8
0
  6
SLD-実線
 62
     7
370
    25
100
AcDbLine
 10
404.4291385791
 20
939.4180424474
 30
0.0
 11
508.7273856035
 21
879.2079541795
 31
0.0
  0
LINE
  5
DA
330
1F
100
AcDbEntity
  8
0
  6
SLD-実線
 62
     7
370
    25
100
AcDbLine
 10
404.4291385791
 20
939.4180424474
 30
0.0
 11
404.4291385791
 21
821.0196321793
 31
0.0
  0
LINE
  5
DB
330
1F
100
AcDbEntity
  8
0
  6
SLD-実線
 62
     7
370
    25
100
AcDbLine
 10
508.7273856035
 20
879.2079541795
 30
0.0
 11
508.7273856035
 21
760.8095345982
 31
0.0
  0
LINE
  5
DC
330
1F
100
AcDbEntity
  8
0
  6
SLD-実線
 62
     7
370
    25
100
AcDbLine
 10
404.4291385791
 20
821.0196321793
 30
0.0
 11
508.7273856035
 21
760.8095345982
 31
0.0
  0
LINE
  5
DD
330
1F
100
AcDbEntity
  8
0
  6
SLD-実線
 62
     7
370
    25
100
AcDbLine
 10
584.7413660368
 20
923.0898901783
 30
0.0
 11
584.7413660368
 21
804.691470597
 31
0.0
  0
LINE
  5
DE
330
1F
100
AcDbEntity
  8
0
  6
SLD-実線
 62
     7
370
    25
100
AcDbLine
 10
508.7273856035
 20
760.8095345982
 30
0.0
 11
584.7413660368
 21
804.691470597
 31
0.0
  0
LWPOLYLINE
  5
DF
330
1F
100
AcDbEntity
  8
0
  6
SLD-実線
 62
     7
370
    25
100
AcDbPolyline
 90
       49
 70
   128
 43
0.0
 10
543.5501653111
 20
826.8795883246
 10
546.734374656
 20
828.4767879136
 10
549.9185857471
 20
830.5559981577
 10
553.0483133035
 20
833.081637878
 10
556.0700077322
 20
836.0104983635
 10
558.9319665879
 20
839.29246049
 10
561.5852220209
 20
842.8713701628
 10
563.9843750388
 20
846.6859975793
 10
566.0883759257
 20
850.6710663401
 10
567.8612241164
 20
854.758389663
 10
569.2725870168
 20
858.8780298792
 10
570.2983131042
 20
862.9595138096
 10
570.9208556792
 20
866.9329922609
 10
571.1295604116
 20
870.7304879986
 10
570.9208556792
 20
874.2870133333
 10
570.2983131042
 20
877.5417249613
 10
569.2725870168
 20
880.4389204793
 10
567.8612241164
 20
882.9290442132
 10
566.0883759257
 20
884.9694788419
 10
563.9843750388
 20
886.5253183954
 10
561.5852220209
 20
887.5699456744
 10
558.9319665879
 20
888.0854699724
 10
556.0700077322
 20
888.0630902909
 10
553.0483133035
 20
887.5031698458
 10
549.9185857471
 20
886.4153012596
 10
546.734374656
 20
884.8181016706
 10
543.5501653111
 20
882.7388960831
 10
540.4204371726
 20
880.2132517062
 10
537.3987424528
 20
877.2843912207
 10
534.5367835244
 20
874.0024290942
 10
531.8835270001
 20
870.423524078
 10
529.4843748553
 20
866.608892005
 10
527.3803751325
 20
862.6238279008
 10
525.6075257776
 20
858.5365045779
 10
524.1961646235
 20
854.4168550484
 10
523.1704362078
 20
850.3353804313
 10
522.5478959611
 20
846.3618973233
 10
522.3391912287
 20
842.5644062422
 10
522.5478959611
 20
839.0078809075
 10
523.1704362078
 20
835.7531692796
 10
524.1961646235
 20
832.8559691049
 10
525.6075257776
 20
830.3658453711
 10
527.3803751325
 20
828.3254107423
 10
529.4843748553
 20
826.7695711889
 10
531.8835270001
 20
825.7249485664
 10
534.5367835244
 20
825.2094196119
 10
537.3987424528
 20
825.2318039499
 10
540.4204371726
 20
825.7917197384
 10
543.5501653111
 20
826.8795883246
  0
ARC
  5
E0
330
1F
100
AcDbEntity
  8
0
  6
SLD-破線
 62
     7
370
    18
100
AcDbCircle
 10
693.7167376799
 20
656.8435385442
 30
0.0
 40
53.14858999752295
100
AcDbArc
 50
157.380135052
 51
202.619864948
  0
ARC
  5
E1
330
1F
100
AcDbEntity
  8
0
  6
SLD-破線
 62
     7
370
    18
100
AcDbCircle
 10
595.5962638383
 20
615.9600077768
 30
0.0
 40
53.14858999752285
100
AcDbArc
 50
337.380135052
 51
22.619864948
  0
ARC
  5
E2
330
1F
100
AcDbEntity
  8
0
  6
SLD-破線
 62
     7
370
    18
100
AcDbCircle
 10
743.7167376799
 20
639.254895358
 30
0.0
 40
53.14858999752285
100
AcDbArc
 50
157.380135052
 51
202.619864948
  0
ARC
  5
E3
330
1F
100
AcDbEntity
  8
0
  6
SLD-破線
 62
     7
370
    18
100
AcDbCircle
 10
645.5962638383
 20
598.3713645907
 30
0.0
 40
53.14858999752285
100
AcDbArc
 50
337.380135052
 51
22.619864948
  0
ENDSEC
  0
SECTION
  2
OBJECTS
  0
DICTIONARY
  5
C
330
0
100
AcDbDictionary
281
     1
  3
ACAD_GROUP
350
D
  3
ACAD_LAYOUT
350
1A
  3
ACAD_MLINESTYLE
350
17
  3
ACAD_PLOTSETTINGS
350
19
  3
ACAD_PLOTSTYLENAME
350
E
  3
ACAD_SCALELIST
350
47
  0
DICTIONARY
  5
D
102
{ACAD_REACTORS
330
C
102
}
330
C
100
AcDbDictionary
281
     1
  0
DICTIONARY
  5
1A
102
{ACAD_REACTORS
330
C
102
}
330
C
100
AcDbDictionary
281
     1
  3
Layout1
350
1E
  3
Layout2
350
26
  3
Model
350
22
  0
DICTIONARY
  5
17
102
{ACAD_REACTORS
330
C
102
}
330
C
100
AcDbDictionary
281
     1
  3
Standard
350
18
  0
DICTIONARY
  5
19
102
{ACAD_REACTORS
330
C
102
}
330
C
100
AcDbDictionary
281
     1
  0
ACDBDICTIONARYWDFLT
  5
E
102
{ACAD_REACTORS
330
C
102
}
330
C
100
AcDbDictionary
281
     1
  3
Normal
350
F
100
AcDbDictionaryWithDefault
340
F
  0
DICTIONARY
  5
47
102
{ACAD_REACTORS
330
C
102
}
330
C
100
AcDbDictionary
281
     1
  3
A0
350
48
  3
A1
350
49
  3
A2
350
4A
  3
A3
350
4B
  3
A4
350
4C
  3
A5
350
4D
  3
A6
350
4E
  3
A7
350
4F
  3
A8
350
50
  3
A9
350
51
  3
B0
350
52
  3
B1
350
53
  3
B2
350
54
  3
B3
350
55
  3
B4
350
56
  3
B5
350
57
  3
B6
350
58
  3
B7
350
59
  3
B8
350
5A
  3
B9
350
5B
  3
C0
350
5C
  3
C1
350
5D
  3
C2
350
5E
  3
C3
350
5F
  3
C4
350
60
  3
C5
350
61
  3
C6
350
62
  3
C7
350
63
  3
C8
350
64
  3
C9
350
65
  3
D0
350
66
  3
D1
350
67
  3
D2
350
68
  0
LAYOUT
  5
1E
102
{ACAD_REACTORS
330
1A
102
}
330
1A
100
AcDbPlotSettings
  1

  2
none_device
  4

  6

 40
0.0
 41
0.0
 42
0.0
 43
0.0
 44
0.0
 45
0.0
 46
0.0
 47
0.0
 48
0.0
 49
0.0
140
0.0
141
0.0
142
1.0
143
1.0
 70
   688
 72
     1
 73
     0
 74
     5
  7

 75
    16
147
1.0
148
0.0
149
0.0
100
AcDbLayout
  1
Layout1
 70
     1
 71
     1
 10
0.0
 20
0.0
 11
420.0
 21
297.0
 12
0.0
 22
0.0
 32
0.0
 14
1.0000000000E+20
 24
1.0000000000E+20
 34
1.0000000000E+20
 15
-1.0000000000E+20
 25
-1.0000000000E+20
 35
-1.0000000000E+20
146
0.0
 13
0.0
 23
0.0
 33
0.0
 16
1.0
 26
0.0
 36
0.0
 17
0.0
 27
1.0
 37
0.0
 76
     0
330
1B
  0
LAYOUT
  5
26
102
{ACAD_REACTORS
330
1A
102
}
330
1A
100
AcDbPlotSettings
  1

  2
none_device
  4

  6

 40
0.0
 41
0.0
 42
0.0
 43
0.0
 44
0.0
 45
0.0
 46
0.0
 47
0.0
 48
0.0
 49
0.0
140
0.0
141
0.0
142
1.0
143
1.0
 70
   688
 72
     1
 73
     0
 74
     5
  7

 75
    16
147
1.0
148
0.0
149
0.0
100
AcDbLayout
  1
Layout2
 70
     1
 71
     2
 10
0.0
 20
0.0
 11
0.0
 21
0.0
 12
0.0
 22
0.0
 32
0.0
 14
0.0
 24
0.0
 34
0.0
 15
0.0
 25
0.0
 35
0.0
146
0.0
 13
0.0
 23
0.0
 33
0.0
 16
1.0
 26
0.0
 36
0.0
 17
0.0
 27
1.0
 37
0.0
 76
     0
330
23
  0
LAYOUT
  5
22
102
{ACAD_REACTORS
330
1A
102
}
330
1A
100
AcDbPlotSettings
  1

  2
none_device
  4
Letter_(8.50_x_11.00_Inches)
  6

 40
6.35
 41
6.35
 42
6.35000508
 43
6.35000508
 44
215.9
 45
279.4
 46
0.0
 47
0.0
 48
0.0
 49
0.0
140
0.0
141
0.0
142
1.0
143
1.0
 70
  1712
 72
     1
 73
     0
 74
     0
  7

 75
     0
147
1.0
148
0.0
149
0.0
100
AcDbLayout
  1
Model
 70
     1
 71
     0
 10
0.0
 20
0.0
 11
1050.0
 21
1485.0
 12
0.0
 22
0.0
 32
0.0
 14
0.0
 24
0.0
 34
0.0
 15
1050.0
 25
1485.0
 35
0.0
146
0.0
 13
0.0
 23
0.0
 33
0.0
 16
1.0
 26
0.0
 36
0.0
 17
0.0
 27
1.0
 37
0.0
 76
     0
330
1F
331
29
  0
MLINESTYLE
  5
18
102
{ACAD_REACTORS
330
17
102
}
330
17
100
AcDbMlineStyle
  2
Standard
 70
     0
  3

 62
   256
 51
90.0
 52
90.0
 71
     2
 49
0.5
 62
   256
  6
BYLAYER
 49
-0.5
 62
   256
  6
BYLAYER
  0
ACDBPLACEHOLDER
  5
F
102
{ACAD_REACTORS
330
E
102
}
330
E
  0
SCALE
  5
48
102
{ACAD_REACTORS
330
47
102
}
330
47
100
AcDbScale
 70
     0
300
1:1
140
1.0
141
1.0
290
     1
  0
SCALE
  5
49
102
{ACAD_REACTORS
330
47
102
}
330
47
100
AcDbScale
 70
     0
300
1:2
140
1.0
141
2.0
290
     0
  0
SCALE
  5
4A
102
{ACAD_REACTORS
330
47
102
}
330
47
100
AcDbScale
 70
     0
300
1:4
140
1.0
141
4.0
290
     0
  0
SCALE
  5
4B
102
{ACAD_REACTORS
330
47
102
}
330
47
100
AcDbScale
 70
     0
300
1:5
140
1.0
141
5.0
290
     0
  0
SCALE
  5
4C
102
{ACAD_REACTORS
330
47
102
}
330
47
100
AcDbScale
 70
     0
300
1:8
140
1.0
141
8.0
290
     0
  0
SCALE
  5
4D
102
{ACAD_REACTORS
330
47
102
}
330
47
100
AcDbScale
 70
     0
300
1:10
140
1.0
141
10.0
290
     0
  0
SCALE
  5
4E
102
{ACAD_REACTORS
330
47
102
}
330
47
100
AcDbScale
 70
     0
300
1:16
140
1.0
141
16.0
290
     0
  0
SCALE
  5
4F
102
{ACAD_REACTORS
330
47
102
}
330
47
100
AcDbScale
 70
     0
300
1:20
140
1.0
141
20.0
290
     0
  0
SCALE
  5
50
102
{ACAD_REACTORS
330
47
102
}
330
47
100
AcDbScale
 70
     0
300
1:30
140
1.0
141
30.0
290
     0
  0
SCALE
  5
51
102
{ACAD_REACTORS
330
47
102
}
330
47
100
AcDbScale
 70
     0
300
1:40
140
1.0
141
40.0
290
     0
  0
SCALE
  5
52
102
{ACAD_REACTORS
330
47
102
}
330
47
100
AcDbScale
 70
     0
300
1:50
140
1.0
141
50.0
290
     0
  0
SCALE
  5
53
102
{ACAD_REACTORS
330
47
102
}
330
47
100
AcDbScale
 70
     0
300
1:100
140
1.0
141
100.0
290
     0
  0
SCALE
  5
54
102
{ACAD_REACTORS
330
47
102
}
330
47
100
AcDbScale
 70
     0
300
2:1
140
2.0
141
1.0
290
     0
  0
SCALE
  5
55
102
{ACAD_REACTORS
330
47
102
}
330
47
100
AcDbScale
 70
     0
300
4:1
140
4.0
141
1.0
290
     0
  0
SCALE
  5
56
102
{ACAD_REACTORS
330
47
102
}
330
47
100
AcDbScale
 70
     0
300
8:1
140
8.0
141
1.0
290
     0
  0
SCALE
  5
57
102
{ACAD_REACTORS
330
47
102
}
330
47
100
AcDbScale
 70
     0
300
10:1
140
10.0
141
1.0
290
     0
  0
SCALE
  5
58
102
{ACAD_REACTORS
330
47
102
}
330
47
100
AcDbScale
 70
     0
300
100:1
140
100.0
141
1.0
290
     0
  0
SCALE
  5
59
102
{ACAD_REACTORS
330
47
102
}
330
47
100
AcDbScale
 70
     0
300
1/128" = 1'-0"
140
0.0078125
141
12.0
290
     0
  0
SCALE
  5
5A
102
{ACAD_REACTORS
330
47
102
}
330
47
100
AcDbScale
 70
     0
300
1/64" = 1'-0"
140
0.015625
141
12.0
290
     0
  0
SCALE
  5
5B
102
{ACAD_REACTORS
330
47
102
}
330
47
100
AcDbScale
 70
     0
300
1/32" = 1'-0"
140
0.03125
141
12.0
290
     0
  0
SCALE
  5
5C
102
{ACAD_REACTORS
330
47
102
}
330
47
100
AcDbScale
 70
     0
300
1/16" = 1'-0"
140
0.0625
141
12.0
290
     0
  0
SCALE
  5
5D
102
{ACAD_REACTORS
330
47
102
}
330
47
100
AcDbScale
 70
     0
300
3/32" = 1'-0"
140
0.09375
141
12.0
290
     0
  0
SCALE
  5
5E
102
{ACAD_REACTORS
330
47
102
}
330
47
100
AcDbScale
 70
     0
300
1/8" = 1'-0"
140
0.125
141
12.0
290
     0
  0
SCALE
  5
5F
102
{ACAD_REACTORS
330
47
102
}
330
47
100
AcDbScale
 70
     0
300
3/16" = 1'-0"
140
0.1875
141
12.0
290
     0
  0
SCALE
  5
60
102
{ACAD_REACTORS
330
47
102
}
330
47
100
AcDbScale
 70
     0
300
1/4" = 1'-0"
140
0.25
141
12.0
290
     0
  0
SCALE
  5
61
102
{ACAD_REACTORS
330
47
102
}
330
47
100
AcDbScale
 70
     0
300
3/8" = 1'-0"
140
0.375
141
12.0
290
     0
  0
SCALE
  5
62
102
{ACAD_REACTORS
330
47
102
}
330
47
100
AcDbScale
 70
     0
300
1/2" = 1'-0"
140
0.5
141
12.0
290
     0
  0
SCALE
  5
63
102
{ACAD_REACTORS
330
47
102
}
330
47
100
AcDbScale
 70
     0
300
3/4" = 1'-0"
140
0.75
141
12.0
290
     0
  0
SCALE
  5
64
102
{ACAD_REACTORS
330
47
102
}
330
47
100
AcDbScale
 70
     0
300
1" = 1'-0"
140
1.0
141
12.0
290
     0
  0
SCALE
  5
65
102
{ACAD_REACTORS
330
47
102
}
330
47
100
AcDbScale
 70
     0
300
1-1/2" = 1'-0"
140
1.5
141
12.0
290
     0
  0
SCALE
  5
66
102
{ACAD_REACTORS
330
47
102
}
330
47
100
AcDbScale
 70
     0
300
3" = 1'-0"
140
3.0
141
12.0
290
     0
  0
SCALE
  5
67
102
{ACAD_REACTORS
330
47
102
}
330
47
100
AcDbScale
 70
     0
300
6" = 1'-0"
140
6.0
141
12.0
290
     0
  0
SCALE
  5
68
102
{ACAD_REACTORS
330
47
102
}
330
47
100
AcDbScale
 70
     0
300
1'-0" = 1'-0"
140
12.0
141
12.0
290
     0
  0
ENDSEC
  0
EOF
