  0
SECTION
  2
HEADER
  9
$ACADVER
  1
AC1015
  9
$ACADMAINTVER
 70
     6
  9
$DWGCODEPAGE
  3
DOS932
  9
$INSBASE
 10
0.0
 20
0.0
 30
0.0
  9
$EXTMIN
 10
0.0
 20
0.0
 30
0.0
  9
$EXTMAX
 10
210.0
 20
297.0
 30
0.0
  9
$LIMMIN
 10
0.0
 20
0.0
  9
$LIMMAX
 10
210.0
 20
297.0
  9
$ORTHOMODE
 70
     0
  9
$REGENMODE
 70
     1
  9
$FILLMODE
 70
     1
  9
$QTEXTMODE
 70
     0
  9
$MIRRTEXT
 70
     1
  9
$LTSCALE
 40
1.0
  9
$ATTMODE
 70
     1
  9
$TEXTSIZE
 40
3.5
  9
$TRACEWID
 40
1.0
  9
$TEXTSTYLE
  7
STANDARD
  9
$CLAYER
  8
0
  9
$CELTYPE
  6
ByLayer
  9
$CECOLOR
 62
   256
  9
$CELTSCALE
 40
1.0
  9
$DISPSILH
 70
     0
  9
$DIMSCALE
 40
1.0
  9
$DIMASZ
 40
3.302
  9
$DIMEXO
 40
1.0
  9
$DIMDLI
 40
3.75
  9
$DIMRND
 40
0.0
  9
$DIMDLE
 40
0.0
  9
$DIMEXE
 40
1.0
  9
$DIMTP
 40
0.0
  9
$DIMTM
 40
0.0
  9
$DIMTXT
 40
3.5
  9
$DIMCEN
 40
2.5
  9
$DIMTSZ
 40
0.0
  9
$DIMTOL
 70
     0
  9
$DIMLIM
 70
     0
  9
$DIMTIH
 70
     1
  9
$DIMTOH
 70
     1
  9
$DIMSE1
 70
     0
  9
$DIMSE2
 70
     0
  9
$DIMTAD
 70
     1
  9
$DIMZIN
 70
     1
  9
$DIMBLK
  1

  9
$DIMASO
 70
     1
  9
$DIMSHO
 70
     1
  9
$DIMPOST
  1

  9
$DIMAPOST
  1

  9
$DIMALT
 70
     0
  9
$DIMALTD
 70
     3
  9
$DIMALTF
 40
0.0393700787
  9
$DIMLFAC
 40
1.0
  9
$DIMTOFL
 70
     1
  9
$DIMTVP
 40
0.0
  9
$DIMTIX
 70
     0
  9
$DIMSOXD
 70
     0
  9
$DIMSAH
 70
     0
  9
$DIMBLK1
  1

  9
$DIMBLK2
  1

  9
$DIMSTYLE
  2
ISO-25
  9
$DIMCLRD
 70
     0
  9
$DIMCLRE
 70
     0
  9
$DIMCLRT
 70
     0
  9
$DIMTFAC
 40
1.0
  9
$DIMGAP
 40
1.524
  9
$DIMJUST
 70
     0
  9
$DIMSD1
 70
     0
  9
$DIMSD2
 70
     0
  9
$DIMTOLJ
 70
     0
  9
$DIMTZIN
 70
     1
  9
$DIMALTZ
 70
     0
  9
$DIMALTTZ
 70
     0
  9
$DIMUPT
 70
     0
  9
$DIMDEC
 70
     2
  9
$DIMTDEC
 70
     2
  9
$DIMALTU
 70
     2
  9
$DIMALTTD
 70
     3
  9
$DIMTXSTY
  7
STANDARD
  9
$DIMAUNIT
 70
     0
  9
$DIMADEC
 70
     2
  9
$DIMALTRND
 40
0.0
  9
$DIMAZIN
 70
     0
  9
$DIMDSEP
 70
    44
  9
$DIMATFIT
 70
     3
  9
$DIMFRAC
 70
     0
  9
$DIMLDRBLK
  1

  9
$DIMLUNIT
 70
     2
  9
$DIMLWD
 70
    -2
  9
$DIMLWE
 70
    -2
  9
$DIMTMOVE
 70
     0
  9
$LUNITS
 70
     2
  9
$LUPREC
 70
     2
  9
$SKETCHINC
 40
1.0
  9
$FILLETRAD
 40
10.0
  9
$AUNITS
 70
     0
  9
$AUPREC
 70
     2
  9
$MENU
  1
.
  9
$ELEVATION
 40
0.0
  9
$PELEVATION
 40
0.0
  9
$THICKNESS
 40
0.0
  9
$LIMCHECK
 70
     0
  9
$CHAMFERA
 40
0.0
  9
$CHAMFERB
 40
0.0
  9
$CHAMFERC
 40
0.0
  9
$CHAMFERD
 40
0.0
  9
$SKPOLY
 70
     0
  9
$TDCREATE
 40
2458876.436148762
  9
$TDUCREATE
 40
2458876.061148762
  9
$TDUPDATE
 40
2458876.436149132
  9
$TDUUPDATE
 40
2458876.061149132
  9
$TDINDWG
 40
0.0000000116
  9
$TDUSRTIMER
 40
0.0000000116
  9
$USRTIMER
 70
     1
  9
$ANGBASE
 50
0.0
  9
$ANGDIR
 70
     0
  9
$PDMODE
 70
     0
  9
$PDSIZE
 40
-1.0
  9
$PLINEWID
 40
0.0
  9
$SPLFRAME
 70
     0
  9
$SPLINETYPE
 70
     6
  9
$SPLINESEGS
 70
     8
  9
$HANDSEED
  5
200
  9
$SURFTAB1
 70
     6
  9
$SURFTAB2
 70
     6
  9
$SURFTYPE
 70
     6
  9
$SURFU
 70
     6
  9
$SURFV
 70
     6
  9
$UCSBASE
  2

  9
$UCSNAME
  2

  9
$UCSORG
 10
0.0
 20
0.0
 30
0.0
  9
$UCSXDIR
 10
1.0
 20
0.0
 30
0.0
  9
$UCSYDIR
 10
0.0
 20
1.0
 30
0.0
  9
$UCSORTHOREF
  2

  9
$UCSORTHOVIEW
 70
     0
  9
$UCSORGTOP
 10
0.0
 20
0.0
 30
0.0
  9
$UCSORGBOTTOM
 10
0.0
 20
0.0
 30
0.0
  9
$UCSORGLEFT
 10
0.0
 20
0.0
 30
0.0
  9
$UCSORGRIGHT
 10
0.0
 20
0.0
 30
0.0
  9
$UCSORGFRONT
 10
0.0
 20
0.0
 30
0.0
  9
$UCSORGBACK
 10
0.0
 20
0.0
 30
0.0
  9
$PUCSBASE
  2

  9
$PUCSNAME
  2

  9
$PUCSORG
 10
0.0
 20
0.0
 30
0.0
  9
$PUCSXDIR
 10
1.0
 20
0.0
 30
0.0
  9
$PUCSYDIR
 10
0.0
 20
1.0
 30
0.0
  9
$PUCSORTHOREF
  2

  9
$PUCSORTHOVIEW
 70
     0
  9
$PUCSORGTOP
 10
0.0
 20
0.0
 30
0.0
  9
$PUCSORGBOTTOM
 10
0.0
 20
0.0
 30
0.0
  9
$PUCSORGLEFT
 10
0.0
 20
0.0
 30
0.0
  9
$PUCSORGRIGHT
 10
0.0
 20
0.0
 30
0.0
  9
$PUCSORGFRONT
 10
0.0
 20
0.0
 30
0.0
  9
$PUCSORGBACK
 10
0.0
 20
0.0
 30
0.0
  9
$USERI1
 70
     0
  9
$USERI2
 70
     0
  9
$USERI3
 70
     0
  9
$USERI4
 70
     0
  9
$USERI5
 70
     0
  9
$USERR1
 40
0.0
  9
$USERR2
 40
0.0
  9
$USERR3
 40
0.0
  9
$USERR4
 40
0.0
  9
$USERR5
 40
0.0
  9
$WORLDVIEW
 70
     1
  9
$SHADEDGE
 70
     3
  9
$SHADEDIF
 70
    70
  9
$TILEMODE
 70
     1
  9
$MAXACTVP
 70
    64
  9
$PINSBASE
 10
0.0
 20
0.0
 30
0.0
  9
$PLIMCHECK
 70
     0
  9
$PEXTMIN
 10
1.0000000000E+20
 20
1.0000000000E+20
 30
1.0000000000E+20
  9
$PEXTMAX
 10
-1.0000000000E+20
 20
-1.0000000000E+20
 30
-1.0000000000E+20
  9
$PLIMMIN
 10
0.0
 20
0.0
  9
$PLIMMAX
 10
420.0
 20
297.0
  9
$UNITMODE
 70
     0
  9
$VISRETAIN
 70
     1
  9
$PLINEGEN
 70
     0
  9
$PSLTSCALE
 70
     1
  9
$TREEDEPTH
 70
  3020
  9
$CMLSTYLE
  2
Standard
  9
$CMLJUST
 70
     0
  9
$CMLSCALE
 40
20.0
  9
$PROXYGRAPHICS
 70
     1
  9
$MEASUREMENT
 70
     1
  9
$CELWEIGHT
370
    -1
  9
$ENDCAPS
280
     0
  9
$JOINSTYLE
280
     0
  9
$LWDISPLAY
290
     1
  9
$INSUNITS
 70
     4
  9
$HYPERLINKBASE
  1

  9
$STYLESHEET
  1

  9
$XEDIT
290
     1
  9
$CEPSNTYPE
380
     0
  9
$PSTYLEMODE
290
     1
  9
$FINGERPRINTGUID
  2
{36F15A46-59DB-4FFE-8C0A-11E195990422}
  9
$VERSIONGUID
  2
{FAEB1C32-E019-11D5-929B-00C0DF256EC4}
  9
$EXTNAMES
290
     1
  9
$PSVPSCALE
 40
0.0
  9
$OLESTARTUP
290
     0
  0
ENDSEC
  0
SECTION
  2
CLASSES
  0
CLASS
  1
ACDBDICTIONARYWDFLT
  2
AcDbDictionaryWithDefault
  3
ObjectDBX Classes
 90
        0
280
     0
281
     0
  0
CLASS
  1
VISUALSTYLE
  2
AcDbVisualStyle
  3
ObjectDBX Classes
 90
     4095
280
     0
281
     0
  0
CLASS
  1
MATERIAL
  2
AcDbMaterial
  3
ObjectDBX Classes
 90
     1153
280
     0
281
     0
  0
CLASS
  1
SCALE
  2
AcDbScale
  3
ObjectDBX Classes
 90
     1153
280
     0
281
     0
  0
CLASS
  1
TABLESTYLE
  2
AcDbTableStyle
  3
ObjectDBX Classes
 90
     4095
280
     0
281
     0
  0
CLASS
  1
MLEADERSTYLE
  2
AcDbMLeaderStyle
  3
ACDB_MLEADERSTYLE_CLASS
 90
     4095
280
     0
281
     0
  0
CLASS
  1
SUN
  2
AcDbSun
  3
SCENEOE
 90
     1153
280
     0
281
     0
  0
CLASS
  1
ACDBPLACEHOLDER
  2
AcDbPlaceHolder
  3
ObjectDBX Classes
 90
        0
280
     0
281
     0
  0
CLASS
  1
LAYOUT
  2
AcDbLayout
  3
ObjectDBX Classes
 90
        0
280
     0
281
     0
  0
ENDSEC
  0
SECTION
  2
TABLES
  0
TABLE
  2
VPORT
  5
8
330
0
100
AcDbSymbolTable
 70
     1
  0
VPORT
  5
29
330
8
100
AcDbSymbolTableRecord
100
AcDbViewportTableRecord
  2
*Active
 70
     0
 10
0.0
 20
0.0
 11
1.0
 21
1.0
 12
105.0
 22
148.5
 13
0.0
 23
0.0
 14
10.0
 24
10.0
 15
10.0
 25
10.0
 16
0.0
 26
0.0
 36
1.0
 17
0.0
 27
0.0
 37
0.0
 40
297.0
 41
0.7070707071
 42
50.0
 43
0.0
 44
0.0
 50
0.0
 51
0.0
 71
     0
 72
  2000
 73
     1
 74
     3
 75
     0
 76
     0
 77
     0
 78
     0
281
     0
 65
     1
110
0.0
120
0.0
130
0.0
111
1.0
121
0.0
131
0.0
112
0.0
122
1.0
132
0.0
 79
     0
146
0.0
  0
ENDTAB
  0
TABLE
  2
LTYPE
  5
5
330
0
100
AcDbSymbolTable
 70
     8
  0
LTYPE
  5
14
330
5
100
AcDbSymbolTableRecord
100
AcDbLinetypeTableRecord
  2
ByBlock
 70
     0
  3

 72
    65
 73
     0
 40
0.0
  0
LTYPE
  5
15
330
5
100
AcDbSymbolTableRecord
100
AcDbLinetypeTableRecord
  2
ByLayer
 70
     0
  3

 72
    65
 73
     0
 40
0.0
  0
LTYPE
  5
16
330
5
100
AcDbSymbolTableRecord
100
AcDbLinetypeTableRecord
  2
Continuous
 70
     0
  3
Solid line
 72
    65
 73
     0
 40
0.0
  0
LTYPE
  5
6E
330
5
100
AcDbSymbolTableRecord
100
AcDbLinetypeTableRecord
  2
SLD-実線
 70
     0
  3
SolidWorks Line Style
 72
    65
 73
     0
 40
0.0
  0
LTYPE
  5
6F
330
5
100
AcDbSymbolTableRecord
100
AcDbLinetypeTableRecord
  2
SLD-破線
 70
     0
  3
SolidWorks Line Style
 72
    65
 73
     2
 40
1.905
 49
1.27
 74
     0
 49
-0.635
 74
     0
  0
LTYPE
  5
70
330
5
100
AcDbSymbolTableRecord
100
AcDbLinetypeTableRecord
  2
SLD-2点鎖線
 70
     0
  3
SolidWorks Line Style
 72
    65
 73
     6
 40
12.7
 49
6.35
 74
     0
 49
-1.27
 74
     0
 49
1.27
 74
     0
 49
-1.27
 74
     0
 49
1.27
 74
     0
 49
-1.27
 74
     0
  0
LTYPE
  5
71
330
5
100
AcDbSymbolTableRecord
100
AcDbLinetypeTableRecord
  2
SLD-鎖線
 70
     0
  3
SolidWorks Line Style
 72
    65
 73
     4
 40
10.16
 49
6.35
 74
     0
 49
-1.27
 74
     0
 49
1.27
 74
     0
 49
-1.27
 74
     0
  0
LTYPE
  5
72
330
5
100
AcDbSymbolTableRecord
100
AcDbLinetypeTableRecord
  2
SLD-1点鎖線(中心線)
 70
     0
  3
SolidWorks Line Style
 72
    65
 73
     4
 40
34.29
 49
30.48
 74
     0
 49
-1.27
 74
     0
 49
1.27
 74
     0
 49
-1.27
 74
     0
  0
LTYPE
  5
73
330
5
100
AcDbSymbolTableRecord
100
AcDbLinetypeTableRecord
  2
SLD-点線
 70
     0
  3
SolidWorks Line Style
 72
    65
 73
     2
 40
0.635
 49
0.0
 74
     0
 49
-0.635
 74
     0
  0
LTYPE
  5
74
330
5
100
AcDbSymbolTableRecord
100
AcDbLinetypeTableRecord
  2
SLD-細-太鎖線(切断面)
 70
     0
  3
SolidWorks Line Style
 72
    65
 73
     4
 40
10.16
 49
6.35
 74
     0
 49
-1.27
 74
     0
 49
1.27
 74
     0
 49
-1.27
 74
     0
  0
ENDTAB
  0
TABLE
  2
LAYER
  5
2
330
0
100
AcDbSymbolTable
 70
     1
  0
LAYER
  5
10
330
2
100
AcDbSymbolTableRecord
100
AcDbLayerTableRecord
  2
0
 70
     0
 62
     7
  6
Continuous
370
    -3
390
F
  0
ENDTAB
  0
TABLE
  2
STYLE
  5
3
330
0
100
AcDbSymbolTable
 70
     2
  0
STYLE
  5
11
330
3
100
AcDbSymbolTableRecord
100
AcDbTextStyleTableRecord
  2
STANDARD
 70
     0
 40
0.0
 41
1.0
 50
0.0
 71
     0
 42
3.5
  3
MSGOTHIC.TTC
  4

1001
ACAD
1000
ＭＳ Ｐゴシック
1071
    32818
  0
STYLE
  5
1FC
330
3
100
AcDbSymbolTableRecord
100
AcDbTextStyleTableRecord
  2
SLDTEXTSTYLE0
 70
     0
 40
0.0
 41
1.0
 50
0.0
 71
     0
 42
3.5
  3
MSGOTHIC.TTC
  4

1001
ACAD
1000
ＭＳ Ｐゴシック
1071
      306
  0
ENDTAB
  0
TABLE
  2
VIEW
  5
6
330
0
100
AcDbSymbolTable
 70
     0
  0
ENDTAB
  0
TABLE
  2
UCS
  5
7
330
0
100
AcDbSymbolTable
 70
     0
  0
ENDTAB
  0
TABLE
  2
APPID
  5
9
330
0
100
AcDbSymbolTable
 70
     1
  0
APPID
  5
12
330
9
100
AcDbSymbolTableRecord
100
AcDbRegAppTableRecord
  2
ACAD
 70
     0
  0
ENDTAB
  0
TABLE
  2
DIMSTYLE
  5
A
330
0
100
AcDbSymbolTable
 70
     1
100
AcDbDimStyleTable
  0
DIMSTYLE
105
27
330
A
100
AcDbSymbolTableRecord
100
AcDbDimStyleTableRecord
  2
ISO-25
 70
     0
 41
2.5
 42
0.625
 43
3.75
 44
1.25
 73
     0
 74
     0
 77
     1
 78
     8
140
2.5
141
2.5
143
0.0393700787
147
0.625
171
     3
172
     1
178
     0
271
     2
272
     2
274
     3
278
    44
283
     0
284
     8
340
11
  0
ENDTAB
  0
TABLE
  2
BLOCK_RECORD
  5
1
330
0
100
AcDbSymbolTable
 70
     2
  0
BLOCK_RECORD
  5
1F
330
1
100
AcDbSymbolTableRecord
100
AcDbBlockTableRecord
  2
*Model_Space
340
22
  0
BLOCK_RECORD
  5
1B
330
1
100
AcDbSymbolTableRecord
100
AcDbBlockTableRecord
  2
*Paper_Space
340
1E
  0
BLOCK_RECORD
  5
23
330
1
100
AcDbSymbolTableRecord
100
AcDbBlockTableRecord
  2
*Paper_Space0
340
26
  0
BLOCK_RECORD
  5
1F9
330
1
100
AcDbSymbolTableRecord
100
AcDbBlockTableRecord
  2
SW_NOTE_0
340
0
102
{BLKREFS
331
1FF
102
}
  0
ENDTAB
  0
ENDSEC
  0
SECTION
  2
BLOCKS
  0
BLOCK
  5
20
330
1F
100
AcDbEntity
  8
0
100
AcDbBlockBegin
  2
*Model_Space
 70
     0
 10
0.0
 20
0.0
 30
0.0
  3
*Model_Space
  1

  0
ENDBLK
  5
21
330
1F
100
AcDbEntity
  8
0
100
AcDbBlockEnd
  0
BLOCK
  5
1C
330
1B
100
AcDbEntity
 67
     1
  8
0
100
AcDbBlockBegin
  2
*Paper_Space
 70
     0
 10
0.0
 20
0.0
 30
0.0
  3
*Paper_Space
  1

  0
ENDBLK
  5
1D
330
1B
100
AcDbEntity
 67
     1
  8
0
100
AcDbBlockEnd
  0
BLOCK
  5
24
330
23
100
AcDbEntity
  8
0
100
AcDbBlockBegin
  2
*Paper_Space0
 70
     0
 10
0.0
 20
0.0
 30
0.0
  3
*Paper_Space0
  1

  0
ENDBLK
  5
25
330
23
100
AcDbEntity
  8
0
100
AcDbBlockEnd
  0
BLOCK
  5
1FA
330
1F9
100
AcDbEntity
  8
0
100
AcDbBlockBegin
  2
SW_NOTE_0
 70
     0
 10
0.0
 20
0.0
 30
0.0
  3
SW_NOTE_0
  1

  0
MTEXT
  5
1FD
330
1F9
100
AcDbEntity
  8
0
  6
Continuous
 62
     0
370
     0
100
AcDbMText
 10
0.0
 20
4.0727272727
 30
0.0
 40
3.5
 41
0.0
 71
     1
 72
     1
  1
HIC-026K
  7
SLDTEXTSTYLE0
 73
     1
 44
1.0
  0
MTEXT
  5
1FE
330
1F9
100
AcDbEntity
  8
0
  6
Continuous
 62
     0
370
     0
100
AcDbMText
 10
0.0
 20
-0.4272725336
 30
0.0
 40
3.5
 41
0.0
 71
     1
 72
     1
  1
HIC-026W
  7
SLDTEXTSTYLE0
 73
     1
 44
1.0
  0
ENDBLK
  5
1FB
330
1F9
100
AcDbEntity
  8
0
100
AcDbBlockEnd
  0
ENDSEC
  0
SECTION
  2
ENTITIES
  0
LINE
  5
75
330
1F
100
AcDbEntity
  8
0
  6
SLD-実線
 62
    29
370
    18
100
AcDbLine
 10
37.1468334701
 20
131.544156407
 30
0.0
 11
36.5446841369
 21
162.3828036202
 31
0.0
  0
LINE
  5
76
330
1F
100
AcDbEntity
  8
0
  6
SLD-実線
 62
    29
370
    18
100
AcDbLine
 10
51.0822894666
 20
113.3506448711
 30
0.0
 11
54.2650787992
 21
112.7484955532
 31
0.0
  0
LINE
  5
77
330
1F
100
AcDbEntity
  8
0
  6
SLD-実線
 62
    29
370
    18
100
AcDbLine
 10
54.2650787992
 20
112.7484955532
 30
0.0
 11
57.4908787983
 21
112.2753782319
 31
0.0
  0
LINE
  5
78
330
1F
100
AcDbEntity
  8
0
  6
SLD-実線
 62
    29
370
    18
100
AcDbLine
 10
57.4908787983
 20
112.2753782319
 30
0.0
 11
60.8887214642
 21
111.9312929074
 31
0.0
  0
LINE
  5
79
330
1F
100
AcDbEntity
  8
0
  6
SLD-実線
 62
    29
370
    18
100
AcDbLine
 10
60.8887214642
 20
111.9312929074
 30
0.0
 11
64.28656413
 21
111.7592502451
 31
0.0
  0
LINE
  5
7A
330
1F
100
AcDbEntity
  8
0
  6
SLD-実線
 62
    29
370
    18
100
AcDbLine
 10
64.28656413
 20
111.7592502451
 30
0.0
 11
67.039246796
 21
111.7162395795
 31
0.0
  0
LINE
  5
7B
330
1F
100
AcDbEntity
  8
0
  6
SLD-実線
 62
    29
370
    18
100
AcDbLine
 10
67.039246796
 20
111.7162395795
 30
0.0
 11
69.7919294619
 21
111.7592502451
 31
0.0
  0
LINE
  5
7C
330
1F
100
AcDbEntity
  8
0
  6
SLD-実線
 62
    29
370
    18
100
AcDbLine
 10
69.8349401286
 20
111.7592502451
 30
0.0
 11
73.2327827944
 21
111.9312929074
 31
0.0
  0
LINE
  5
7D
330
1F
100
AcDbEntity
  8
0
  6
SLD-実線
 62
    29
370
    18
100
AcDbLine
 10
73.2327827944
 20
111.9312929074
 30
0.0
 11
76.6306254602
 21
112.2753782319
 31
0.0
  0
LINE
  5
7E
330
1F
100
AcDbEntity
  8
0
  6
SLD-実線
 62
    29
370
    18
100
AcDbLine
 10
76.6306254602
 20
112.2753782319
 30
0.0
 11
79.8564254594
 21
112.7484955532
 31
0.0
  0
LINE
  5
7F
330
1F
100
AcDbEntity
  8
0
  6
SLD-実線
 62
    29
370
    18
100
AcDbLine
 10
79.8564254594
 20
112.7484955532
 30
0.0
 11
83.039214792
 21
113.3506448711
 31
0.0
  0
LINE
  5
80
330
1F
100
AcDbEntity
  8
0
  6
SLD-実線
 62
    29
370
    18
100
AcDbLine
 10
97.533809455
 20
162.3828036202
 30
0.0
 11
96.9316601218
 21
131.544156407
 31
0.0
  0
LINE
  5
81
330
1F
100
AcDbEntity
  8
0
  6
SLD-実線
 62
    29
370
    18
100
AcDbLine
 10
74.5231027941
 20
113.7377408613
 30
0.0
 11
76.9317001268
 21
113.9958048547
 31
0.0
  0
LINE
  5
82
330
1F
100
AcDbEntity
  8
0
  6
SLD-実線
 62
    29
370
    18
100
AcDbLine
 10
76.9317001268
 20
113.9958048547
 30
0.0
 11
79.3402974596
 21
114.3829008448
 31
0.0
  0
LINE
  5
83
330
1F
100
AcDbEntity
  8
0
  6
SLD-実線
 62
    29
370
    18
100
AcDbLine
 10
79.3402974596
 20
114.3829008448
 30
0.0
 11
81.7058841256
 21
114.9420394972
 31
0.0
  0
LINE
  5
84
330
1F
100
AcDbEntity
  8
0
  6
SLD-実線
 62
    29
370
    18
100
AcDbLine
 10
67.039246796
 20
113.3506448711
 30
0.0
 11
70.781174795
 21
113.4366662023
 31
0.0
  0
LINE
  5
85
330
1F
100
AcDbEntity
  8
0
  6
SLD-実線
 62
    29
370
    18
100
AcDbLine
 10
70.781174795
 20
113.4366662023
 30
0.0
 11
74.5231027941
 21
113.7377408613
 31
0.0
  0
LINE
  5
86
330
1F
100
AcDbEntity
  8
0
  6
SLD-実線
 62
    29
370
    18
100
AcDbLine
 10
84.1144814584
 20
126.4258872042
 30
0.0
 11
87.6413561241
 21
127.3721218468
 31
0.0
  0
LINE
  5
87
330
1F
100
AcDbEntity
  8
0
  6
SLD-実線
 62
    29
370
    18
100
AcDbLine
 10
87.6413561241
 20
127.3721218468
 30
0.0
 11
91.1252201233
 21
128.4043778204
 31
0.0
  0
LINE
  5
88
330
1F
100
AcDbEntity
  8
0
  6
SLD-実線
 62
    29
370
    18
100
AcDbLine
 10
91.1252201233
 20
128.4043778204
 30
0.0
 11
94.5660734557
 21
129.6086764564
 31
0.0
  0
LINE
  5
89
330
1F
100
AcDbEntity
  8
0
  6
SLD-実線
 62
    29
370
    18
100
AcDbLine
 10
74.3510601275
 20
124.7914819126
 30
0.0
 11
76.8026681269
 21
125.049545906
 31
0.0
  0
LINE
  5
8A
330
1F
100
AcDbEntity
  8
0
  6
SLD-実線
 62
    29
370
    18
100
AcDbLine
 10
76.8026681269
 20
125.049545906
 30
0.0
 11
79.2542761262
 21
125.3936312306
 31
0.0
  0
LINE
  5
8B
330
1F
100
AcDbEntity
  8
0
  6
SLD-実線
 62
    29
370
    18
100
AcDbLine
 10
79.2542761262
 20
125.3936312306
 30
0.0
 11
81.7058841256
 21
125.8667485518
 31
0.0
  0
LINE
  5
8C
330
1F
100
AcDbEntity
  8
0
  6
SLD-実線
 62
    29
370
    18
100
AcDbLine
 10
81.7058841256
 20
125.8667485518
 30
0.0
 11
84.1144814584
 21
126.4688978698
 31
0.0
  0
LINE
  5
8D
330
1F
100
AcDbEntity
  8
0
  6
SLD-実線
 62
    29
370
    18
100
AcDbLine
 10
67.039246796
 20
124.4904072536
 30
0.0
 11
70.6951534617
 21
124.5764285848
 31
0.0
  0
LINE
  5
8E
330
1F
100
AcDbEntity
  8
0
  6
SLD-実線
 62
    29
370
    18
100
AcDbLine
 10
70.6951534617
 20
124.5764285848
 30
0.0
 11
74.3510601275
 21
124.8344925782
 31
0.0
  0
LINE
  5
8F
330
1F
100
AcDbEntity
  8
0
  6
SLD-実線
 62
    29
370
    18
100
AcDbLine
 10
94.5660734557
 20
129.6086764564
 30
0.0
 11
94.9531694556
 21
140.533385511
 31
0.0
  0
LINE
  5
90
330
1F
100
AcDbEntity
  8
0
  6
SLD-実線
 62
    29
370
    18
100
AcDbLine
 10
94.9531694556
 20
140.533385511
 30
0.0
 11
95.1682227889
 21
151.4580945656
 31
0.0
  0
LINE
  5
91
330
1F
100
AcDbEntity
  8
0
  6
SLD-実線
 62
    29
370
    18
100
AcDbLine
 10
95.1682227889
 20
151.4580945656
 30
0.0
 11
95.2542441222
 21
162.3828036202
 31
0.0
  0
LINE
  5
92
330
1F
100
AcDbEntity
  8
0
  6
SLD-実線
 62
    29
370
    18
100
AcDbLine
 10
84.028460125
 20
127.5011538435
 30
0.0
 11
87.3402814576
 21
128.3183564893
 31
0.0
  0
LINE
  5
93
330
1F
100
AcDbEntity
  8
0
  6
SLD-実線
 62
    29
370
    18
100
AcDbLine
 10
87.3402814576
 20
128.3183564893
 30
0.0
 11
90.5660814567
 21
129.2645911318
 31
0.0
  0
LINE
  5
94
330
1F
100
AcDbEntity
  8
0
  6
SLD-実線
 62
    29
370
    18
100
AcDbLine
 10
90.5660814567
 20
129.2645911318
 30
0.0
 11
93.7918814559
 21
130.339857771
 31
0.0
  0
LINE
  5
95
330
1F
100
AcDbEntity
  8
0
  6
SLD-実線
 62
    29
370
    18
100
AcDbLine
 10
74.3080494608
 20
125.9097592174
 30
0.0
 11
77.5768601267
 21
126.2968552075
 31
0.0
  0
LINE
  5
96
330
1F
100
AcDbEntity
  8
0
  6
SLD-実線
 62
    29
370
    18
100
AcDbLine
 10
77.5768601267
 20
126.2968552075
 30
0.0
 11
80.8026601259
 21
126.8129831944
 31
0.0
  0
LINE
  5
97
330
1F
100
AcDbEntity
  8
0
  6
SLD-実線
 62
    29
370
    18
100
AcDbLine
 10
80.8026601259
 20
126.8129831944
 30
0.0
 11
84.028460125
 21
127.5011538435
 31
0.0
  0
LINE
  5
98
330
1F
100
AcDbEntity
  8
0
  6
SLD-実線
 62
    29
370
    18
100
AcDbLine
 10
67.039246796
 20
125.4796525617
 30
0.0
 11
70.6951534617
 21
125.6086845584
 31
0.0
  0
LINE
  5
99
330
1F
100
AcDbEntity
  8
0
  6
SLD-実線
 62
    29
370
    18
100
AcDbLine
 10
70.6951534617
 20
125.6086845584
 30
0.0
 11
74.3080494608
 21
125.9097592174
 31
0.0
  0
LINE
  5
9A
330
1F
100
AcDbEntity
  8
0
  6
SLD-実線
 62
    29
370
    18
100
AcDbLine
 10
93.7918814559
 20
130.339857771
 30
0.0
 11
94.2649987892
 21
148.8774546314
 31
0.0
  0
LINE
  5
9B
330
1F
100
AcDbEntity
  8
0
  6
SLD-実線
 62
    29
370
    18
100
AcDbLine
 10
94.2649987892
 20
148.8774546314
 30
0.0
 11
94.3940307891
 21
162.3828036202
 31
0.0
  0
LINE
  5
9C
330
1F
100
AcDbEntity
  8
0
  6
SLD-実線
 62
    29
370
    18
100
AcDbLine
 10
84.028460125
 20
127.8022285025
 30
0.0
 11
87.2112494576
 21
128.6194311483
 31
0.0
  0
LINE
  5
9D
330
1F
100
AcDbEntity
  8
0
  6
SLD-実線
 62
    29
370
    18
100
AcDbLine
 10
87.2112494576
 20
128.6194311483
 30
0.0
 11
90.3940387901
 21
129.5656657908
 31
0.0
  0
LINE
  5
9E
330
1F
100
AcDbEntity
  8
0
  6
SLD-実線
 62
    29
370
    18
100
AcDbLine
 10
90.3940387901
 20
129.5656657908
 30
0.0
 11
93.533817456
 21
130.5979217645
 31
0.0
  0
LINE
  5
9F
330
1F
100
AcDbEntity
  8
0
  6
SLD-実線
 62
    29
370
    18
100
AcDbLine
 10
74.3510601275
 20
126.2108338764
 30
0.0
 11
77.6198707933
 21
126.5549192009
 31
0.0
  0
LINE
  5
A0
330
1F
100
AcDbEntity
  8
0
  6
SLD-実線
 62
    29
370
    18
100
AcDbLine
 10
77.6198707933
 20
126.5549192009
 30
0.0
 11
80.8456707925
 21
127.1140578533
 31
0.0
  0
LINE
  5
A1
330
1F
100
AcDbEntity
  8
0
  6
SLD-実線
 62
    29
370
    18
100
AcDbLine
 10
80.8456707925
 20
127.1140578533
 30
0.0
 11
84.028460125
 21
127.8022285025
 31
0.0
  0
LINE
  5
A2
330
1F
100
AcDbEntity
  8
0
  6
SLD-実線
 62
    29
370
    18
100
AcDbLine
 10
67.039246796
 20
125.8237378863
 30
0.0
 11
70.6951534617
 21
125.9097592174
 31
0.0
  0
LINE
  5
A3
330
1F
100
AcDbEntity
  8
0
  6
SLD-実線
 62
    29
370
    18
100
AcDbLine
 10
70.6951534617
 20
125.9097592174
 30
0.0
 11
74.3080494608
 21
126.2108338764
 31
0.0
  0
LINE
  5
A4
330
1F
100
AcDbEntity
  8
0
  6
SLD-実線
 62
    29
370
    18
100
AcDbLine
 10
41.7919854689
 20
124.7914819126
 30
0.0
 11
43.039294802
 21
122.9850339587
 31
0.0
  0
LINE
  5
A5
330
1F
100
AcDbEntity
  8
0
  6
SLD-実線
 62
    29
370
    18
100
AcDbLine
 10
43.039294802
 20
122.9850339587
 30
0.0
 11
44.3726254683
 21
121.2646073359
 31
0.0
  0
LINE
  5
A6
330
1F
100
AcDbEntity
  8
0
  6
SLD-実線
 62
    29
370
    18
100
AcDbLine
 10
44.3726254683
 20
121.2646073359
 30
0.0
 11
45.8349881346
 21
119.5871913787
 31
0.0
  0
LINE
  5
A7
330
1F
100
AcDbEntity
  8
0
  6
SLD-実線
 62
    29
370
    18
100
AcDbLine
 10
59.5553907978
 20
113.7377408613
 30
0.0
 11
63.2973187969
 21
113.4366662023
 31
0.0
  0
LINE
  5
A8
330
1F
100
AcDbEntity
  8
0
  6
SLD-実線
 62
    29
370
    18
100
AcDbLine
 10
63.2973187969
 20
113.4366662023
 30
0.0
 11
67.039246796
 21
113.3506448711
 31
0.0
  0
LINE
  5
A9
330
1F
100
AcDbEntity
  8
0
  6
SLD-実線
 62
    29
370
    18
100
AcDbLine
 10
39.5124201362
 20
129.6086764564
 30
0.0
 11
42.9532734686
 21
128.4043778204
 31
0.0
  0
LINE
  5
AA
330
1F
100
AcDbEntity
  8
0
  6
SLD-実線
 62
    29
370
    18
100
AcDbLine
 10
42.9532734686
 20
128.4043778204
 30
0.0
 11
46.4371374678
 21
127.3721218468
 31
0.0
  0
LINE
  5
AB
330
1F
100
AcDbEntity
  8
0
  6
SLD-実線
 62
    29
370
    18
100
AcDbLine
 10
46.4371374678
 20
127.3721218468
 30
0.0
 11
49.9640121336
 21
126.4258872042
 31
0.0
  0
LINE
  5
AC
330
1F
100
AcDbEntity
  8
0
  6
SLD-実線
 62
    29
370
    18
100
AcDbLine
 10
59.7704441311
 20
124.8344925782
 30
0.0
 11
63.4263507969
 21
124.5764285848
 31
0.0
  0
LINE
  5
AD
330
1F
100
AcDbEntity
  8
0
  6
SLD-実線
 62
    29
370
    18
100
AcDbLine
 10
63.4263507969
 20
124.5764285848
 30
0.0
 11
67.0822574626
 21
124.4904072536
 31
0.0
  0
LINE
  5
AE
330
1F
100
AcDbEntity
  8
0
  6
SLD-実線
 62
    29
370
    18
100
AcDbLine
 10
38.8242494697
 20
162.3828036202
 30
0.0
 11
38.9532814696
 21
151.4580945656
 31
0.0
  0
LINE
  5
AF
330
1F
100
AcDbEntity
  8
0
  6
SLD-実線
 62
    29
370
    18
100
AcDbLine
 10
38.9532814696
 20
151.4580945656
 30
0.0
 11
39.1683348029
 21
140.533385511
 31
0.0
  0
LINE
  5
B0
330
1F
100
AcDbEntity
  8
0
  6
SLD-実線
 62
    29
370
    18
100
AcDbLine
 10
39.1683348029
 20
140.533385511
 30
0.0
 11
39.5124201362
 21
129.6086764564
 31
0.0
  0
LINE
  5
B1
330
1F
100
AcDbEntity
  8
0
  6
SLD-実線
 62
    29
370
    18
100
AcDbLine
 10
40.286612136
 20
130.339857771
 30
0.0
 11
43.5124121352
 21
129.2645911318
 31
0.0
  0
LINE
  5
B2
330
1F
100
AcDbEntity
  8
0
  6
SLD-実線
 62
    29
370
    18
100
AcDbLine
 10
43.5124121352
 20
129.2645911318
 30
0.0
 11
46.7382121344
 21
128.3183564893
 31
0.0
  0
LINE
  5
B3
330
1F
100
AcDbEntity
  8
0
  6
SLD-実線
 62
    29
370
    18
100
AcDbLine
 10
46.7382121344
 20
128.3183564893
 30
0.0
 11
50.0500334669
 21
127.5011538435
 31
0.0
  0
LINE
  5
B4
330
1F
100
AcDbEntity
  8
0
  6
SLD-実線
 62
    29
370
    18
100
AcDbLine
 10
50.0500334669
 20
127.5011538435
 30
0.0
 11
53.2758334661
 21
126.8129831944
 31
0.0
  0
LINE
  5
B5
330
1F
100
AcDbEntity
  8
0
  6
SLD-実線
 62
    29
370
    18
100
AcDbLine
 10
53.2758334661
 20
126.8129831944
 30
0.0
 11
56.5016334653
 21
126.2968552075
 31
0.0
  0
LINE
  5
B6
330
1F
100
AcDbEntity
  8
0
  6
SLD-実線
 62
    29
370
    18
100
AcDbLine
 10
56.5016334653
 20
126.2968552075
 30
0.0
 11
59.7704441311
 21
125.9097592174
 31
0.0
  0
LINE
  5
B7
330
1F
100
AcDbEntity
  8
0
  6
SLD-実線
 62
    29
370
    18
100
AcDbLine
 10
59.7704441311
 20
125.9097592174
 30
0.0
 11
63.3833401302
 21
125.6086845584
 31
0.0
  0
LINE
  5
B8
330
1F
100
AcDbEntity
  8
0
  6
SLD-実線
 62
    29
370
    18
100
AcDbLine
 10
63.3833401302
 20
125.6086845584
 30
0.0
 11
67.039246796
 21
125.4796525617
 31
0.0
  0
LINE
  5
B9
330
1F
100
AcDbEntity
  8
0
  6
SLD-実線
 62
    29
370
    18
100
AcDbLine
 10
40.286612136
 20
130.339857771
 30
0.0
 11
39.8134948028
 21
148.8774546314
 31
0.0
  0
LINE
  5
BA
330
1F
100
AcDbEntity
  8
0
  6
SLD-実線
 62
    29
370
    18
100
AcDbLine
 10
39.8134948028
 20
148.8774546314
 30
0.0
 11
39.7274734695
 21
162.3828036202
 31
0.0
  0
LINE
  5
BB
330
1F
100
AcDbEntity
  8
0
  6
SLD-実線
 62
    29
370
    18
100
AcDbLine
 10
40.5876868026
 20
130.5979217645
 30
0.0
 11
43.7274654685
 21
129.5656657908
 31
0.0
  0
LINE
  5
BC
330
1F
100
AcDbEntity
  8
0
  6
SLD-実線
 62
    29
370
    18
100
AcDbLine
 10
43.7274654685
 20
129.5656657908
 30
0.0
 11
46.910254801
 21
128.6194311483
 31
0.0
  0
LINE
  5
BD
330
1F
100
AcDbEntity
  8
0
  6
SLD-実線
 62
    29
370
    18
100
AcDbLine
 10
46.910254801
 20
128.6194311483
 30
0.0
 11
50.0930441335
 21
127.8022285025
 31
0.0
  0
LINE
  5
BE
330
1F
100
AcDbEntity
  8
0
  6
SLD-実線
 62
    29
370
    18
100
AcDbLine
 10
50.0930441335
 20
127.8022285025
 30
0.0
 11
53.2758334661
 21
127.1140578533
 31
0.0
  0
LINE
  5
BF
330
1F
100
AcDbEntity
  8
0
  6
SLD-実線
 62
    29
370
    18
100
AcDbLine
 10
53.2758334661
 20
127.1140578533
 30
0.0
 11
56.5016334653
 21
126.5549192009
 31
0.0
  0
LINE
  5
C0
330
1F
100
AcDbEntity
  8
0
  6
SLD-実線
 62
    29
370
    18
100
AcDbLine
 10
56.5016334653
 20
126.5549192009
 30
0.0
 11
59.7704441311
 21
126.2108338764
 31
0.0
  0
LINE
  5
C1
330
1F
100
AcDbEntity
  8
0
  6
SLD-実線
 62
    29
370
    18
100
AcDbLine
 10
59.7704441311
 20
126.2108338764
 30
0.0
 11
63.3833401302
 21
125.9097592174
 31
0.0
  0
LINE
  5
C2
330
1F
100
AcDbEntity
  8
0
  6
SLD-実線
 62
    29
370
    18
100
AcDbLine
 10
63.3833401302
 20
125.9097592174
 30
0.0
 11
67.039246796
 21
125.8237378863
 31
0.0
  0
LINE
  5
C3
330
1F
100
AcDbEntity
  8
0
  6
SLD-実線
 62
    29
370
    18
100
AcDbLine
 10
93.3617747894
 20
194.2106961416
 30
0.0
 11
93.3187641227
 21
194.2106961416
 31
0.0
  0
LINE
  5
C4
330
1F
100
AcDbEntity
  8
0
  6
SLD-実線
 62
    29
370
    18
100
AcDbLine
 10
36.5446841369
 20
162.3828036202
 30
0.0
 11
37.1468334701
 21
193.2214508335
 31
0.0
  0
LINE
  5
C5
330
1F
100
AcDbEntity
  8
0
  6
SLD-実線
 62
    29
370
    18
100
AcDbLine
 10
57.4908787983
 20
212.4902290085
 30
0.0
 11
54.2650787992
 21
212.0171116873
 31
0.0
  0
LINE
  5
C6
330
1F
100
AcDbEntity
  8
0
  6
SLD-実線
 62
    29
370
    18
100
AcDbLine
 10
54.2650787992
 20
212.0171116873
 30
0.0
 11
51.0822894666
 21
211.4149623693
 31
0.0
  0
LINE
  5
C7
330
1F
100
AcDbEntity
  8
0
  6
SLD-実線
 62
    29
370
    18
100
AcDbLine
 10
64.28656413
 20
213.0063569954
 30
0.0
 11
60.8887214642
 21
212.7913036675
 31
0.0
  0
LINE
  5
C8
330
1F
100
AcDbEntity
  8
0
  6
SLD-実線
 62
    29
370
    18
100
AcDbLine
 10
60.8887214642
 20
212.7913036675
 30
0.0
 11
57.4478681317
 21
212.4902290085
 31
0.0
  0
LINE
  5
C9
330
1F
100
AcDbEntity
  8
0
  6
SLD-実線
 62
    29
370
    18
100
AcDbLine
 10
64.28656413
 20
213.0063569954
 30
0.0
 11
67.039246796
 21
213.049367661
 31
0.0
  0
LINE
  5
CA
330
1F
100
AcDbEntity
  8
0
  6
SLD-実線
 62
    29
370
    18
100
AcDbLine
 10
67.039246796
 20
213.049367661
 30
0.0
 11
69.7919294619
 21
213.0063569954
 31
0.0
  0
LINE
  5
CB
330
1F
100
AcDbEntity
  8
0
  6
SLD-実線
 62
    29
370
    18
100
AcDbLine
 10
76.6306254602
 20
212.4902290085
 30
0.0
 11
73.2327827944
 21
212.7913036675
 31
0.0
  0
LINE
  5
CC
330
1F
100
AcDbEntity
  8
0
  6
SLD-実線
 62
    29
370
    18
100
AcDbLine
 10
73.2327827944
 20
212.7913036675
 30
0.0
 11
69.7919294619
 21
213.0063569954
 31
0.0
  0
LINE
  5
CD
330
1F
100
AcDbEntity
  8
0
  6
SLD-実線
 62
    29
370
    18
100
AcDbLine
 10
83.039214792
 20
211.4149623693
 30
0.0
 11
79.8564254594
 21
212.0601223529
 31
0.0
  0
LINE
  5
CE
330
1F
100
AcDbEntity
  8
0
  6
SLD-実線
 62
    29
370
    18
100
AcDbLine
 10
79.8564254594
 20
212.0601223529
 30
0.0
 11
76.6306254602
 21
212.4902290085
 31
0.0
  0
LINE
  5
CF
330
1F
100
AcDbEntity
  8
0
  6
SLD-実線
 62
    29
370
    18
100
AcDbLine
 10
96.9316601218
 20
193.2214508335
 30
0.0
 11
97.533809455
 21
162.3828036202
 31
0.0
  0
LINE
  5
D0
330
1F
100
AcDbEntity
  8
0
  6
SLD-実線
 62
    29
370
    18
100
AcDbLine
 10
81.7058841256
 20
209.8235677432
 30
0.0
 11
79.3402974596
 21
210.3827063957
 31
0.0
  0
LINE
  5
D1
330
1F
100
AcDbEntity
  8
0
  6
SLD-実線
 62
    29
370
    18
100
AcDbLine
 10
79.3402974596
 20
210.3827063957
 30
0.0
 11
76.9317001268
 21
210.7698023858
 31
0.0
  0
LINE
  5
D2
330
1F
100
AcDbEntity
  8
0
  6
SLD-実線
 62
    29
370
    18
100
AcDbLine
 10
76.9317001268
 20
210.7698023858
 30
0.0
 11
74.5231027941
 21
211.0278663792
 31
0.0
  0
LINE
  5
D3
330
1F
100
AcDbEntity
  8
0
  6
SLD-実線
 62
    29
370
    18
100
AcDbLine
 10
74.5231027941
 20
211.0278663792
 30
0.0
 11
70.781174795
 21
211.3289410382
 31
0.0
  0
LINE
  5
D4
330
1F
100
AcDbEntity
  8
0
  6
SLD-実線
 62
    29
370
    18
100
AcDbLine
 10
70.781174795
 20
211.3289410382
 30
0.0
 11
67.039246796
 21
211.4149623693
 31
0.0
  0
LINE
  5
D5
330
1F
100
AcDbEntity
  8
0
  6
SLD-実線
 62
    29
370
    18
100
AcDbLine
 10
94.5660734557
 20
195.1569307841
 30
0.0
 11
91.1252201233
 21
196.3182187545
 31
0.0
  0
LINE
  5
D6
330
1F
100
AcDbEntity
  8
0
  6
SLD-実線
 62
    29
370
    18
100
AcDbLine
 10
91.1252201233
 20
196.3182187545
 30
0.0
 11
87.6413561241
 21
197.3504747281
 31
0.0
  0
LINE
  5
D7
330
1F
100
AcDbEntity
  8
0
  6
SLD-実線
 62
    29
370
    18
100
AcDbLine
 10
87.6413561241
 20
197.3504747281
 30
0.0
 11
84.1144814584
 21
198.2967093707
 31
0.0
  0
LINE
  5
D8
330
1F
100
AcDbEntity
  8
0
  6
SLD-実線
 62
    29
370
    18
100
AcDbLine
 10
84.1144814584
 20
198.2967093707
 30
0.0
 11
80.8886814592
 21
199.0709013509
 31
0.0
  0
LINE
  5
D9
330
1F
100
AcDbEntity
  8
0
  6
SLD-実線
 62
    29
370
    18
100
AcDbLine
 10
80.8886814592
 20
199.0709013509
 30
0.0
 11
77.6198707933
 21
199.6300400033
 31
0.0
  0
LINE
  5
DA
330
1F
100
AcDbEntity
  8
0
  6
SLD-実線
 62
    29
370
    18
100
AcDbLine
 10
77.6198707933
 20
199.6300400033
 30
0.0
 11
74.3510601275
 21
199.9741253279
 31
0.0
  0
LINE
  5
DB
330
1F
100
AcDbEntity
  8
0
  6
SLD-実線
 62
    29
370
    18
100
AcDbLine
 10
74.3510601275
 20
199.9741253279
 30
0.0
 11
70.6951534617
 21
200.2321893213
 31
0.0
  0
LINE
  5
DC
330
1F
100
AcDbEntity
  8
0
  6
SLD-実線
 62
    29
370
    18
100
AcDbLine
 10
70.6951534617
 20
200.2321893213
 30
0.0
 11
67.039246796
 21
200.3182106524
 31
0.0
  0
LINE
  5
DD
330
1F
100
AcDbEntity
  8
0
  6
SLD-実線
 62
    29
370
    18
100
AcDbLine
 10
95.2542441222
 20
162.3828036202
 30
0.0
 11
95.1682227889
 21
173.3075126749
 31
0.0
  0
LINE
  5
DE
330
1F
100
AcDbEntity
  8
0
  6
SLD-実線
 62
    29
370
    18
100
AcDbLine
 10
95.1682227889
 20
173.3075126749
 30
0.0
 11
94.9531694556
 21
184.2322217295
 31
0.0
  0
LINE
  5
DF
330
1F
100
AcDbEntity
  8
0
  6
SLD-実線
 62
    29
370
    18
100
AcDbLine
 10
94.9531694556
 20
184.2322217295
 30
0.0
 11
94.5660734557
 21
195.1569307841
 31
0.0
  0
LINE
  5
E0
330
1F
100
AcDbEntity
  8
0
  6
SLD-実線
 62
    29
370
    18
100
AcDbLine
 10
93.7918814559
 20
194.4257494694
 30
0.0
 11
90.5660814567
 21
195.5010161086
 31
0.0
  0
LINE
  5
E1
330
1F
100
AcDbEntity
  8
0
  6
SLD-実線
 62
    29
370
    18
100
AcDbLine
 10
90.5660814567
 20
195.5010161086
 30
0.0
 11
87.3402814576
 21
196.4472507512
 31
0.0
  0
LINE
  5
E2
330
1F
100
AcDbEntity
  8
0
  6
SLD-実線
 62
    29
370
    18
100
AcDbLine
 10
87.3402814576
 20
196.4472507512
 30
0.0
 11
84.028460125
 21
197.264453397
 31
0.0
  0
LINE
  5
E3
330
1F
100
AcDbEntity
  8
0
  6
SLD-実線
 62
    29
370
    18
100
AcDbLine
 10
84.028460125
 20
197.264453397
 30
0.0
 11
80.8456707925
 21
197.9526240461
 31
0.0
  0
LINE
  5
E4
330
1F
100
AcDbEntity
  8
0
  6
SLD-実線
 62
    29
370
    18
100
AcDbLine
 10
80.8456707925
 20
197.9526240461
 30
0.0
 11
77.5768601267
 21
198.5117626985
 31
0.0
  0
LINE
  5
E5
330
1F
100
AcDbEntity
  8
0
  6
SLD-実線
 62
    29
370
    18
100
AcDbLine
 10
77.5768601267
 20
198.5117626985
 30
0.0
 11
74.3080494608
 21
198.8558480231
 31
0.0
  0
LINE
  5
E6
330
1F
100
AcDbEntity
  8
0
  6
SLD-実線
 62
    29
370
    18
100
AcDbLine
 10
74.3080494608
 20
198.8558480231
 30
0.0
 11
70.6951534617
 21
199.156922682
 31
0.0
  0
LINE
  5
E7
330
1F
100
AcDbEntity
  8
0
  6
SLD-実線
 62
    29
370
    18
100
AcDbLine
 10
70.6951534617
 20
199.156922682
 30
0.0
 11
67.039246796
 21
199.2859546788
 31
0.0
  0
LINE
  5
E8
330
1F
100
AcDbEntity
  8
0
  6
SLD-実線
 62
    29
370
    18
100
AcDbLine
 10
93.7918814559
 20
194.4257494694
 30
0.0
 11
94.2649987892
 21
175.888152609
 31
0.0
  0
LINE
  5
E9
330
1F
100
AcDbEntity
  8
0
  6
SLD-実線
 62
    29
370
    18
100
AcDbLine
 10
94.2649987892
 20
175.888152609
 30
0.0
 11
94.3940307891
 21
162.3828036202
 31
0.0
  0
LINE
  5
EA
330
1F
100
AcDbEntity
  8
0
  6
SLD-実線
 62
    29
370
    18
100
AcDbLine
 10
93.533817456
 20
194.167685476
 30
0.0
 11
90.3940387901
 21
195.2429521152
 31
0.0
  0
LINE
  5
EB
330
1F
100
AcDbEntity
  8
0
  6
SLD-実線
 62
    29
370
    18
100
AcDbLine
 10
90.3940387901
 20
195.2429521152
 30
0.0
 11
87.2112494576
 21
196.1891867578
 31
0.0
  0
LINE
  5
EC
330
1F
100
AcDbEntity
  8
0
  6
SLD-実線
 62
    29
370
    18
100
AcDbLine
 10
87.2112494576
 20
196.1891867578
 30
0.0
 11
84.028460125
 21
197.0063894036
 31
0.0
  0
LINE
  5
ED
330
1F
100
AcDbEntity
  8
0
  6
SLD-実線
 62
    29
370
    18
100
AcDbLine
 10
84.028460125
 20
197.0063894036
 30
0.0
 11
80.8456707925
 21
197.6945600527
 31
0.0
  0
LINE
  5
EE
330
1F
100
AcDbEntity
  8
0
  6
SLD-実線
 62
    29
370
    18
100
AcDbLine
 10
80.8456707925
 20
197.6945600527
 30
0.0
 11
77.5768601267
 21
198.2106880395
 31
0.0
  0
LINE
  5
EF
330
1F
100
AcDbEntity
  8
0
  6
SLD-実線
 62
    29
370
    18
100
AcDbLine
 10
77.5768601267
 20
198.2106880395
 30
0.0
 11
74.3510601275
 21
198.5547733641
 31
0.0
  0
LINE
  5
F0
330
1F
100
AcDbEntity
  8
0
  6
SLD-実線
 62
    29
370
    18
100
AcDbLine
 10
74.3510601275
 20
198.5547733641
 30
0.0
 11
70.6951534617
 21
198.8988586886
 31
0.0
  0
LINE
  5
F1
330
1F
100
AcDbEntity
  8
0
  6
SLD-実線
 62
    29
370
    18
100
AcDbLine
 10
70.6951534617
 20
198.8988586886
 30
0.0
 11
67.039246796
 21
198.9418693542
 31
0.0
  0
LINE
  5
F2
330
1F
100
AcDbEntity
  8
0
  6
SLD-実線
 62
    29
370
    18
100
AcDbLine
 10
45.8349881346
 20
205.1784158618
 30
0.0
 11
44.3726254683
 21
203.5009999046
 31
0.0
  0
LINE
  5
F3
330
1F
100
AcDbEntity
  8
0
  6
SLD-実線
 62
    29
370
    18
100
AcDbLine
 10
44.3726254683
 20
203.5009999046
 30
0.0
 11
43.039294802
 21
201.7805732818
 31
0.0
  0
LINE
  5
F4
330
1F
100
AcDbEntity
  8
0
  6
SLD-実線
 62
    29
370
    18
100
AcDbLine
 10
43.039294802
 20
201.7805732818
 30
0.0
 11
41.7919854689
 21
199.9741253279
 31
0.0
  0
LINE
  5
F5
330
1F
100
AcDbEntity
  8
0
  6
SLD-実線
 62
    29
370
    18
100
AcDbLine
 10
67.039246796
 20
211.4149623693
 30
0.0
 11
63.2973187969
 21
211.3289410382
 31
0.0
  0
LINE
  5
F6
330
1F
100
AcDbEntity
  8
0
  6
SLD-実線
 62
    29
370
    18
100
AcDbLine
 10
63.2973187969
 20
211.3289410382
 30
0.0
 11
59.5984014645
 21
211.0278663792
 31
0.0
  0
LINE
  5
F7
330
1F
100
AcDbEntity
  8
0
  6
SLD-実線
 62
    29
370
    18
100
AcDbLine
 10
50.0070228002
 20
198.2967093707
 30
0.0
 11
46.4801481344
 21
197.3504747281
 31
0.0
  0
LINE
  5
F8
330
1F
100
AcDbEntity
  8
0
  6
SLD-実線
 62
    29
370
    18
100
AcDbLine
 10
46.4801481344
 20
197.3504747281
 30
0.0
 11
42.9532734686
 21
196.3182187545
 31
0.0
  0
LINE
  5
F9
330
1F
100
AcDbEntity
  8
0
  6
SLD-実線
 62
    29
370
    18
100
AcDbLine
 10
42.9532734686
 20
196.3182187545
 30
0.0
 11
39.5124201362
 21
195.1569307841
 31
0.0
  0
LINE
  5
FA
330
1F
100
AcDbEntity
  8
0
  6
SLD-実線
 62
    29
370
    18
100
AcDbLine
 10
67.039246796
 20
200.3182106524
 30
0.0
 11
63.3833401302
 21
200.2321893213
 31
0.0
  0
LINE
  5
FB
330
1F
100
AcDbEntity
  8
0
  6
SLD-実線
 62
    29
370
    18
100
AcDbLine
 10
63.3833401302
 20
200.2321893213
 30
0.0
 11
59.7704441311
 21
199.9741253279
 31
0.0
  0
LINE
  5
FC
330
1F
100
AcDbEntity
  8
0
  6
SLD-実線
 62
    29
370
    18
100
AcDbLine
 10
39.5124201362
 20
195.1569307841
 30
0.0
 11
39.1683348029
 21
184.2322217295
 31
0.0
  0
LINE
  5
FD
330
1F
100
AcDbEntity
  8
0
  6
SLD-実線
 62
    29
370
    18
100
AcDbLine
 10
39.1683348029
 20
184.2322217295
 30
0.0
 11
38.9532814696
 21
173.3075126749
 31
0.0
  0
LINE
  5
FE
330
1F
100
AcDbEntity
  8
0
  6
SLD-実線
 62
    29
370
    18
100
AcDbLine
 10
38.9532814696
 20
173.3075126749
 30
0.0
 11
38.8242494697
 21
162.3828036202
 31
0.0
  0
LINE
  5
FF
330
1F
100
AcDbEntity
  8
0
  6
SLD-実線
 62
    29
370
    18
100
AcDbLine
 10
50.0500334669
 20
197.264453397
 30
0.0
 11
46.781222801
 21
196.4472507512
 31
0.0
  0
LINE
  5
100
330
1F
100
AcDbEntity
  8
0
  6
SLD-実線
 62
    29
370
    18
100
AcDbLine
 10
46.781222801
 20
196.4472507512
 30
0.0
 11
43.5124121352
 21
195.5010161086
 31
0.0
  0
LINE
  5
101
330
1F
100
AcDbEntity
  8
0
  6
SLD-実線
 62
    29
370
    18
100
AcDbLine
 10
43.5124121352
 20
195.5010161086
 30
0.0
 11
40.286612136
 21
194.4257494694
 31
0.0
  0
LINE
  5
102
330
1F
100
AcDbEntity
  8
0
  6
SLD-実線
 62
    29
370
    18
100
AcDbLine
 10
59.7704441311
 20
198.8558480231
 30
0.0
 11
56.5016334653
 21
198.5117626985
 31
0.0
  0
LINE
  5
103
330
1F
100
AcDbEntity
  8
0
  6
SLD-実線
 62
    29
370
    18
100
AcDbLine
 10
56.5016334653
 20
198.5117626985
 30
0.0
 11
53.2758334661
 21
197.9526240461
 31
0.0
  0
LINE
  5
104
330
1F
100
AcDbEntity
  8
0
  6
SLD-実線
 62
    29
370
    18
100
AcDbLine
 10
53.2758334661
 20
197.9526240461
 30
0.0
 11
50.0500334669
 21
197.264453397
 31
0.0
  0
LINE
  5
105
330
1F
100
AcDbEntity
  8
0
  6
SLD-実線
 62
    29
370
    18
100
AcDbLine
 10
67.039246796
 20
199.2859546788
 30
0.0
 11
63.3833401302
 21
199.156922682
 31
0.0
  0
LINE
  5
106
330
1F
100
AcDbEntity
  8
0
  6
SLD-実線
 62
    29
370
    18
100
AcDbLine
 10
63.3833401302
 20
199.156922682
 30
0.0
 11
59.7704441311
 21
198.8558480231
 31
0.0
  0
LINE
  5
107
330
1F
100
AcDbEntity
  8
0
  6
SLD-実線
 62
    29
370
    18
100
AcDbLine
 10
40.286612136
 20
194.4257494694
 30
0.0
 11
39.8134948028
 21
175.888152609
 31
0.0
  0
LINE
  5
108
330
1F
100
AcDbEntity
  8
0
  6
SLD-実線
 62
    29
370
    18
100
AcDbLine
 10
39.8134948028
 20
175.888152609
 30
0.0
 11
39.7274734695
 21
162.3828036202
 31
0.0
  0
LINE
  5
109
330
1F
100
AcDbEntity
  8
0
  6
SLD-実線
 62
    29
370
    18
100
AcDbLine
 10
50.0500334669
 20
197.0063894036
 30
0.0
 11
46.8672441343
 21
196.1891867578
 31
0.0
  0
LINE
  5
10A
330
1F
100
AcDbEntity
  8
0
  6
SLD-実線
 62
    29
370
    18
100
AcDbLine
 10
46.8672441343
 20
196.1891867578
 30
0.0
 11
43.6844548018
 21
195.2429521152
 31
0.0
  0
LINE
  5
10B
330
1F
100
AcDbEntity
  8
0
  6
SLD-実線
 62
    29
370
    18
100
AcDbLine
 10
43.6844548018
 20
195.2429521152
 30
0.0
 11
40.5876868026
 21
194.167685476
 31
0.0
  0
LINE
  5
10C
330
1F
100
AcDbEntity
  8
0
  6
SLD-実線
 62
    29
370
    18
100
AcDbLine
 10
59.7704441311
 20
198.5547733641
 30
0.0
 11
56.5016334653
 21
198.2106880395
 31
0.0
  0
LINE
  5
10D
330
1F
100
AcDbEntity
  8
0
  6
SLD-実線
 62
    29
370
    18
100
AcDbLine
 10
56.5016334653
 20
198.2106880395
 30
0.0
 11
53.2758334661
 21
197.6515493871
 31
0.0
  0
LINE
  5
10E
330
1F
100
AcDbEntity
  8
0
  6
SLD-実線
 62
    29
370
    18
100
AcDbLine
 10
53.2758334661
 20
197.6515493871
 30
0.0
 11
50.0930441335
 21
196.963378738
 31
0.0
  0
LINE
  5
10F
330
1F
100
AcDbEntity
  8
0
  6
SLD-実線
 62
    29
370
    18
100
AcDbLine
 10
67.039246796
 20
198.9418693542
 30
0.0
 11
63.3833401302
 21
198.8988586886
 31
0.0
  0
LINE
  5
110
330
1F
100
AcDbEntity
  8
0
  6
SLD-実線
 62
    29
370
    18
100
AcDbLine
 10
63.3833401302
 20
198.8988586886
 30
0.0
 11
59.7704441311
 21
198.5547733641
 31
0.0
  0
LINE
  5
111
330
1F
100
AcDbEntity
  8
0
  6
SLD-実線
 62
    29
370
    18
100
AcDbLine
 10
161.7058841256
 20
125.8667485518
 30
0.0
 11
164.1144814584
 21
126.4688978698
 31
0.0
  0
LINE
  5
112
330
1F
100
AcDbEntity
  8
0
  6
SLD-実線
 62
    29
370
    18
100
AcDbLine
 10
160.8026601259
 20
126.8129831944
 30
0.0
 11
164.028460125
 21
127.5011538435
 31
0.0
  0
LINE
  5
113
330
1F
100
AcDbEntity
  8
0
  6
SLD-実線
 62
    29
370
    18
100
AcDbLine
 10
126.4371374678
 20
127.3721218468
 30
0.0
 11
129.9640121336
 21
126.4258872042
 31
0.0
  0
LINE
  5
114
330
1F
100
AcDbEntity
  8
0
  6
SLD-実線
 62
    29
370
    18
100
AcDbLine
 10
130.0500334669
 20
127.5011538435
 30
0.0
 11
133.2758334661
 21
126.8129831944
 31
0.0
  0
LINE
  5
115
330
1F
100
AcDbEntity
  8
0
  6
SLD-実線
 62
    29
370
    18
100
AcDbLine
 10
147.039246796
 20
213.049367661
 30
0.0
 11
149.7919294619
 21
213.0063569954
 31
0.0
  0
LINE
  5
116
330
1F
100
AcDbEntity
  8
0
  6
SLD-実線
 62
    29
370
    18
100
AcDbLine
 10
150.781174795
 20
211.3289410382
 30
0.0
 11
147.039246796
 21
211.4149623693
 31
0.0
  0
LINE
  5
117
330
1F
100
AcDbEntity
  8
0
  6
SLD-実線
 62
    29
370
    18
100
AcDbLine
 10
160.8456707925
 20
197.9526240461
 30
0.0
 11
157.5768601267
 21
198.5117626985
 31
0.0
  0
LINE
  5
118
330
1F
100
AcDbEntity
  8
0
  6
SLD-実線
 62
    29
370
    18
100
AcDbLine
 10
143.3833401302
 20
200.2321893213
 30
0.0
 11
139.7704441311
 21
199.9741253279
 31
0.0
  0
LINE
  5
119
330
1F
100
AcDbEntity
  8
0
  6
SLD-実線
 62
    29
370
    18
100
AcDbLine
 10
119.1683348029
 20
184.2322217295
 30
0.0
 11
118.9532814696
 21
173.3075126749
 31
0.0
  0
LINE
  5
11A
330
1F
100
AcDbEntity
  8
0
  6
SLD-実線
 62
    29
370
    18
100
AcDbLine
 10
147.039246796
 20
124.4904072536
 30
0.0
 11
150.6951534617
 21
124.5764285848
 31
0.0
  0
LINE
  5
11B
330
1F
100
AcDbEntity
  8
0
  6
SLD-実線
 62
    29
370
    18
100
AcDbLine
 10
150.6951534617
 20
124.5764285848
 30
0.0
 11
154.3510601275
 21
124.8344925782
 31
0.0
  0
LINE
  5
11C
330
1F
100
AcDbEntity
  8
0
  6
SLD-実線
 62
    29
370
    18
100
AcDbLine
 10
173.7918814559
 20
130.339857771
 30
0.0
 11
174.2649987892
 21
148.8774546314
 31
0.0
  0
LINE
  5
11D
330
1F
100
AcDbEntity
  8
0
  6
SLD-実線
 62
    29
370
    18
100
AcDbLine
 10
170.3940387901
 20
129.5656657908
 30
0.0
 11
173.533817456
 21
130.5979217645
 31
0.0
  0
LINE
  5
11E
330
1F
100
AcDbEntity
  8
0
  6
SLD-実線
 62
    29
370
    18
100
AcDbLine
 10
173.3617747894
 20
194.2106961416
 30
0.0
 11
173.3187641227
 21
194.2106961416
 31
0.0
  0
LINE
  5
11F
330
1F
100
AcDbEntity
  8
0
  6
SLD-実線
 62
    29
370
    18
100
AcDbLine
 10
174.5660734557
 20
195.1569307841
 30
0.0
 11
171.1252201233
 21
196.3182187545
 31
0.0
  0
LINE
  5
120
330
1F
100
AcDbEntity
  8
0
  6
SLD-実線
 62
    29
370
    18
100
AcDbLine
 10
174.9531694556
 20
184.2322217295
 30
0.0
 11
174.5660734557
 21
195.1569307841
 31
0.0
  0
LINE
  5
121
330
1F
100
AcDbEntity
  8
0
  6
SLD-実線
 62
    29
370
    18
100
AcDbLine
 10
167.2112494576
 20
196.1891867578
 30
0.0
 11
164.028460125
 21
197.0063894036
 31
0.0
  0
LINE
  5
122
330
1F
100
AcDbEntity
  8
0
  6
SLD-実線
 62
    29
370
    18
100
AcDbLine
 10
147.039246796
 20
211.4149623693
 30
0.0
 11
143.2973187969
 21
211.3289410382
 31
0.0
  0
LINE
  5
123
330
1F
100
AcDbEntity
  8
0
  6
SLD-実線
 62
    29
370
    18
100
AcDbLine
 10
136.5016334653
 20
198.2106880395
 30
0.0
 11
133.2758334661
 21
197.6515493871
 31
0.0
  0
LINE
  5
124
330
1F
100
AcDbEntity
  8
0
  6
SLD-実線
 62
    29
370
    18
100
AcDbLine
 10
117.1468334701
 20
131.544156407
 30
0.0
 11
116.5446841369
 21
162.3828036202
 31
0.0
  0
LINE
  5
125
330
1F
100
AcDbEntity
  8
0
  6
SLD-実線
 62
    29
370
    18
100
AcDbLine
 10
171.1252201233
 20
128.4043778204
 30
0.0
 11
174.5660734557
 21
129.6086764564
 31
0.0
  0
LINE
  5
126
330
1F
100
AcDbEntity
  8
0
  6
SLD-実線
 62
    29
370
    18
100
AcDbLine
 10
150.6951534617
 20
125.6086845584
 30
0.0
 11
154.3080494608
 21
125.9097592174
 31
0.0
  0
LINE
  5
127
330
1F
100
AcDbEntity
  8
0
  6
SLD-実線
 62
    29
370
    18
100
AcDbLine
 10
122.9532734686
 20
128.4043778204
 30
0.0
 11
126.4371374678
 21
127.3721218468
 31
0.0
  0
LINE
  5
128
330
1F
100
AcDbEntity
  8
0
  6
SLD-実線
 62
    29
370
    18
100
AcDbLine
 10
144.28656413
 20
213.0063569954
 30
0.0
 11
140.8887214642
 21
212.7913036675
 31
0.0
  0
LINE
  5
129
330
1F
100
AcDbEntity
  8
0
  6
SLD-実線
 62
    29
370
    18
100
AcDbLine
 10
159.3402974596
 20
210.3827063957
 30
0.0
 11
156.9317001268
 21
210.7698023858
 31
0.0
  0
LINE
  5
12A
330
1F
100
AcDbEntity
  8
0
  6
SLD-実線
 62
    29
370
    18
100
AcDbLine
 10
154.3510601275
 20
198.5547733641
 30
0.0
 11
150.6951534617
 21
198.8988586886
 31
0.0
  0
LINE
  5
12B
330
1F
100
AcDbEntity
  8
0
  6
SLD-実線
 62
    29
370
    18
100
AcDbLine
 10
136.5016334653
 20
198.5117626985
 30
0.0
 11
133.2758334661
 21
197.9526240461
 31
0.0
  0
LINE
  5
12C
330
1F
100
AcDbEntity
  8
0
  6
SLD-実線
 62
    29
370
    18
100
AcDbLine
 10
133.2758334661
 20
197.6515493871
 30
0.0
 11
130.0930441335
 21
196.963378738
 31
0.0
  0
LINE
  5
12D
330
1F
100
AcDbEntity
  8
0
  6
SLD-実線
 62
    29
370
    18
100
AcDbLine
 10
149.8349401286
 20
111.7592502451
 30
0.0
 11
153.2327827944
 21
111.9312929074
 31
0.0
  0
LINE
  5
12E
330
1F
100
AcDbEntity
  8
0
  6
SLD-実線
 62
    29
370
    18
100
AcDbLine
 10
154.5231027941
 20
113.7377408613
 30
0.0
 11
156.9317001268
 21
113.9958048547
 31
0.0
  0
LINE
  5
12F
330
1F
100
AcDbEntity
  8
0
  6
SLD-実線
 62
    29
370
    18
100
AcDbLine
 10
167.3402814576
 20
128.3183564893
 30
0.0
 11
170.5660814567
 21
129.2645911318
 31
0.0
  0
LINE
  5
130
330
1F
100
AcDbEntity
  8
0
  6
SLD-実線
 62
    29
370
    18
100
AcDbLine
 10
157.6198707933
 20
126.5549192009
 30
0.0
 11
160.8456707925
 21
127.1140578533
 31
0.0
  0
LINE
  5
131
330
1F
100
AcDbEntity
  8
0
  6
SLD-実線
 62
    29
370
    18
100
AcDbLine
 10
136.5016334653
 20
126.2968552075
 30
0.0
 11
139.7704441311
 21
125.9097592174
 31
0.0
  0
LINE
  5
132
330
1F
100
AcDbEntity
  8
0
  6
SLD-実線
 62
    29
370
    18
100
AcDbLine
 10
139.7704441311
 20
125.9097592174
 30
0.0
 11
143.3833401302
 21
125.6086845584
 31
0.0
  0
LINE
  5
133
330
1F
100
AcDbEntity
  8
0
  6
SLD-実線
 62
    29
370
    18
100
AcDbLine
 10
173.7918814559
 20
194.4257494694
 30
0.0
 11
174.2649987892
 21
175.888152609
 31
0.0
  0
LINE
  5
134
330
1F
100
AcDbEntity
  8
0
  6
SLD-実線
 62
    29
370
    18
100
AcDbLine
 10
173.533817456
 20
194.167685476
 30
0.0
 11
170.3940387901
 21
195.2429521152
 31
0.0
  0
LINE
  5
135
330
1F
100
AcDbEntity
  8
0
  6
SLD-実線
 62
    29
370
    18
100
AcDbLine
 10
130.0070228002
 20
198.2967093707
 30
0.0
 11
126.4801481344
 21
197.3504747281
 31
0.0
  0
LINE
  5
136
330
1F
100
AcDbEntity
  8
0
  6
SLD-実線
 62
    29
370
    18
100
AcDbLine
 10
133.2758334661
 20
197.9526240461
 30
0.0
 11
130.0500334669
 21
197.264453397
 31
0.0
  0
LINE
  5
137
330
1F
100
AcDbEntity
  8
0
  6
SLD-実線
 62
    29
370
    18
100
AcDbLine
 10
156.6306254602
 20
112.2753782319
 30
0.0
 11
159.8564254594
 21
112.7484955532
 31
0.0
  0
LINE
  5
138
330
1F
100
AcDbEntity
  8
0
  6
SLD-実線
 62
    29
370
    18
100
AcDbLine
 10
156.9317001268
 20
113.9958048547
 30
0.0
 11
159.3402974596
 21
114.3829008448
 31
0.0
  0
LINE
  5
139
330
1F
100
AcDbEntity
  8
0
  6
SLD-実線
 62
    29
370
    18
100
AcDbLine
 10
123.039294802
 20
122.9850339587
 30
0.0
 11
124.3726254683
 21
121.2646073359
 31
0.0
  0
LINE
  5
13A
330
1F
100
AcDbEntity
  8
0
  6
SLD-実線
 62
    29
370
    18
100
AcDbLine
 10
120.286612136
 20
130.339857771
 30
0.0
 11
123.5124121352
 21
129.2645911318
 31
0.0
  0
LINE
  5
13B
330
1F
100
AcDbEntity
  8
0
  6
SLD-実線
 62
    29
370
    18
100
AcDbLine
 10
126.910254801
 20
128.6194311483
 30
0.0
 11
130.0930441335
 21
127.8022285025
 31
0.0
  0
LINE
  5
13C
330
1F
100
AcDbEntity
  8
0
  6
SLD-実線
 62
    29
370
    18
100
AcDbLine
 10
156.6306254602
 20
212.4902290085
 30
0.0
 11
153.2327827944
 21
212.7913036675
 31
0.0
  0
LINE
  5
13D
330
1F
100
AcDbEntity
  8
0
  6
SLD-実線
 62
    29
370
    18
100
AcDbLine
 10
175.2542441222
 20
162.3828036202
 30
0.0
 11
175.1682227889
 21
173.3075126749
 31
0.0
  0
LINE
  5
13E
330
1F
100
AcDbEntity
  8
0
  6
SLD-実線
 62
    29
370
    18
100
AcDbLine
 10
157.5768601267
 20
198.2106880395
 30
0.0
 11
154.3510601275
 21
198.5547733641
 31
0.0
  0
LINE
  5
13F
330
1F
100
AcDbEntity
  8
0
  6
SLD-実線
 62
    29
370
    18
100
AcDbLine
 10
124.3726254683
 20
203.5009999046
 30
0.0
 11
123.039294802
 21
201.7805732818
 31
0.0
  0
LINE
  5
140
330
1F
100
AcDbEntity
  8
0
  6
SLD-実線
 62
    29
370
    18
100
AcDbLine
 10
174.5660734557
 20
129.6086764564
 30
0.0
 11
174.9531694556
 21
140.533385511
 31
0.0
  0
LINE
  5
141
330
1F
100
AcDbEntity
  8
0
  6
SLD-実線
 62
    29
370
    18
100
AcDbLine
 10
154.3080494608
 20
125.9097592174
 30
0.0
 11
157.5768601267
 21
126.2968552075
 31
0.0
  0
LINE
  5
142
330
1F
100
AcDbEntity
  8
0
  6
SLD-実線
 62
    29
370
    18
100
AcDbLine
 10
143.3833401302
 20
125.6086845584
 30
0.0
 11
147.039246796
 21
125.4796525617
 31
0.0
  0
LINE
  5
143
330
1F
100
AcDbEntity
  8
0
  6
SLD-実線
 62
    29
370
    18
100
AcDbLine
 10
163.039214792
 20
211.4149623693
 30
0.0
 11
159.8564254594
 21
212.0601223529
 31
0.0
  0
LINE
  5
144
330
1F
100
AcDbEntity
  8
0
  6
SLD-実線
 62
    29
370
    18
100
AcDbLine
 10
175.1682227889
 20
173.3075126749
 30
0.0
 11
174.9531694556
 21
184.2322217295
 31
0.0
  0
LINE
  5
145
330
1F
100
AcDbEntity
  8
0
  6
SLD-実線
 62
    29
370
    18
100
AcDbLine
 10
125.8349881346
 20
205.1784158618
 30
0.0
 11
124.3726254683
 21
203.5009999046
 31
0.0
  0
LINE
  5
146
330
1F
100
AcDbEntity
  8
0
  6
SLD-実線
 62
    29
370
    18
100
AcDbLine
 10
126.4801481344
 20
197.3504747281
 30
0.0
 11
122.9532734686
 21
196.3182187545
 31
0.0
  0
LINE
  5
147
330
1F
100
AcDbEntity
  8
0
  6
SLD-実線
 62
    29
370
    18
100
AcDbLine
 10
126.781222801
 20
196.4472507512
 30
0.0
 11
123.5124121352
 21
195.5010161086
 31
0.0
  0
LINE
  5
148
330
1F
100
AcDbEntity
  8
0
  6
SLD-実線
 62
    29
370
    18
100
AcDbLine
 10
131.0822894666
 20
113.3506448711
 30
0.0
 11
134.2650787992
 21
112.7484955532
 31
0.0
  0
LINE
  5
149
330
1F
100
AcDbEntity
  8
0
  6
SLD-実線
 62
    29
370
    18
100
AcDbLine
 10
164.1144814584
 20
126.4258872042
 30
0.0
 11
167.6413561241
 21
127.3721218468
 31
0.0
  0
LINE
  5
14A
330
1F
100
AcDbEntity
  8
0
  6
SLD-実線
 62
    29
370
    18
100
AcDbLine
 10
154.3510601275
 20
126.2108338764
 30
0.0
 11
157.6198707933
 21
126.5549192009
 31
0.0
  0
LINE
  5
14B
330
1F
100
AcDbEntity
  8
0
  6
SLD-実線
 62
    29
370
    18
100
AcDbLine
 10
143.4263507969
 20
124.5764285848
 30
0.0
 11
147.0822574626
 21
124.4904072536
 31
0.0
  0
LINE
  5
14C
330
1F
100
AcDbEntity
  8
0
  6
SLD-実線
 62
    29
370
    18
100
AcDbLine
 10
139.7704441311
 20
126.2108338764
 30
0.0
 11
143.3833401302
 21
125.9097592174
 31
0.0
  0
LINE
  5
14D
330
1F
100
AcDbEntity
  8
0
  6
SLD-実線
 62
    29
370
    18
100
AcDbLine
 10
144.28656413
 20
213.0063569954
 30
0.0
 11
147.039246796
 21
213.049367661
 31
0.0
  0
LINE
  5
14E
330
1F
100
AcDbEntity
  8
0
  6
SLD-実線
 62
    29
370
    18
100
AcDbLine
 10
167.6413561241
 20
197.3504747281
 30
0.0
 11
164.1144814584
 21
198.2967093707
 31
0.0
  0
LINE
  5
14F
330
1F
100
AcDbEntity
  8
0
  6
SLD-実線
 62
    29
370
    18
100
AcDbLine
 10
164.028460125
 20
197.0063894036
 30
0.0
 11
160.8456707925
 21
197.6945600527
 31
0.0
  0
LINE
  5
150
330
1F
100
AcDbEntity
  8
0
  6
SLD-実線
 62
    29
370
    18
100
AcDbLine
 10
120.286612136
 20
194.4257494694
 30
0.0
 11
119.8134948028
 21
175.888152609
 31
0.0
  0
LINE
  5
151
330
1F
100
AcDbEntity
  8
0
  6
SLD-実線
 62
    29
370
    18
100
AcDbLine
 10
147.039246796
 20
198.9418693542
 30
0.0
 11
143.3833401302
 21
198.8988586886
 31
0.0
  0
LINE
  5
152
330
1F
100
AcDbEntity
  8
0
  6
SLD-実線
 62
    29
370
    18
100
AcDbLine
 10
147.039246796
 20
113.3506448711
 30
0.0
 11
150.781174795
 21
113.4366662023
 31
0.0
  0
LINE
  5
153
330
1F
100
AcDbEntity
  8
0
  6
SLD-実線
 62
    29
370
    18
100
AcDbLine
 10
147.039246796
 20
125.8237378863
 30
0.0
 11
150.6951534617
 21
125.9097592174
 31
0.0
  0
LINE
  5
154
330
1F
100
AcDbEntity
  8
0
  6
SLD-実線
 62
    29
370
    18
100
AcDbLine
 10
124.3726254683
 20
121.2646073359
 30
0.0
 11
125.8349881346
 21
119.5871913787
 31
0.0
  0
LINE
  5
155
330
1F
100
AcDbEntity
  8
0
  6
SLD-実線
 62
    29
370
    18
100
AcDbLine
 10
126.7382121344
 20
128.3183564893
 30
0.0
 11
130.0500334669
 21
127.5011538435
 31
0.0
  0
LINE
  5
156
330
1F
100
AcDbEntity
  8
0
  6
SLD-実線
 62
    29
370
    18
100
AcDbLine
 10
156.9317001268
 20
210.7698023858
 30
0.0
 11
154.5231027941
 21
211.0278663792
 31
0.0
  0
LINE
  5
157
330
1F
100
AcDbEntity
  8
0
  6
SLD-実線
 62
    29
370
    18
100
AcDbLine
 10
170.3940387901
 20
195.2429521152
 30
0.0
 11
167.2112494576
 21
196.1891867578
 31
0.0
  0
LINE
  5
158
330
1F
100
AcDbEntity
  8
0
  6
SLD-実線
 62
    29
370
    18
100
AcDbLine
 10
118.9532814696
 20
173.3075126749
 30
0.0
 11
118.8242494697
 21
162.3828036202
 31
0.0
  0
LINE
  5
159
330
1F
100
AcDbEntity
  8
0
  6
SLD-実線
 62
    29
370
    18
100
AcDbLine
 10
143.3833401302
 20
198.8988586886
 30
0.0
 11
139.7704441311
 21
198.5547733641
 31
0.0
  0
LINE
  5
15A
330
1F
100
AcDbEntity
  8
0
  6
SLD-実線
 62
    29
370
    18
100
AcDbLine
 10
140.8887214642
 20
111.9312929074
 30
0.0
 11
144.28656413
 21
111.7592502451
 31
0.0
  0
LINE
  5
15B
330
1F
100
AcDbEntity
  8
0
  6
SLD-実線
 62
    29
370
    18
100
AcDbLine
 10
159.2542761262
 20
125.3936312306
 30
0.0
 11
161.7058841256
 21
125.8667485518
 31
0.0
  0
LINE
  5
15C
330
1F
100
AcDbEntity
  8
0
  6
SLD-実線
 62
    29
370
    18
100
AcDbLine
 10
170.5660814567
 20
129.2645911318
 30
0.0
 11
173.7918814559
 21
130.339857771
 31
0.0
  0
LINE
  5
15D
330
1F
100
AcDbEntity
  8
0
  6
SLD-実線
 62
    29
370
    18
100
AcDbLine
 10
164.028460125
 20
127.8022285025
 30
0.0
 11
167.2112494576
 21
128.6194311483
 31
0.0
  0
LINE
  5
15E
330
1F
100
AcDbEntity
  8
0
  6
SLD-実線
 62
    29
370
    18
100
AcDbLine
 10
123.7274654685
 20
129.5656657908
 30
0.0
 11
126.910254801
 21
128.6194311483
 31
0.0
  0
LINE
  5
15F
330
1F
100
AcDbEntity
  8
0
  6
SLD-実線
 62
    29
370
    18
100
AcDbLine
 10
133.2758334661
 20
127.1140578533
 30
0.0
 11
136.5016334653
 21
126.5549192009
 31
0.0
  0
LINE
  5
160
330
1F
100
AcDbEntity
  8
0
  6
SLD-実線
 62
    29
370
    18
100
AcDbLine
 10
157.6198707933
 20
199.6300400033
 30
0.0
 11
154.3510601275
 21
199.9741253279
 31
0.0
  0
LINE
  5
161
330
1F
100
AcDbEntity
  8
0
  6
SLD-実線
 62
    29
370
    18
100
AcDbLine
 10
170.5660814567
 20
195.5010161086
 30
0.0
 11
167.3402814576
 21
196.4472507512
 31
0.0
  0
LINE
  5
162
330
1F
100
AcDbEntity
  8
0
  6
SLD-実線
 62
    29
370
    18
100
AcDbLine
 10
143.3833401302
 20
199.156922682
 30
0.0
 11
139.7704441311
 21
198.8558480231
 31
0.0
  0
LINE
  5
163
330
1F
100
AcDbEntity
  8
0
  6
SLD-実線
 62
    29
370
    18
100
AcDbLine
 10
130.0500334669
 20
197.0063894036
 30
0.0
 11
126.8672441343
 21
196.1891867578
 31
0.0
  0
LINE
  5
164
330
1F
100
AcDbEntity
  8
0
  6
SLD-実線
 62
    29
370
    18
100
AcDbLine
 10
159.3402974596
 20
114.3829008448
 30
0.0
 11
161.7058841256
 21
114.9420394972
 31
0.0
  0
LINE
  5
165
330
1F
100
AcDbEntity
  8
0
  6
SLD-実線
 62
    29
370
    18
100
AcDbLine
 10
154.3510601275
 20
124.7914819126
 30
0.0
 11
156.8026681269
 21
125.049545906
 31
0.0
  0
LINE
  5
166
330
1F
100
AcDbEntity
  8
0
  6
SLD-実線
 62
    29
370
    18
100
AcDbLine
 10
118.9532814696
 20
151.4580945656
 30
0.0
 11
119.1683348029
 21
140.533385511
 31
0.0
  0
LINE
  5
167
330
1F
100
AcDbEntity
  8
0
  6
SLD-実線
 62
    29
370
    18
100
AcDbLine
 10
123.5124121352
 20
129.2645911318
 30
0.0
 11
126.7382121344
 21
128.3183564893
 31
0.0
  0
LINE
  5
168
330
1F
100
AcDbEntity
  8
0
  6
SLD-実線
 62
    29
370
    18
100
AcDbLine
 10
120.286612136
 20
130.339857771
 30
0.0
 11
119.8134948028
 21
148.8774546314
 31
0.0
  0
LINE
  5
169
330
1F
100
AcDbEntity
  8
0
  6
SLD-実線
 62
    29
370
    18
100
AcDbLine
 10
176.9316601218
 20
193.2214508335
 30
0.0
 11
177.533809455
 21
162.3828036202
 31
0.0
  0
LINE
  5
16A
330
1F
100
AcDbEntity
  8
0
  6
SLD-実線
 62
    29
370
    18
100
AcDbLine
 10
157.5768601267
 20
198.5117626985
 30
0.0
 11
154.3080494608
 21
198.8558480231
 31
0.0
  0
LINE
  5
16B
330
1F
100
AcDbEntity
  8
0
  6
SLD-実線
 62
    29
370
    18
100
AcDbLine
 10
174.2649987892
 20
175.888152609
 30
0.0
 11
174.3940307891
 21
162.3828036202
 31
0.0
  0
LINE
  5
16C
330
1F
100
AcDbEntity
  8
0
  6
SLD-実線
 62
    29
370
    18
100
AcDbLine
 10
143.2973187969
 20
211.3289410382
 30
0.0
 11
139.5984014645
 21
211.0278663792
 31
0.0
  0
LINE
  5
16D
330
1F
100
AcDbEntity
  8
0
  6
SLD-実線
 62
    29
370
    18
100
AcDbLine
 10
153.2327827944
 20
111.9312929074
 30
0.0
 11
156.6306254602
 21
112.2753782319
 31
0.0
  0
LINE
  5
16E
330
1F
100
AcDbEntity
  8
0
  6
SLD-実線
 62
    29
370
    18
100
AcDbLine
 10
174.9531694556
 20
140.533385511
 30
0.0
 11
175.1682227889
 21
151.4580945656
 31
0.0
  0
LINE
  5
16F
330
1F
100
AcDbEntity
  8
0
  6
SLD-実線
 62
    29
370
    18
100
AcDbLine
 10
167.2112494576
 20
128.6194311483
 30
0.0
 11
170.3940387901
 21
129.5656657908
 31
0.0
  0
LINE
  5
170
330
1F
100
AcDbEntity
  8
0
  6
SLD-実線
 62
    29
370
    18
100
AcDbLine
 10
119.8134948028
 20
148.8774546314
 30
0.0
 11
119.7274734695
 21
162.3828036202
 31
0.0
  0
LINE
  5
171
330
1F
100
AcDbEntity
  8
0
  6
SLD-実線
 62
    29
370
    18
100
AcDbLine
 10
153.2327827944
 20
212.7913036675
 30
0.0
 11
149.7919294619
 21
213.0063569954
 31
0.0
  0
LINE
  5
172
330
1F
100
AcDbEntity
  8
0
  6
SLD-実線
 62
    29
370
    18
100
AcDbLine
 10
164.1144814584
 20
198.2967093707
 30
0.0
 11
160.8886814592
 21
199.0709013509
 31
0.0
  0
LINE
  5
173
330
1F
100
AcDbEntity
  8
0
  6
SLD-実線
 62
    29
370
    18
100
AcDbLine
 10
167.3402814576
 20
196.4472507512
 30
0.0
 11
164.028460125
 21
197.264453397
 31
0.0
  0
LINE
  5
174
330
1F
100
AcDbEntity
  8
0
  6
SLD-実線
 62
    29
370
    18
100
AcDbLine
 10
139.7704441311
 20
198.8558480231
 30
0.0
 11
136.5016334653
 21
198.5117626985
 31
0.0
  0
LINE
  5
175
330
1F
100
AcDbEntity
  8
0
  6
SLD-実線
 62
    29
370
    18
100
AcDbLine
 10
147.039246796
 20
199.2859546788
 30
0.0
 11
143.3833401302
 21
199.156922682
 31
0.0
  0
LINE
  5
176
330
1F
100
AcDbEntity
  8
0
  6
SLD-実線
 62
    29
370
    18
100
AcDbLine
 10
147.039246796
 20
111.7162395795
 30
0.0
 11
149.7919294619
 21
111.7592502451
 31
0.0
  0
LINE
  5
177
330
1F
100
AcDbEntity
  8
0
  6
SLD-実線
 62
    29
370
    18
100
AcDbLine
 10
167.6413561241
 20
127.3721218468
 30
0.0
 11
171.1252201233
 21
128.4043778204
 31
0.0
  0
LINE
  5
178
330
1F
100
AcDbEntity
  8
0
  6
SLD-実線
 62
    29
370
    18
100
AcDbLine
 10
160.8456707925
 20
127.1140578533
 30
0.0
 11
164.028460125
 21
127.8022285025
 31
0.0
  0
LINE
  5
179
330
1F
100
AcDbEntity
  8
0
  6
SLD-実線
 62
    29
370
    18
100
AcDbLine
 10
139.7704441311
 20
124.8344925782
 30
0.0
 11
143.4263507969
 21
124.5764285848
 31
0.0
  0
LINE
  5
17A
330
1F
100
AcDbEntity
  8
0
  6
SLD-実線
 62
    29
370
    18
100
AcDbLine
 10
136.5016334653
 20
126.5549192009
 30
0.0
 11
139.7704441311
 21
126.2108338764
 31
0.0
  0
LINE
  5
17B
330
1F
100
AcDbEntity
  8
0
  6
SLD-実線
 62
    29
370
    18
100
AcDbLine
 10
116.5446841369
 20
162.3828036202
 30
0.0
 11
117.1468334701
 21
193.2214508335
 31
0.0
  0
LINE
  5
17C
330
1F
100
AcDbEntity
  8
0
  6
SLD-実線
 62
    29
370
    18
100
AcDbLine
 10
164.028460125
 20
197.264453397
 30
0.0
 11
160.8456707925
 21
197.9526240461
 31
0.0
  0
LINE
  5
17D
330
1F
100
AcDbEntity
  8
0
  6
SLD-実線
 62
    29
370
    18
100
AcDbLine
 10
160.8456707925
 20
197.6945600527
 30
0.0
 11
157.5768601267
 21
198.2106880395
 31
0.0
  0
LINE
  5
17E
330
1F
100
AcDbEntity
  8
0
  6
SLD-実線
 62
    29
370
    18
100
AcDbLine
 10
123.5124121352
 20
195.5010161086
 30
0.0
 11
120.286612136
 21
194.4257494694
 31
0.0
  0
LINE
  5
17F
330
1F
100
AcDbEntity
  8
0
  6
SLD-実線
 62
    29
370
    18
100
AcDbLine
 10
150.781174795
 20
113.4366662023
 30
0.0
 11
154.5231027941
 21
113.7377408613
 31
0.0
  0
LINE
  5
180
330
1F
100
AcDbEntity
  8
0
  6
SLD-実線
 62
    29
370
    18
100
AcDbLine
 10
164.028460125
 20
127.5011538435
 30
0.0
 11
167.3402814576
 21
128.3183564893
 31
0.0
  0
LINE
  5
181
330
1F
100
AcDbEntity
  8
0
  6
SLD-実線
 62
    29
370
    18
100
AcDbLine
 10
143.2973187969
 20
113.4366662023
 30
0.0
 11
147.039246796
 21
113.3506448711
 31
0.0
  0
LINE
  5
182
330
1F
100
AcDbEntity
  8
0
  6
SLD-実線
 62
    29
370
    18
100
AcDbLine
 10
119.5124201362
 20
129.6086764564
 30
0.0
 11
122.9532734686
 21
128.4043778204
 31
0.0
  0
LINE
  5
183
330
1F
100
AcDbEntity
  8
0
  6
SLD-実線
 62
    29
370
    18
100
AcDbLine
 10
140.8887214642
 20
212.7913036675
 30
0.0
 11
137.4478681317
 21
212.4902290085
 31
0.0
  0
LINE
  5
184
330
1F
100
AcDbEntity
  8
0
  6
SLD-実線
 62
    29
370
    18
100
AcDbLine
 10
154.5231027941
 20
211.0278663792
 30
0.0
 11
150.781174795
 21
211.3289410382
 31
0.0
  0
LINE
  5
185
330
1F
100
AcDbEntity
  8
0
  6
SLD-実線
 62
    29
370
    18
100
AcDbLine
 10
150.6951534617
 20
198.8988586886
 30
0.0
 11
147.039246796
 21
198.9418693542
 31
0.0
  0
LINE
  5
186
330
1F
100
AcDbEntity
  8
0
  6
SLD-実線
 62
    29
370
    18
100
AcDbLine
 10
122.9532734686
 20
196.3182187545
 30
0.0
 11
119.5124201362
 21
195.1569307841
 31
0.0
  0
LINE
  5
187
330
1F
100
AcDbEntity
  8
0
  6
SLD-実線
 62
    29
370
    18
100
AcDbLine
 10
147.039246796
 20
200.3182106524
 30
0.0
 11
143.3833401302
 21
200.2321893213
 31
0.0
  0
LINE
  5
188
330
1F
100
AcDbEntity
  8
0
  6
SLD-実線
 62
    29
370
    18
100
AcDbLine
 10
144.28656413
 20
111.7592502451
 30
0.0
 11
147.039246796
 21
111.7162395795
 31
0.0
  0
LINE
  5
189
330
1F
100
AcDbEntity
  8
0
  6
SLD-実線
 62
    29
370
    18
100
AcDbLine
 10
156.8026681269
 20
125.049545906
 30
0.0
 11
159.2542761262
 21
125.3936312306
 31
0.0
  0
LINE
  5
18A
330
1F
100
AcDbEntity
  8
0
  6
SLD-実線
 62
    29
370
    18
100
AcDbLine
 10
157.5768601267
 20
126.2968552075
 30
0.0
 11
160.8026601259
 21
126.8129831944
 31
0.0
  0
LINE
  5
18B
330
1F
100
AcDbEntity
  8
0
  6
SLD-実線
 62
    29
370
    18
100
AcDbLine
 10
150.6951534617
 20
125.9097592174
 30
0.0
 11
154.3080494608
 21
126.2108338764
 31
0.0
  0
LINE
  5
18C
330
1F
100
AcDbEntity
  8
0
  6
SLD-実線
 62
    29
370
    18
100
AcDbLine
 10
120.5876868026
 20
130.5979217645
 30
0.0
 11
123.7274654685
 21
129.5656657908
 31
0.0
  0
LINE
  5
18D
330
1F
100
AcDbEntity
  8
0
  6
SLD-実線
 62
    29
370
    18
100
AcDbLine
 10
137.4908787983
 20
212.4902290085
 30
0.0
 11
134.2650787992
 21
212.0171116873
 31
0.0
  0
LINE
  5
18E
330
1F
100
AcDbEntity
  8
0
  6
SLD-実線
 62
    29
370
    18
100
AcDbLine
 10
171.1252201233
 20
196.3182187545
 30
0.0
 11
167.6413561241
 21
197.3504747281
 31
0.0
  0
LINE
  5
18F
330
1F
100
AcDbEntity
  8
0
  6
SLD-実線
 62
    29
370
    18
100
AcDbLine
 10
173.7918814559
 20
194.4257494694
 30
0.0
 11
170.5660814567
 21
195.5010161086
 31
0.0
  0
LINE
  5
190
330
1F
100
AcDbEntity
  8
0
  6
SLD-実線
 62
    29
370
    18
100
AcDbLine
 10
126.8672441343
 20
196.1891867578
 30
0.0
 11
123.6844548018
 21
195.2429521152
 31
0.0
  0
LINE
  5
191
330
1F
100
AcDbEntity
  8
0
  6
SLD-実線
 62
    29
370
    18
100
AcDbLine
 10
123.6844548018
 20
195.2429521152
 30
0.0
 11
120.5876868026
 21
194.167685476
 31
0.0
  0
LINE
  5
192
330
1F
100
AcDbEntity
  8
0
  6
SLD-実線
 62
    29
370
    18
100
AcDbLine
 10
177.533809455
 20
162.3828036202
 30
0.0
 11
176.9316601218
 21
131.544156407
 31
0.0
  0
LINE
  5
193
330
1F
100
AcDbEntity
  8
0
  6
SLD-実線
 62
    29
370
    18
100
AcDbLine
 10
147.039246796
 20
125.4796525617
 30
0.0
 11
150.6951534617
 21
125.6086845584
 31
0.0
  0
LINE
  5
194
330
1F
100
AcDbEntity
  8
0
  6
SLD-実線
 62
    29
370
    18
100
AcDbLine
 10
118.8242494697
 20
162.3828036202
 30
0.0
 11
118.9532814696
 21
151.4580945656
 31
0.0
  0
LINE
  5
195
330
1F
100
AcDbEntity
  8
0
  6
SLD-実線
 62
    29
370
    18
100
AcDbLine
 10
119.1683348029
 20
140.533385511
 30
0.0
 11
119.5124201362
 21
129.6086764564
 31
0.0
  0
LINE
  5
196
330
1F
100
AcDbEntity
  8
0
  6
SLD-実線
 62
    29
370
    18
100
AcDbLine
 10
130.0930441335
 20
127.8022285025
 30
0.0
 11
133.2758334661
 21
127.1140578533
 31
0.0
  0
LINE
  5
197
330
1F
100
AcDbEntity
  8
0
  6
SLD-実線
 62
    29
370
    18
100
AcDbLine
 10
161.7058841256
 20
209.8235677432
 30
0.0
 11
159.3402974596
 21
210.3827063957
 31
0.0
  0
LINE
  5
198
330
1F
100
AcDbEntity
  8
0
  6
SLD-実線
 62
    29
370
    18
100
AcDbLine
 10
150.6951534617
 20
200.2321893213
 30
0.0
 11
147.039246796
 21
200.3182106524
 31
0.0
  0
LINE
  5
199
330
1F
100
AcDbEntity
  8
0
  6
SLD-実線
 62
    29
370
    18
100
AcDbLine
 10
119.5124201362
 20
195.1569307841
 30
0.0
 11
119.1683348029
 21
184.2322217295
 31
0.0
  0
LINE
  5
19A
330
1F
100
AcDbEntity
  8
0
  6
SLD-実線
 62
    29
370
    18
100
AcDbLine
 10
139.7704441311
 20
198.5547733641
 30
0.0
 11
136.5016334653
 21
198.2106880395
 31
0.0
  0
LINE
  5
19B
330
1F
100
AcDbEntity
  8
0
  6
SLD-実線
 62
    29
370
    18
100
AcDbLine
 10
137.4908787983
 20
112.2753782319
 30
0.0
 11
140.8887214642
 21
111.9312929074
 31
0.0
  0
LINE
  5
19C
330
1F
100
AcDbEntity
  8
0
  6
SLD-実線
 62
    29
370
    18
100
AcDbLine
 10
175.1682227889
 20
151.4580945656
 30
0.0
 11
175.2542441222
 21
162.3828036202
 31
0.0
  0
LINE
  5
19D
330
1F
100
AcDbEntity
  8
0
  6
SLD-実線
 62
    29
370
    18
100
AcDbLine
 10
121.7919854689
 20
124.7914819126
 30
0.0
 11
123.039294802
 21
122.9850339587
 31
0.0
  0
LINE
  5
19E
330
1F
100
AcDbEntity
  8
0
  6
SLD-実線
 62
    29
370
    18
100
AcDbLine
 10
133.2758334661
 20
126.8129831944
 30
0.0
 11
136.5016334653
 21
126.2968552075
 31
0.0
  0
LINE
  5
19F
330
1F
100
AcDbEntity
  8
0
  6
SLD-実線
 62
    29
370
    18
100
AcDbLine
 10
143.3833401302
 20
125.9097592174
 30
0.0
 11
147.039246796
 21
125.8237378863
 31
0.0
  0
LINE
  5
1A0
330
1F
100
AcDbEntity
  8
0
  6
SLD-実線
 62
    29
370
    18
100
AcDbLine
 10
160.8886814592
 20
199.0709013509
 30
0.0
 11
157.6198707933
 21
199.6300400033
 31
0.0
  0
LINE
  5
1A1
330
1F
100
AcDbEntity
  8
0
  6
SLD-実線
 62
    29
370
    18
100
AcDbLine
 10
150.6951534617
 20
199.156922682
 30
0.0
 11
147.039246796
 21
199.2859546788
 31
0.0
  0
LINE
  5
1A2
330
1F
100
AcDbEntity
  8
0
  6
SLD-実線
 62
    29
370
    18
100
AcDbLine
 10
123.039294802
 20
201.7805732818
 30
0.0
 11
121.7919854689
 21
199.9741253279
 31
0.0
  0
LINE
  5
1A3
330
1F
100
AcDbEntity
  8
0
  6
SLD-実線
 62
    29
370
    18
100
AcDbLine
 10
130.0500334669
 20
197.264453397
 30
0.0
 11
126.781222801
 21
196.4472507512
 31
0.0
  0
LINE
  5
1A4
330
1F
100
AcDbEntity
  8
0
  6
SLD-実線
 62
    29
370
    18
100
AcDbLine
 10
134.2650787992
 20
112.7484955532
 30
0.0
 11
137.4908787983
 21
112.2753782319
 31
0.0
  0
LINE
  5
1A5
330
1F
100
AcDbEntity
  8
0
  6
SLD-実線
 62
    29
370
    18
100
AcDbLine
 10
159.8564254594
 20
112.7484955532
 30
0.0
 11
163.039214792
 21
113.3506448711
 31
0.0
  0
LINE
  5
1A6
330
1F
100
AcDbEntity
  8
0
  6
SLD-実線
 62
    29
370
    18
100
AcDbLine
 10
174.2649987892
 20
148.8774546314
 30
0.0
 11
174.3940307891
 21
162.3828036202
 31
0.0
  0
LINE
  5
1A7
330
1F
100
AcDbEntity
  8
0
  6
SLD-実線
 62
    29
370
    18
100
AcDbLine
 10
139.5553907978
 20
113.7377408613
 30
0.0
 11
143.2973187969
 21
113.4366662023
 31
0.0
  0
LINE
  5
1A8
330
1F
100
AcDbEntity
  8
0
  6
SLD-実線
 62
    29
370
    18
100
AcDbLine
 10
134.2650787992
 20
212.0171116873
 30
0.0
 11
131.0822894666
 21
211.4149623693
 31
0.0
  0
LINE
  5
1A9
330
1F
100
AcDbEntity
  8
0
  6
SLD-実線
 62
    29
370
    18
100
AcDbLine
 10
159.8564254594
 20
212.0601223529
 30
0.0
 11
156.6306254602
 21
212.4902290085
 31
0.0
  0
LINE
  5
1AA
330
1F
100
AcDbEntity
  8
0
  6
SLD-実線
 62
    29
370
    18
100
AcDbLine
 10
154.3510601275
 20
199.9741253279
 30
0.0
 11
150.6951534617
 21
200.2321893213
 31
0.0
  0
LINE
  5
1AB
330
1F
100
AcDbEntity
  8
0
  6
SLD-実線
 62
    29
370
    18
100
AcDbLine
 10
154.3080494608
 20
198.8558480231
 30
0.0
 11
150.6951534617
 21
199.156922682
 31
0.0
  0
LINE
  5
1AC
330
1F
100
AcDbEntity
  8
0
  6
SLD-実線
 62
    29
370
    18
100
AcDbLine
 10
119.8134948028
 20
175.888152609
 30
0.0
 11
119.7274734695
 21
162.3828036202
 31
0.0
  0
SPLINE
  5
1AD
330
1F
100
AcDbEntity
  8
0
  6
SLD-実線
 62
    29
370
    18
100
AcDbSpline
210
0.0
220
0.0
230
1.0
 70
     8
 71
     3
 72
     8
 73
     4
 74
     0
 42
0.000000001
 43
0.00000001
 40
0.0
 40
0.0
 40
0.0
 40
0.0
 40
1.0
 40
1.0
 40
1.0
 40
1.0
 10
37.18034594786993
 20
131.5506080068247
 30
0.0
 10
37.89744128769116
 20
127.8149166487968
 30
0.0
 10
39.36141685399112
 20
124.2630242016354
 30
0.0
 10
41.48424414901645
 20
121.1084786198921
 30
0.0
  0
SPLINE
  5
1AE
330
1F
100
AcDbEntity
  8
0
  6
SLD-実線
 62
    29
370
    18
100
AcDbSpline
210
0.0
220
0.0
230
1.0
 70
     8
 71
     3
 72
     8
 73
     4
 74
     0
 42
0.000000001
 43
0.00000001
 40
0.0
 40
0.0
 40
0.0
 40
0.0
 40
1.0
 40
1.0
 40
1.0
 40
1.0
 10
41.49445918234677
 20
121.1167223307929
 30
0.0
 10
42.88796893977702
 20
119.2709196178832
 30
0.0
 10
44.5356358949203
 20
117.6315680997068
 30
0.0
 10
46.38846373001319
 20
116.2474131972417
 30
0.0
  0
SPLINE
  5
1AF
330
1F
100
AcDbEntity
  8
0
  6
SLD-実線
 62
    29
370
    18
100
AcDbSpline
210
0.0
220
0.0
230
1.0
 70
     8
 71
     3
 72
     8
 73
     4
 74
     0
 42
0.000000001
 43
0.00000001
 40
0.0
 40
0.0
 40
0.0
 40
0.0
 40
1.0
 40
1.0
 40
1.0
 40
1.0
 10
46.3530516144666
 20
116.2380225352589
 30
0.0
 10
47.80620282965867
 20
115.0975230532442
 30
0.0
 10
49.38813514926314
 20
114.1314676623349
 30
0.0
 10
51.06648304662123
 20
113.359677110914
 30
0.0
  0
SPLINE
  5
1B0
330
1F
100
AcDbEntity
  8
0
  6
SLD-実線
 62
    29
370
    18
100
AcDbSpline
210
0.0
220
0.0
230
1.0
 70
     8
 71
     3
 72
     8
 73
     4
 74
     0
 42
0.000000001
 43
0.00000001
 40
0.0
 40
0.0
 40
0.0
 40
0.0
 40
1.0
 40
1.0
 40
1.0
 40
1.0
 10
83.01201054530098
 20
113.3596771109137
 30
0.0
 10
84.69032260043656
 20
114.1314676623349
 30
0.0
 10
86.27229076226399
 20
115.0975230532442
 30
0.0
 10
87.72544197745606
 20
116.2380225352589
 30
0.0
  0
SPLINE
  5
1B1
330
1F
100
AcDbEntity
  8
0
  6
SLD-実線
 62
    29
370
    18
100
AcDbSpline
210
0.0
220
0.0
230
1.0
 70
     8
 71
     3
 72
     8
 73
     4
 74
     0
 42
0.000000001
 43
0.00000001
 40
0.0
 40
0.0
 40
0.0
 40
0.0
 40
1.0
 40
1.0
 40
1.0
 40
1.0
 10
87.73304052856483
 20
116.2474131972413
 30
0.0
 10
89.58586836365771
 20
117.6315680997064
 30
0.0
 10
91.233535318801
 20
119.2709196178832
 30
0.0
 10
92.62704507623125
 20
121.1167223307929
 30
0.0
  0
SPLINE
  5
1B2
330
1F
100
AcDbEntity
  8
0
  6
SLD-実線
 62
    29
370
    18
100
AcDbSpline
210
0.0
220
0.0
230
1.0
 70
     8
 71
     3
 72
     8
 73
     4
 74
     0
 42
0.000000001
 43
0.00000001
 40
0.0
 40
0.0
 40
0.0
 40
0.0
 40
1.0
 40
1.0
 40
1.0
 40
1.0
 10
92.59421360068414
 20
121.1084786198921
 30
0.0
 10
94.71704089570858
 20
124.263024201635
 30
0.0
 10
96.18101646200942
 20
127.8149166487964
 30
0.0
 10
96.89814764405185
 20
131.5506080068244
 30
0.0
  0
SPLINE
  5
1B3
330
1F
100
AcDbEntity
  8
0
  6
SLD-実線
 62
    29
370
    18
100
AcDbSpline
210
0.0
220
0.0
230
1.0
 70
     8
 71
     3
 72
     8
 73
     4
 74
     0
 42
0.000000001
 43
0.00000001
 40
0.0
 40
0.0
 40
0.0
 40
0.0
 40
1.0
 40
1.0
 40
1.0
 40
1.0
 10
92.28586296298351
 20
124.7811235106394
 30
0.0
 10
93.21317293608394
 20
126.3101885138523
 30
0.0
 10
93.96478433589665
 20
127.9391099456281
 30
0.0
 10
94.52636027353405
 20
129.6369559689791
 30
0.0
  0
SPLINE
  5
1B4
330
1F
100
AcDbEntity
  8
0
  6
SLD-実線
 62
    29
370
    18
100
AcDbSpline
210
0.0
220
0.0
230
1.0
 70
     8
 71
     3
 72
     8
 73
     4
 74
     0
 42
0.000000001
 43
0.00000001
 40
0.0
 40
0.0
 40
0.0
 40
0.0
 40
1.0
 40
1.0
 40
1.0
 40
1.0
 10
88.25759145065675
 20
119.5897720186374
 30
0.0
 10
89.7409935013969
 20
121.2097687373078
 30
0.0
 10
91.09203022550388
 20
122.9461093063436
 30
0.0
 10
92.29776258075732
 20
124.7821629350572
 30
0.0
  0
SPLINE
  5
1B5
330
1F
100
AcDbEntity
  8
0
  6
SLD-実線
 62
    29
370
    18
100
AcDbSpline
210
0.0
220
0.0
230
1.0
 70
     8
 71
     3
 72
     8
 73
     4
 74
     0
 42
0.000000001
 43
0.00000001
 40
0.0
 40
0.0
 40
0.0
 40
0.0
 40
1.0
 40
1.0
 40
1.0
 40
1.0
 10
85.31913854694677
 20
117.170278711475
 30
0.0
 10
86.37322246001693
 20
117.8746142023947
 30
0.0
 10
87.35243197088298
 20
118.6849709839433
 30
0.0
 10
88.24153413510531
 20
119.588660909777
 30
0.0
  0
SPLINE
  5
1B6
330
1F
100
AcDbEntity
  8
0
  6
SLD-実線
 62
    29
370
    18
100
AcDbSpline
210
0.0
220
0.0
230
1.0
 70
     8
 71
     3
 72
     8
 73
     4
 74
     0
 42
0.000000001
 43
0.00000001
 40
0.0
 40
0.0
 40
0.0
 40
0.0
 40
1.0
 40
1.0
 40
1.0
 40
1.0
 10
81.6991457878518
 20
114.9499606281201
 30
0.0
 10
82.95484220087106
 20
115.6175936844207
 30
0.0
 10
84.17075374723319
 20
116.3573771322139
 30
0.0
 10
85.34085893360759
 20
117.1656550649264
 30
0.0
  0
SPLINE
  5
1B7
330
1F
100
AcDbEntity
  8
0
  6
SLD-実線
 62
    29
370
    18
100
AcDbSpline
210
0.0
220
0.0
230
1.0
 70
     8
 71
     3
 72
     8
 73
     4
 74
     0
 42
0.000000001
 43
0.00000001
 40
0.0
 40
0.0
 40
0.0
 40
0.0
 40
1.0
 40
1.0
 40
1.0
 40
1.0
 10
81.69817804785167
 20
114.9452294549076
 30
0.0
 10
82.05946764776178
 20
114.3604636142705
 30
0.0
 10
82.50004024320683
 20
113.8285650500624
 30
0.0
 10
83.0073152141913
 20
113.3646950218968
 30
0.0
  0
SPLINE
  5
1B8
330
1F
100
AcDbEntity
  8
0
  6
SLD-実線
 62
    29
370
    18
100
AcDbSpline
210
0.0
220
0.0
230
1.0
 70
     8
 71
     3
 72
     8
 73
     4
 74
     0
 42
0.000000001
 43
0.00000001
 40
0.0
 40
0.0
 40
0.0
 40
0.0
 40
1.0
 40
1.0
 40
1.0
 40
1.0
 10
94.55679032019253
 20
129.6364541778808
 30
0.0
 10
95.42173482664333
 20
130.1785319329402
 30
0.0
 10
96.21908090199965
 20
130.8216847520875
 30
0.0
 10
96.93198270182206
 20
131.5523284334472
 30
0.0
  0
SPLINE
  5
1B9
330
1F
100
AcDbEntity
  8
0
  6
SLD-実線
 62
    29
370
    18
100
AcDbSpline
210
0.0
220
0.0
230
1.0
 70
     8
 71
     3
 72
     8
 73
     4
 74
     0
 42
0.000000001
 43
0.00000001
 40
0.0
 40
0.0
 40
0.0
 40
0.0
 40
1.0
 40
1.0
 40
1.0
 40
1.0
 10
39.55213331838817
 20
129.6369559689794
 30
0.0
 10
40.11370925602557
 20
127.9391099456284
 30
0.0
 10
40.86532065583786
 20
126.3101885138523
 30
0.0
 10
41.79263062893961
 20
124.7811235106398
 30
0.0
  0
SPLINE
  5
1BA
330
1F
100
AcDbEntity
  8
0
  6
SLD-実線
 62
    29
370
    18
100
AcDbSpline
210
0.0
220
0.0
230
1.0
 70
     8
 71
     3
 72
     8
 73
     4
 74
     0
 42
0.000000001
 43
0.00000001
 40
0.0
 40
0.0
 40
0.0
 40
0.0
 40
1.0
 40
1.0
 40
1.0
 40
1.0
 10
45.83695945681691
 20
119.588660909777
 30
0.0
 10
46.72602577881716
 20
118.6849709839433
 30
0.0
 10
47.70527113190529
 20
117.874614202395
 30
0.0
 10
48.75935504497545
 20
117.170278711475
 30
0.0
  0
SPLINE
  5
1BB
330
1F
100
AcDbEntity
  8
0
  6
SLD-実線
 62
    29
370
    18
100
AcDbSpline
210
0.0
220
0.0
230
1.0
 70
     8
 71
     3
 72
     8
 73
     4
 74
     0
 42
0.000000001
 43
0.00000001
 40
0.0
 40
0.0
 40
0.0
 40
0.0
 40
1.0
 40
1.0
 40
1.0
 40
1.0
 10
48.73763465831419
 20
117.1656550649264
 30
0.0
 10
49.9077040024665
 20
116.3573771322139
 30
0.0
 10
51.12365139105071
 20
115.6175936844207
 30
0.0
 10
52.37934780407042
 20
114.9499606281201
 30
0.0
  0
SPLINE
  5
1BC
330
1F
100
AcDbEntity
  8
0
  6
SLD-実線
 62
    29
370
    18
100
AcDbSpline
210
0.0
220
0.0
230
1.0
 70
     8
 71
     3
 72
     8
 73
     4
 74
     0
 42
0.000000001
 43
0.00000001
 40
0.0
 40
0.0
 40
0.0
 40
0.0
 40
1.0
 40
1.0
 40
1.0
 40
1.0
 10
52.4002438196212
 20
114.9326846774497
 30
0.0
 10
54.76228210569704
 20
114.3149439932096
 30
0.0
 10
57.17514466287214
 20
113.911038001292
 30
0.0
 10
59.6095842378184
 20
113.7258770860157
 30
0.0
  0
SPLINE
  5
1BD
330
1F
100
AcDbEntity
  8
0
  6
SLD-実線
 62
    29
370
    18
100
AcDbSpline
210
0.0
220
0.0
230
1.0
 70
     8
 71
     3
 72
     8
 73
     4
 74
     0
 42
0.000000001
 43
0.00000001
 40
0.0
 40
0.0
 40
0.0
 40
0.0
 40
1.0
 40
1.0
 40
1.0
 40
1.0
 10
49.98336693355856
 20
126.4668907054099
 30
0.0
 10
53.17045733276186
 20
125.5788638302875
 30
0.0
 10
56.44080921416642
 20
125.0227000822542
 30
0.0
 10
59.74227214445207
 20
124.8073241744155
 30
0.0
  0
SPLINE
  5
1BE
330
1F
100
AcDbEntity
  8
0
  6
SLD-実線
 62
    29
370
    18
100
AcDbSpline
210
0.0
220
0.0
230
1.0
 70
     8
 71
     3
 72
     8
 73
     4
 74
     0
 42
0.000000001
 43
0.00000001
 40
0.0
 40
0.0
 40
0.0
 40
0.0
 40
1.0
 40
1.0
 40
1.0
 40
1.0
 10
51.0711425355084
 20
113.3646950218971
 30
0.0
 10
51.57845334871539
 20
113.8285650500628
 30
0.0
 10
52.01899010193837
 20
114.3604636142705
 30
0.0
 10
52.38027970184803
 20
114.9452294549076
 30
0.0
  0
SPLINE
  5
1BF
330
1F
100
AcDbEntity
  8
0
  6
SLD-実線
 62
    29
370
    18
100
AcDbSpline
210
0.0
220
0.0
230
1.0
 70
     8
 71
     3
 72
     8
 73
     4
 74
     0
 42
0.000000001
 43
0.00000001
 40
0.0
 40
0.0
 40
0.0
 40
0.0
 40
1.0
 40
1.0
 40
1.0
 40
1.0
 10
37.14651089010105
 20
131.5523284334475
 30
0.0
 10
37.85937684770094
 20
130.8216847520879
 30
0.0
 10
38.65672292305636
 20
130.1785319329405
 30
0.0
 10
39.52166742950717
 20
129.6364541778811
 30
0.0
  0
SPLINE
  5
1C0
330
1F
100
AcDbEntity
  8
0
  6
SLD-実線
 62
    29
370
    18
100
AcDbSpline
210
0.0
220
0.0
230
1.0
 70
     8
 71
     3
 72
     8
 73
     4
 74
     0
 42
0.000000001
 43
0.00000001
 40
0.0
 40
0.0
 40
0.0
 40
0.0
 40
1.0
 40
1.0
 40
1.0
 40
1.0
 10
41.4842441490169
 20
203.6571286205675
 30
0.0
 10
39.361416853992
 20
200.5026188810459
 30
0.0
 10
37.89744128769116
 20
196.9507248093699
 30
0.0
 10
37.18034594787038
 20
193.2150350758562
 30
0.0
  0
SPLINE
  5
1C1
330
1F
100
AcDbEntity
  8
0
  6
SLD-実線
 62
    29
370
    18
100
AcDbSpline
210
0.0
220
0.0
230
1.0
 70
     8
 71
     3
 72
     8
 73
     4
 74
     0
 42
0.000000001
 43
0.00000001
 40
0.0
 40
0.0
 40
0.0
 40
0.0
 40
1.0
 40
1.0
 40
1.0
 40
1.0
 10
46.38846373001319
 20
208.518194043218
 30
0.0
 10
44.53563589492074
 20
207.1340749829745
 30
0.0
 10
42.88796893977702
 20
205.4947234647977
 30
0.0
 10
41.49445918234722
 20
203.6489192965843
 30
0.0
  0
SPLINE
  5
1C2
330
1F
100
AcDbEntity
  8
0
  6
SLD-実線
 62
    29
370
    18
100
AcDbSpline
210
0.0
220
0.0
230
1.0
 70
     8
 71
     3
 72
     8
 73
     4
 74
     0
 42
0.000000001
 43
0.00000001
 40
0.0
 40
0.0
 40
0.0
 40
0.0
 40
1.0
 40
1.0
 40
1.0
 40
1.0
 10
51.06648304662123
 20
211.4059301295459
 30
0.0
 10
49.38813514926314
 20
210.6341754203461
 30
0.0
 10
47.80620282965867
 20
209.6681200294367
 30
0.0
 10
46.3530516144666
 20
208.5276205474221
 30
0.0
  0
SPLINE
  5
1C3
330
1F
100
AcDbEntity
  8
0
  6
SLD-実線
 62
    29
370
    18
100
AcDbSpline
210
0.0
220
0.0
230
1.0
 70
     8
 71
     3
 72
     8
 73
     4
 74
     0
 42
0.000000001
 43
0.00000001
 40
0.0
 40
0.0
 40
0.0
 40
0.0
 40
1.0
 40
1.0
 40
1.0
 40
1.0
 10
87.72544197745651
 20
208.5276205474221
 30
0.0
 10
86.27229076226443
 20
209.6681200294364
 30
0.0
 10
84.69032260043745
 20
210.6341754203461
 30
0.0
 10
83.01201054530188
 20
211.4059301295457
 30
0.0
  0
SPLINE
  5
1C4
330
1F
100
AcDbEntity
  8
0
  6
SLD-実線
 62
    29
370
    18
100
AcDbSpline
210
0.0
220
0.0
230
1.0
 70
     8
 71
     3
 72
     8
 73
     4
 74
     0
 42
0.000000001
 43
0.00000001
 40
0.0
 40
0.0
 40
0.0
 40
0.0
 40
1.0
 40
1.0
 40
1.0
 40
1.0
 10
92.62704507623125
 20
203.6489192965843
 30
0.0
 10
91.2335353188019
 20
205.4947234647977
 30
0.0
 10
89.58586836365816
 20
207.1340749829742
 30
0.0
 10
87.73304052856572
 20
208.518194043218
 30
0.0
  0
SPLINE
  5
1C5
330
1F
100
AcDbEntity
  8
0
  6
SLD-実線
 62
    29
370
    18
100
AcDbSpline
210
0.0
220
0.0
230
1.0
 70
     8
 71
     3
 72
     8
 73
     4
 74
     0
 42
0.000000001
 43
0.00000001
 40
0.0
 40
0.0
 40
0.0
 40
0.0
 40
1.0
 40
1.0
 40
1.0
 40
1.0
 10
96.89814764405229
 20
193.2150350758562
 30
0.0
 10
96.18101646200986
 20
196.9507248093696
 30
0.0
 10
94.71704089570858
 20
200.5026188810455
 30
0.0
 10
92.59421360068414
 20
203.6571286205672
 30
0.0
  0
SPLINE
  5
1C6
330
1F
100
AcDbEntity
  8
0
  6
SLD-実線
 62
    29
370
    18
100
AcDbSpline
210
0.0
220
0.0
230
1.0
 70
     8
 71
     3
 72
     8
 73
     4
 74
     0
 42
0.000000001
 43
0.00000001
 40
0.0
 40
0.0
 40
0.0
 40
0.0
 40
1.0
 40
1.0
 40
1.0
 40
1.0
 10
94.5263602735345
 20
195.1286871137015
 30
0.0
 10
93.96478433589665
 20
196.8264972948313
 30
0.0
 10
93.21317293608394
 20
198.4554545688288
 30
0.0
 10
92.28586296298351
 20
199.9845195720412
 30
0.0
  0
SPLINE
  5
1C7
330
1F
100
AcDbEntity
  8
0
  6
SLD-実線
 62
    29
370
    18
100
AcDbSpline
210
0.0
220
0.0
230
1.0
 70
     8
 71
     3
 72
     8
 73
     4
 74
     0
 42
0.000000001
 43
0.00000001
 40
0.0
 40
0.0
 40
0.0
 40
0.0
 40
1.0
 40
1.0
 40
1.0
 40
1.0
 10
92.29776258075732
 20
199.9834801476234
 30
0.0
 10
91.09203022550432
 20
201.8194979341158
 30
0.0
 10
89.7409935013969
 20
203.5558743453728
 30
0.0
 10
88.25759145065719
 20
205.175835221822
 30
0.0
  0
SPLINE
  5
1C8
330
1F
100
AcDbEntity
  8
0
  6
SLD-実線
 62
    29
370
    18
100
AcDbSpline
210
0.0
220
0.0
230
1.0
 70
     8
 71
     3
 72
     8
 73
     4
 74
     0
 42
0.000000001
 43
0.00000001
 40
0.0
 40
0.0
 40
0.0
 40
0.0
 40
1.0
 40
1.0
 40
1.0
 40
1.0
 10
88.24153413510575
 20
205.1769463306823
 30
0.0
 10
87.35243197088343
 20
206.0806720987376
 30
0.0
 10
86.37322246001693
 20
206.8910288802859
 30
0.0
 10
85.31913854694722
 20
207.5953643712059
 30
0.0
  0
SPLINE
  5
1C9
330
1F
100
AcDbEntity
  8
0
  6
SLD-実線
 62
    29
370
    18
100
AcDbSpline
210
0.0
220
0.0
230
1.0
 70
     8
 71
     3
 72
     8
 73
     4
 74
     0
 42
0.000000001
 43
0.00000001
 40
0.0
 40
0.0
 40
0.0
 40
0.0
 40
1.0
 40
1.0
 40
1.0
 40
1.0
 10
85.34085893360803
 20
207.5999880177546
 30
0.0
 10
84.17075374723409
 20
208.4082659504668
 30
0.0
 10
82.9548422008715
 20
209.1480493982603
 30
0.0
 10
81.69914578785225
 20
209.8156466123393
 30
0.0
  0
SPLINE
  5
1CA
330
1F
100
AcDbEntity
  8
0
  6
SLD-実線
 62
    29
370
    18
100
AcDbSpline
210
0.0
220
0.0
230
1.0
 70
     8
 71
     3
 72
     8
 73
     4
 74
     0
 42
0.000000001
 43
0.00000001
 40
0.0
 40
0.0
 40
0.0
 40
0.0
 40
1.0
 40
1.0
 40
1.0
 40
1.0
 10
83.00731521419173
 20
211.4009122185626
 30
0.0
 10
82.50004024320683
 20
210.9370767614288
 30
0.0
 10
82.05946764776178
 20
210.405178183784
 30
0.0
 10
81.69817804785211
 20
209.8203777855521
 30
0.0
  0
SPLINE
  5
1CB
330
1F
100
AcDbEntity
  8
0
  6
SLD-実線
 62
    29
370
    18
100
AcDbSpline
210
0.0
220
0.0
230
1.0
 70
     8
 71
     3
 72
     8
 73
     4
 74
     0
 42
0.000000001
 43
0.00000001
 40
0.0
 40
0.0
 40
0.0
 40
0.0
 40
1.0
 40
1.0
 40
1.0
 40
1.0
 10
96.93198270182206
 20
193.2133146492334
 30
0.0
 10
96.21908090199965
 20
193.9439207878991
 30
0.0
 10
95.42173482664333
 20
194.5870753075191
 30
0.0
 10
94.55679032019253
 20
195.1291889047998
 30
0.0
  0
SPLINE
  5
1CC
330
1F
100
AcDbEntity
  8
0
  6
SLD-実線
 62
    29
370
    18
100
AcDbSpline
210
0.0
220
0.0
230
1.0
 70
     8
 71
     3
 72
     8
 73
     4
 74
     0
 42
0.000000001
 43
0.00000001
 40
0.0
 40
0.0
 40
0.0
 40
0.0
 40
1.0
 40
1.0
 40
1.0
 40
1.0
 10
41.79263062893961
 20
199.9845195720412
 30
0.0
 10
40.8653206558383
 20
198.4554545688288
 30
0.0
 10
40.11370925602646
 20
196.8264972948316
 30
0.0
 10
39.55213331838862
 20
195.1286871137019
 30
0.0
  0
SPLINE
  5
1CD
330
1F
100
AcDbEntity
  8
0
  6
SLD-実線
 62
    29
370
    18
100
AcDbSpline
210
0.0
220
0.0
230
1.0
 70
     8
 71
     3
 72
     8
 73
     4
 74
     0
 42
0.000000001
 43
0.00000001
 40
0.0
 40
0.0
 40
0.0
 40
0.0
 40
1.0
 40
1.0
 40
1.0
 40
1.0
 10
48.7593550449759
 20
207.5953643712059
 30
0.0
 10
47.70527113190529
 20
206.8910288802859
 30
0.0
 10
46.72602577881716
 20
206.0806720987376
 30
0.0
 10
45.83695945681779
 20
205.1769463306827
 30
0.0
  0
SPLINE
  5
1CE
330
1F
100
AcDbEntity
  8
0
  6
SLD-実線
 62
    29
370
    18
100
AcDbSpline
210
0.0
220
0.0
230
1.0
 70
     8
 71
     3
 72
     8
 73
     4
 74
     0
 42
0.000000001
 43
0.00000001
 40
0.0
 40
0.0
 40
0.0
 40
0.0
 40
1.0
 40
1.0
 40
1.0
 40
1.0
 10
52.37934780407087
 20
209.8156466123396
 30
0.0
 10
51.12365139105115
 20
209.1480493982603
 30
0.0
 10
49.9077040024665
 20
208.4082659504671
 30
0.0
 10
48.73763465831463
 20
207.5999880177546
 30
0.0
  0
SPLINE
  5
1CF
330
1F
100
AcDbEntity
  8
0
  6
SLD-実線
 62
    29
370
    18
100
AcDbSpline
210
0.0
220
0.0
230
1.0
 70
     8
 71
     3
 72
     8
 73
     4
 74
     0
 42
0.000000001
 43
0.00000001
 40
0.0
 40
0.0
 40
0.0
 40
0.0
 40
1.0
 40
1.0
 40
1.0
 40
1.0
 10
59.6095842378184
 20
211.0397301544439
 30
0.0
 10
57.17514466287214
 20
210.8546050813889
 30
0.0
 10
54.76228210569748
 20
210.450697805995
 30
0.0
 10
52.4002438196212
 20
209.8329584052312
 30
0.0
  0
SPLINE
  5
1D0
330
1F
100
AcDbEntity
  8
0
  6
SLD-実線
 62
    29
370
    18
100
AcDbSpline
210
0.0
220
0.0
230
1.0
 70
     8
 71
     3
 72
     8
 73
     4
 74
     0
 42
0.000000001
 43
0.00000001
 40
0.0
 40
0.0
 40
0.0
 40
0.0
 40
1.0
 40
1.0
 40
1.0
 40
1.0
 10
59.74227214445296
 20
199.9583189082654
 30
0.0
 10
56.44080921416642
 20
199.7429430004268
 30
0.0
 10
53.1704573327623
 20
199.1867792523934
 30
0.0
 10
49.98336693355901
 20
198.2987507868107
 30
0.0
  0
SPLINE
  5
1D1
330
1F
100
AcDbEntity
  8
0
  6
SLD-実線
 62
    29
370
    18
100
AcDbSpline
210
0.0
220
0.0
230
1.0
 70
     8
 71
     3
 72
     8
 73
     4
 74
     0
 42
0.000000001
 43
0.00000001
 40
0.0
 40
0.0
 40
0.0
 40
0.0
 40
1.0
 40
1.0
 40
1.0
 40
1.0
 10
52.38027970184803
 20
209.8203777855521
 30
0.0
 10
52.01899010193881
 20
210.405178183784
 30
0.0
 10
51.57845334871539
 20
210.9370767614288
 30
0.0
 10
51.07114253550885
 20
211.4009122185626
 30
0.0
  0
SPLINE
  5
1D2
330
1F
100
AcDbEntity
  8
0
  6
SLD-実線
 62
    29
370
    18
100
AcDbSpline
210
0.0
220
0.0
230
1.0
 70
     8
 71
     3
 72
     8
 73
     4
 74
     0
 42
0.000000001
 43
0.00000001
 40
0.0
 40
0.0
 40
0.0
 40
0.0
 40
1.0
 40
1.0
 40
1.0
 40
1.0
 10
39.52166742950762
 20
195.1291889048002
 30
0.0
 10
38.65672292305681
 20
194.5870753075195
 30
0.0
 10
37.85937684770094
 20
193.9439207878995
 30
0.0
 10
37.14651089010105
 20
193.2133146492338
 30
0.0
  0
SPLINE
  5
1D3
330
1F
100
AcDbEntity
  8
0
  6
SLD-実線
 62
    29
370
    18
100
AcDbSpline
210
0.0
220
0.0
230
1.0
 70
     8
 71
     3
 72
     8
 73
     4
 74
     0
 42
0.000000001
 43
0.00000001
 40
0.0
 40
0.0
 40
0.0
 40
0.0
 40
1.0
 40
1.0
 40
1.0
 40
1.0
 10
174.556790320193
 20
129.6364541778808
 30
0.0
 10
175.4217348266439
 20
130.1785319329402
 30
0.0
 10
176.2190809019997
 20
130.8216847520875
 30
0.0
 10
176.9319827018221
 20
131.5523284334472
 30
0.0
  0
SPLINE
  5
1D4
330
1F
100
AcDbEntity
  8
0
  6
SLD-実線
 62
    29
370
    18
100
AcDbSpline
210
0.0
220
0.0
230
1.0
 70
     8
 71
     3
 72
     8
 73
     4
 74
     0
 42
0.000000001
 43
0.00000001
 40
0.0
 40
0.0
 40
0.0
 40
0.0
 40
1.0
 40
1.0
 40
1.0
 40
1.0
 10
161.6991457878523
 20
114.9499606281201
 30
0.0
 10
162.9548422008716
 20
115.6175936844207
 30
0.0
 10
164.1707537472338
 20
116.3573771322139
 30
0.0
 10
165.3408589336081
 20
117.1656550649264
 30
0.0
  0
SPLINE
  5
1D5
330
1F
100
AcDbEntity
  8
0
  6
SLD-実線
 62
    29
370
    18
100
AcDbSpline
210
0.0
220
0.0
230
1.0
 70
     8
 71
     3
 72
     8
 73
     4
 74
     0
 42
0.000000001
 43
0.00000001
 40
0.0
 40
0.0
 40
0.0
 40
0.0
 40
1.0
 40
1.0
 40
1.0
 40
1.0
 10
139.7422721444531
 20
199.9583189082654
 30
0.0
 10
136.440809214167
 20
199.7429430004268
 30
0.0
 10
133.1704573327624
 20
199.1867792523934
 30
0.0
 10
129.9833669335596
 20
198.2987507868107
 30
0.0
  0
SPLINE
  5
1D6
330
1F
100
AcDbEntity
  8
0
  6
SLD-実線
 62
    29
370
    18
100
AcDbSpline
210
0.0
220
0.0
230
1.0
 70
     8
 71
     3
 72
     8
 73
     4
 74
     0
 42
0.000000001
 43
0.00000001
 40
0.0
 40
0.0
 40
0.0
 40
0.0
 40
1.0
 40
1.0
 40
1.0
 40
1.0
 10
167.725441977457
 20
208.5276205474221
 30
0.0
 10
166.2722907622645
 20
209.6681200294364
 30
0.0
 10
164.6903226004375
 20
210.6341754203461
 30
0.0
 10
163.012010545302
 20
211.4059301295457
 30
0.0
  0
SPLINE
  5
1D7
330
1F
100
AcDbEntity
  8
0
  6
SLD-実線
 62
    29
370
    18
100
AcDbSpline
210
0.0
220
0.0
230
1.0
 70
     8
 71
     3
 72
     8
 73
     4
 74
     0
 42
0.000000001
 43
0.00000001
 40
0.0
 40
0.0
 40
0.0
 40
0.0
 40
1.0
 40
1.0
 40
1.0
 40
1.0
 10
176.8981476440524
 20
193.2150350758562
 30
0.0
 10
176.18101646201
 20
196.9507248093696
 30
0.0
 10
174.7170408957091
 20
200.5026188810455
 30
0.0
 10
172.5942136006847
 20
203.6571286205672
 30
0.0
  0
SPLINE
  5
1D8
330
1F
100
AcDbEntity
  8
0
  6
SLD-実線
 62
    29
370
    18
100
AcDbSpline
210
0.0
220
0.0
230
1.0
 70
     8
 71
     3
 72
     8
 73
     4
 74
     0
 42
0.000000001
 43
0.00000001
 40
0.0
 40
0.0
 40
0.0
 40
0.0
 40
1.0
 40
1.0
 40
1.0
 40
1.0
 10
128.7376346583143
 20
117.1656550649264
 30
0.0
 10
129.9077040024666
 20
116.3573771322139
 30
0.0
 10
131.1236513910508
 20
115.6175936844207
 30
0.0
 10
132.379347804071
 20
114.9499606281201
 30
0.0
  0
SPLINE
  5
1D9
330
1F
100
AcDbEntity
  8
0
  6
SLD-実線
 62
    29
370
    18
100
AcDbSpline
210
0.0
220
0.0
230
1.0
 70
     8
 71
     3
 72
     8
 73
     4
 74
     0
 42
0.000000001
 43
0.00000001
 40
0.0
 40
0.0
 40
0.0
 40
0.0
 40
1.0
 40
1.0
 40
1.0
 40
1.0
 10
128.759355044976
 20
207.5953643712059
 30
0.0
 10
127.7052711319058
 20
206.8910288802859
 30
0.0
 10
126.7260257788177
 20
206.0806720987376
 30
0.0
 10
125.8369594568179
 20
205.1769463306827
 30
0.0
  0
SPLINE
  5
1DA
330
1F
100
AcDbEntity
  8
0
  6
SLD-実線
 62
    29
370
    18
100
AcDbSpline
210
0.0
220
0.0
230
1.0
 70
     8
 71
     3
 72
     8
 73
     4
 74
     0
 42
0.000000001
 43
0.00000001
 40
0.0
 40
0.0
 40
0.0
 40
0.0
 40
1.0
 40
1.0
 40
1.0
 40
1.0
 10
163.0120105453016
 20
113.3596771109137
 30
0.0
 10
164.6903226004372
 20
114.1314676623349
 30
0.0
 10
166.2722907622645
 20
115.0975230532442
 30
0.0
 10
167.7254419774566
 20
116.2380225352589
 30
0.0
  0
SPLINE
  5
1DB
330
1F
100
AcDbEntity
  8
0
  6
SLD-実線
 62
    29
370
    18
100
AcDbSpline
210
0.0
220
0.0
230
1.0
 70
     8
 71
     3
 72
     8
 73
     4
 74
     0
 42
0.000000001
 43
0.00000001
 40
0.0
 40
0.0
 40
0.0
 40
0.0
 40
1.0
 40
1.0
 40
1.0
 40
1.0
 10
165.3191385469473
 20
117.170278711475
 30
0.0
 10
166.373222460017
 20
117.8746142023947
 30
0.0
 10
167.3524319708831
 20
118.6849709839433
 30
0.0
 10
168.2415341351058
 20
119.588660909777
 30
0.0
  0
SPLINE
  5
1DC
330
1F
100
AcDbEntity
  8
0
  6
SLD-実線
 62
    29
370
    18
100
AcDbSpline
210
0.0
220
0.0
230
1.0
 70
     8
 71
     3
 72
     8
 73
     4
 74
     0
 42
0.000000001
 43
0.00000001
 40
0.0
 40
0.0
 40
0.0
 40
0.0
 40
1.0
 40
1.0
 40
1.0
 40
1.0
 10
132.4002438196213
 20
114.9326846774497
 30
0.0
 10
134.7622821056976
 20
114.3149439932096
 30
0.0
 10
137.1751446628722
 20
113.911038001292
 30
0.0
 10
139.609584237819
 20
113.7258770860157
 30
0.0
  0
SPLINE
  5
1DD
330
1F
100
AcDbEntity
  8
0
  6
SLD-実線
 62
    29
370
    18
100
AcDbSpline
210
0.0
220
0.0
230
1.0
 70
     8
 71
     3
 72
     8
 73
     4
 74
     0
 42
0.000000001
 43
0.00000001
 40
0.0
 40
0.0
 40
0.0
 40
0.0
 40
1.0
 40
1.0
 40
1.0
 40
1.0
 10
125.8369594568174
 20
119.588660909777
 30
0.0
 10
126.7260257788173
 20
118.6849709839433
 30
0.0
 10
127.7052711319058
 20
117.874614202395
 30
0.0
 10
128.759355044976
 20
117.170278711475
 30
0.0
  0
SPLINE
  5
1DE
330
1F
100
AcDbEntity
  8
0
  6
SLD-実線
 62
    29
370
    18
100
AcDbSpline
210
0.0
220
0.0
230
1.0
 70
     8
 71
     3
 72
     8
 73
     4
 74
     0
 42
0.000000001
 43
0.00000001
 40
0.0
 40
0.0
 40
0.0
 40
0.0
 40
1.0
 40
1.0
 40
1.0
 40
1.0
 10
121.4842441490174
 20
203.6571286205675
 30
0.0
 10
119.3614168539921
 20
200.5026188810459
 30
0.0
 10
117.8974412876917
 20
196.9507248093699
 30
0.0
 10
117.1803459478709
 20
193.2150350758562
 30
0.0
  0
SPLINE
  5
1DF
330
1F
100
AcDbEntity
  8
0
  6
SLD-実線
 62
    29
370
    18
100
AcDbSpline
210
0.0
220
0.0
230
1.0
 70
     8
 71
     3
 72
     8
 73
     4
 74
     0
 42
0.000000001
 43
0.00000001
 40
0.0
 40
0.0
 40
0.0
 40
0.0
 40
1.0
 40
1.0
 40
1.0
 40
1.0
 10
172.6270450762318
 20
203.6489192965843
 30
0.0
 10
171.233535318802
 20
205.4947234647977
 30
0.0
 10
169.5858683636587
 20
207.1340749829742
 30
0.0
 10
167.7330405285658
 20
208.518194043218
 30
0.0
  0
SPLINE
  5
1E0
330
1F
100
AcDbEntity
  8
0
  6
SLD-実線
 62
    29
370
    18
100
AcDbSpline
210
0.0
220
0.0
230
1.0
 70
     8
 71
     3
 72
     8
 73
     4
 74
     0
 42
0.000000001
 43
0.00000001
 40
0.0
 40
0.0
 40
0.0
 40
0.0
 40
1.0
 40
1.0
 40
1.0
 40
1.0
 10
168.2415341351059
 20
205.1769463306823
 30
0.0
 10
167.3524319708835
 20
206.0806720987376
 30
0.0
 10
166.3732224600174
 20
206.8910288802859
 30
0.0
 10
165.3191385469478
 20
207.5953643712059
 30
0.0
  0
SPLINE
  5
1E1
330
1F
100
AcDbEntity
  8
0
  6
SLD-実線
 62
    29
370
    18
100
AcDbSpline
210
0.0
220
0.0
230
1.0
 70
     8
 71
     3
 72
     8
 73
     4
 74
     0
 42
0.000000001
 43
0.00000001
 40
0.0
 40
0.0
 40
0.0
 40
0.0
 40
1.0
 40
1.0
 40
1.0
 40
1.0
 10
132.3802797018486
 20
209.8203777855521
 30
0.0
 10
132.0189901019394
 20
210.405178183784
 30
0.0
 10
131.5784533487159
 20
210.9370767614288
 30
0.0
 10
131.0711425355094
 20
211.4009122185626
 30
0.0
  0
SPLINE
  5
1E2
330
1F
100
AcDbEntity
  8
0
  6
SLD-実線
 62
    29
370
    18
100
AcDbSpline
210
0.0
220
0.0
230
1.0
 70
     8
 71
     3
 72
     8
 73
     4
 74
     0
 42
0.000000001
 43
0.00000001
 40
0.0
 40
0.0
 40
0.0
 40
0.0
 40
1.0
 40
1.0
 40
1.0
 40
1.0
 10
174.526360273535
 20
195.1286871137015
 30
0.0
 10
173.9647843358973
 20
196.8264972948313
 30
0.0
 10
173.2131729360845
 20
198.4554545688288
 30
0.0
 10
172.285862962984
 20
199.9845195720412
 30
0.0
  0
SPLINE
  5
1E3
330
1F
100
AcDbEntity
  8
0
  6
SLD-実線
 62
    29
370
    18
100
AcDbSpline
210
0.0
220
0.0
230
1.0
 70
     8
 71
     3
 72
     8
 73
     4
 74
     0
 42
0.000000001
 43
0.00000001
 40
0.0
 40
0.0
 40
0.0
 40
0.0
 40
1.0
 40
1.0
 40
1.0
 40
1.0
 10
176.9319827018221
 20
193.2133146492334
 30
0.0
 10
176.2190809020002
 20
193.9439207878991
 30
0.0
 10
175.421734826644
 20
194.5870753075191
 30
0.0
 10
174.5567903201931
 20
195.1291889047998
 30
0.0
  0
SPLINE
  5
1E4
330
1F
100
AcDbEntity
  8
0
  6
SLD-実線
 62
    29
370
    18
100
AcDbSpline
210
0.0
220
0.0
230
1.0
 70
     8
 71
     3
 72
     8
 73
     4
 74
     0
 42
0.000000001
 43
0.00000001
 40
0.0
 40
0.0
 40
0.0
 40
0.0
 40
1.0
 40
1.0
 40
1.0
 40
1.0
 10
132.3793478040714
 20
209.8156466123396
 30
0.0
 10
131.1236513910513
 20
209.1480493982603
 30
0.0
 10
129.907704002467
 20
208.4082659504671
 30
0.0
 10
128.7376346583147
 20
207.5999880177546
 30
0.0
  0
SPLINE
  5
1E5
330
1F
100
AcDbEntity
  8
0
  6
SLD-実線
 62
    29
370
    18
100
AcDbSpline
210
0.0
220
0.0
230
1.0
 70
     8
 71
     3
 72
     8
 73
     4
 74
     0
 42
0.000000001
 43
0.00000001
 40
0.0
 40
0.0
 40
0.0
 40
0.0
 40
1.0
 40
1.0
 40
1.0
 40
1.0
 10
117.1803459478705
 20
131.5506080068247
 30
0.0
 10
117.8974412876913
 20
127.8149166487968
 30
0.0
 10
119.3614168539921
 20
124.2630242016354
 30
0.0
 10
121.484244149017
 20
121.1084786198921
 30
0.0
  0
SPLINE
  5
1E6
330
1F
100
AcDbEntity
  8
0
  6
SLD-実線
 62
    29
370
    18
100
AcDbSpline
210
0.0
220
0.0
230
1.0
 70
     8
 71
     3
 72
     8
 73
     4
 74
     0
 42
0.000000001
 43
0.00000001
 40
0.0
 40
0.0
 40
0.0
 40
0.0
 40
1.0
 40
1.0
 40
1.0
 40
1.0
 10
131.071142535509
 20
113.3646950218971
 30
0.0
 10
131.5784533487155
 20
113.8285650500628
 30
0.0
 10
132.0189901019389
 20
114.3604636142705
 30
0.0
 10
132.3802797018486
 20
114.9452294549076
 30
0.0
  0
SPLINE
  5
1E7
330
1F
100
AcDbEntity
  8
0
  6
SLD-実線
 62
    29
370
    18
100
AcDbSpline
210
0.0
220
0.0
230
1.0
 70
     8
 71
     3
 72
     8
 73
     4
 74
     0
 42
0.000000001
 43
0.00000001
 40
0.0
 40
0.0
 40
0.0
 40
0.0
 40
1.0
 40
1.0
 40
1.0
 40
1.0
 10
117.1465108901011
 20
131.5523284334475
 30
0.0
 10
117.859376847701
 20
130.8216847520879
 30
0.0
 10
118.6567229230573
 20
130.1785319329405
 30
0.0
 10
119.5216674295077
 20
129.6364541778811
 30
0.0
  0
SPLINE
  5
1E8
330
1F
100
AcDbEntity
  8
0
  6
SLD-実線
 62
    29
370
    18
100
AcDbSpline
210
0.0
220
0.0
230
1.0
 70
     8
 71
     3
 72
     8
 73
     4
 74
     0
 42
0.000000001
 43
0.00000001
 40
0.0
 40
0.0
 40
0.0
 40
0.0
 40
1.0
 40
1.0
 40
1.0
 40
1.0
 10
172.2858629629836
 20
124.7811235106394
 30
0.0
 10
173.2131729360844
 20
126.3101885138523
 30
0.0
 10
173.9647843358972
 20
127.9391099456281
 30
0.0
 10
174.5263602735346
 20
129.6369559689791
 30
0.0
  0
SPLINE
  5
1E9
330
1F
100
AcDbEntity
  8
0
  6
SLD-実線
 62
    29
370
    18
100
AcDbSpline
210
0.0
220
0.0
230
1.0
 70
     8
 71
     3
 72
     8
 73
     4
 74
     0
 42
0.000000001
 43
0.00000001
 40
0.0
 40
0.0
 40
0.0
 40
0.0
 40
1.0
 40
1.0
 40
1.0
 40
1.0
 10
165.3408589336086
 20
207.5999880177546
 30
0.0
 10
164.1707537472342
 20
208.4082659504668
 30
0.0
 10
162.9548422008717
 20
209.1480493982603
 30
0.0
 10
161.6991457878528
 20
209.8156466123393
 30
0.0
  0
SPLINE
  5
1EA
330
1F
100
AcDbEntity
  8
0
  6
SLD-実線
 62
    29
370
    18
100
AcDbSpline
210
0.0
220
0.0
230
1.0
 70
     8
 71
     3
 72
     8
 73
     4
 74
     0
 42
0.000000001
 43
0.00000001
 40
0.0
 40
0.0
 40
0.0
 40
0.0
 40
1.0
 40
1.0
 40
1.0
 40
1.0
 10
126.3530516144667
 20
116.2380225352589
 30
0.0
 10
127.8062028296588
 20
115.0975230532442
 30
0.0
 10
129.3881351492632
 20
114.1314676623349
 30
0.0
 10
131.0664830466218
 20
113.359677110914
 30
0.0
  0
SPLINE
  5
1EB
330
1F
100
AcDbEntity
  8
0
  6
SLD-実線
 62
    29
370
    18
100
AcDbSpline
210
0.0
220
0.0
230
1.0
 70
     8
 71
     3
 72
     8
 73
     4
 74
     0
 42
0.000000001
 43
0.00000001
 40
0.0
 40
0.0
 40
0.0
 40
0.0
 40
1.0
 40
1.0
 40
1.0
 40
1.0
 10
129.9833669335591
 20
126.4668907054099
 30
0.0
 10
133.1704573327624
 20
125.5788638302875
 30
0.0
 10
136.440809214167
 20
125.0227000822542
 30
0.0
 10
139.7422721444526
 20
124.8073241744155
 30
0.0
  0
SPLINE
  5
1EC
330
1F
100
AcDbEntity
  8
0
  6
SLD-実線
 62
    29
370
    18
100
AcDbSpline
210
0.0
220
0.0
230
1.0
 70
     8
 71
     3
 72
     8
 73
     4
 74
     0
 42
0.000000001
 43
0.00000001
 40
0.0
 40
0.0
 40
0.0
 40
0.0
 40
1.0
 40
1.0
 40
1.0
 40
1.0
 10
121.7926306289401
 20
199.9845195720412
 30
0.0
 10
120.8653206558384
 20
198.4554545688288
 30
0.0
 10
120.1137092560266
 20
196.8264972948316
 30
0.0
 10
119.5521333183892
 20
195.1286871137019
 30
0.0
  0
SPLINE
  5
1ED
330
1F
100
AcDbEntity
  8
0
  6
SLD-実線
 62
    29
370
    18
100
AcDbSpline
210
0.0
220
0.0
230
1.0
 70
     8
 71
     3
 72
     8
 73
     4
 74
     0
 42
0.000000001
 43
0.00000001
 40
0.0
 40
0.0
 40
0.0
 40
0.0
 40
1.0
 40
1.0
 40
1.0
 40
1.0
 10
172.2977625807578
 20
199.9834801476234
 30
0.0
 10
171.0920302255045
 20
201.8194979341158
 30
0.0
 10
169.7409935013975
 20
203.5558743453728
 30
0.0
 10
168.2575914506577
 20
205.175835221822
 30
0.0
  0
SPLINE
  5
1EE
330
1F
100
AcDbEntity
  8
0
  6
SLD-実線
 62
    29
370
    18
100
AcDbSpline
210
0.0
220
0.0
230
1.0
 70
     8
 71
     3
 72
     8
 73
     4
 74
     0
 42
0.000000001
 43
0.00000001
 40
0.0
 40
0.0
 40
0.0
 40
0.0
 40
1.0
 40
1.0
 40
1.0
 40
1.0
 10
119.5216674295082
 20
195.1291889048002
 30
0.0
 10
118.6567229230573
 20
194.5870753075195
 30
0.0
 10
117.859376847701
 20
193.9439207878995
 30
0.0
 10
117.1465108901016
 20
193.2133146492338
 30
0.0
  0
SPLINE
  5
1EF
330
1F
100
AcDbEntity
  8
0
  6
SLD-実線
 62
    29
370
    18
100
AcDbSpline
210
0.0
220
0.0
230
1.0
 70
     8
 71
     3
 72
     8
 73
     4
 74
     0
 42
0.000000001
 43
0.00000001
 40
0.0
 40
0.0
 40
0.0
 40
0.0
 40
1.0
 40
1.0
 40
1.0
 40
1.0
 10
172.5942136006842
 20
121.1084786198921
 30
0.0
 10
174.7170408957091
 20
124.263024201635
 30
0.0
 10
176.1810164620099
 20
127.8149166487964
 30
0.0
 10
176.898147644052
 20
131.5506080068244
 30
0.0
  0
SPLINE
  5
1F0
330
1F
100
AcDbEntity
  8
0
  6
SLD-実線
 62
    29
370
    18
100
AcDbSpline
210
0.0
220
0.0
230
1.0
 70
     8
 71
     3
 72
     8
 73
     4
 74
     0
 42
0.000000001
 43
0.00000001
 40
0.0
 40
0.0
 40
0.0
 40
0.0
 40
1.0
 40
1.0
 40
1.0
 40
1.0
 10
139.609584237819
 20
211.0397301544439
 30
0.0
 10
137.1751446628727
 20
210.8546050813889
 30
0.0
 10
134.7622821056976
 20
210.450697805995
 30
0.0
 10
132.4002438196217
 20
209.8329584052312
 30
0.0
  0
SPLINE
  5
1F1
330
1F
100
AcDbEntity
  8
0
  6
SLD-実線
 62
    29
370
    18
100
AcDbSpline
210
0.0
220
0.0
230
1.0
 70
     8
 71
     3
 72
     8
 73
     4
 74
     0
 42
0.000000001
 43
0.00000001
 40
0.0
 40
0.0
 40
0.0
 40
0.0
 40
1.0
 40
1.0
 40
1.0
 40
1.0
 10
167.7330405285654
 20
116.2474131972413
 30
0.0
 10
169.5858683636582
 20
117.6315680997064
 30
0.0
 10
171.2335353188015
 20
119.2709196178832
 30
0.0
 10
172.6270450762318
 20
121.1167223307929
 30
0.0
  0
SPLINE
  5
1F2
330
1F
100
AcDbEntity
  8
0
  6
SLD-実線
 62
    29
370
    18
100
AcDbSpline
210
0.0
220
0.0
230
1.0
 70
     8
 71
     3
 72
     8
 73
     4
 74
     0
 42
0.000000001
 43
0.00000001
 40
0.0
 40
0.0
 40
0.0
 40
0.0
 40
1.0
 40
1.0
 40
1.0
 40
1.0
 10
126.3884637300137
 20
208.518194043218
 30
0.0
 10
124.5356358949208
 20
207.1340749829745
 30
0.0
 10
122.8879689397776
 20
205.4947234647977
 30
0.0
 10
121.4944591823478
 20
203.6489192965843
 30
0.0
  0
SPLINE
  5
1F3
330
1F
100
AcDbEntity
  8
0
  6
SLD-実線
 62
    29
370
    18
100
AcDbSpline
210
0.0
220
0.0
230
1.0
 70
     8
 71
     3
 72
     8
 73
     4
 74
     0
 42
0.000000001
 43
0.00000001
 40
0.0
 40
0.0
 40
0.0
 40
0.0
 40
1.0
 40
1.0
 40
1.0
 40
1.0
 10
131.0664830466218
 20
211.4059301295459
 30
0.0
 10
129.3881351492637
 20
210.6341754203461
 30
0.0
 10
127.8062028296592
 20
209.6681200294367
 30
0.0
 10
126.3530516144671
 20
208.5276205474221
 30
0.0
  0
SPLINE
  5
1F4
330
1F
100
AcDbEntity
  8
0
  6
SLD-実線
 62
    29
370
    18
100
AcDbSpline
210
0.0
220
0.0
230
1.0
 70
     8
 71
     3
 72
     8
 73
     4
 74
     0
 42
0.000000001
 43
0.00000001
 40
0.0
 40
0.0
 40
0.0
 40
0.0
 40
1.0
 40
1.0
 40
1.0
 40
1.0
 10
161.6981780478522
 20
114.9452294549076
 30
0.0
 10
162.0594676477619
 20
114.3604636142705
 30
0.0
 10
162.5000402432074
 20
113.8285650500624
 30
0.0
 10
163.0073152141918
 20
113.3646950218968
 30
0.0
  0
SPLINE
  5
1F5
330
1F
100
AcDbEntity
  8
0
  6
SLD-実線
 62
    29
370
    18
100
AcDbSpline
210
0.0
220
0.0
230
1.0
 70
     8
 71
     3
 72
     8
 73
     4
 74
     0
 42
0.000000001
 43
0.00000001
 40
0.0
 40
0.0
 40
0.0
 40
0.0
 40
1.0
 40
1.0
 40
1.0
 40
1.0
 10
163.0073152141919
 20
211.4009122185626
 30
0.0
 10
162.5000402432075
 20
210.9370767614288
 30
0.0
 10
162.0594676477623
 20
210.405178183784
 30
0.0
 10
161.6981780478527
 20
209.8203777855521
 30
0.0
  0
SPLINE
  5
1F6
330
1F
100
AcDbEntity
  8
0
  6
SLD-実線
 62
    29
370
    18
100
AcDbSpline
210
0.0
220
0.0
230
1.0
 70
     8
 71
     3
 72
     8
 73
     4
 74
     0
 42
0.000000001
 43
0.00000001
 40
0.0
 40
0.0
 40
0.0
 40
0.0
 40
1.0
 40
1.0
 40
1.0
 40
1.0
 10
121.4944591823473
 20
121.1167223307929
 30
0.0
 10
122.8879689397771
 20
119.2709196178832
 30
0.0
 10
124.5356358949208
 20
117.6315680997068
 30
0.0
 10
126.3884637300133
 20
116.2474131972417
 30
0.0
  0
SPLINE
  5
1F7
330
1F
100
AcDbEntity
  8
0
  6
SLD-実線
 62
    29
370
    18
100
AcDbSpline
210
0.0
220
0.0
230
1.0
 70
     8
 71
     3
 72
     8
 73
     4
 74
     0
 42
0.000000001
 43
0.00000001
 40
0.0
 40
0.0
 40
0.0
 40
0.0
 40
1.0
 40
1.0
 40
1.0
 40
1.0
 10
168.2575914506573
 20
119.5897720186374
 30
0.0
 10
169.7409935013974
 20
121.2097687373078
 30
0.0
 10
171.0920302255044
 20
122.9461093063436
 30
0.0
 10
172.2977625807578
 20
124.7821629350572
 30
0.0
  0
SPLINE
  5
1F8
330
1F
100
AcDbEntity
  8
0
  6
SLD-実線
 62
    29
370
    18
100
AcDbSpline
210
0.0
220
0.0
230
1.0
 70
     8
 71
     3
 72
     8
 73
     4
 74
     0
 42
0.000000001
 43
0.00000001
 40
0.0
 40
0.0
 40
0.0
 40
0.0
 40
1.0
 40
1.0
 40
1.0
 40
1.0
 10
119.5521333183887
 20
129.6369559689794
 30
0.0
 10
120.1137092560266
 20
127.9391099456284
 30
0.0
 10
120.8653206558384
 20
126.3101885138523
 30
0.0
 10
121.7926306289397
 20
124.7811235106398
 30
0.0
  0
INSERT
  5
1FF
330
1F
100
AcDbEntity
  8
0
  6
Continuous
 62
     7
370
     0
100
AcDbBlockReference
  2
SW_NOTE_0
 10
151.1041736771
 20
94.5952348515
 30
0.0
  0
ENDSEC
  0
SECTION
  2
OBJECTS
  0
DICTIONARY
  5
C
330
0
100
AcDbDictionary
281
     1
  3
ACAD_GROUP
350
D
  3
ACAD_LAYOUT
350
1A
  3
ACAD_MLINESTYLE
350
17
  3
ACAD_PLOTSETTINGS
350
19
  3
ACAD_PLOTSTYLENAME
350
E
  3
ACAD_SCALELIST
350
47
  0
DICTIONARY
  5
D
102
{ACAD_REACTORS
330
C
102
}
330
C
100
AcDbDictionary
281
     1
  0
DICTIONARY
  5
1A
102
{ACAD_REACTORS
330
C
102
}
330
C
100
AcDbDictionary
281
     1
  3
Layout1
350
1E
  3
Layout2
350
26
  3
Model
350
22
  0
DICTIONARY
  5
17
102
{ACAD_REACTORS
330
C
102
}
330
C
100
AcDbDictionary
281
     1
  3
Standard
350
18
  0
DICTIONARY
  5
19
102
{ACAD_REACTORS
330
C
102
}
330
C
100
AcDbDictionary
281
     1
  0
ACDBDICTIONARYWDFLT
  5
E
102
{ACAD_REACTORS
330
C
102
}
330
C
100
AcDbDictionary
281
     1
  3
Normal
350
F
100
AcDbDictionaryWithDefault
340
F
  0
DICTIONARY
  5
47
102
{ACAD_REACTORS
330
C
102
}
330
C
100
AcDbDictionary
281
     1
  3
A0
350
48
  3
A1
350
49
  3
A2
350
4A
  3
A3
350
4B
  3
A4
350
4C
  3
A5
350
4D
  3
A6
350
4E
  3
A7
350
4F
  3
A8
350
50
  3
A9
350
51
  3
B0
350
52
  3
B1
350
53
  3
B2
350
54
  3
B3
350
55
  3
B4
350
56
  3
B5
350
57
  3
B6
350
58
  3
B7
350
59
  3
B8
350
5A
  3
B9
350
5B
  3
C0
350
5C
  3
C1
350
5D
  3
C2
350
5E
  3
C3
350
5F
  3
C4
350
60
  3
C5
350
61
  3
C6
350
62
  3
C7
350
63
  3
C8
350
64
  3
C9
350
65
  3
D0
350
66
  3
D1
350
67
  3
D2
350
68
  0
LAYOUT
  5
1E
102
{ACAD_REACTORS
330
1A
102
}
330
1A
100
AcDbPlotSettings
  1

  2
none_device
  4

  6

 40
0.0
 41
0.0
 42
0.0
 43
0.0
 44
0.0
 45
0.0
 46
0.0
 47
0.0
 48
0.0
 49
0.0
140
0.0
141
0.0
142
1.0
143
1.0
 70
   688
 72
     1
 73
     0
 74
     5
  7

 75
    16
147
1.0
148
0.0
149
0.0
100
AcDbLayout
  1
Layout1
 70
     1
 71
     1
 10
0.0
 20
0.0
 11
420.0
 21
297.0
 12
0.0
 22
0.0
 32
0.0
 14
1.0000000000E+20
 24
1.0000000000E+20
 34
1.0000000000E+20
 15
-1.0000000000E+20
 25
-1.0000000000E+20
 35
-1.0000000000E+20
146
0.0
 13
0.0
 23
0.0
 33
0.0
 16
1.0
 26
0.0
 36
0.0
 17
0.0
 27
1.0
 37
0.0
 76
     0
330
1B
  0
LAYOUT
  5
26
102
{ACAD_REACTORS
330
1A
102
}
330
1A
100
AcDbPlotSettings
  1

  2
none_device
  4

  6

 40
0.0
 41
0.0
 42
0.0
 43
0.0
 44
0.0
 45
0.0
 46
0.0
 47
0.0
 48
0.0
 49
0.0
140
0.0
141
0.0
142
1.0
143
1.0
 70
   688
 72
     1
 73
     0
 74
     5
  7

 75
    16
147
1.0
148
0.0
149
0.0
100
AcDbLayout
  1
Layout2
 70
     1
 71
     2
 10
0.0
 20
0.0
 11
0.0
 21
0.0
 12
0.0
 22
0.0
 32
0.0
 14
0.0
 24
0.0
 34
0.0
 15
0.0
 25
0.0
 35
0.0
146
0.0
 13
0.0
 23
0.0
 33
0.0
 16
1.0
 26
0.0
 36
0.0
 17
0.0
 27
1.0
 37
0.0
 76
     0
330
23
  0
LAYOUT
  5
22
102
{ACAD_REACTORS
330
1A
102
}
330
1A
100
AcDbPlotSettings
  1

  2
none_device
  4
Letter_(8.50_x_11.00_Inches)
  6

 40
6.35
 41
6.35
 42
6.35000508
 43
6.35000508
 44
215.9
 45
279.4
 46
0.0
 47
0.0
 48
0.0
 49
0.0
140
0.0
141
0.0
142
1.0
143
1.0
 70
  1712
 72
     1
 73
     0
 74
     0
  7

 75
     0
147
1.0
148
0.0
149
0.0
100
AcDbLayout
  1
Model
 70
     1
 71
     0
 10
0.0
 20
0.0
 11
210.0
 21
297.0
 12
0.0
 22
0.0
 32
0.0
 14
0.0
 24
0.0
 34
0.0
 15
210.0
 25
297.0
 35
0.0
146
0.0
 13
0.0
 23
0.0
 33
0.0
 16
1.0
 26
0.0
 36
0.0
 17
0.0
 27
1.0
 37
0.0
 76
     0
330
1F
331
29
  0
MLINESTYLE
  5
18
102
{ACAD_REACTORS
330
17
102
}
330
17
100
AcDbMlineStyle
  2
Standard
 70
     0
  3

 62
   256
 51
90.0
 52
90.0
 71
     2
 49
0.5
 62
   256
  6
BYLAYER
 49
-0.5
 62
   256
  6
BYLAYER
  0
ACDBPLACEHOLDER
  5
F
102
{ACAD_REACTORS
330
E
102
}
330
E
  0
SCALE
  5
48
102
{ACAD_REACTORS
330
47
102
}
330
47
100
AcDbScale
 70
     0
300
1:1
140
1.0
141
1.0
290
     1
  0
SCALE
  5
49
102
{ACAD_REACTORS
330
47
102
}
330
47
100
AcDbScale
 70
     0
300
1:2
140
1.0
141
2.0
290
     0
  0
SCALE
  5
4A
102
{ACAD_REACTORS
330
47
102
}
330
47
100
AcDbScale
 70
     0
300
1:4
140
1.0
141
4.0
290
     0
  0
SCALE
  5
4B
102
{ACAD_REACTORS
330
47
102
}
330
47
100
AcDbScale
 70
     0
300
1:5
140
1.0
141
5.0
290
     0
  0
SCALE
  5
4C
102
{ACAD_REACTORS
330
47
102
}
330
47
100
AcDbScale
 70
     0
300
1:8
140
1.0
141
8.0
290
     0
  0
SCALE
  5
4D
102
{ACAD_REACTORS
330
47
102
}
330
47
100
AcDbScale
 70
     0
300
1:10
140
1.0
141
10.0
290
     0
  0
SCALE
  5
4E
102
{ACAD_REACTORS
330
47
102
}
330
47
100
AcDbScale
 70
     0
300
1:16
140
1.0
141
16.0
290
     0
  0
SCALE
  5
4F
102
{ACAD_REACTORS
330
47
102
}
330
47
100
AcDbScale
 70
     0
300
1:20
140
1.0
141
20.0
290
     0
  0
SCALE
  5
50
102
{ACAD_REACTORS
330
47
102
}
330
47
100
AcDbScale
 70
     0
300
1:30
140
1.0
141
30.0
290
     0
  0
SCALE
  5
51
102
{ACAD_REACTORS
330
47
102
}
330
47
100
AcDbScale
 70
     0
300
1:40
140
1.0
141
40.0
290
     0
  0
SCALE
  5
52
102
{ACAD_REACTORS
330
47
102
}
330
47
100
AcDbScale
 70
     0
300
1:50
140
1.0
141
50.0
290
     0
  0
SCALE
  5
53
102
{ACAD_REACTORS
330
47
102
}
330
47
100
AcDbScale
 70
     0
300
1:100
140
1.0
141
100.0
290
     0
  0
SCALE
  5
54
102
{ACAD_REACTORS
330
47
102
}
330
47
100
AcDbScale
 70
     0
300
2:1
140
2.0
141
1.0
290
     0
  0
SCALE
  5
55
102
{ACAD_REACTORS
330
47
102
}
330
47
100
AcDbScale
 70
     0
300
4:1
140
4.0
141
1.0
290
     0
  0
SCALE
  5
56
102
{ACAD_REACTORS
330
47
102
}
330
47
100
AcDbScale
 70
     0
300
8:1
140
8.0
141
1.0
290
     0
  0
SCALE
  5
57
102
{ACAD_REACTORS
330
47
102
}
330
47
100
AcDbScale
 70
     0
300
10:1
140
10.0
141
1.0
290
     0
  0
SCALE
  5
58
102
{ACAD_REACTORS
330
47
102
}
330
47
100
AcDbScale
 70
     0
300
100:1
140
100.0
141
1.0
290
     0
  0
SCALE
  5
59
102
{ACAD_REACTORS
330
47
102
}
330
47
100
AcDbScale
 70
     0
300
1/128" = 1'-0"
140
0.0078125
141
12.0
290
     0
  0
SCALE
  5
5A
102
{ACAD_REACTORS
330
47
102
}
330
47
100
AcDbScale
 70
     0
300
1/64" = 1'-0"
140
0.015625
141
12.0
290
     0
  0
SCALE
  5
5B
102
{ACAD_REACTORS
330
47
102
}
330
47
100
AcDbScale
 70
     0
300
1/32" = 1'-0"
140
0.03125
141
12.0
290
     0
  0
SCALE
  5
5C
102
{ACAD_REACTORS
330
47
102
}
330
47
100
AcDbScale
 70
     0
300
1/16" = 1'-0"
140
0.0625
141
12.0
290
     0
  0
SCALE
  5
5D
102
{ACAD_REACTORS
330
47
102
}
330
47
100
AcDbScale
 70
     0
300
3/32" = 1'-0"
140
0.09375
141
12.0
290
     0
  0
SCALE
  5
5E
102
{ACAD_REACTORS
330
47
102
}
330
47
100
AcDbScale
 70
     0
300
1/8" = 1'-0"
140
0.125
141
12.0
290
     0
  0
SCALE
  5
5F
102
{ACAD_REACTORS
330
47
102
}
330
47
100
AcDbScale
 70
     0
300
3/16" = 1'-0"
140
0.1875
141
12.0
290
     0
  0
SCALE
  5
60
102
{ACAD_REACTORS
330
47
102
}
330
47
100
AcDbScale
 70
     0
300
1/4" = 1'-0"
140
0.25
141
12.0
290
     0
  0
SCALE
  5
61
102
{ACAD_REACTORS
330
47
102
}
330
47
100
AcDbScale
 70
     0
300
3/8" = 1'-0"
140
0.375
141
12.0
290
     0
  0
SCALE
  5
62
102
{ACAD_REACTORS
330
47
102
}
330
47
100
AcDbScale
 70
     0
300
1/2" = 1'-0"
140
0.5
141
12.0
290
     0
  0
SCALE
  5
63
102
{ACAD_REACTORS
330
47
102
}
330
47
100
AcDbScale
 70
     0
300
3/4" = 1'-0"
140
0.75
141
12.0
290
     0
  0
SCALE
  5
64
102
{ACAD_REACTORS
330
47
102
}
330
47
100
AcDbScale
 70
     0
300
1" = 1'-0"
140
1.0
141
12.0
290
     0
  0
SCALE
  5
65
102
{ACAD_REACTORS
330
47
102
}
330
47
100
AcDbScale
 70
     0
300
1-1/2" = 1'-0"
140
1.5
141
12.0
290
     0
  0
SCALE
  5
66
102
{ACAD_REACTORS
330
47
102
}
330
47
100
AcDbScale
 70
     0
300
3" = 1'-0"
140
3.0
141
12.0
290
     0
  0
SCALE
  5
67
102
{ACAD_REACTORS
330
47
102
}
330
47
100
AcDbScale
 70
     0
300
6" = 1'-0"
140
6.0
141
12.0
290
     0
  0
SCALE
  5
68
102
{ACAD_REACTORS
330
47
102
}
330
47
100
AcDbScale
 70
     0
300
1'-0" = 1'-0"
140
12.0
141
12.0
290
     0
  0
ENDSEC
  0
EOF
