  0
SECTION
  2
HEADER
  9
$ACADVER
  1
AC1015
  9
$ACADMAINTVER
 70
     6
  9
$DWGCODEPAGE
  3
DOS932
  9
$INSBASE
 10
0.0
 20
0.0
 30
0.0
  9
$EXTMIN
 10
0.0
 20
0.0
 30
0.0
  9
$EXTMAX
 10
210.0
 20
297.0
 30
0.0
  9
$LIMMIN
 10
0.0
 20
0.0
  9
$LIMMAX
 10
210.0
 20
297.0
  9
$ORTHOMODE
 70
     0
  9
$REGENMODE
 70
     1
  9
$FILLMODE
 70
     1
  9
$QTEXTMODE
 70
     0
  9
$MIRRTEXT
 70
     1
  9
$LTSCALE
 40
1.0
  9
$ATTMODE
 70
     1
  9
$TEXTSIZE
 40
3.5
  9
$TRACEWID
 40
1.0
  9
$TEXTSTYLE
  7
STANDARD
  9
$CLAYER
  8
0
  9
$CELTYPE
  6
ByLayer
  9
$CECOLOR
 62
   256
  9
$CELTSCALE
 40
1.0
  9
$DISPSILH
 70
     0
  9
$DIMSCALE
 40
1.0
  9
$DIMASZ
 40
3.302
  9
$DIMEXO
 40
1.0
  9
$DIMDLI
 40
3.75
  9
$DIMRND
 40
0.0
  9
$DIMDLE
 40
0.0
  9
$DIMEXE
 40
1.0
  9
$DIMTP
 40
0.0
  9
$DIMTM
 40
0.0
  9
$DIMTXT
 40
3.5
  9
$DIMCEN
 40
2.5
  9
$DIMTSZ
 40
0.0
  9
$DIMTOL
 70
     0
  9
$DIMLIM
 70
     0
  9
$DIMTIH
 70
     1
  9
$DIMTOH
 70
     1
  9
$DIMSE1
 70
     0
  9
$DIMSE2
 70
     0
  9
$DIMTAD
 70
     1
  9
$DIMZIN
 70
     1
  9
$DIMBLK
  1

  9
$DIMASO
 70
     1
  9
$DIMSHO
 70
     1
  9
$DIMPOST
  1

  9
$DIMAPOST
  1

  9
$DIMALT
 70
     0
  9
$DIMALTD
 70
     3
  9
$DIMALTF
 40
0.0393700787
  9
$DIMLFAC
 40
1.0
  9
$DIMTOFL
 70
     1
  9
$DIMTVP
 40
0.0
  9
$DIMTIX
 70
     0
  9
$DIMSOXD
 70
     0
  9
$DIMSAH
 70
     0
  9
$DIMBLK1
  1

  9
$DIMBLK2
  1

  9
$DIMSTYLE
  2
ISO-25
  9
$DIMCLRD
 70
     0
  9
$DIMCLRE
 70
     0
  9
$DIMCLRT
 70
     0
  9
$DIMTFAC
 40
1.0
  9
$DIMGAP
 40
1.524
  9
$DIMJUST
 70
     0
  9
$DIMSD1
 70
     0
  9
$DIMSD2
 70
     0
  9
$DIMTOLJ
 70
     0
  9
$DIMTZIN
 70
     1
  9
$DIMALTZ
 70
     0
  9
$DIMALTTZ
 70
     0
  9
$DIMUPT
 70
     0
  9
$DIMDEC
 70
     2
  9
$DIMTDEC
 70
     2
  9
$DIMALTU
 70
     2
  9
$DIMALTTD
 70
     3
  9
$DIMTXSTY
  7
STANDARD
  9
$DIMAUNIT
 70
     0
  9
$DIMADEC
 70
     2
  9
$DIMALTRND
 40
0.0
  9
$DIMAZIN
 70
     0
  9
$DIMDSEP
 70
    44
  9
$DIMATFIT
 70
     3
  9
$DIMFRAC
 70
     0
  9
$DIMLDRBLK
  1

  9
$DIMLUNIT
 70
     2
  9
$DIMLWD
 70
    -2
  9
$DIMLWE
 70
    -2
  9
$DIMTMOVE
 70
     0
  9
$LUNITS
 70
     2
  9
$LUPREC
 70
     2
  9
$SKETCHINC
 40
1.0
  9
$FILLETRAD
 40
10.0
  9
$AUNITS
 70
     0
  9
$AUPREC
 70
     2
  9
$MENU
  1
.
  9
$ELEVATION
 40
0.0
  9
$PELEVATION
 40
0.0
  9
$THICKNESS
 40
0.0
  9
$LIMCHECK
 70
     0
  9
$CHAMFERA
 40
0.0
  9
$CHAMFERB
 40
0.0
  9
$CHAMFERC
 40
0.0
  9
$CHAMFERD
 40
0.0
  9
$SKPOLY
 70
     0
  9
$TDCREATE
 40
2458876.437379155
  9
$TDUCREATE
 40
2458876.062379155
  9
$TDUPDATE
 40
2458876.437379491
  9
$TDUUPDATE
 40
2458876.062379491
  9
$TDINDWG
 40
0.0000000116
  9
$TDUSRTIMER
 40
0.0000000116
  9
$USRTIMER
 70
     1
  9
$ANGBASE
 50
0.0
  9
$ANGDIR
 70
     0
  9
$PDMODE
 70
     0
  9
$PDSIZE
 40
-1.0
  9
$PLINEWID
 40
0.0
  9
$SPLFRAME
 70
     0
  9
$SPLINETYPE
 70
     6
  9
$SPLINESEGS
 70
     8
  9
$HANDSEED
  5
21D
  9
$SURFTAB1
 70
     6
  9
$SURFTAB2
 70
     6
  9
$SURFTYPE
 70
     6
  9
$SURFU
 70
     6
  9
$SURFV
 70
     6
  9
$UCSBASE
  2

  9
$UCSNAME
  2

  9
$UCSORG
 10
0.0
 20
0.0
 30
0.0
  9
$UCSXDIR
 10
1.0
 20
0.0
 30
0.0
  9
$UCSYDIR
 10
0.0
 20
1.0
 30
0.0
  9
$UCSORTHOREF
  2

  9
$UCSORTHOVIEW
 70
     0
  9
$UCSORGTOP
 10
0.0
 20
0.0
 30
0.0
  9
$UCSORGBOTTOM
 10
0.0
 20
0.0
 30
0.0
  9
$UCSORGLEFT
 10
0.0
 20
0.0
 30
0.0
  9
$UCSORGRIGHT
 10
0.0
 20
0.0
 30
0.0
  9
$UCSORGFRONT
 10
0.0
 20
0.0
 30
0.0
  9
$UCSORGBACK
 10
0.0
 20
0.0
 30
0.0
  9
$PUCSBASE
  2

  9
$PUCSNAME
  2

  9
$PUCSORG
 10
0.0
 20
0.0
 30
0.0
  9
$PUCSXDIR
 10
1.0
 20
0.0
 30
0.0
  9
$PUCSYDIR
 10
0.0
 20
1.0
 30
0.0
  9
$PUCSORTHOREF
  2

  9
$PUCSORTHOVIEW
 70
     0
  9
$PUCSORGTOP
 10
0.0
 20
0.0
 30
0.0
  9
$PUCSORGBOTTOM
 10
0.0
 20
0.0
 30
0.0
  9
$PUCSORGLEFT
 10
0.0
 20
0.0
 30
0.0
  9
$PUCSORGRIGHT
 10
0.0
 20
0.0
 30
0.0
  9
$PUCSORGFRONT
 10
0.0
 20
0.0
 30
0.0
  9
$PUCSORGBACK
 10
0.0
 20
0.0
 30
0.0
  9
$USERI1
 70
     0
  9
$USERI2
 70
     0
  9
$USERI3
 70
     0
  9
$USERI4
 70
     0
  9
$USERI5
 70
     0
  9
$USERR1
 40
0.0
  9
$USERR2
 40
0.0
  9
$USERR3
 40
0.0
  9
$USERR4
 40
0.0
  9
$USERR5
 40
0.0
  9
$WORLDVIEW
 70
     1
  9
$SHADEDGE
 70
     3
  9
$SHADEDIF
 70
    70
  9
$TILEMODE
 70
     1
  9
$MAXACTVP
 70
    64
  9
$PINSBASE
 10
0.0
 20
0.0
 30
0.0
  9
$PLIMCHECK
 70
     0
  9
$PEXTMIN
 10
1.0000000000E+20
 20
1.0000000000E+20
 30
1.0000000000E+20
  9
$PEXTMAX
 10
-1.0000000000E+20
 20
-1.0000000000E+20
 30
-1.0000000000E+20
  9
$PLIMMIN
 10
0.0
 20
0.0
  9
$PLIMMAX
 10
420.0
 20
297.0
  9
$UNITMODE
 70
     0
  9
$VISRETAIN
 70
     1
  9
$PLINEGEN
 70
     0
  9
$PSLTSCALE
 70
     1
  9
$TREEDEPTH
 70
  3020
  9
$CMLSTYLE
  2
Standard
  9
$CMLJUST
 70
     0
  9
$CMLSCALE
 40
20.0
  9
$PROXYGRAPHICS
 70
     1
  9
$MEASUREMENT
 70
     1
  9
$CELWEIGHT
370
    -1
  9
$ENDCAPS
280
     0
  9
$JOINSTYLE
280
     0
  9
$LWDISPLAY
290
     1
  9
$INSUNITS
 70
     4
  9
$HYPERLINKBASE
  1

  9
$STYLESHEET
  1

  9
$XEDIT
290
     1
  9
$CEPSNTYPE
380
     0
  9
$PSTYLEMODE
290
     1
  9
$FINGERPRINTGUID
  2
{DE661D13-0DCC-46AB-8963-E7E6F00660D6}
  9
$VERSIONGUID
  2
{FAEB1C32-E019-11D5-929B-00C0DF256EC4}
  9
$EXTNAMES
290
     1
  9
$PSVPSCALE
 40
0.0
  9
$OLESTARTUP
290
     0
  0
ENDSEC
  0
SECTION
  2
CLASSES
  0
CLASS
  1
ACDBDICTIONARYWDFLT
  2
AcDbDictionaryWithDefault
  3
ObjectDBX Classes
 90
        0
280
     0
281
     0
  0
CLASS
  1
VISUALSTYLE
  2
AcDbVisualStyle
  3
ObjectDBX Classes
 90
     4095
280
     0
281
     0
  0
CLASS
  1
MATERIAL
  2
AcDbMaterial
  3
ObjectDBX Classes
 90
     1153
280
     0
281
     0
  0
CLASS
  1
SCALE
  2
AcDbScale
  3
ObjectDBX Classes
 90
     1153
280
     0
281
     0
  0
CLASS
  1
TABLESTYLE
  2
AcDbTableStyle
  3
ObjectDBX Classes
 90
     4095
280
     0
281
     0
  0
CLASS
  1
MLEADERSTYLE
  2
AcDbMLeaderStyle
  3
ACDB_MLEADERSTYLE_CLASS
 90
     4095
280
     0
281
     0
  0
CLASS
  1
SUN
  2
AcDbSun
  3
SCENEOE
 90
     1153
280
     0
281
     0
  0
CLASS
  1
ACDBPLACEHOLDER
  2
AcDbPlaceHolder
  3
ObjectDBX Classes
 90
        0
280
     0
281
     0
  0
CLASS
  1
LAYOUT
  2
AcDbLayout
  3
ObjectDBX Classes
 90
        0
280
     0
281
     0
  0
ENDSEC
  0
SECTION
  2
TABLES
  0
TABLE
  2
VPORT
  5
8
330
0
100
AcDbSymbolTable
 70
     1
  0
VPORT
  5
29
330
8
100
AcDbSymbolTableRecord
100
AcDbViewportTableRecord
  2
*Active
 70
     0
 10
0.0
 20
0.0
 11
1.0
 21
1.0
 12
105.0
 22
148.5
 13
0.0
 23
0.0
 14
10.0
 24
10.0
 15
10.0
 25
10.0
 16
0.0
 26
0.0
 36
1.0
 17
0.0
 27
0.0
 37
0.0
 40
297.0
 41
0.7070707071
 42
50.0
 43
0.0
 44
0.0
 50
0.0
 51
0.0
 71
     0
 72
  2000
 73
     1
 74
     3
 75
     0
 76
     0
 77
     0
 78
     0
281
     0
 65
     1
110
0.0
120
0.0
130
0.0
111
1.0
121
0.0
131
0.0
112
0.0
122
1.0
132
0.0
 79
     0
146
0.0
  0
ENDTAB
  0
TABLE
  2
LTYPE
  5
5
330
0
100
AcDbSymbolTable
 70
     8
  0
LTYPE
  5
14
330
5
100
AcDbSymbolTableRecord
100
AcDbLinetypeTableRecord
  2
ByBlock
 70
     0
  3

 72
    65
 73
     0
 40
0.0
  0
LTYPE
  5
15
330
5
100
AcDbSymbolTableRecord
100
AcDbLinetypeTableRecord
  2
ByLayer
 70
     0
  3

 72
    65
 73
     0
 40
0.0
  0
LTYPE
  5
16
330
5
100
AcDbSymbolTableRecord
100
AcDbLinetypeTableRecord
  2
Continuous
 70
     0
  3
Solid line
 72
    65
 73
     0
 40
0.0
  0
LTYPE
  5
6E
330
5
100
AcDbSymbolTableRecord
100
AcDbLinetypeTableRecord
  2
SLD-実線
 70
     0
  3
SolidWorks Line Style
 72
    65
 73
     0
 40
0.0
  0
LTYPE
  5
6F
330
5
100
AcDbSymbolTableRecord
100
AcDbLinetypeTableRecord
  2
SLD-破線
 70
     0
  3
SolidWorks Line Style
 72
    65
 73
     2
 40
1.905
 49
1.27
 74
     0
 49
-0.635
 74
     0
  0
LTYPE
  5
70
330
5
100
AcDbSymbolTableRecord
100
AcDbLinetypeTableRecord
  2
SLD-2点鎖線
 70
     0
  3
SolidWorks Line Style
 72
    65
 73
     6
 40
12.7
 49
6.35
 74
     0
 49
-1.27
 74
     0
 49
1.27
 74
     0
 49
-1.27
 74
     0
 49
1.27
 74
     0
 49
-1.27
 74
     0
  0
LTYPE
  5
71
330
5
100
AcDbSymbolTableRecord
100
AcDbLinetypeTableRecord
  2
SLD-鎖線
 70
     0
  3
SolidWorks Line Style
 72
    65
 73
     4
 40
10.16
 49
6.35
 74
     0
 49
-1.27
 74
     0
 49
1.27
 74
     0
 49
-1.27
 74
     0
  0
LTYPE
  5
72
330
5
100
AcDbSymbolTableRecord
100
AcDbLinetypeTableRecord
  2
SLD-1点鎖線(中心線)
 70
     0
  3
SolidWorks Line Style
 72
    65
 73
     4
 40
34.29
 49
30.48
 74
     0
 49
-1.27
 74
     0
 49
1.27
 74
     0
 49
-1.27
 74
     0
  0
LTYPE
  5
73
330
5
100
AcDbSymbolTableRecord
100
AcDbLinetypeTableRecord
  2
SLD-点線
 70
     0
  3
SolidWorks Line Style
 72
    65
 73
     2
 40
0.635
 49
0.0
 74
     0
 49
-0.635
 74
     0
  0
LTYPE
  5
74
330
5
100
AcDbSymbolTableRecord
100
AcDbLinetypeTableRecord
  2
SLD-細-太鎖線(切断面)
 70
     0
  3
SolidWorks Line Style
 72
    65
 73
     4
 40
10.16
 49
6.35
 74
     0
 49
-1.27
 74
     0
 49
1.27
 74
     0
 49
-1.27
 74
     0
  0
ENDTAB
  0
TABLE
  2
LAYER
  5
2
330
0
100
AcDbSymbolTable
 70
     2
  0
LAYER
  5
10
330
2
100
AcDbSymbolTableRecord
100
AcDbLayerTableRecord
  2
0
 70
     0
 62
     7
  6
Continuous
370
    -3
390
F
  0
LAYER
  5
75
330
2
100
AcDbSymbolTableRecord
100
AcDbLayerTableRecord
  2
_U+30EC_U+30A4_U+30E4_U+30FC_2
 70
     0
 62
   179
  6
SLD-実線
370
    -3
390
F
  0
ENDTAB
  0
TABLE
  2
STYLE
  5
3
330
0
100
AcDbSymbolTable
 70
     2
  0
STYLE
  5
11
330
3
100
AcDbSymbolTableRecord
100
AcDbTextStyleTableRecord
  2
STANDARD
 70
     0
 40
0.0
 41
1.0
 50
0.0
 71
     0
 42
3.5
  3
MSGOTHIC.TTC
  4

1001
ACAD
1000
ＭＳ Ｐゴシック
1071
    32818
  0
STYLE
  5
21B
330
3
100
AcDbSymbolTableRecord
100
AcDbTextStyleTableRecord
  2
SLDTEXTSTYLE0
 70
     0
 40
0.0
 41
1.0
 50
0.0
 71
     0
 42
3.5
  3
MSGOTHIC.TTC
  4

1001
ACAD
1000
ＭＳ Ｐゴシック
1071
      306
  0
ENDTAB
  0
TABLE
  2
VIEW
  5
6
330
0
100
AcDbSymbolTable
 70
     0
  0
ENDTAB
  0
TABLE
  2
UCS
  5
7
330
0
100
AcDbSymbolTable
 70
     0
  0
ENDTAB
  0
TABLE
  2
APPID
  5
9
330
0
100
AcDbSymbolTable
 70
     1
  0
APPID
  5
12
330
9
100
AcDbSymbolTableRecord
100
AcDbRegAppTableRecord
  2
ACAD
 70
     0
  0
ENDTAB
  0
TABLE
  2
DIMSTYLE
  5
A
330
0
100
AcDbSymbolTable
 70
     1
100
AcDbDimStyleTable
  0
DIMSTYLE
105
27
330
A
100
AcDbSymbolTableRecord
100
AcDbDimStyleTableRecord
  2
ISO-25
 70
     0
 41
2.5
 42
0.625
 43
3.75
 44
1.25
 73
     0
 74
     0
 77
     1
 78
     8
140
2.5
141
2.5
143
0.0393700787
147
0.625
171
     3
172
     1
178
     0
271
     2
272
     2
274
     3
278
    44
283
     0
284
     8
340
11
  0
ENDTAB
  0
TABLE
  2
BLOCK_RECORD
  5
1
330
0
100
AcDbSymbolTable
 70
     6
  0
BLOCK_RECORD
  5
1F
330
1
100
AcDbSymbolTableRecord
100
AcDbBlockTableRecord
  2
*Model_Space
340
22
  0
BLOCK_RECORD
  5
1B
330
1
100
AcDbSymbolTableRecord
100
AcDbBlockTableRecord
  2
*Paper_Space
340
1E
  0
BLOCK_RECORD
  5
23
330
1
100
AcDbSymbolTableRecord
100
AcDbBlockTableRecord
  2
*Paper_Space0
340
26
  0
BLOCK_RECORD
  5
76
330
1
100
AcDbSymbolTableRecord
100
AcDbBlockTableRecord
  2
ﾌﾞﾛｯｸ2
340
0
102
{BLKREFS
331
218
102
}
  0
BLOCK_RECORD
  5
79
330
1
100
AcDbSymbolTableRecord
100
AcDbBlockTableRecord
  2
ﾌﾞﾛｯｸ1
340
0
102
{BLKREFS
331
13D
102
}
  0
BLOCK_RECORD
  5
104
330
1
100
AcDbSymbolTableRecord
100
AcDbBlockTableRecord
  2
ﾌﾞﾛｯｸ3
340
0
102
{BLKREFS
331
21A
102
}
  0
BLOCK_RECORD
  5
11B
330
1
100
AcDbSymbolTableRecord
100
AcDbBlockTableRecord
  2
ﾌﾞﾛｯｸ5
340
0
102
{BLKREFS
331
219
102
}
  0
BLOCK_RECORD
  5
11E
330
1
100
AcDbSymbolTableRecord
100
AcDbBlockTableRecord
  2
ﾌﾞﾛｯｸ4
340
0
102
{BLKREFS
331
13E
102
}
  0
ENDTAB
  0
ENDSEC
  0
SECTION
  2
BLOCKS
  0
BLOCK
  5
20
330
1F
100
AcDbEntity
  8
0
100
AcDbBlockBegin
  2
*Model_Space
 70
     0
 10
0.0
 20
0.0
 30
0.0
  3
*Model_Space
  1

  0
ENDBLK
  5
21
330
1F
100
AcDbEntity
  8
0
100
AcDbBlockEnd
  0
BLOCK
  5
1C
330
1B
100
AcDbEntity
 67
     1
  8
0
100
AcDbBlockBegin
  2
*Paper_Space
 70
     0
 10
0.0
 20
0.0
 30
0.0
  3
*Paper_Space
  1

  0
ENDBLK
  5
1D
330
1B
100
AcDbEntity
 67
     1
  8
0
100
AcDbBlockEnd
  0
BLOCK
  5
24
330
23
100
AcDbEntity
  8
0
100
AcDbBlockBegin
  2
*Paper_Space0
 70
     0
 10
0.0
 20
0.0
 30
0.0
  3
*Paper_Space0
  1

  0
ENDBLK
  5
25
330
23
100
AcDbEntity
  8
0
100
AcDbBlockEnd
  0
BLOCK
  5
77
330
76
100
AcDbEntity
  8
0
100
AcDbBlockBegin
  2
ﾌﾞﾛｯｸ2
 70
     0
 10
0.0
 20
0.0
 30
0.0
  3
ﾌﾞﾛｯｸ2
  1

  0
INSERT
  5
13D
330
76
100
AcDbEntity
  8
0
  6
Continuous
 62
     7
100
AcDbBlockReference
  2
ﾌﾞﾛｯｸ1
 10
0.0
 20
0.0
 30
0.0
  0
ENDBLK
  5
78
330
76
100
AcDbEntity
  8
0
100
AcDbBlockEnd
  0
BLOCK
  5
7A
330
79
100
AcDbEntity
  8
0
100
AcDbBlockBegin
  2
ﾌﾞﾛｯｸ1
 70
     0
 10
0.0
 20
0.0
 30
0.0
  3
ﾌﾞﾛｯｸ1
  1

  0
SPLINE
  5
7C
330
79
100
AcDbEntity
  8
0
 62
    29
370
    18
100
AcDbSpline
210
0.0
220
0.0
230
1.0
 70
     8
 71
     3
 72
    53
 73
    49
 74
     0
 42
0.000000001
 43
0.00000001
 40
16.0
 40
16.0
 40
16.0
 40
16.0
 40
17.0
 40
17.0
 40
17.0
 40
18.0
 40
18.0
 40
18.0
 40
19.0
 40
19.0
 40
19.0
 40
20.0
 40
20.0
 40
20.0
 40
21.0
 40
21.0
 40
21.0
 40
22.0
 40
22.0
 40
22.0
 40
23.0
 40
23.0
 40
23.0
 40
24.0
 40
24.0
 40
24.0
 40
25.0
 40
25.0
 40
25.0
 40
26.0
 40
26.0
 40
26.0
 40
27.0
 40
27.0
 40
27.0
 40
28.0
 40
28.0
 40
28.0
 40
29.0
 40
29.0
 40
29.0
 40
30.0
 40
30.0
 40
30.0
 40
31.0
 40
31.0
 40
31.0
 40
32.0
 40
32.0
 40
32.0
 40
32.0
 10
148.8514689352175
 20
-150.5885572430851
 30
0.0
 10
148.9038354946953
 20
-150.7078971487928
 30
0.0
 10
148.9800672536587
 20
-150.7683977597471
 30
0.0
 10
149.0720971078939
 20
-150.7314867543519
 30
0.0
 10
149.1598949639387
 20
-150.6962720791089
 30
0.0
 10
149.2022703350634
 20
-150.5826215133908
 30
0.0
 10
149.1730943130104
 20
-150.4522048933089
 30
0.0
 10
149.1614427273224
 20
-150.4001120015306
 30
0.0
 10
149.1453729127323
 20
-150.3490523394919
 30
0.0
 10
149.127502582611
 20
-150.2996228460796
 30
0.0
 10
148.8853556796099
 20
-149.6298015898908
 30
0.0
 10
148.3823247220298
 20
-149.2634651213757
 30
0.0
 10
147.7852185623451
 20
-149.3210884409075
 30
0.0
 10
147.2776601176401
 20
-149.3700701418472
 30
0.0
 10
146.7856867199632
 20
-149.8779131088084
 30
0.0
 10
146.6552115005294
 20
-150.4875487091777
 30
0.0
 10
146.6205341719898
 20
-150.6495724652182
 30
0.0
 10
146.6738010856568
 20
-150.7614844519153
 30
0.0
 10
146.8051527921702
 20
-150.7972372862666
 30
0.0
 10
146.8440968955858
 20
-150.8078381516874
 30
0.0
 10
146.8844471921939
 20
-150.8111649782761
 30
0.0
 10
146.9243005428061
 20
-150.8159719325357
 30
0.0
 10
147.1354060834107
 20
-150.8414349372324
 30
0.0
 10
147.183616637799
 20
-150.891015806433
 30
0.0
 10
147.2384041347134
 20
-151.1406532211005
 30
0.0
 10
147.3470176117208
 20
-151.6355305809569
 30
0.0
 10
147.7333415979736
 20
-151.9151714220433
 30
0.0
 10
148.1210130830141
 20
-151.7609352902762
 30
0.0
 10
148.2310695707228
 20
-151.7171503212663
 30
0.0
 10
148.3294770701146
 20
-151.6203205906336
 30
0.0
 10
148.4259898917667
 20
-151.535296889745
 30
0.0
 10
148.534308576744
 20
-151.439871010451
 30
0.0
 10
148.6499975066915
 20
-151.4465132067197
 30
0.0
 10
148.6688029511344
 20
-151.5756950451081
 30
0.0
 10
148.6783136416188
 20
-151.6410379286947
 30
0.0
 10
148.6427737365049
 20
-151.7387510253874
 30
0.0
 10
148.6015284483813
 20
-151.7895761019645
 30
0.0
 10
148.096558094686
 20
-152.4117909035466
 30
0.0
 10
147.2727561105218
 20
-152.1787272618097
 30
0.0
 10
146.9993671050695
 20
-151.3408584287632
 30
0.0
 10
146.9522699845986
 20
-151.1965193680519
 30
0.0
 10
146.8635645839753
 20
-151.1347642582487
 30
0.0
 10
146.7685554430653
 20
-151.1801719808388
 30
0.0
 10
146.6771977173919
 20
-151.2238355655059
 30
0.0
 10
146.6423877503308
 20
-151.3390913489547
 30
0.0
 10
146.6787076695998
 20
-151.4776612316054
 30
0.0
 10
146.8390096315469
 20
-152.0892430054881
 30
0.0
 10
147.3665482939231
 20
-152.5612294987029
 30
0.0
 10
147.8861071866529
 20
-152.5579149036589
 30
0.0
  0
SPLINE
  5
7D
330
79
100
AcDbEntity
  8
0
 62
    29
370
    18
100
AcDbSpline
210
0.0
220
0.0
230
1.0
 70
     8
 71
     3
 72
    53
 73
    49
 74
     0
 42
0.000000001
 43
0.00000001
 40
0.0
 40
0.0
 40
0.0
 40
0.0
 40
1.0
 40
1.0
 40
1.0
 40
2.0
 40
2.0
 40
2.0
 40
3.0
 40
3.0
 40
3.0
 40
4.0
 40
4.0
 40
4.0
 40
5.0
 40
5.0
 40
5.0
 40
6.0
 40
6.0
 40
6.0
 40
7.0
 40
7.0
 40
7.0
 40
8.0
 40
8.0
 40
8.0
 40
9.0
 40
9.0
 40
9.0
 40
10.0
 40
10.0
 40
10.0
 40
11.0
 40
11.0
 40
11.0
 40
12.0
 40
12.0
 40
12.0
 40
13.0
 40
13.0
 40
13.0
 40
14.0
 40
14.0
 40
14.0
 40
15.0
 40
15.0
 40
15.0
 40
16.0
 40
16.0
 40
16.0
 40
16.0
 10
147.8861071866529
 20
-152.5579149036589
 30
0.0
 10
148.4878399765827
 20
-152.5540763828975
 30
0.0
 10
148.9845760802557
 20
-152.1239977460567
 30
0.0
 10
149.161683711253
 20
-151.4535098820341
 30
0.0
 10
149.2226193479146
 20
-151.2228280323637
 30
0.0
 10
149.1495415844616
 20
-151.0778916210188
 30
0.0
 10
148.9521968452257
 20
-151.050013174527
 30
0.0
 10
148.8367506995835
 20
-151.0337043457162
 30
0.0
 10
148.7199759903747
 20
-151.0322609911285
 30
0.0
 10
148.6042090976651
 20
-151.0187667260992
 30
0.0
 10
148.4631395025543
 20
-151.002323209709
 30
0.0
 10
148.363140347506
 20
-151.05599055634
 30
0.0
 10
148.2858346927993
 20
-151.2166927387306
 30
0.0
 10
148.1901220423244
 20
-151.415655543606
 30
0.0
 10
148.032979828203
 20
-151.5054601926936
 30
0.0
 10
147.8442752522288
 20
-151.4639090937229
 30
0.0
 10
147.6674301215215
 20
-151.4249694473916
 30
0.0
 10
147.5507254287488
 20
-151.28838700481
 30
0.0
 10
147.500823513915
 20
-151.0748618291464
 30
0.0
 10
147.4506508392057
 20
-150.8601776067346
 30
0.0
 10
147.5226808158064
 20
-150.6271348153569
 30
0.0
 10
147.671508780639
 20
-150.5000222244138
 30
0.0
 10
147.8340825282228
 20
-150.3611683259954
 30
0.0
 10
148.0339648115327
 20
-150.3675820999291
 30
0.0
 10
148.2083524178603
 20
-150.5254358983473
 30
0.0
 10
148.2781341434805
 20
-150.5886021735178
 30
0.0
 10
148.346272257201
 20
-150.6212722733099
 30
0.0
 10
148.4098689977688
 20
-150.5321051988508
 30
0.0
 10
148.4779839599595
 20
-150.4366073565216
 30
0.0
 10
148.4479184261318
 20
-150.3346113308315
 30
0.0
 10
148.3737372398818
 20
-150.2773908132761
 30
0.0
 10
148.2739302683236
 20
-150.2004024209349
 30
0.0
 10
148.1659537741166
 20
-150.1230573848386
 30
0.0
 10
148.0531283087036
 20
-150.0917267893359
 30
0.0
 10
147.8197415864398
 20
-150.0269168124849
 30
0.0
 10
147.6112298866805
 20
-150.1144012710879
 30
0.0
 10
147.4317808265268
 20
-150.312596358624
 30
0.0
 10
147.3622532473974
 20
-150.3893855804686
 30
0.0
 10
147.2759762386842
 20
-150.4423079270876
 30
0.0
 10
147.2001828303492
 20
-150.3313239808028
 30
0.0
 10
147.1290702824076
 20
-150.2271901828319
 30
0.0
 10
147.1838842753429
 20
-150.1404989872541
 30
0.0
 10
147.2497871183627
 20
-150.063279770862
 30
0.0
 10
147.6322411036944
 20
-149.6151570484548
 30
0.0
 10
148.2392867296347
 20
-149.6178245201016
 30
0.0
 10
148.6016382879943
 20
-150.090295563039
 30
0.0
 10
148.7082949730871
 20
-150.2293624593907
 30
0.0
 10
148.7760218078914
 20
-150.4166175152616
 30
0.0
 10
148.8514689352175
 20
-150.5885572430851
 30
0.0
  0
SPLINE
  5
7E
330
79
100
AcDbEntity
  8
0
 62
    29
370
    18
100
AcDbSpline
210
0.0
220
0.0
230
1.0
 70
    24
 71
     3
 72
     8
 73
     4
 74
     0
 42
0.000000001
 43
0.00000001
 40
13.0
 40
13.0
 40
13.0
 40
13.0
 40
14.0
 40
14.0
 40
14.0
 40
14.0
 10
151.7624190459261
 20
-151.9727145616491
 30
0.0
 10
151.7535875412979
 20
-152.1418074643823
 30
0.0
 10
151.7448810654261
 20
-152.308506496984
 30
0.0
 10
151.735673375405
 20
-152.4848020546217
 30
0.0
  0
SPLINE
  5
7F
330
79
100
AcDbEntity
  8
0
 62
    29
370
    18
100
AcDbSpline
210
0.0
220
0.0
230
1.0
 70
     8
 71
     3
 72
    23
 73
    19
 74
     0
 42
0.000000001
 43
0.00000001
 40
7.0
 40
7.0
 40
7.0
 40
7.0
 40
8.0
 40
8.0
 40
8.0
 40
9.0
 40
9.0
 40
9.0
 40
10.0
 40
10.0
 40
10.0
 40
11.0
 40
11.0
 40
11.0
 40
12.0
 40
12.0
 40
12.0
 40
13.0
 40
13.0
 40
13.0
 40
13.0
 10
151.5595774574516
 20
-153.2162658666034
 30
0.0
 10
151.5796946420655
 20
-152.831091053859
 30
0.0
 10
151.5978908339869
 20
-152.4559707636959
 30
0.0
 10
151.6194771995098
 20
-152.0811480692038
 30
0.0
 10
151.6296964419776
 20
-151.9036966997652
 30
0.0
 10
151.6368903521271
 20
-151.7246852256382
 30
0.0
 10
151.662529734567
 20
-151.5502046507033
 30
0.0
 10
151.6956055552883
 20
-151.3251345493806
 30
0.0
 10
151.8519324188097
 20
-151.2016335131016
 30
0.0
 10
152.0260092036943
 20
-151.242296476334
 30
0.0
 10
152.2028935098668
 20
-151.2836153426776
 30
0.0
 10
152.3047335362841
 20
-151.4604098230279
 30
0.0
 10
152.2822699659193
 20
-151.6871620379951
 30
0.0
 10
152.2614583249339
 20
-151.8972271734707
 30
0.0
 10
152.126160432281
 20
-152.0265111432087
 30
0.0
 10
151.9408679478981
 20
-152.0085191388789
 30
0.0
 10
151.8826080546978
 20
-152.0028620359509
 30
0.0
 10
151.8250863540266
 20
-151.9856365463105
 30
0.0
 10
151.7624190459261
 20
-151.9727145616491
 30
0.0
  0
SPLINE
  5
80
330
79
100
AcDbEntity
  8
0
 62
    29
370
    18
100
AcDbSpline
210
0.0
220
0.0
230
1.0
 70
    24
 71
     3
 72
     8
 73
     4
 74
     0
 42
0.000000001
 43
0.00000001
 40
6.0
 40
6.0
 40
6.0
 40
6.0
 40
7.0
 40
7.0
 40
7.0
 40
7.0
 10
151.0922588885909
 20
-153.1790650629923
 30
0.0
 10
151.2582178331281
 20
-153.1922761924326
 30
0.0
 10
151.4046335649687
 20
-153.2039315882343
 30
0.0
 10
151.5595774574516
 20
-153.2162658666034
 30
0.0
  0
SPLINE
  5
81
330
79
100
AcDbEntity
  8
0
 62
    29
370
    18
100
AcDbSpline
210
0.0
220
0.0
230
1.0
 70
     8
 71
     3
 72
    23
 73
    19
 74
     0
 42
0.000000001
 43
0.00000001
 40
0.0
 40
0.0
 40
0.0
 40
0.0
 40
1.0
 40
1.0
 40
1.0
 40
2.0
 40
2.0
 40
2.0
 40
3.0
 40
3.0
 40
3.0
 40
4.0
 40
4.0
 40
4.0
 40
5.0
 40
5.0
 40
5.0
 40
6.0
 40
6.0
 40
6.0
 40
6.0
 10
151.735673375405
 20
-152.4848020546217
 30
0.0
 10
152.0645436608512
 20
-152.6280453230237
 30
0.0
 10
152.4111958722078
 20
-152.5108626001907
 30
0.0
 10
152.6120407275694
 20
-152.1956994839579
 30
0.0
 10
152.8024267493969
 20
-151.8969479694742
 30
0.0
 10
152.8098799710067
 20
-151.4459665740357
 30
0.0
 10
152.6299728210525
 20
-151.1107750598682
 30
0.0
 10
152.4667663207907
 20
-150.8066993619931
 30
0.0
 10
152.1192922437485
 20
-150.6482834172809
 30
0.0
 10
151.7874574274339
 20
-150.7266666384881
 30
0.0
 10
151.3972884798597
 20
-150.818828751325
 30
0.0
 10
151.201504100516
 20
-151.0903837715512
 30
0.0
 10
151.1760576938232
 20
-151.575170337171
 30
0.0
 10
151.1506426071899
 20
-152.0593854233431
 30
0.0
 10
151.1254460033541
 20
-152.5436179017941
 30
0.0
 10
151.1001555427365
 20
-153.0278431360213
 30
0.0
 10
151.0974520426205
 20
-153.0796058538839
 30
0.0
 10
151.0947500088305
 20
-153.1313686884749
 30
0.0
 10
151.0922588885909
 20
-153.1790650629923
 30
0.0
  0
SPLINE
  5
82
330
79
100
AcDbEntity
  8
0
 62
    29
370
    18
100
AcDbSpline
210
0.0
220
0.0
230
1.0
 70
    24
 71
     3
 72
     8
 73
     4
 74
     0
 42
0.000000001
 43
0.00000001
 40
15.0
 40
15.0
 40
15.0
 40
15.0
 40
16.0
 40
16.0
 40
16.0
 40
16.0
 10
149.772538694611
 20
-151.7410240293752
 30
0.0
 10
149.7617484494887
 20
-151.9476200677673
 30
0.0
 10
149.7522572317389
 20
-152.1293442050857
 30
0.0
 10
149.7432136308794
 20
-152.3024980203183
 30
0.0
  0
SPLINE
  5
83
330
79
100
AcDbEntity
  8
0
 62
    29
370
    18
100
AcDbSpline
210
0.0
220
0.0
230
1.0
 70
     8
 71
     3
 72
    26
 73
    22
 74
     0
 42
0.000000001
 43
0.00000001
 40
8.0
 40
8.0
 40
8.0
 40
8.0
 40
9.0
 40
9.0
 40
9.0
 40
10.0
 40
10.0
 40
10.0
 40
11.0
 40
11.0
 40
11.0
 40
12.0
 40
12.0
 40
12.0
 40
13.0
 40
13.0
 40
13.0
 40
14.0
 40
14.0
 40
14.0
 40
15.0
 40
15.0
 40
15.0
 40
15.0
 10
150.9932463716583
 20
-149.9088266788491
 30
0.0
 10
150.77579293857
 20
-149.8915163406836
 30
0.0
 10
150.5645110727228
 20
-149.857363245916
 30
0.0
 10
150.3538739333785
 20
-149.8626260930566
 30
0.0
 10
150.1265855138444
 20
-149.8683048777432
 30
0.0
 10
149.9427415826034
 20
-149.9929977946556
 30
0.0
 10
149.8563211641776
 20
-150.2724810309639
 30
0.0
 10
149.7634558494365
 20
-150.5727998931388
 30
0.0
 10
149.8187910753397
 20
-150.8381404112483
 30
0.0
 10
150.0034086997533
 20
-151.0581363899277
 30
0.0
 10
150.1127498022829
 20
-151.1884320114345
 30
0.0
 10
150.2337350896802
 20
-151.3037246655792
 30
0.0
 10
150.3477130129109
 20
-151.4282379401553
 30
0.0
 10
150.4145577548772
 20
-151.5012617476992
 30
0.0
 10
150.5181103051963
 20
-151.5679934348451
 30
0.0
 10
150.4706785239338
 20
-151.7005063812915
 30
0.0
 10
150.4268150585089
 20
-151.8230554937815
 30
0.0
 10
150.3189552537313
 20
-151.7822682408516
 30
0.0
 10
150.2333496562284
 20
-151.7769464982453
 30
0.0
 10
150.0791471300328
 20
-151.7673609094255
 30
0.0
 10
149.9251335304671
 20
-151.7531713115472
 30
0.0
 10
149.772538694611
 20
-151.7410240293752
 30
0.0
  0
SPLINE
  5
84
330
79
100
AcDbEntity
  8
0
 62
    29
370
    18
100
AcDbSpline
210
0.0
220
0.0
230
1.0
 70
    24
 71
     3
 72
     8
 73
     4
 74
     0
 42
0.000000001
 43
0.00000001
 40
7.0
 40
7.0
 40
7.0
 40
7.0
 40
8.0
 40
8.0
 40
8.0
 40
8.0
 10
150.9628039025751
 20
-150.4916951345116
 30
0.0
 10
150.9735150932185
 20
-150.2866127171889
 30
0.0
 10
150.983177071717
 20
-150.1016190995269
 30
0.0
 10
150.9932463716583
 20
-149.9088266788491
 30
0.0
  0
SPLINE
  5
85
330
79
100
AcDbEntity
  8
0
 62
    29
370
    18
100
AcDbSpline
210
0.0
220
0.0
230
1.0
 70
     8
 71
     3
 72
    11
 73
     7
 74
     0
 42
0.000000001
 43
0.00000001
 40
5.0
 40
5.0
 40
5.0
 40
5.0
 40
6.0
 40
6.0
 40
6.0
 40
7.0
 40
7.0
 40
7.0
 40
7.0
 10
150.3449766532275
 20
-150.511591387333
 30
0.0
 10
150.3945103199778
 20
-150.4925083392764
 30
0.0
 10
150.444315643783
 20
-150.4563270338507
 30
0.0
 10
150.4935285059769
 20
-150.4575104046443
 30
0.0
 10
150.6485037201665
 20
-150.4612384951222
 30
0.0
 10
150.8032542754686
 20
-150.4789942175364
 30
0.0
 10
150.9628039025751
 20
-150.4916951345116
 30
0.0
  0
SPLINE
  5
86
330
79
100
AcDbEntity
  8
0
 62
    29
370
    18
100
AcDbSpline
210
0.0
220
0.0
230
1.0
 70
     8
 71
     3
 72
    20
 73
    16
 74
     0
 42
0.000000001
 43
0.00000001
 40
0.0
 40
0.0
 40
0.0
 40
0.0
 40
1.0
 40
1.0
 40
1.0
 40
2.0
 40
2.0
 40
2.0
 40
3.0
 40
3.0
 40
3.0
 40
4.0
 40
4.0
 40
4.0
 40
5.0
 40
5.0
 40
5.0
 40
5.0
 10
149.7432136308794
 20
-152.3024980203183
 30
0.0
 10
150.0130838725043
 20
-152.3239809883142
 30
0.0
 10
150.2687391163822
 20
-152.3680215853684
 30
0.0
 10
150.5230698143071
 20
-152.3584573079678
 30
0.0
 10
150.8267618218372
 20
-152.3470368015941
 30
0.0
 10
150.9894945538232
 20
-152.1230442357272
 30
0.0
 10
151.03126536675
 20
-151.7514548033816
 30
0.0
 10
151.0668169291015
 20
-151.4352008337621
 30
0.0
 10
150.9334742331796
 20
-151.2228876621713
 30
0.0
 10
150.7598228449771
 20
-151.0336562185154
 30
0.0
 10
150.6487663316437
 20
-150.9126364213986
 30
0.0
 10
150.5266703350711
 20
-150.8069104060825
 30
0.0
 10
150.4171808394006
 20
-150.683938506182
 30
0.0
 10
150.380847943865
 20
-150.6431326792645
 30
0.0
 10
150.3683638397149
 20
-150.569963751896
 30
0.0
 10
150.3449766532275
 20
-150.511591387333
 30
0.0
  0
SPLINE
  5
87
330
79
100
AcDbEntity
  8
0
 62
    29
370
    18
100
AcDbSpline
210
0.0
220
0.0
230
1.0
 70
     8
 71
     3
 72
    14
 73
    10
 74
     0
 42
0.000000001
 43
0.00000001
 40
10.0
 40
10.0
 40
10.0
 40
10.0
 40
11.0
 40
11.0
 40
11.0
 40
12.0
 40
12.0
 40
12.0
 40
13.0
 40
13.0
 40
13.0
 40
13.0
 10
157.422752815407
 20
-151.1863813940319
 30
0.0
 10
157.3571749845438
 20
-151.1811610835851
 30
0.0
 10
157.3119528437427
 20
-151.1853114055985
 30
0.0
 10
157.2699296795526
 20
-151.1729246131731
 30
0.0
 10
157.0433088317754
 20
-151.1061254576817
 30
0.0
 10
156.8800304498419
 20
-151.1626324875731
 30
0.0
 10
156.817025469432
 20
-151.4784790760301
 30
0.0
 10
156.7961615292164
 20
-151.5830790448053
 30
0.0
 10
156.7269078811693
 20
-151.6655477710918
 30
0.0
 10
156.5969181049574
 20
-151.6507990486476
 30
0.0
  0
SPLINE
  5
88
330
79
100
AcDbEntity
  8
0
 62
    29
370
    18
100
AcDbSpline
210
0.0
220
0.0
230
1.0
 70
     8
 71
     3
 72
     8
 73
     4
 74
     0
 42
0.000000001
 43
0.00000001
 40
9.0
 40
9.0
 40
9.0
 40
9.0
 40
10.0
 40
10.0
 40
10.0
 40
10.0
 10
157.1048678517809
 20
-151.8955410678755
 30
0.0
 10
157.2895744752066
 20
-151.7167367359284
 30
0.0
 10
157.3193068869216
 20
-151.4382341621496
 30
0.0
 10
157.422752815407
 20
-151.1863813940319
 30
0.0
  0
SPLINE
  5
89
330
79
100
AcDbEntity
  8
0
 62
    29
370
    18
100
AcDbSpline
210
0.0
220
0.0
230
1.0
 70
     8
 71
     3
 72
     8
 73
     4
 74
     0
 42
0.000000001
 43
0.00000001
 40
8.0
 40
8.0
 40
8.0
 40
8.0
 40
9.0
 40
9.0
 40
9.0
 40
9.0
 10
157.3004404673807
 20
-152.9250911729672
 30
0.0
 10
157.4181041839527
 20
-152.4750908039901
 30
0.0
 10
157.3538232198883
 20
-152.144937729782
 30
0.0
 10
157.1048678517809
 20
-151.8955410678755
 30
0.0
  0
SPLINE
  5
8A
330
79
100
AcDbEntity
  8
0
 62
    29
370
    18
100
AcDbSpline
210
0.0
220
0.0
230
1.0
 70
    24
 71
     3
 72
     8
 73
     4
 74
     0
 42
0.000000001
 43
0.00000001
 40
7.0
 40
7.0
 40
7.0
 40
7.0
 40
8.0
 40
8.0
 40
8.0
 40
8.0
 10
156.8707002060918
 20
-152.8908817832104
 30
0.0
 10
157.0250986247504
 20
-152.903172639241
 30
0.0
 10
157.1634238947041
 20
-152.9141839954002
 30
0.0
 10
157.3004404673807
 20
-152.9250911729672
 30
0.0
  0
SPLINE
  5
8B
330
79
100
AcDbEntity
  8
0
 62
    29
370
    18
100
AcDbSpline
210
0.0
220
0.0
230
1.0
 70
     8
 71
     3
 72
    11
 73
     7
 74
     0
 42
0.000000001
 43
0.00000001
 40
5.0
 40
5.0
 40
5.0
 40
5.0
 40
6.0
 40
6.0
 40
6.0
 40
7.0
 40
7.0
 40
7.0
 40
7.0
 10
156.577755567072
 20
-152.2042270313316
 30
0.0
 10
156.8398354611939
 20
-152.1717601537642
 30
0.0
 10
156.9040987066529
 20
-152.2456784624667
 30
0.0
 10
156.8885920013495
 20
-152.5479772114325
 30
0.0
 10
156.8828493650628
 20
-152.6599446389989
 30
0.0
 10
156.8769146044201
 20
-152.7718974542215
 30
0.0
 10
156.8707002060918
 20
-152.8908817832104
 30
0.0
  0
SPLINE
  5
8C
330
79
100
AcDbEntity
  8
0
 62
    29
370
    18
100
AcDbSpline
210
0.0
220
0.0
230
1.0
 70
    24
 71
     3
 72
     8
 73
     4
 74
     0
 42
0.000000001
 43
0.00000001
 40
4.0
 40
4.0
 40
4.0
 40
4.0
 40
5.0
 40
5.0
 40
5.0
 40
5.0
 10
156.5434655534431
 20
-152.8607627162057
 30
0.0
 10
156.555345270704
 20
-152.6333070379395
 30
0.0
 10
156.5666210112637
 20
-152.4174154337023
 30
0.0
 10
156.577755567072
 20
-152.2042270313316
 30
0.0
  0
SPLINE
  5
8D
330
79
100
AcDbEntity
  8
0
 62
    29
370
    18
100
AcDbSpline
210
0.0
220
0.0
230
1.0
 70
    24
 71
     3
 72
     8
 73
     4
 74
     0
 42
0.000000001
 43
0.00000001
 40
3.0
 40
3.0
 40
3.0
 40
3.0
 40
4.0
 40
4.0
 40
4.0
 40
4.0
 10
156.0858020178946
 20
-152.8243304996433
 30
0.0
 10
156.2416066446126
 20
-152.8367332965908
 30
0.0
 10
156.3872657514721
 20
-152.8483284614079
 30
0.0
 10
156.5434655534431
 20
-152.8607627162057
 30
0.0
  0
SPLINE
  5
8E
330
79
100
AcDbEntity
  8
0
 62
    29
370
    18
100
AcDbSpline
210
0.0
220
0.0
230
1.0
 70
    24
 71
     3
 72
     8
 73
     4
 74
     0
 42
0.000000001
 43
0.00000001
 40
2.0
 40
2.0
 40
2.0
 40
2.0
 40
3.0
 40
3.0
 40
3.0
 40
3.0
 10
156.2161051688097
 20
-150.3294738526107
 30
0.0
 10
156.172287004371
 20
-151.1684408157551
 30
0.0
 10
156.1290663755061
 20
-151.9959670302535
 30
0.0
 10
156.0858020178946
 20
-152.8243304996433
 30
0.0
  0
SPLINE
  5
8F
330
79
100
AcDbEntity
  8
0
 62
    29
370
    18
100
AcDbSpline
210
0.0
220
0.0
230
1.0
 70
    24
 71
     3
 72
     8
 73
     4
 74
     0
 42
0.000000001
 43
0.00000001
 40
1.0
 40
1.0
 40
1.0
 40
1.0
 40
2.0
 40
2.0
 40
2.0
 40
2.0
 10
156.6640667485653
 20
-150.3651337468738
 30
0.0
 10
156.5044247428257
 20
-150.3524254761162
 30
0.0
 10
156.3582978774996
 20
-150.3407930754777
 30
0.0
 10
156.2161051688097
 20
-150.3294738526107
 30
0.0
  0
SPLINE
  5
90
330
79
100
AcDbEntity
  8
0
 62
    29
370
    18
100
AcDbSpline
210
0.0
220
0.0
230
1.0
 70
    24
 71
     3
 72
     8
 73
     4
 74
     0
 42
0.000000001
 43
0.00000001
 40
0.0
 40
0.0
 40
0.0
 40
0.0
 40
1.0
 40
1.0
 40
1.0
 40
1.0
 10
156.5969181049574
 20
-151.6507990486476
 30
0.0
 10
156.6197253756002
 20
-151.2141183516339
 30
0.0
 10
156.6420378259477
 20
-150.7869117594142
 30
0.0
 10
156.6640667485653
 20
-150.3651337468738
 30
0.0
  0
SPLINE
  5
91
330
79
100
AcDbEntity
  8
0
 62
    29
370
    18
100
AcDbSpline
210
0.0
220
0.0
230
1.0
 70
     8
 71
     3
 72
    26
 73
    22
 74
     0
 42
0.000000001
 43
0.00000001
 40
7.0
 40
7.0
 40
7.0
 40
7.0
 40
8.0
 40
8.0
 40
8.0
 40
9.0
 40
9.0
 40
9.0
 40
10.0
 40
10.0
 40
10.0
 40
11.0
 40
11.0
 40
11.0
 40
12.0
 40
12.0
 40
12.0
 40
13.0
 40
13.0
 40
13.0
 40
14.0
 40
14.0
 40
14.0
 40
14.0
 10
155.9102532757233
 20
-152.8130486033949
 30
0.0
 10
155.9289631511357
 20
-152.4548189158645
 30
0.0
 10
155.9503259791761
 20
-152.1056879035648
 30
0.0
 10
155.9629897783248
 20
-151.7560766357745
 30
0.0
 10
155.9657359258898
 20
-151.6802390908913
 30
0.0
 10
155.9449134158074
 20
-151.5989663280074
 30
0.0
 10
155.9218655445766
 20
-151.5265418292686
 30
0.0
 10
155.8112600206669
 20
-151.1789782424443
 30
0.0
 10
155.5785404463377
 20
-151.0417548238404
 30
0.0
 10
155.2999362298868
 20
-150.9772284945547
 30
0.0
 10
154.7533109443548
 20
-150.8506266104391
 30
0.0
 10
154.3053633029864
 20
-151.3763660473187
 30
0.0
 10
154.3878472882593
 20
-152.0533318009823
 30
0.0
 10
154.447788038814
 20
-152.5452825644781
 30
0.0
 10
154.8504163511203
 20
-152.8939900758903
 30
0.0
 10
155.2219600068401
 20
-152.76878452878
 30
0.0
 10
155.2671264584959
 20
-152.7535638712837
 30
0.0
 10
155.3288467532725
 20
-152.6999859700545
 30
0.0
 10
155.3369702128821
 20
-152.6522694169643
 30
0.0
 10
155.3588642062345
 20
-152.5236623165612
 30
0.0
 10
155.3559294553031
 20
-152.3886132850071
 30
0.0
 10
155.3630352818267
 20
-152.2525611756561
 30
0.0
  0
SPLINE
  5
92
330
79
100
AcDbEntity
  8
0
 62
    29
370
    18
100
AcDbSpline
210
0.0
220
0.0
230
1.0
 70
    24
 71
     3
 72
     8
 73
     4
 74
     0
 42
0.000000001
 43
0.00000001
 40
6.0
 40
6.0
 40
6.0
 40
6.0
 40
7.0
 40
7.0
 40
7.0
 40
7.0
 10
155.4481005785872
 20
-152.7762590279993
 30
0.0
 10
155.6103460487706
 20
-152.7891745470373
 30
0.0
 10
155.7560066219586
 20
-152.8007698285808
 30
0.0
 10
155.9102532757233
 20
-152.8130486033949
 30
0.0
  0
SPLINE
  5
93
330
79
100
AcDbEntity
  8
0
 62
    29
370
    18
100
AcDbSpline
210
0.0
220
0.0
230
1.0
 70
     8
 71
     3
 72
    23
 73
    19
 74
     0
 42
0.000000001
 43
0.00000001
 40
0.0
 40
0.0
 40
0.0
 40
0.0
 40
1.0
 40
1.0
 40
1.0
 40
2.0
 40
2.0
 40
2.0
 40
3.0
 40
3.0
 40
3.0
 40
4.0
 40
4.0
 40
4.0
 40
5.0
 40
5.0
 40
5.0
 40
6.0
 40
6.0
 40
6.0
 40
6.0
 10
155.3630352818267
 20
-152.2525611756561
 30
0.0
 10
155.2840407509213
 20
-152.2570383411094
 30
0.0
 10
155.2165880778901
 20
-152.2670219852578
 30
0.0
 10
155.1496050253488
 20
-152.2634751264758
 30
0.0
 10
154.9661880932368
 20
-152.253763477482
 30
0.0
 10
154.848821299291
 20
-152.1019198703364
 30
0.0
 10
154.8511693785171
 20
-151.8845972751878
 30
0.0
 10
154.8535752216079
 20
-151.6619399236237
 30
0.0
 10
154.9789021046295
 20
-151.5013019177934
 30
0.0
 10
155.1583006271401
 20
-151.4909300259035
 30
0.0
 10
155.336861761762
 20
-151.4806064502306
 30
0.0
 10
155.4718550016563
 20
-151.616295005791
 30
0.0
 10
155.4801679290361
 20
-151.8401878169889
 30
0.0
 10
155.4872940433677
 20
-152.0320836328339
 30
0.0
 10
155.4731375192162
 20
-152.2252946284915
 30
0.0
 10
155.4664436776767
 20
-152.4178206348316
 30
0.0
 10
155.4623767825357
 20
-152.5348038628142
 30
0.0
 10
155.4546118123631
 20
-152.6515913223031
 30
0.0
 10
155.4481005785872
 20
-152.7762590279993
 30
0.0
  0
SPLINE
  5
94
330
79
100
AcDbEntity
  8
0
 62
    29
370
    18
100
AcDbSpline
210
0.0
220
0.0
230
1.0
 70
     8
 71
     3
 72
    26
 73
    22
 74
     0
 42
0.000000001
 43
0.00000001
 40
7.0
 40
7.0
 40
7.0
 40
7.0
 40
8.0
 40
8.0
 40
8.0
 40
9.0
 40
9.0
 40
9.0
 40
10.0
 40
10.0
 40
10.0
 40
11.0
 40
11.0
 40
11.0
 40
12.0
 40
12.0
 40
12.0
 40
13.0
 40
13.0
 40
13.0
 40
14.0
 40
14.0
 40
14.0
 40
14.0
 10
163.6982790634081
 20
-153.4288864558616
 30
0.0
 10
163.7170148687839
 20
-153.070160298809
 30
0.0
 10
163.7385349625864
 20
-152.7247560405257
 30
0.0
 10
163.7505319526908
 20
-152.3788481904609
 30
0.0
 10
163.753329150877
 20
-152.2981991105071
 30
0.0
 10
163.7328264885836
 20
-152.2112604813951
 30
0.0
 10
163.7075413929852
 20
-152.1350559035453
 30
0.0
 10
163.5951147488596
 20
-151.7962266541224
 30
0.0
 10
163.3653260646147
 20
-151.6611593341951
 30
0.0
 10
163.0909911658044
 20
-151.5977390689158
 30
0.0
 10
162.5731967329627
 20
-151.4780360835991
 30
0.0
 10
162.1403294256975
 20
-151.9400945796884
 30
0.0
 10
162.1709586090082
 20
-152.5862692979048
 30
0.0
 10
162.1964269211308
 20
-153.123560530189
 30
0.0
 10
162.6132650937274
 20
-153.5231569197489
 30
0.0
 10
163.0134267178485
 20
-153.3884237504771
 30
0.0
 10
163.0559010372125
 20
-153.3741226436603
 30
0.0
 10
163.115678186171
 20
-153.3255894422147
 30
0.0
 10
163.122284050205
 20
-153.2824097581556
 30
0.0
 10
163.1427691301167
 20
-153.1485199756376
 30
0.0
 10
163.1414707059028
 20
-153.0095504470559
 30
0.0
 10
163.1484655323263
 20
-152.8756236074155
 30
0.0
  0
SPLINE
  5
95
330
79
100
AcDbEntity
  8
0
 62
    29
370
    18
100
AcDbSpline
210
0.0
220
0.0
230
1.0
 70
    24
 71
     3
 72
     8
 73
     4
 74
     0
 42
0.000000001
 43
0.00000001
 40
6.0
 40
6.0
 40
6.0
 40
6.0
 40
7.0
 40
7.0
 40
7.0
 40
7.0
 10
163.2377884484723
 20
-153.3922291901951
 30
0.0
 10
163.4037180664581
 20
-153.4054379850997
 30
0.0
 10
163.549031853196
 20
-153.4170056607774
 30
0.0
 10
163.6982790634081
 20
-153.4288864558616
 30
0.0
  0
SPLINE
  5
96
330
79
100
AcDbEntity
  8
0
 62
    29
370
    18
100
AcDbSpline
210
0.0
220
0.0
230
1.0
 70
     8
 71
     3
 72
    23
 73
    19
 74
     0
 42
0.000000001
 43
0.00000001
 40
0.0
 40
0.0
 40
0.0
 40
0.0
 40
1.0
 40
1.0
 40
1.0
 40
2.0
 40
2.0
 40
2.0
 40
3.0
 40
3.0
 40
3.0
 40
4.0
 40
4.0
 40
4.0
 40
5.0
 40
5.0
 40
5.0
 40
6.0
 40
6.0
 40
6.0
 40
6.0
 10
163.1484655323263
 20
-152.8756236074155
 30
0.0
 10
163.0594967643282
 20
-152.8779025194762
 30
0.0
 10
162.9832493321564
 20
-152.888033611222
 30
0.0
 10
162.9082563087216
 20
-152.8800955752773
 30
0.0
 10
162.7457700233205
 20
-152.8628963101017
 30
0.0
 10
162.6354710469336
 20
-152.701125677773
 30
0.0
 10
162.6377607180393
 20
-152.4954158127265
 30
0.0
 10
162.6400303161318
 20
-152.2915351090195
 30
0.0
 10
162.7602372455375
 20
-152.1345614187866
 30
0.0
 10
162.9308643298883
 20
-152.112663054224
 30
0.0
 10
163.0966429845834
 20
-152.0913869327773
 30
0.0
 10
163.2532044577456
 20
-152.2129693190998
 30
0.0
 10
163.262972500358
 20
-152.4106156675409
 30
0.0
 10
163.2753488909633
 20
-152.6610522306546
 30
0.0
 10
163.2560457998526
 20
-152.9139327500821
 30
0.0
 10
163.2493156605723
 20
-153.1657152510577
 30
0.0
 10
163.2472668803303
 20
-153.2423670170793
 30
0.0
 10
163.2416197956539
 20
-153.3188720847212
 30
0.0
 10
163.2377884484723
 20
-153.3922291901951
 30
0.0
  0
SPLINE
  5
97
330
79
100
AcDbEntity
  8
0
 62
    29
370
    18
100
AcDbSpline
210
0.0
220
0.0
230
1.0
 70
     8
 71
     3
 72
    11
 73
     7
 74
     0
 42
0.000000001
 43
0.00000001
 40
9.0
 40
9.0
 40
9.0
 40
9.0
 40
10.0
 40
10.0
 40
10.0
 40
11.0
 40
11.0
 40
11.0
 40
11.0
 10
161.2127519318536
 20
-151.3087257082246
 30
0.0
 10
161.21790045629
 20
-151.2614090230298
 30
0.0
 10
161.2237613687648
 20
-151.2230906145699
 30
0.0
 10
161.2259736910559
 20
-151.1844535847848
 30
0.0
 10
161.2344066972207
 20
-151.0371640073282
 30
0.0
 10
161.241663442417
 20
-150.8897718184219
 30
0.0
 10
161.2505896788707
 20
-150.7188651274266
 30
0.0
  0
SPLINE
  5
98
330
79
100
AcDbEntity
  8
0
 62
    29
370
    18
100
AcDbSpline
210
0.0
220
0.0
230
1.0
 70
     8
 71
     3
 72
    32
 73
    28
 74
     0
 42
0.000000001
 43
0.00000001
 40
0.0
 40
0.0
 40
0.0
 40
0.0
 40
1.0
 40
1.0
 40
1.0
 40
2.0
 40
2.0
 40
2.0
 40
3.0
 40
3.0
 40
3.0
 40
4.0
 40
4.0
 40
4.0
 40
5.0
 40
5.0
 40
5.0
 40
6.0
 40
6.0
 40
6.0
 40
7.0
 40
7.0
 40
7.0
 40
8.0
 40
8.0
 40
8.0
 40
9.0
 40
9.0
 40
9.0
 40
9.0
 10
161.2505896788707
 20
-150.7188651274266
 30
0.0
 10
161.1306631530112
 20
-150.7093183997061
 30
0.0
 10
161.0273234271479
 20
-150.6990397564455
 30
0.0
 10
160.923818197557
 20
-150.693269052447
 30
0.0
 10
160.6901681755367
 20
-150.6802424445305
 30
0.0
 10
160.4817302298319
 20
-150.764299049803
 30
0.0
 10
160.3020980604247
 20
-150.9500857503184
 30
0.0
 10
159.9703767874097
 20
-151.2931731448285
 30
0.0
 10
159.8487883953778
 20
-151.8742501623946
 30
0.0
 10
159.9929268512099
 20
-152.4205954619519
 30
0.0
 10
160.1188566295952
 20
-152.8979260900863
 30
0.0
 10
160.440985573517
 20
-153.1823794260864
 30
0.0
 10
160.8972374507072
 20
-153.219142358408
 30
0.0
 10
161.1191061558703
 20
-153.2370195836201
 30
0.0
 10
161.1191061558703
 20
-153.2370195836201
 30
0.0
 10
161.1334238010302
 20
-152.9629917003949
 30
0.0
 10
161.1505801751151
 20
-152.6346330771878
 30
0.0
 10
161.1505801751151
 20
-152.6346330771878
 30
0.0
 10
160.8891088045516
 20
-152.5986986324424
 30
0.0
 10
160.6320992631983
 20
-152.5633770449347
 30
0.0
 10
160.4649134477928
 20
-152.3282321283753
 30
0.0
 10
160.4666428681026
 20
-152.0045040114449
 30
0.0
 10
160.4688407758838
 20
-151.5928828919827
 30
0.0
 10
160.6160685901358
 20
-151.3492321280215
 30
0.0
 10
160.8891369728383
 20
-151.3175022880366
 30
0.0
 10
160.9948277629243
 20
-151.3052209547915
 30
0.0
 10
161.1019102018932
 20
-151.3111757607627
 30
0.0
 10
161.2127519318536
 20
-151.3087257082246
 30
0.0
  0
SPLINE
  5
99
330
79
100
AcDbEntity
  8
0
 62
    29
370
    18
100
AcDbSpline
210
0.0
220
0.0
230
1.0
 70
     8
 71
     3
 72
     8
 73
     4
 74
     0
 42
0.000000001
 43
0.00000001
 40
10.0
 40
10.0
 40
10.0
 40
10.0
 40
11.0
 40
11.0
 40
11.0
 40
11.0
 10
153.5387464296417
 20
-151.9923733805871
 30
0.0
 10
153.7858985706941
 20
-151.8100024523667
 30
0.0
 10
154.0223382865783
 20
-151.635535596175
 30
0.0
 10
154.2646005197042
 20
-151.4567729934159
 30
0.0
  0
SPLINE
  5
9A
330
79
100
AcDbEntity
  8
0
 62
    29
370
    18
100
AcDbSpline
210
0.0
220
0.0
230
1.0
 70
     8
 71
     3
 72
     8
 73
     4
 74
     0
 42
0.000000001
 43
0.00000001
 40
9.0
 40
9.0
 40
9.0
 40
9.0
 40
10.0
 40
10.0
 40
10.0
 40
10.0
 10
153.377791581183
 20
-151.6318233677716
 30
0.0
 10
153.4329820514375
 20
-151.7554522331712
 30
0.0
 10
153.4840134351156
 20
-151.8697680018559
 30
0.0
 10
153.5387464296417
 20
-151.9923733805871
 30
0.0
  0
SPLINE
  5
9B
330
79
100
AcDbEntity
  8
0
 62
    29
370
    18
100
AcDbSpline
210
0.0
220
0.0
230
1.0
 70
     8
 71
     3
 72
     8
 73
     4
 74
     0
 42
0.000000001
 43
0.00000001
 40
8.0
 40
8.0
 40
8.0
 40
8.0
 40
9.0
 40
9.0
 40
9.0
 40
9.0
 10
153.7614820137086
 20
-151.3576236074075
 30
0.0
 10
153.6327704561428
 20
-151.4496062636497
 30
0.0
 10
153.5102396919877
 20
-151.5371712702682
 30
0.0
 10
153.377791581183
 20
-151.6318233677716
 30
0.0
  0
SPLINE
  5
9C
330
79
100
AcDbEntity
  8
0
 62
    29
370
    18
100
AcDbSpline
210
0.0
220
0.0
230
1.0
 70
     8
 71
     3
 72
    14
 73
    10
 74
     0
 42
0.000000001
 43
0.00000001
 40
5.0
 40
5.0
 40
5.0
 40
5.0
 40
6.0
 40
6.0
 40
6.0
 40
7.0
 40
7.0
 40
7.0
 40
8.0
 40
8.0
 40
8.0
 40
8.0
 10
154.0132232304202
 20
-151.8149065323006
 30
0.0
 10
153.7944302454491
 20
-152.1542163047294
 30
0.0
 10
153.5937455172645
 20
-152.2481650110217
 30
0.0
 10
153.4244257894237
 20
-152.0976732066933
 30
0.0
 10
153.2728060580901
 20
-151.962912684174
 30
0.0
 10
153.2378462808535
 20
-151.6700842369274
 30
0.0
 10
153.3478083304904
 20
-151.4559116194139
 30
0.0
 10
153.4420555445697
 20
-151.2723487352387
 30
0.0
 10
153.5857408710716
 20
-151.2337200454145
 30
0.0
 10
153.7614820137086
 20
-151.3576236074075
 30
0.0
  0
SPLINE
  5
9D
330
79
100
AcDbEntity
  8
0
 62
    29
370
    18
100
AcDbSpline
210
0.0
220
0.0
230
1.0
 70
     8
 71
     3
 72
     8
 73
     4
 74
     0
 42
0.000000001
 43
0.00000001
 40
4.0
 40
4.0
 40
4.0
 40
4.0
 40
5.0
 40
5.0
 40
5.0
 40
5.0
 10
154.3158090246122
 20
-152.03644337025
 30
0.0
 10
154.2156817097064
 20
-151.9631357590372
 30
0.0
 10
154.1138058013809
 20
-151.8885471411346
 30
0.0
 10
154.0132232304202
 20
-151.8149065323006
 30
0.0
  0
SPLINE
  5
9E
330
79
100
AcDbEntity
  8
0
 62
    29
370
    18
100
AcDbSpline
210
0.0
220
0.0
230
1.0
 70
     8
 71
     3
 72
    17
 73
    13
 74
     0
 42
0.000000001
 43
0.00000001
 40
0.0
 40
0.0
 40
0.0
 40
0.0
 40
1.0
 40
1.0
 40
1.0
 40
2.0
 40
2.0
 40
2.0
 40
3.0
 40
3.0
 40
3.0
 40
4.0
 40
4.0
 40
4.0
 40
4.0
 10
154.2646005197042
 20
-151.4567729934159
 30
0.0
 10
154.115591320041
 20
-150.9947911377691
 30
0.0
 10
153.7756680579122
 20
-150.7596044846998
 30
0.0
 10
153.4163203607633
 20
-150.8568039031211
 30
0.0
 10
153.0591890776873
 20
-150.9534033277799
 30
0.0
 10
152.8069654671963
 20
-151.3639957210408
 30
0.0
 10
152.8290791868081
 20
-151.8127653638655
 30
0.0
 10
152.8498173410144
 20
-152.2336312303987
 30
0.0
 10
153.1326317782139
 20
-152.6141915465247
 30
0.0
 10
153.4609497871935
 20
-152.6630225626558
 30
0.0
 10
153.8231997469857
 20
-152.7169010599815
 30
0.0
 10
154.2275255160696
 20
-152.4243051448013
 30
0.0
 10
154.3158090246122
 20
-152.03644337025
 30
0.0
  0
SPLINE
  5
9F
330
79
100
AcDbEntity
  8
0
 62
    29
370
    18
100
AcDbSpline
210
0.0
220
0.0
230
1.0
 70
     8
 71
     3
 72
    17
 73
    13
 74
     0
 42
0.000000001
 43
0.00000001
 40
7.0
 40
7.0
 40
7.0
 40
7.0
 40
8.0
 40
8.0
 40
8.0
 40
9.0
 40
9.0
 40
9.0
 40
10.0
 40
10.0
 40
10.0
 40
11.0
 40
11.0
 40
11.0
 40
11.0
 10
158.8887922824692
 20
-151.8220948605669
 30
0.0
 10
158.7245820854096
 20
-151.3570764905308
 30
0.0
 10
158.4037297407807
 20
-151.1328548918036
 30
0.0
 10
158.0475034474103
 20
-151.2212187510886
 30
0.0
 10
157.721778968681
 20
-151.3020166236943
 30
0.0
 10
157.4625139028168
 20
-151.6729070005459
 30
0.0
 10
157.4480142322563
 20
-152.0788127707052
 30
0.0
 10
157.432577401361
 20
-152.5109503377425
 30
0.0
 10
157.6756760330311
 20
-152.9071452131065
 30
0.0
 10
158.0248552880855
 20
-153.0189297135414
 30
0.0
 10
158.3663619306406
 20
-153.1282579082217
 30
0.0
 10
158.7555181924583
 20
-152.8783276626814
 30
0.0
 10
158.9506308703595
 20
-152.4139738752725
 30
0.0
  0
SPLINE
  5
A0
330
79
100
AcDbEntity
  8
0
 62
    29
370
    18
100
AcDbSpline
210
0.0
220
0.0
230
1.0
 70
     8
 71
     3
 72
     8
 73
     4
 74
     0
 42
0.000000001
 43
0.00000001
 40
6.0
 40
6.0
 40
6.0
 40
6.0
 40
7.0
 40
7.0
 40
7.0
 40
7.0
 10
158.1608054283052
 20
-152.3610774650673
 30
0.0
 10
158.4128853106185
 20
-152.1744443129595
 30
0.0
 10
158.6517455387168
 20
-151.9975981709698
 30
0.0
 10
158.8887922824692
 20
-151.8220948605669
 30
0.0
  0
SPLINE
  5
A1
330
79
100
AcDbEntity
  8
0
 62
    29
370
    18
100
AcDbSpline
210
0.0
220
0.0
230
1.0
 70
     8
 71
     3
 72
     8
 73
     4
 74
     0
 42
0.000000001
 43
0.00000001
 40
5.0
 40
5.0
 40
5.0
 40
5.0
 40
6.0
 40
6.0
 40
6.0
 40
6.0
 10
157.9992225695515
 20
-151.9993860935135
 30
0.0
 10
158.0559299304656
 20
-152.1263218725648
 30
0.0
 10
158.1071340417411
 20
-152.2409390592136
 30
0.0
 10
158.1608054283052
 20
-152.3610774650673
 30
0.0
  0
SPLINE
  5
A2
330
79
100
AcDbEntity
  8
0
 62
    29
370
    18
100
AcDbSpline
210
0.0
220
0.0
230
1.0
 70
     8
 71
     3
 72
     8
 73
     4
 74
     0
 42
0.000000001
 43
0.00000001
 40
4.0
 40
4.0
 40
4.0
 40
4.0
 40
5.0
 40
5.0
 40
5.0
 40
5.0
 10
158.378059576378
 20
-151.7304642649056
 30
0.0
 10
158.2516551902256
 20
-151.8201938122996
 30
0.0
 10
158.1282172816755
 20
-151.9078177152238
 30
0.0
 10
157.9992225695515
 20
-151.9993860935135
 30
0.0
  0
SPLINE
  5
A3
330
79
100
AcDbEntity
  8
0
 62
    29
370
    18
100
AcDbSpline
210
0.0
220
0.0
230
1.0
 70
     8
 71
     3
 72
    14
 73
    10
 74
     0
 42
0.000000001
 43
0.00000001
 40
1.0
 40
1.0
 40
1.0
 40
1.0
 40
2.0
 40
2.0
 40
2.0
 40
3.0
 40
3.0
 40
3.0
 40
4.0
 40
4.0
 40
4.0
 40
4.0
 10
158.6374720378857
 20
-152.1834636386305
 30
0.0
 10
158.3929654576182
 20
-152.5371215172061
 30
0.0
 10
158.1985092979533
 20
-152.6214385881759
 30
0.0
 10
158.0310973290829
 20
-152.4511375351333
 30
0.0
 10
157.8824267689146
 20
-152.2999006776647
 30
0.0
 10
157.8622946244884
 20
-151.9964940942706
 30
0.0
 10
157.9874143127774
 20
-151.7927850544287
 30
0.0
 10
158.0885985349366
 20
-151.6280463074278
 30
0.0
 10
158.2343414197139
 20
-151.6018954634729
 30
0.0
 10
158.378059576378
 20
-151.7304642649056
 30
0.0
  0
SPLINE
  5
A4
330
79
100
AcDbEntity
  8
0
 62
    29
370
    18
100
AcDbSpline
210
0.0
220
0.0
230
1.0
 70
     8
 71
     3
 72
     8
 73
     4
 74
     0
 42
0.000000001
 43
0.00000001
 40
0.0
 40
0.0
 40
0.0
 40
0.0
 40
1.0
 40
1.0
 40
1.0
 40
1.0
 10
158.9506308703595
 20
-152.4139738752725
 30
0.0
 10
158.8403824499856
 20
-152.3328224797507
 30
0.0
 10
158.738404736495
 20
-152.2577585811716
 30
0.0
 10
158.6374720378857
 20
-152.1834636386305
 30
0.0
  0
SPLINE
  5
A5
330
79
100
AcDbEntity
  8
0
 62
    29
370
    18
100
AcDbSpline
210
0.0
220
0.0
230
1.0
 70
    24
 71
     3
 72
     8
 73
     4
 74
     0
 42
0.000000001
 43
0.00000001
 40
13.0
 40
13.0
 40
13.0
 40
13.0
 40
14.0
 40
14.0
 40
14.0
 40
14.0
 10
164.7962979251749
 20
-151.5078179853342
 30
0.0
 10
164.8046723757774
 20
-151.3474760933422
 30
0.0
 10
164.8132983789397
 20
-151.1823178360224
 30
0.0
 10
164.8226508229245
 20
-151.0032507384145
 30
0.0
  0
SPLINE
  5
A6
330
79
100
AcDbEntity
  8
0
 62
    29
370
    18
100
AcDbSpline
210
0.0
220
0.0
230
1.0
 70
     8
 71
     3
 72
     8
 73
     4
 74
     0
 42
0.000000001
 43
0.00000001
 40
12.0
 40
12.0
 40
12.0
 40
12.0
 40
13.0
 40
13.0
 40
13.0
 40
13.0
 10
164.4346214794246
 20
-151.7239115859654
 30
0.0
 10
164.4641161072838
 20
-151.3813921299815
 30
0.0
 10
164.6802172151996
 20
-151.593227906042
 30
0.0
 10
164.7962979251749
 20
-151.5078179853342
 30
0.0
  0
SPLINE
  5
A7
330
79
100
AcDbEntity
  8
0
 62
    29
370
    18
100
AcDbSpline
210
0.0
220
0.0
230
1.0
 70
     8
 71
     3
 72
    14
 73
    10
 74
     0
 42
0.000000001
 43
0.00000001
 40
9.0
 40
9.0
 40
9.0
 40
9.0
 40
10.0
 40
10.0
 40
10.0
 40
11.0
 40
11.0
 40
11.0
 40
12.0
 40
12.0
 40
12.0
 40
12.0
 10
164.7637807950763
 20
-152.2763194928309
 30
0.0
 10
164.771515039121
 20
-152.1282353518567
 30
0.0
 10
164.7760930716543
 20
-151.9954501671924
 30
0.0
 10
164.7862157615139
 20
-151.8633122305811
 30
0.0
 10
164.7925195844054
 20
-151.7810235991225
 30
0.0
 10
164.7693210694789
 20
-151.7455285897805
 30
0.0
 10
164.7011617158373
 20
-151.7439449408174
 30
0.0
 10
164.6144086744995
 20
-151.7419297925938
 30
0.0
 10
164.5277862456816
 20
-151.7313279490286
 30
0.0
 10
164.4346214794246
 20
-151.7239115859654
 30
0.0
  0
SPLINE
  5
A8
330
79
100
AcDbEntity
  8
0
 62
    29
370
    18
100
AcDbSpline
210
0.0
220
0.0
230
1.0
 70
    24
 71
     3
 72
     8
 73
     4
 74
     0
 42
0.000000001
 43
0.00000001
 40
8.0
 40
8.0
 40
8.0
 40
8.0
 40
9.0
 40
9.0
 40
9.0
 40
9.0
 10
164.4042598410061
 20
-152.2476998973414
 30
0.0
 10
164.5344141843525
 20
-152.2580608084812
 30
0.0
 10
164.644216268813
 20
-152.2668015820168
 30
0.0
 10
164.7637807950763
 20
-152.2763194928309
 30
0.0
  0
SPLINE
  5
A9
330
79
100
AcDbEntity
  8
0
 62
    29
370
    18
100
AcDbSpline
210
0.0
220
0.0
230
1.0
 70
     8
 71
     3
 72
    17
 73
    13
 74
     0
 42
0.000000001
 43
0.00000001
 40
4.0
 40
4.0
 40
4.0
 40
4.0
 40
5.0
 40
5.0
 40
5.0
 40
6.0
 40
6.0
 40
6.0
 40
7.0
 40
7.0
 40
7.0
 40
8.0
 40
8.0
 40
8.0
 40
8.0
 10
163.8725060673407
 20
-153.4559180512687
 30
0.0
 10
164.0002814776343
 20
-153.466089587906
 30
0.0
 10
164.1196927969301
 20
-153.4705590673917
 30
0.0
 10
164.2380488776146
 20
-153.4867716540118
 30
0.0
 10
164.3181175462346
 20
-153.4977400128997
 30
0.0
 10
164.34322813659
 20
-153.4608428578197
 30
0.0
 10
164.3470754373735
 20
-153.3660927929485
 30
0.0
 10
164.3593145247403
 20
-153.0646880063478
 30
0.0
 10
164.3772878364894
 20
-152.7636381215737
 30
0.0
 10
164.3930429447436
 20
-152.4624507400009
 30
0.0
 10
164.3965190934058
 20
-152.3959966585171
 30
0.0
 10
164.3999853443595
 20
-152.3295417891283
 30
0.0
 10
164.4042598410061
 20
-152.2476998973414
 30
0.0
  0
SPLINE
  5
AA
330
79
100
AcDbEntity
  8
0
 62
    29
370
    18
100
AcDbSpline
210
0.0
220
0.0
230
1.0
 70
     8
 71
     3
 72
    17
 73
    13
 74
     0
 42
0.000000001
 43
0.00000001
 40
0.0
 40
0.0
 40
0.0
 40
0.0
 40
1.0
 40
1.0
 40
1.0
 40
2.0
 40
2.0
 40
2.0
 40
3.0
 40
3.0
 40
3.0
 40
4.0
 40
4.0
 40
4.0
 40
4.0
 10
164.8226508229245
 20
-151.0032507384145
 30
0.0
 10
164.7279392644651
 20
-150.9957112432596
 30
0.0
 10
164.6408767619336
 20
-150.9873648049955
 30
0.0
 10
164.5536925141966
 20
-150.9820894042678
 30
0.0
 10
164.2054347637285
 20
-150.9610166349405
 30
0.0
 10
163.9832453346172
 20
-151.2058612326764
 30
0.0
 10
163.9602821942439
 20
-151.6368150170192
 30
0.0
 10
163.9308182192903
 20
-152.1897706114737
 30
0.0
 10
163.9022115847841
 20
-152.7427962721549
 30
0.0
 10
163.8737743938329
 20
-153.2958338307757
 30
0.0
 10
163.8713225919912
 20
-153.3435174294143
 30
0.0
 10
163.8729012276074
 20
-153.3915173257222
 30
0.0
 10
163.8725060673407
 20
-153.4559180512687
 30
0.0
  0
SPLINE
  5
AB
330
79
100
AcDbEntity
  8
0
 62
    29
370
    18
100
AcDbSpline
210
0.0
220
0.0
230
1.0
 70
     8
 71
     3
 72
    14
 73
    10
 74
     0
 42
0.000000001
 43
0.00000001
 40
12.0
 40
12.0
 40
12.0
 40
12.0
 40
13.0
 40
13.0
 40
13.0
 40
14.0
 40
14.0
 40
14.0
 40
15.0
 40
15.0
 40
15.0
 40
15.0
 10
165.3005734942176
 20
-151.7879147248675
 30
0.0
 10
165.3065953915182
 20
-151.672616127676
 30
0.0
 10
165.3171521768249
 20
-151.5744087194814
 30
0.0
 10
165.3139572924867
 20
-151.4768878363019
 30
0.0
 10
165.3127946722789
 20
-151.4414005316349
 30
0.0
 10
165.2815404253091
 20
-151.3807603175889
 30
0.0
 10
165.2594258536473
 20
-151.3773818156362
 30
0.0
 10
165.1335646065967
 20
-151.3581534162326
 30
0.0
 10
165.006315716995
 20
-151.3527684976327
 30
0.0
 10
164.8858642458969
 20
-151.3431799817482
 30
0.0
  0
SPLINE
  5
AC
330
79
100
AcDbEntity
  8
0
 62
    29
370
    18
100
AcDbSpline
210
0.0
220
0.0
230
1.0
 70
    24
 71
     3
 72
     8
 73
     4
 74
     0
 42
0.000000001
 43
0.00000001
 40
11.0
 40
11.0
 40
11.0
 40
11.0
 40
12.0
 40
12.0
 40
12.0
 40
12.0
 10
165.6124870106021
 20
-151.8127445395567
 30
0.0
 10
165.5046001331247
 20
-151.8041562256994
 30
0.0
 10
165.4069221941662
 20
-151.7963805924029
 30
0.0
 10
165.3005734942176
 20
-151.7879147248675
 30
0.0
  0
SPLINE
  5
AD
330
79
100
AcDbEntity
  8
0
 62
    29
370
    18
100
AcDbSpline
210
0.0
220
0.0
230
1.0
 70
    24
 71
     3
 72
     8
 73
     4
 74
     0
 42
0.000000001
 43
0.00000001
 40
10.0
 40
10.0
 40
10.0
 40
10.0
 40
11.0
 40
11.0
 40
11.0
 40
11.0
 10
165.5847901807839
 20
-152.3430434578116
 30
0.0
 10
165.5943825064811
 20
-152.1593834514202
 30
0.0
 10
165.6029891153539
 20
-151.9945965279585
 30
0.0
 10
165.6124870106021
 20
-151.8127445395567
 30
0.0
  0
SPLINE
  5
AE
330
79
100
AcDbEntity
  8
0
 62
    29
370
    18
100
AcDbSpline
210
0.0
220
0.0
230
1.0
 70
    24
 71
     3
 72
     8
 73
     4
 74
     0
 42
0.000000001
 43
0.00000001
 40
9.0
 40
9.0
 40
9.0
 40
9.0
 40
10.0
 40
10.0
 40
10.0
 40
10.0
 10
165.2754407212954
 20
-152.3184177543723
 30
0.0
 10
165.3868748282444
 20
-152.3272884447419
 30
0.0
 10
165.4881087946404
 20
-152.3353471549086
 30
0.0
 10
165.5847901807839
 20
-152.3430434578116
 30
0.0
  0
SPLINE
  5
AF
330
79
100
AcDbEntity
  8
0
 62
    29
370
    18
100
AcDbSpline
210
0.0
220
0.0
230
1.0
 70
     8
 71
     3
 72
    14
 73
    10
 74
     0
 42
0.000000001
 43
0.00000001
 40
6.0
 40
6.0
 40
6.0
 40
6.0
 40
7.0
 40
7.0
 40
7.0
 40
8.0
 40
8.0
 40
8.0
 40
9.0
 40
9.0
 40
9.0
 40
9.0
 10
165.5677137252943
 20
-153.068807719267
 30
0.0
 10
165.4826348541357
 20
-153.0502258739606
 30
0.0
 10
165.4110855621938
 20
-153.0495171338093
 30
0.0
 10
165.3512199837793
 20
-153.016510545269
 30
0.0
 10
165.3081416091445
 20
-152.992759576618
 30
0.0
 10
165.2521761557863
 20
-152.9267360036915
 30
0.0
 10
165.2512797171297
 20
-152.8781809936189
 30
0.0
 10
165.2479538180714
 20
-152.6980151119698
 30
0.0
 10
165.265054683417
 20
-152.5172746158754
 30
0.0
 10
165.2754407212954
 20
-152.3184177543723
 30
0.0
  0
SPLINE
  5
B0
330
79
100
AcDbEntity
  8
0
 62
    29
370
    18
100
AcDbSpline
210
0.0
220
0.0
230
1.0
 70
     8
 71
     3
 72
    23
 73
    19
 74
     0
 42
0.000000001
 43
0.00000001
 40
0.0
 40
0.0
 40
0.0
 40
0.0
 40
1.0
 40
1.0
 40
1.0
 40
2.0
 40
2.0
 40
2.0
 40
3.0
 40
3.0
 40
3.0
 40
4.0
 40
4.0
 40
4.0
 40
5.0
 40
5.0
 40
5.0
 40
6.0
 40
6.0
 40
6.0
 40
6.0
 10
164.8858642458969
 20
-151.3431799817482
 30
0.0
 10
164.8748015585021
 20
-151.3666602296808
 30
0.0
 10
164.8679696132527
 20
-151.3746013307459
 30
0.0
 10
164.8675131243983
 20
-151.3830666498789
 30
0.0
 10
164.8387917676393
 20
-151.9156578400649
 30
0.0
 10
164.8040628603024
 20
-152.4479400836696
 30
0.0
 10
164.7851994447407
 20
-152.9810762899964
 30
0.0
 10
164.7762768075794
 20
-153.2332475506618
 30
0.0
 10
164.9215149599795
 20
-153.4636648053767
 30
0.0
 10
165.1127837484661
 20
-153.5240941358627
 30
0.0
 10
165.2278820214165
 20
-153.5604581809257
 30
0.0
 10
165.3494982478937
 20
-153.5683397876402
 30
0.0
 10
165.4687723245275
 20
-153.5790984078414
 30
0.0
 10
165.492596375342
 20
-153.5812471375363
 30
0.0
 10
165.5386674586873
 20
-153.541294965967
 30
0.0
 10
165.5411180542125
 20
-153.5158566889817
 30
0.0
 10
165.5555363895533
 20
-153.3661827981396
 30
0.0
 10
165.5600752471983
 20
-153.2150582720336
 30
0.0
 10
165.5677137252943
 20
-153.068807719267
 30
0.0
  0
SPLINE
  5
B1
330
79
100
AcDbEntity
  8
0
 62
    29
370
    18
100
AcDbSpline
210
0.0
220
0.0
230
1.0
 70
     8
 71
     3
 72
     8
 73
     4
 74
     0
 42
0.000000001
 43
0.00000001
 40
8.0
 40
8.0
 40
8.0
 40
8.0
 40
9.0
 40
9.0
 40
9.0
 40
9.0
 10
159.4797081199206
 20
-151.5674999160065
 30
0.0
 10
159.4804975639016
 20
-151.496903223745
 30
0.0
 10
159.4811916258117
 20
-151.4348001419996
 30
0.0
 10
159.4820069437543
 20
-151.36179100679
 30
0.0
  0
SPLINE
  5
B2
330
79
100
AcDbEntity
  8
0
 62
    29
370
    18
100
AcDbSpline
210
0.0
220
0.0
230
1.0
 70
     8
 71
     3
 72
     8
 73
     4
 74
     0
 42
0.000000001
 43
0.00000001
 40
7.0
 40
7.0
 40
7.0
 40
7.0
 40
8.0
 40
8.0
 40
8.0
 40
8.0
 10
159.8883620966506
 20
-151.3917306892371
 30
0.0
 10
159.6943561297053
 20
-151.3602004229558
 30
0.0
 10
159.6428077980116
 20
-151.3822933500537
 30
0.0
 10
159.4797081199206
 20
-151.5674999160065
 30
0.0
  0
SPLINE
  5
B3
330
79
100
AcDbEntity
  8
0
 62
    29
370
    18
100
AcDbSpline
210
0.0
220
0.0
230
1.0
 70
    24
 71
     3
 72
     8
 73
     4
 74
     0
 42
0.000000001
 43
0.00000001
 40
6.0
 40
6.0
 40
6.0
 40
6.0
 40
7.0
 40
7.0
 40
7.0
 40
7.0
 10
159.8619755809499
 20
-151.8969416041406
 30
0.0
 10
159.8710958134804
 20
-151.7223205562826
 30
0.0
 10
159.8797553104975
 20
-151.5565210069742
 30
0.0
 10
159.8883620966506
 20
-151.3917306892371
 30
0.0
  0
SPLINE
  5
B4
330
79
100
AcDbEntity
  8
0
 62
    29
370
    18
100
AcDbSpline
210
0.0
220
0.0
230
1.0
 70
     8
 71
     3
 72
    14
 73
    10
 74
     0
 42
0.000000001
 43
0.00000001
 40
3.0
 40
3.0
 40
3.0
 40
3.0
 40
4.0
 40
4.0
 40
4.0
 40
5.0
 40
5.0
 40
5.0
 40
6.0
 40
6.0
 40
6.0
 40
6.0
 10
159.4516169542124
 20
-153.0937693229054
 30
0.0
 10
159.4665338219139
 20
-152.8081626719644
 30
0.0
 10
159.4789209288815
 20
-152.5323693951636
 30
0.0
 10
159.4958876504632
 20
-152.2570058915299
 30
0.0
 10
159.5128705761424
 20
-151.981360327098
 30
0.0
 10
159.5656584659716
 20
-151.9214382057011
 30
0.0
 10
159.7839753157792
 20
-151.9120539253162
 30
0.0
 10
159.8107776521892
 20
-151.9109018332644
 30
0.0
 10
159.8373571496927
 20
-151.9018938440129
 30
0.0
 10
159.8619755809499
 20
-151.8969416041406
 30
0.0
  0
SPLINE
  5
B5
330
79
100
AcDbEntity
  8
0
 62
    29
370
    18
100
AcDbSpline
210
0.0
220
0.0
230
1.0
 70
    24
 71
     3
 72
     8
 73
     4
 74
     0
 42
0.000000001
 43
0.00000001
 40
2.0
 40
2.0
 40
2.0
 40
2.0
 40
3.0
 40
3.0
 40
3.0
 40
3.0
 10
158.9944270424393
 20
-153.0573748090698
 30
0.0
 10
159.1479991855628
 20
-153.0695998895968
 30
0.0
 10
159.29360037249
 20
-153.0811904437101
 30
0.0
 10
159.4516169542124
 20
-153.0937693229054
 30
0.0
  0
SPLINE
  5
B6
330
79
100
AcDbEntity
  8
0
 62
    29
370
    18
100
AcDbSpline
210
0.0
220
0.0
230
1.0
 70
    24
 71
     3
 72
     8
 73
     4
 74
     0
 42
0.000000001
 43
0.00000001
 40
1.0
 40
1.0
 40
1.0
 40
1.0
 40
2.0
 40
2.0
 40
2.0
 40
2.0
 10
159.0846373279823
 20
-151.3301584759609
 30
0.0
 10
159.0542475993128
 20
-151.9120171343398
 30
0.0
 10
159.0244580063047
 20
-152.4823852613506
 30
0.0
 10
158.9944270424393
 20
-153.0573748090698
 30
0.0
  0
SPLINE
  5
B7
330
79
100
AcDbEntity
  8
0
 62
    29
370
    18
100
AcDbSpline
210
0.0
220
0.0
230
1.0
 70
    24
 71
     3
 72
     8
 73
     4
 74
     0
 42
0.000000001
 43
0.00000001
 40
0.0
 40
0.0
 40
0.0
 40
0.0
 40
1.0
 40
1.0
 40
1.0
 40
1.0
 10
159.4820069437543
 20
-151.36179100679
 30
0.0
 10
159.3418253032058
 20
-151.3506318746105
 30
0.0
 10
159.212588330994
 20
-151.3403439906219
 30
0.0
 10
159.0846373279823
 20
-151.3301584759609
 30
0.0
  0
SPLINE
  5
B8
330
79
100
AcDbEntity
  8
0
 62
    29
370
    18
100
AcDbSpline
210
0.0
220
0.0
230
1.0
 70
    24
 71
     3
 72
     8
 73
     4
 74
     0
 42
0.000000001
 43
0.00000001
 40
8.0
 40
8.0
 40
8.0
 40
8.0
 40
9.0
 40
9.0
 40
9.0
 40
9.0
 10
161.2678413339794
 20
-153.2395547170196
 30
0.0
 10
161.4218555748392
 20
-153.2518149906506
 30
0.0
 10
161.5675084498058
 20
-153.2634096593792
 30
0.0
 10
161.7280489477108
 20
-153.2761894544302
 30
0.0
  0
SPLINE
  5
B9
330
79
100
AcDbEntity
  8
0
 62
    29
370
    18
100
AcDbSpline
210
0.0
220
0.0
230
1.0
 70
    24
 71
     3
 72
     8
 73
     4
 74
     0
 42
0.000000001
 43
0.00000001
 40
7.0
 40
7.0
 40
7.0
 40
7.0
 40
8.0
 40
8.0
 40
8.0
 40
8.0
 10
161.3581777355864
 20
-151.5099236955492
 30
0.0
 10
161.3278638940156
 20
-152.090329377266
 30
0.0
 10
161.2980865923303
 20
-152.6604621677681
 30
0.0
 10
161.2678413339794
 20
-153.2395547170196
 30
0.0
  0
SPLINE
  5
BA
330
79
100
AcDbEntity
  8
0
 62
    29
370
    18
100
AcDbSpline
210
0.0
220
0.0
230
1.0
 70
    24
 71
     3
 72
     8
 73
     4
 74
     0
 42
0.000000001
 43
0.00000001
 40
6.0
 40
6.0
 40
6.0
 40
6.0
 40
7.0
 40
7.0
 40
7.0
 40
7.0
 10
161.7466016539644
 20
-151.5408441058809
 30
0.0
 10
161.6115928501964
 20
-151.5300967563649
 30
0.0
 10
161.4856525487465
 20
-151.5200713032107
 30
0.0
 10
161.3581777355864
 20
-151.5099236955492
 30
0.0
  0
SPLINE
  5
BB
330
79
100
AcDbEntity
  8
0
 62
    29
370
    18
100
AcDbSpline
210
0.0
220
0.0
230
1.0
 70
     8
 71
     3
 72
     8
 73
     4
 74
     0
 42
0.000000001
 43
0.00000001
 40
5.0
 40
5.0
 40
5.0
 40
5.0
 40
6.0
 40
6.0
 40
6.0
 40
6.0
 10
161.7493509993827
 20
-151.7835625601078
 30
0.0
 10
161.7481914679805
 20
-151.6812049577622
 30
0.0
 10
161.7473963125784
 20
-151.6110222397884
 30
0.0
 10
161.7466016539644
 20
-151.5408441058809
 30
0.0
  0
SPLINE
  5
BC
330
79
100
AcDbEntity
  8
0
 62
    29
370
    18
100
AcDbSpline
210
0.0
220
0.0
230
1.0
 70
     8
 71
     3
 72
     8
 73
     4
 74
     0
 42
0.000000001
 43
0.00000001
 40
4.0
 40
4.0
 40
4.0
 40
4.0
 40
5.0
 40
5.0
 40
5.0
 40
5.0
 10
162.1700808541661
 20
-151.5750806586464
 30
0.0
 10
161.9921805307206
 20
-151.5314509172541
 30
0.0
 10
161.8570862186614
 20
-151.5821850040344
 30
0.0
 10
161.7493509993827
 20
-151.7835625601078
 30
0.0
  0
SPLINE
  5
BD
330
79
100
AcDbEntity
  8
0
 62
    29
370
    18
100
AcDbSpline
210
0.0
220
0.0
230
1.0
 70
     8
 71
     3
 72
    17
 73
    13
 74
     0
 42
0.000000001
 43
0.00000001
 40
0.0
 40
0.0
 40
0.0
 40
0.0
 40
1.0
 40
1.0
 40
1.0
 40
2.0
 40
2.0
 40
2.0
 40
3.0
 40
3.0
 40
3.0
 40
4.0
 40
4.0
 40
4.0
 40
4.0
 10
161.7280489477108
 20
-153.2761894544302
 30
0.0
 10
161.7434360412437
 20
-152.9815795980026
 30
0.0
 10
161.7571269819611
 20
-152.7053704469492
 30
0.0
 10
161.7724916293352
 20
-152.4293036200275
 30
0.0
 10
161.7872904899168
 20
-152.1634001054908
 30
0.0
 10
161.8344309948706
 20
-152.111052681302
 30
0.0
 10
162.0522210211512
 20
-152.0903646921293
 30
0.0
 10
162.0851802052947
 20
-152.0872339051072
 30
0.0
 10
162.1394105134148
 20
-152.0460841275232
 30
0.0
 10
162.1429761160833
 20
-152.0153102732751
 30
0.0
 10
162.1597823476135
 20
-151.8702635110062
 30
0.0
 10
162.1623705900179
 20
-151.7227056671426
 30
0.0
 10
162.1700808541661
 20
-151.5750806586464
 30
0.0
  0
SPLINE
  5
BE
330
79
100
AcDbEntity
  8
0
 62
    29
370
    18
100
AcDbSpline
210
0.0
220
0.0
230
1.0
 70
     8
 71
     3
 72
    11
 73
     7
 74
     0
 42
0.000000001
 43
0.00000001
 40
2.0
 40
2.0
 40
2.0
 40
2.0
 40
3.0
 40
3.0
 40
3.0
 40
4.0
 40
4.0
 40
4.0
 40
4.0
 10
148.1468656758436
 20
-150.9538070100987
 30
0.0
 10
148.1544926230398
 20
-150.8022516319665
 30
0.0
 10
148.0553416577285
 20
-150.6630853250743
 30
0.0
 10
147.9329987387801
 20
-150.6536259559612
 30
0.0
 10
147.8130916852445
 20
-150.6443548127908
 30
0.0
 10
147.6970028781824
 20
-150.770935380811
 30
0.0
 10
147.6893156602247
 20
-150.9193313836366
 30
0.0
  0
SPLINE
  5
BF
330
79
100
AcDbEntity
  8
0
 62
    29
370
    18
100
AcDbSpline
210
0.0
220
0.0
230
1.0
 70
     8
 71
     3
 72
    11
 73
     7
 74
     0
 42
0.000000001
 43
0.00000001
 40
0.0
 40
0.0
 40
0.0
 40
0.0
 40
1.0
 40
1.0
 40
1.0
 40
2.0
 40
2.0
 40
2.0
 40
2.0
 10
147.6893156602247
 20
-150.9193313836366
 30
0.0
 10
147.6814966186493
 20
-151.0702795466102
 30
0.0
 10
147.7801638161374
 20
-151.2054299807357
 30
0.0
 10
147.9054412301693
 20
-151.2153694898823
 30
0.0
 10
148.0325691731189
 20
-151.2254558555715
 30
0.0
 10
148.1389990536134
 20
-151.1101486827274
 30
0.0
 10
148.1468656758436
 20
-150.9538070100987
 30
0.0
  0
SPLINE
  5
C0
330
79
100
AcDbEntity
  8
0
 62
    29
370
    18
100
AcDbSpline
210
0.0
220
0.0
230
1.0
 70
     8
 71
     3
 72
    53
 73
    49
 74
     0
 42
0.000000001
 43
0.00000001
 40
16.0
 40
16.0
 40
16.0
 40
16.0
 40
17.0
 40
17.0
 40
17.0
 40
18.0
 40
18.0
 40
18.0
 40
19.0
 40
19.0
 40
19.0
 40
20.0
 40
20.0
 40
20.0
 40
21.0
 40
21.0
 40
21.0
 40
22.0
 40
22.0
 40
22.0
 40
23.0
 40
23.0
 40
23.0
 40
24.0
 40
24.0
 40
24.0
 40
25.0
 40
25.0
 40
25.0
 40
26.0
 40
26.0
 40
26.0
 40
27.0
 40
27.0
 40
27.0
 40
28.0
 40
28.0
 40
28.0
 40
29.0
 40
29.0
 40
29.0
 40
30.0
 40
30.0
 40
30.0
 40
31.0
 40
31.0
 40
31.0
 40
32.0
 40
32.0
 40
32.0
 40
32.0
 10
148.8514689352175
 20
-150.5885572430851
 30
0.0
 10
148.7760218078914
 20
-150.4166175152616
 30
0.0
 10
148.7082949730871
 20
-150.2293624593907
 30
0.0
 10
148.6016382879943
 20
-150.090295563039
 30
0.0
 10
148.2392867296347
 20
-149.6178245201016
 30
0.0
 10
147.6322411036944
 20
-149.6151570484548
 30
0.0
 10
147.2497871183627
 20
-150.063279770862
 30
0.0
 10
147.1838842753429
 20
-150.1404989872541
 30
0.0
 10
147.1290702824076
 20
-150.2271901828319
 30
0.0
 10
147.2001828303492
 20
-150.3313239808028
 30
0.0
 10
147.2759762386842
 20
-150.4423079270876
 30
0.0
 10
147.3622532473974
 20
-150.3893855804686
 30
0.0
 10
147.4317808265268
 20
-150.312596358624
 30
0.0
 10
147.6112298866805
 20
-150.1144012710879
 30
0.0
 10
147.8197415864398
 20
-150.0269168124849
 30
0.0
 10
148.0531283087036
 20
-150.0917267893359
 30
0.0
 10
148.1659537741166
 20
-150.1230573848386
 30
0.0
 10
148.2739302683236
 20
-150.2004024209349
 30
0.0
 10
148.3737372398818
 20
-150.2773908132761
 30
0.0
 10
148.4479184261318
 20
-150.3346113308315
 30
0.0
 10
148.4779839599595
 20
-150.4366073565216
 30
0.0
 10
148.4098689977688
 20
-150.5321051988508
 30
0.0
 10
148.346272257201
 20
-150.6212722733099
 30
0.0
 10
148.2781341434805
 20
-150.5886021735178
 30
0.0
 10
148.2083524178603
 20
-150.5254358983473
 30
0.0
 10
148.0339648115327
 20
-150.3675820999291
 30
0.0
 10
147.8340825282228
 20
-150.3611683259954
 30
0.0
 10
147.671508780639
 20
-150.5000222244138
 30
0.0
 10
147.5226808158064
 20
-150.6271348153569
 30
0.0
 10
147.4506508392057
 20
-150.8601776067346
 30
0.0
 10
147.500823513915
 20
-151.0748618291464
 30
0.0
 10
147.5507254287488
 20
-151.28838700481
 30
0.0
 10
147.6674301215215
 20
-151.4249694473916
 30
0.0
 10
147.8442752522288
 20
-151.4639090937229
 30
0.0
 10
148.032979828203
 20
-151.5054601926936
 30
0.0
 10
148.1901220423244
 20
-151.415655543606
 30
0.0
 10
148.2858346927993
 20
-151.2166927387306
 30
0.0
 10
148.363140347506
 20
-151.05599055634
 30
0.0
 10
148.4631395025543
 20
-151.002323209709
 30
0.0
 10
148.6042090976651
 20
-151.0187667260992
 30
0.0
 10
148.7199759903747
 20
-151.0322609911285
 30
0.0
 10
148.8367506995835
 20
-151.0337043457162
 30
0.0
 10
148.9521968452257
 20
-151.050013174527
 30
0.0
 10
149.1495415844616
 20
-151.0778916210188
 30
0.0
 10
149.2226193479146
 20
-151.2228280323637
 30
0.0
 10
149.161683711253
 20
-151.4535098820341
 30
0.0
 10
148.9845760802557
 20
-152.1239977460567
 30
0.0
 10
148.4878399765827
 20
-152.5540763828975
 30
0.0
 10
147.8861071866529
 20
-152.5579149036589
 30
0.0
  0
SPLINE
  5
C1
330
79
100
AcDbEntity
  8
0
 62
    29
370
    18
100
AcDbSpline
210
0.0
220
0.0
230
1.0
 70
     8
 71
     3
 72
    53
 73
    49
 74
     0
 42
0.000000001
 43
0.00000001
 40
0.0
 40
0.0
 40
0.0
 40
0.0
 40
1.0
 40
1.0
 40
1.0
 40
2.0
 40
2.0
 40
2.0
 40
3.0
 40
3.0
 40
3.0
 40
4.0
 40
4.0
 40
4.0
 40
5.0
 40
5.0
 40
5.0
 40
6.0
 40
6.0
 40
6.0
 40
7.0
 40
7.0
 40
7.0
 40
8.0
 40
8.0
 40
8.0
 40
9.0
 40
9.0
 40
9.0
 40
10.0
 40
10.0
 40
10.0
 40
11.0
 40
11.0
 40
11.0
 40
12.0
 40
12.0
 40
12.0
 40
13.0
 40
13.0
 40
13.0
 40
14.0
 40
14.0
 40
14.0
 40
15.0
 40
15.0
 40
15.0
 40
16.0
 40
16.0
 40
16.0
 40
16.0
 10
147.8861071866529
 20
-152.5579149036589
 30
0.0
 10
147.3665482939231
 20
-152.5612294987029
 30
0.0
 10
146.8390096315469
 20
-152.0892430054881
 30
0.0
 10
146.6787076695998
 20
-151.4776612316054
 30
0.0
 10
146.6423877503308
 20
-151.3390913489547
 30
0.0
 10
146.6771977173919
 20
-151.2238355655059
 30
0.0
 10
146.7685554430653
 20
-151.1801719808388
 30
0.0
 10
146.8635645839753
 20
-151.1347642582487
 30
0.0
 10
146.9522699845986
 20
-151.1965193680519
 30
0.0
 10
146.9993671050695
 20
-151.3408584287632
 30
0.0
 10
147.2727561105218
 20
-152.1787272618097
 30
0.0
 10
148.096558094686
 20
-152.4117909035466
 30
0.0
 10
148.6015284483813
 20
-151.7895761019645
 30
0.0
 10
148.6427737365049
 20
-151.7387510253874
 30
0.0
 10
148.6783136416188
 20
-151.6410379286947
 30
0.0
 10
148.6688029511344
 20
-151.5756950451081
 30
0.0
 10
148.6499975066915
 20
-151.4465132067197
 30
0.0
 10
148.534308576744
 20
-151.439871010451
 30
0.0
 10
148.4259898917667
 20
-151.535296889745
 30
0.0
 10
148.3294770701146
 20
-151.6203205906336
 30
0.0
 10
148.2310695707228
 20
-151.7171503212663
 30
0.0
 10
148.1210130830141
 20
-151.7609352902762
 30
0.0
 10
147.7333415979736
 20
-151.9151714220433
 30
0.0
 10
147.3470176117208
 20
-151.6355305809569
 30
0.0
 10
147.2384041347134
 20
-151.1406532211005
 30
0.0
 10
147.183616637799
 20
-150.891015806433
 30
0.0
 10
147.1354060834107
 20
-150.8414349372324
 30
0.0
 10
146.9243005428061
 20
-150.8159719325357
 30
0.0
 10
146.8844471921939
 20
-150.8111649782761
 30
0.0
 10
146.8440968955858
 20
-150.8078381516874
 30
0.0
 10
146.8051527921702
 20
-150.7972372862666
 30
0.0
 10
146.6738010856568
 20
-150.7614844519153
 30
0.0
 10
146.6205341719898
 20
-150.6495724652182
 30
0.0
 10
146.6552115005294
 20
-150.4875487091777
 30
0.0
 10
146.7856867199632
 20
-149.8779131088084
 30
0.0
 10
147.2776601176401
 20
-149.3700701418472
 30
0.0
 10
147.7852185623451
 20
-149.3210884409075
 30
0.0
 10
148.3823247220298
 20
-149.2634651213757
 30
0.0
 10
148.8853556796099
 20
-149.6298015898908
 30
0.0
 10
149.127502582611
 20
-150.2996228460796
 30
0.0
 10
149.1453729127323
 20
-150.3490523394919
 30
0.0
 10
149.1614427273224
 20
-150.4001120015306
 30
0.0
 10
149.1730943130104
 20
-150.4522048933089
 30
0.0
 10
149.2022703350634
 20
-150.5826215133908
 30
0.0
 10
149.1598949639387
 20
-150.6962720791089
 30
0.0
 10
149.0720971078939
 20
-150.7314867543519
 30
0.0
 10
148.9800672536587
 20
-150.7683977597471
 30
0.0
 10
148.9038354946953
 20
-150.7078971487928
 30
0.0
 10
148.8514689352175
 20
-150.5885572430851
 30
0.0
  0
SPLINE
  5
C2
330
79
100
AcDbEntity
  8
0
 62
    29
370
    18
100
AcDbSpline
210
0.0
220
0.0
230
1.0
 70
     8
 71
     3
 72
    23
 73
    19
 74
     0
 42
0.000000001
 43
0.00000001
 40
8.0
 40
8.0
 40
8.0
 40
8.0
 40
9.0
 40
9.0
 40
9.0
 40
10.0
 40
10.0
 40
10.0
 40
11.0
 40
11.0
 40
11.0
 40
12.0
 40
12.0
 40
12.0
 40
13.0
 40
13.0
 40
13.0
 40
14.0
 40
14.0
 40
14.0
 40
14.0
 10
151.0922588885909
 20
-153.1790650629923
 30
0.0
 10
151.0947500088305
 20
-153.1313686884749
 30
0.0
 10
151.0974520426205
 20
-153.0796058538839
 30
0.0
 10
151.1001555427365
 20
-153.0278431360213
 30
0.0
 10
151.1254460033541
 20
-152.5436179017941
 30
0.0
 10
151.1506426071899
 20
-152.0593854233431
 30
0.0
 10
151.1760576938232
 20
-151.575170337171
 30
0.0
 10
151.201504100516
 20
-151.0903837715512
 30
0.0
 10
151.3972884798597
 20
-150.818828751325
 30
0.0
 10
151.7874574274339
 20
-150.7266666384881
 30
0.0
 10
152.1192922437485
 20
-150.6482834172809
 30
0.0
 10
152.4667663207907
 20
-150.8066993619931
 30
0.0
 10
152.6299728210525
 20
-151.1107750598682
 30
0.0
 10
152.8098799710067
 20
-151.4459665740357
 30
0.0
 10
152.8024267493969
 20
-151.8969479694742
 30
0.0
 10
152.6120407275694
 20
-152.1956994839579
 30
0.0
 10
152.4111958722078
 20
-152.5108626001907
 30
0.0
 10
152.0645436608512
 20
-152.6280453230237
 30
0.0
 10
151.735673375405
 20
-152.4848020546217
 30
0.0
  0
SPLINE
  5
C3
330
79
100
AcDbEntity
  8
0
 62
    29
370
    18
100
AcDbSpline
210
0.0
220
0.0
230
1.0
 70
    24
 71
     3
 72
     8
 73
     4
 74
     0
 42
0.000000001
 43
0.00000001
 40
7.0
 40
7.0
 40
7.0
 40
7.0
 40
8.0
 40
8.0
 40
8.0
 40
8.0
 10
151.5595774574516
 20
-153.2162658666034
 30
0.0
 10
151.4046335649687
 20
-153.2039315882343
 30
0.0
 10
151.2582178331281
 20
-153.1922761924326
 30
0.0
 10
151.0922588885909
 20
-153.1790650629923
 30
0.0
  0
SPLINE
  5
C4
330
79
100
AcDbEntity
  8
0
 62
    29
370
    18
100
AcDbSpline
210
0.0
220
0.0
230
1.0
 70
     8
 71
     3
 72
    23
 73
    19
 74
     0
 42
0.000000001
 43
0.00000001
 40
1.0
 40
1.0
 40
1.0
 40
1.0
 40
2.0
 40
2.0
 40
2.0
 40
3.0
 40
3.0
 40
3.0
 40
4.0
 40
4.0
 40
4.0
 40
5.0
 40
5.0
 40
5.0
 40
6.0
 40
6.0
 40
6.0
 40
7.0
 40
7.0
 40
7.0
 40
7.0
 10
151.7624190459261
 20
-151.9727145616491
 30
0.0
 10
151.8250863540266
 20
-151.9856365463105
 30
0.0
 10
151.8826080546978
 20
-152.0028620359509
 30
0.0
 10
151.9408679478981
 20
-152.0085191388789
 30
0.0
 10
152.126160432281
 20
-152.0265111432087
 30
0.0
 10
152.2614583249339
 20
-151.8972271734707
 30
0.0
 10
152.2822699659193
 20
-151.6871620379951
 30
0.0
 10
152.3047335362841
 20
-151.4604098230279
 30
0.0
 10
152.2028935098668
 20
-151.2836153426776
 30
0.0
 10
152.0260092036943
 20
-151.242296476334
 30
0.0
 10
151.8519324188097
 20
-151.2016335131016
 30
0.0
 10
151.6956055552883
 20
-151.3251345493806
 30
0.0
 10
151.662529734567
 20
-151.5502046507033
 30
0.0
 10
151.6368903521271
 20
-151.7246852256382
 30
0.0
 10
151.6296964419776
 20
-151.9036966997652
 30
0.0
 10
151.6194771995098
 20
-152.0811480692038
 30
0.0
 10
151.5978908339869
 20
-152.4559707636959
 30
0.0
 10
151.5796946420655
 20
-152.831091053859
 30
0.0
 10
151.5595774574516
 20
-153.2162658666034
 30
0.0
  0
SPLINE
  5
C5
330
79
100
AcDbEntity
  8
0
 62
    29
370
    18
100
AcDbSpline
210
0.0
220
0.0
230
1.0
 70
    24
 71
     3
 72
     8
 73
     4
 74
     0
 42
0.000000001
 43
0.00000001
 40
0.0
 40
0.0
 40
0.0
 40
0.0
 40
1.0
 40
1.0
 40
1.0
 40
1.0
 10
151.735673375405
 20
-152.4848020546217
 30
0.0
 10
151.7448810654261
 20
-152.308506496984
 30
0.0
 10
151.7535875412979
 20
-152.1418074643823
 30
0.0
 10
151.7624190459261
 20
-151.9727145616491
 30
0.0
  0
SPLINE
  5
C6
330
79
100
AcDbEntity
  8
0
 62
    29
370
    18
100
AcDbSpline
210
0.0
220
0.0
230
1.0
 70
     8
 71
     3
 72
    20
 73
    16
 74
     0
 42
0.000000001
 43
0.00000001
 40
11.0
 40
11.0
 40
11.0
 40
11.0
 40
12.0
 40
12.0
 40
12.0
 40
13.0
 40
13.0
 40
13.0
 40
14.0
 40
14.0
 40
14.0
 40
15.0
 40
15.0
 40
15.0
 40
16.0
 40
16.0
 40
16.0
 40
16.0
 10
150.3449781431936
 20
-150.5115910514902
 30
0.0
 10
150.3683638397149
 20
-150.569963751896
 30
0.0
 10
150.380847943865
 20
-150.6431326792645
 30
0.0
 10
150.4171808394006
 20
-150.683938506182
 30
0.0
 10
150.5266703350711
 20
-150.8069104060825
 30
0.0
 10
150.6487663316437
 20
-150.9126364213986
 30
0.0
 10
150.7598228449771
 20
-151.0336562185154
 30
0.0
 10
150.9334742331796
 20
-151.2228876621713
 30
0.0
 10
151.0668169291015
 20
-151.4352008337621
 30
0.0
 10
151.03126536675
 20
-151.7514548033816
 30
0.0
 10
150.9894945538232
 20
-152.1230442357272
 30
0.0
 10
150.8267618218372
 20
-152.3470368015941
 30
0.0
 10
150.5230698143071
 20
-152.3584573079678
 30
0.0
 10
150.2687391163822
 20
-152.3680215853684
 30
0.0
 10
150.0130838725043
 20
-152.3239809883142
 30
0.0
 10
149.7432136308794
 20
-152.3024980203183
 30
0.0
  0
SPLINE
  5
C7
330
79
100
AcDbEntity
  8
0
 62
    29
370
    18
100
AcDbSpline
210
0.0
220
0.0
230
1.0
 70
     8
 71
     3
 72
    11
 73
     7
 74
     0
 42
0.000000001
 43
0.00000001
 40
9.0
 40
9.0
 40
9.0
 40
9.0
 40
10.0
 40
10.0
 40
10.0
 40
11.0
 40
11.0
 40
11.0
 40
11.0
 10
150.9628039025751
 20
-150.4916951345116
 30
0.0
 10
150.8032542754686
 20
-150.4789942175364
 30
0.0
 10
150.6485037201665
 20
-150.4612384951222
 30
0.0
 10
150.4935285059769
 20
-150.4575104046443
 30
0.0
 10
150.444315643783
 20
-150.4563270338507
 30
0.0
 10
150.3945103199778
 20
-150.4925083392764
 30
0.0
 10
150.3449781431936
 20
-150.5115910514902
 30
0.0
  0
SPLINE
  5
C8
330
79
100
AcDbEntity
  8
0
 62
    29
370
    18
100
AcDbSpline
210
0.0
220
0.0
230
1.0
 70
    24
 71
     3
 72
     8
 73
     4
 74
     0
 42
0.000000001
 43
0.00000001
 40
8.0
 40
8.0
 40
8.0
 40
8.0
 40
9.0
 40
9.0
 40
9.0
 40
9.0
 10
150.9932463716583
 20
-149.9088266788491
 30
0.0
 10
150.983177071717
 20
-150.1016190995269
 30
0.0
 10
150.9735150932185
 20
-150.2866127171889
 30
0.0
 10
150.9628039025751
 20
-150.4916951345116
 30
0.0
  0
SPLINE
  5
C9
330
79
100
AcDbEntity
  8
0
 62
    29
370
    18
100
AcDbSpline
210
0.0
220
0.0
230
1.0
 70
     8
 71
     3
 72
    26
 73
    22
 74
     0
 42
0.000000001
 43
0.00000001
 40
1.0
 40
1.0
 40
1.0
 40
1.0
 40
2.0
 40
2.0
 40
2.0
 40
3.0
 40
3.0
 40
3.0
 40
4.0
 40
4.0
 40
4.0
 40
5.0
 40
5.0
 40
5.0
 40
6.0
 40
6.0
 40
6.0
 40
7.0
 40
7.0
 40
7.0
 40
8.0
 40
8.0
 40
8.0
 40
8.0
 10
149.772538694611
 20
-151.7410240293752
 30
0.0
 10
149.9251335304671
 20
-151.7531713115472
 30
0.0
 10
150.0791471300328
 20
-151.7673609094255
 30
0.0
 10
150.2333496562284
 20
-151.7769464982453
 30
0.0
 10
150.3189552537313
 20
-151.7822682408516
 30
0.0
 10
150.4268150585089
 20
-151.8230554937815
 30
0.0
 10
150.4706785239338
 20
-151.7005063812915
 30
0.0
 10
150.5181103051963
 20
-151.5679934348451
 30
0.0
 10
150.4145577548772
 20
-151.5012617476992
 30
0.0
 10
150.3477130129109
 20
-151.4282379401553
 30
0.0
 10
150.2337350896802
 20
-151.3037246655792
 30
0.0
 10
150.1127498022829
 20
-151.1884320114345
 30
0.0
 10
150.0034086997533
 20
-151.0581363899277
 30
0.0
 10
149.8187910753397
 20
-150.8381404112483
 30
0.0
 10
149.7634558494365
 20
-150.5727998931388
 30
0.0
 10
149.8563211641776
 20
-150.2724810309639
 30
0.0
 10
149.9427415826034
 20
-149.9929977946556
 30
0.0
 10
150.1265855138444
 20
-149.8683048777432
 30
0.0
 10
150.3538739333785
 20
-149.8626260930566
 30
0.0
 10
150.5645110727228
 20
-149.857363245916
 30
0.0
 10
150.77579293857
 20
-149.8915163406836
 30
0.0
 10
150.9932463716583
 20
-149.9088266788491
 30
0.0
  0
SPLINE
  5
CA
330
79
100
AcDbEntity
  8
0
 62
    29
370
    18
100
AcDbSpline
210
0.0
220
0.0
230
1.0
 70
    24
 71
     3
 72
     8
 73
     4
 74
     0
 42
0.000000001
 43
0.00000001
 40
0.0
 40
0.0
 40
0.0
 40
0.0
 40
1.0
 40
1.0
 40
1.0
 40
1.0
 10
149.7432136308794
 20
-152.3024980203183
 30
0.0
 10
149.7522572317389
 20
-152.1293442050857
 30
0.0
 10
149.7617484494887
 20
-151.9476200677673
 30
0.0
 10
149.772538694611
 20
-151.7410240293752
 30
0.0
  0
SPLINE
  5
CB
330
79
100
AcDbEntity
  8
0
 62
    29
370
    18
100
AcDbSpline
210
0.0
220
0.0
230
1.0
 70
    24
 71
     3
 72
     8
 73
     4
 74
     0
 42
0.000000001
 43
0.00000001
 40
12.0
 40
12.0
 40
12.0
 40
12.0
 40
13.0
 40
13.0
 40
13.0
 40
13.0
 10
156.6640667485653
 20
-150.3651337468738
 30
0.0
 10
156.6420378259477
 20
-150.7869117594142
 30
0.0
 10
156.6197253756002
 20
-151.2141183516339
 30
0.0
 10
156.5969181049574
 20
-151.6507990486476
 30
0.0
  0
SPLINE
  5
CC
330
79
100
AcDbEntity
  8
0
 62
    29
370
    18
100
AcDbSpline
210
0.0
220
0.0
230
1.0
 70
    24
 71
     3
 72
     8
 73
     4
 74
     0
 42
0.000000001
 43
0.00000001
 40
11.0
 40
11.0
 40
11.0
 40
11.0
 40
12.0
 40
12.0
 40
12.0
 40
12.0
 10
156.2161051688097
 20
-150.3294738526107
 30
0.0
 10
156.3582978774996
 20
-150.3407930754777
 30
0.0
 10
156.5044247428257
 20
-150.3524254761162
 30
0.0
 10
156.6640667485653
 20
-150.3651337468738
 30
0.0
  0
SPLINE
  5
CD
330
79
100
AcDbEntity
  8
0
 62
    29
370
    18
100
AcDbSpline
210
0.0
220
0.0
230
1.0
 70
    24
 71
     3
 72
     8
 73
     4
 74
     0
 42
0.000000001
 43
0.00000001
 40
10.0
 40
10.0
 40
10.0
 40
10.0
 40
11.0
 40
11.0
 40
11.0
 40
11.0
 10
156.0858020178946
 20
-152.8243304996433
 30
0.0
 10
156.1290663755061
 20
-151.9959670302535
 30
0.0
 10
156.172287004371
 20
-151.1684408157551
 30
0.0
 10
156.2161051688097
 20
-150.3294738526107
 30
0.0
  0
SPLINE
  5
CE
330
79
100
AcDbEntity
  8
0
 62
    29
370
    18
100
AcDbSpline
210
0.0
220
0.0
230
1.0
 70
    24
 71
     3
 72
     8
 73
     4
 74
     0
 42
0.000000001
 43
0.00000001
 40
9.0
 40
9.0
 40
9.0
 40
9.0
 40
10.0
 40
10.0
 40
10.0
 40
10.0
 10
156.5434655534431
 20
-152.8607627162057
 30
0.0
 10
156.3872657514721
 20
-152.8483284614079
 30
0.0
 10
156.2416066446126
 20
-152.8367332965908
 30
0.0
 10
156.0858020178946
 20
-152.8243304996433
 30
0.0
  0
SPLINE
  5
CF
330
79
100
AcDbEntity
  8
0
 62
    29
370
    18
100
AcDbSpline
210
0.0
220
0.0
230
1.0
 70
    24
 71
     3
 72
     8
 73
     4
 74
     0
 42
0.000000001
 43
0.00000001
 40
8.0
 40
8.0
 40
8.0
 40
8.0
 40
9.0
 40
9.0
 40
9.0
 40
9.0
 10
156.577755567072
 20
-152.2042270313316
 30
0.0
 10
156.5666210112637
 20
-152.4174154337023
 30
0.0
 10
156.555345270704
 20
-152.6333070379395
 30
0.0
 10
156.5434655534431
 20
-152.8607627162057
 30
0.0
  0
SPLINE
  5
D0
330
79
100
AcDbEntity
  8
0
 62
    29
370
    18
100
AcDbSpline
210
0.0
220
0.0
230
1.0
 70
     8
 71
     3
 72
    11
 73
     7
 74
     0
 42
0.000000001
 43
0.00000001
 40
6.0
 40
6.0
 40
6.0
 40
6.0
 40
7.0
 40
7.0
 40
7.0
 40
8.0
 40
8.0
 40
8.0
 40
8.0
 10
156.8707002060918
 20
-152.8908817832104
 30
0.0
 10
156.8769146044201
 20
-152.7718974542215
 30
0.0
 10
156.8828493650628
 20
-152.6599446389989
 30
0.0
 10
156.8885920013495
 20
-152.5479772114325
 30
0.0
 10
156.9040987066529
 20
-152.2456784624667
 30
0.0
 10
156.8398354611939
 20
-152.1717601537642
 30
0.0
 10
156.577755567072
 20
-152.2042270313316
 30
0.0
  0
SPLINE
  5
D1
330
79
100
AcDbEntity
  8
0
 62
    29
370
    18
100
AcDbSpline
210
0.0
220
0.0
230
1.0
 70
    24
 71
     3
 72
     8
 73
     4
 74
     0
 42
0.000000001
 43
0.00000001
 40
5.0
 40
5.0
 40
5.0
 40
5.0
 40
6.0
 40
6.0
 40
6.0
 40
6.0
 10
157.3004404673807
 20
-152.9250911729672
 30
0.0
 10
157.1634238947041
 20
-152.9141839954002
 30
0.0
 10
157.0250986247504
 20
-152.903172639241
 30
0.0
 10
156.8707002060918
 20
-152.8908817832104
 30
0.0
  0
SPLINE
  5
D2
330
79
100
AcDbEntity
  8
0
 62
    29
370
    18
100
AcDbSpline
210
0.0
220
0.0
230
1.0
 70
     8
 71
     3
 72
     8
 73
     4
 74
     0
 42
0.000000001
 43
0.00000001
 40
4.0
 40
4.0
 40
4.0
 40
4.0
 40
5.0
 40
5.0
 40
5.0
 40
5.0
 10
157.1048678517809
 20
-151.8955410678755
 30
0.0
 10
157.3538232198883
 20
-152.144937729782
 30
0.0
 10
157.4181041839527
 20
-152.4750908039901
 30
0.0
 10
157.3004404673807
 20
-152.9250911729672
 30
0.0
  0
SPLINE
  5
D3
330
79
100
AcDbEntity
  8
0
 62
    29
370
    18
100
AcDbSpline
210
0.0
220
0.0
230
1.0
 70
     8
 71
     3
 72
     8
 73
     4
 74
     0
 42
0.000000001
 43
0.00000001
 40
3.0
 40
3.0
 40
3.0
 40
3.0
 40
4.0
 40
4.0
 40
4.0
 40
4.0
 10
157.422752815407
 20
-151.1863813940319
 30
0.0
 10
157.3193068869216
 20
-151.4382341621496
 30
0.0
 10
157.2895744752066
 20
-151.7167367359284
 30
0.0
 10
157.1048678517809
 20
-151.8955410678755
 30
0.0
  0
SPLINE
  5
D4
330
79
100
AcDbEntity
  8
0
 62
    29
370
    18
100
AcDbSpline
210
0.0
220
0.0
230
1.0
 70
     8
 71
     3
 72
    14
 73
    10
 74
     0
 42
0.000000001
 43
0.00000001
 40
0.0
 40
0.0
 40
0.0
 40
0.0
 40
1.0
 40
1.0
 40
1.0
 40
2.0
 40
2.0
 40
2.0
 40
3.0
 40
3.0
 40
3.0
 40
3.0
 10
156.5969181049574
 20
-151.6507990486476
 30
0.0
 10
156.7269078811693
 20
-151.6655477710918
 30
0.0
 10
156.7961615292164
 20
-151.5830790448053
 30
0.0
 10
156.817025469432
 20
-151.4784790760301
 30
0.0
 10
156.8800304498419
 20
-151.1626324875731
 30
0.0
 10
157.0433088317754
 20
-151.1061254576817
 30
0.0
 10
157.2699296795526
 20
-151.1729246131731
 30
0.0
 10
157.3119528437427
 20
-151.1853114055985
 30
0.0
 10
157.3571749845438
 20
-151.1811610835851
 30
0.0
 10
157.422752815407
 20
-151.1863813940319
 30
0.0
  0
SPLINE
  5
D5
330
79
100
AcDbEntity
  8
0
 62
    29
370
    18
100
AcDbSpline
210
0.0
220
0.0
230
1.0
 70
     8
 71
     3
 72
    23
 73
    19
 74
     0
 42
0.000000001
 43
0.00000001
 40
8.0
 40
8.0
 40
8.0
 40
8.0
 40
9.0
 40
9.0
 40
9.0
 40
10.0
 40
10.0
 40
10.0
 40
11.0
 40
11.0
 40
11.0
 40
12.0
 40
12.0
 40
12.0
 40
13.0
 40
13.0
 40
13.0
 40
14.0
 40
14.0
 40
14.0
 40
14.0
 10
155.4481005785872
 20
-152.7762590279993
 30
0.0
 10
155.4546118123631
 20
-152.6515913223031
 30
0.0
 10
155.4623767825357
 20
-152.5348038628142
 30
0.0
 10
155.4664436776767
 20
-152.4178206348316
 30
0.0
 10
155.4731375192162
 20
-152.2252946284915
 30
0.0
 10
155.4872940433677
 20
-152.0320836328339
 30
0.0
 10
155.4801679290361
 20
-151.8401878169889
 30
0.0
 10
155.4718550016563
 20
-151.616295005791
 30
0.0
 10
155.336861761762
 20
-151.4806064502306
 30
0.0
 10
155.1583006271401
 20
-151.4909300259035
 30
0.0
 10
154.9789021046295
 20
-151.5013019177934
 30
0.0
 10
154.8535752216079
 20
-151.6619399236237
 30
0.0
 10
154.8511693785171
 20
-151.8845972751878
 30
0.0
 10
154.848821299291
 20
-152.1019198703364
 30
0.0
 10
154.9661880932368
 20
-152.253763477482
 30
0.0
 10
155.1496050253488
 20
-152.2634751264758
 30
0.0
 10
155.2165880778901
 20
-152.2670219852578
 30
0.0
 10
155.2840407509213
 20
-152.2570383411094
 30
0.0
 10
155.3630352818267
 20
-152.2525611756561
 30
0.0
  0
SPLINE
  5
D6
330
79
100
AcDbEntity
  8
0
 62
    29
370
    18
100
AcDbSpline
210
0.0
220
0.0
230
1.0
 70
    24
 71
     3
 72
     8
 73
     4
 74
     0
 42
0.000000001
 43
0.00000001
 40
7.0
 40
7.0
 40
7.0
 40
7.0
 40
8.0
 40
8.0
 40
8.0
 40
8.0
 10
155.9102532757233
 20
-152.8130486033949
 30
0.0
 10
155.7560066219586
 20
-152.8007698285808
 30
0.0
 10
155.6103460487706
 20
-152.7891745470373
 30
0.0
 10
155.4481005785872
 20
-152.7762590279993
 30
0.0
  0
SPLINE
  5
D7
330
79
100
AcDbEntity
  8
0
 62
    29
370
    18
100
AcDbSpline
210
0.0
220
0.0
230
1.0
 70
     8
 71
     3
 72
    26
 73
    22
 74
     0
 42
0.000000001
 43
0.00000001
 40
0.0
 40
0.0
 40
0.0
 40
0.0
 40
1.0
 40
1.0
 40
1.0
 40
2.0
 40
2.0
 40
2.0
 40
3.0
 40
3.0
 40
3.0
 40
4.0
 40
4.0
 40
4.0
 40
5.0
 40
5.0
 40
5.0
 40
6.0
 40
6.0
 40
6.0
 40
7.0
 40
7.0
 40
7.0
 40
7.0
 10
155.3630352818267
 20
-152.2525611756561
 30
0.0
 10
155.3559294553031
 20
-152.3886132850071
 30
0.0
 10
155.3588642062345
 20
-152.5236623165612
 30
0.0
 10
155.3369702128821
 20
-152.6522694169643
 30
0.0
 10
155.3288467532725
 20
-152.6999859700545
 30
0.0
 10
155.2671264584959
 20
-152.7535638712837
 30
0.0
 10
155.2219600068401
 20
-152.76878452878
 30
0.0
 10
154.8504163511203
 20
-152.8939900758903
 30
0.0
 10
154.447788038814
 20
-152.5452825644781
 30
0.0
 10
154.3878472882593
 20
-152.0533318009823
 30
0.0
 10
154.3053633029864
 20
-151.3763660473187
 30
0.0
 10
154.7533109443548
 20
-150.8506266104391
 30
0.0
 10
155.2999362298868
 20
-150.9772284945547
 30
0.0
 10
155.5785404463377
 20
-151.0417548238404
 30
0.0
 10
155.8112600206669
 20
-151.1789782424443
 30
0.0
 10
155.9218655445766
 20
-151.5265418292686
 30
0.0
 10
155.9449134158074
 20
-151.5989663280074
 30
0.0
 10
155.9657359258898
 20
-151.6802390908913
 30
0.0
 10
155.9629897783248
 20
-151.7560766357745
 30
0.0
 10
155.9503259791761
 20
-152.1056879035648
 30
0.0
 10
155.9289631511357
 20
-152.4548189158645
 30
0.0
 10
155.9102532757233
 20
-152.8130486033949
 30
0.0
  0
SPLINE
  5
D8
330
79
100
AcDbEntity
  8
0
 62
    29
370
    18
100
AcDbSpline
210
0.0
220
0.0
230
1.0
 70
     8
 71
     3
 72
    23
 73
    19
 74
     0
 42
0.000000001
 43
0.00000001
 40
8.0
 40
8.0
 40
8.0
 40
8.0
 40
9.0
 40
9.0
 40
9.0
 40
10.0
 40
10.0
 40
10.0
 40
11.0
 40
11.0
 40
11.0
 40
12.0
 40
12.0
 40
12.0
 40
13.0
 40
13.0
 40
13.0
 40
14.0
 40
14.0
 40
14.0
 40
14.0
 10
163.2377884484723
 20
-153.3922291901951
 30
0.0
 10
163.2416197956539
 20
-153.3188720847212
 30
0.0
 10
163.2472668803303
 20
-153.2423670170793
 30
0.0
 10
163.2493156605723
 20
-153.1657152510577
 30
0.0
 10
163.2560457998526
 20
-152.9139327500821
 30
0.0
 10
163.2753488909633
 20
-152.6610522306546
 30
0.0
 10
163.262972500358
 20
-152.4106156675409
 30
0.0
 10
163.2532044577456
 20
-152.2129693190998
 30
0.0
 10
163.0966429845834
 20
-152.0913869327773
 30
0.0
 10
162.9308643298883
 20
-152.112663054224
 30
0.0
 10
162.7602372455375
 20
-152.1345614187866
 30
0.0
 10
162.6400303161318
 20
-152.2915351090195
 30
0.0
 10
162.6377607180393
 20
-152.4954158127265
 30
0.0
 10
162.6354710469336
 20
-152.701125677773
 30
0.0
 10
162.7457700233205
 20
-152.8628963101017
 30
0.0
 10
162.9082563087216
 20
-152.8800955752773
 30
0.0
 10
162.9832493321564
 20
-152.888033611222
 30
0.0
 10
163.0594967643282
 20
-152.8779025194762
 30
0.0
 10
163.1484655323263
 20
-152.8756236074155
 30
0.0
  0
SPLINE
  5
D9
330
79
100
AcDbEntity
  8
0
 62
    29
370
    18
100
AcDbSpline
210
0.0
220
0.0
230
1.0
 70
    24
 71
     3
 72
     8
 73
     4
 74
     0
 42
0.000000001
 43
0.00000001
 40
7.0
 40
7.0
 40
7.0
 40
7.0
 40
8.0
 40
8.0
 40
8.0
 40
8.0
 10
163.6982790634081
 20
-153.4288864558616
 30
0.0
 10
163.549031853196
 20
-153.4170056607774
 30
0.0
 10
163.4037180664581
 20
-153.4054379850997
 30
0.0
 10
163.2377884484723
 20
-153.3922291901951
 30
0.0
  0
SPLINE
  5
DA
330
79
100
AcDbEntity
  8
0
 62
    29
370
    18
100
AcDbSpline
210
0.0
220
0.0
230
1.0
 70
     8
 71
     3
 72
    26
 73
    22
 74
     0
 42
0.000000001
 43
0.00000001
 40
0.0
 40
0.0
 40
0.0
 40
0.0
 40
1.0
 40
1.0
 40
1.0
 40
2.0
 40
2.0
 40
2.0
 40
3.0
 40
3.0
 40
3.0
 40
4.0
 40
4.0
 40
4.0
 40
5.0
 40
5.0
 40
5.0
 40
6.0
 40
6.0
 40
6.0
 40
7.0
 40
7.0
 40
7.0
 40
7.0
 10
163.1484655323263
 20
-152.8756236074155
 30
0.0
 10
163.1414707059028
 20
-153.0095504470559
 30
0.0
 10
163.1427691301167
 20
-153.1485199756376
 30
0.0
 10
163.122284050205
 20
-153.2824097581556
 30
0.0
 10
163.115678186171
 20
-153.3255894422147
 30
0.0
 10
163.0559010372125
 20
-153.3741226436603
 30
0.0
 10
163.0134267178485
 20
-153.3884237504771
 30
0.0
 10
162.6132650937274
 20
-153.5231569197489
 30
0.0
 10
162.1964269211308
 20
-153.123560530189
 30
0.0
 10
162.1709586090082
 20
-152.5862692979048
 30
0.0
 10
162.1403294256975
 20
-151.9400945796884
 30
0.0
 10
162.5731967329627
 20
-151.4780360835991
 30
0.0
 10
163.0909911658044
 20
-151.5977390689158
 30
0.0
 10
163.3653260646147
 20
-151.6611593341951
 30
0.0
 10
163.5951147488596
 20
-151.7962266541224
 30
0.0
 10
163.7075413929852
 20
-152.1350559035453
 30
0.0
 10
163.7328264885836
 20
-152.2112604813951
 30
0.0
 10
163.753329150877
 20
-152.2981991105071
 30
0.0
 10
163.7505319526908
 20
-152.3788481904609
 30
0.0
 10
163.7385349625864
 20
-152.7247560405257
 30
0.0
 10
163.7170148687839
 20
-153.070160298809
 30
0.0
 10
163.6982790634081
 20
-153.4288864558616
 30
0.0
  0
SPLINE
  5
DB
330
79
100
AcDbEntity
  8
0
 62
    29
370
    18
100
AcDbSpline
210
0.0
220
0.0
230
1.0
 70
     8
 71
     3
 72
    32
 73
    28
 74
     0
 42
0.000000001
 43
0.00000001
 40
2.0
 40
2.0
 40
2.0
 40
2.0
 40
3.0
 40
3.0
 40
3.0
 40
4.0
 40
4.0
 40
4.0
 40
5.0
 40
5.0
 40
5.0
 40
6.0
 40
6.0
 40
6.0
 40
7.0
 40
7.0
 40
7.0
 40
8.0
 40
8.0
 40
8.0
 40
9.0
 40
9.0
 40
9.0
 40
10.0
 40
10.0
 40
10.0
 40
11.0
 40
11.0
 40
11.0
 40
11.0
 10
161.2127519318536
 20
-151.3087257082246
 30
0.0
 10
161.1019102018932
 20
-151.3111757607627
 30
0.0
 10
160.9948277629243
 20
-151.3052209547915
 30
0.0
 10
160.8891369728383
 20
-151.3175022880366
 30
0.0
 10
160.6160685901358
 20
-151.3492321280215
 30
0.0
 10
160.4688407758838
 20
-151.5928828919827
 30
0.0
 10
160.4666428681026
 20
-152.0045040114449
 30
0.0
 10
160.4649134477928
 20
-152.3282321283753
 30
0.0
 10
160.6320992631983
 20
-152.5633770449347
 30
0.0
 10
160.8891088045516
 20
-152.5986986324424
 30
0.0
 10
161.1505801751151
 20
-152.6346330771878
 30
0.0
 10
161.1505801751151
 20
-152.6346330771878
 30
0.0
 10
161.1334238010302
 20
-152.9629917003949
 30
0.0
 10
161.1191061558703
 20
-153.2370195836201
 30
0.0
 10
161.1191061558703
 20
-153.2370195836201
 30
0.0
 10
160.8972374507072
 20
-153.219142358408
 30
0.0
 10
160.440985573517
 20
-153.1823794260864
 30
0.0
 10
160.1188566295952
 20
-152.8979260900863
 30
0.0
 10
159.9929268512099
 20
-152.4205954619519
 30
0.0
 10
159.8487883953778
 20
-151.8742501623946
 30
0.0
 10
159.9703767874097
 20
-151.2931731448285
 30
0.0
 10
160.3020980604247
 20
-150.9500857503184
 30
0.0
 10
160.4817302298319
 20
-150.764299049803
 30
0.0
 10
160.6901681755367
 20
-150.6802424445305
 30
0.0
 10
160.923818197557
 20
-150.693269052447
 30
0.0
 10
161.0273234271479
 20
-150.6990397564455
 30
0.0
 10
161.1306631530112
 20
-150.7093183997061
 30
0.0
 10
161.2505896788707
 20
-150.7188651274266
 30
0.0
  0
SPLINE
  5
DC
330
79
100
AcDbEntity
  8
0
 62
    29
370
    18
100
AcDbSpline
210
0.0
220
0.0
230
1.0
 70
     8
 71
     3
 72
    11
 73
     7
 74
     0
 42
0.000000001
 43
0.00000001
 40
0.0
 40
0.0
 40
0.0
 40
0.0
 40
1.0
 40
1.0
 40
1.0
 40
2.0
 40
2.0
 40
2.0
 40
2.0
 10
161.2505896788707
 20
-150.7188651274266
 30
0.0
 10
161.241663442417
 20
-150.8897718184219
 30
0.0
 10
161.2344066972207
 20
-151.0371640073282
 30
0.0
 10
161.2259736910559
 20
-151.1844535847848
 30
0.0
 10
161.2237613687648
 20
-151.2230906145699
 30
0.0
 10
161.21790045629
 20
-151.2614090230298
 30
0.0
 10
161.2127519318536
 20
-151.3087257082246
 30
0.0
  0
SPLINE
  5
DD
330
79
100
AcDbEntity
  8
0
 62
    29
370
    18
100
AcDbSpline
210
0.0
220
0.0
230
1.0
 70
     8
 71
     3
 72
    17
 73
    13
 74
     0
 42
0.000000001
 43
0.00000001
 40
7.0
 40
7.0
 40
7.0
 40
7.0
 40
8.0
 40
8.0
 40
8.0
 40
9.0
 40
9.0
 40
9.0
 40
10.0
 40
10.0
 40
10.0
 40
11.0
 40
11.0
 40
11.0
 40
11.0
 10
154.3158090246122
 20
-152.03644337025
 30
0.0
 10
154.2275255160696
 20
-152.4243051448013
 30
0.0
 10
153.8231997469857
 20
-152.7169010599815
 30
0.0
 10
153.4609497871935
 20
-152.6630225626558
 30
0.0
 10
153.1326317782139
 20
-152.6141915465247
 30
0.0
 10
152.8498173410144
 20
-152.2336312303987
 30
0.0
 10
152.8290791868081
 20
-151.8127653638655
 30
0.0
 10
152.8069654671963
 20
-151.3639957210408
 30
0.0
 10
153.0591890776873
 20
-150.9534033277799
 30
0.0
 10
153.4163203607633
 20
-150.8568039031211
 30
0.0
 10
153.7756680579122
 20
-150.7596044846998
 30
0.0
 10
154.115591320041
 20
-150.9947911377691
 30
0.0
 10
154.2646005197042
 20
-151.4567729934159
 30
0.0
  0
SPLINE
  5
DE
330
79
100
AcDbEntity
  8
0
 62
    29
370
    18
100
AcDbSpline
210
0.0
220
0.0
230
1.0
 70
     8
 71
     3
 72
     8
 73
     4
 74
     0
 42
0.000000001
 43
0.00000001
 40
6.0
 40
6.0
 40
6.0
 40
6.0
 40
7.0
 40
7.0
 40
7.0
 40
7.0
 10
154.0132232304202
 20
-151.8149065323006
 30
0.0
 10
154.1138058013809
 20
-151.8885471411346
 30
0.0
 10
154.2156817097064
 20
-151.9631357590372
 30
0.0
 10
154.3158090246122
 20
-152.03644337025
 30
0.0
  0
SPLINE
  5
DF
330
79
100
AcDbEntity
  8
0
 62
    29
370
    18
100
AcDbSpline
210
0.0
220
0.0
230
1.0
 70
     8
 71
     3
 72
    14
 73
    10
 74
     0
 42
0.000000001
 43
0.00000001
 40
3.0
 40
3.0
 40
3.0
 40
3.0
 40
4.0
 40
4.0
 40
4.0
 40
5.0
 40
5.0
 40
5.0
 40
6.0
 40
6.0
 40
6.0
 40
6.0
 10
153.7614820137086
 20
-151.3576236074075
 30
0.0
 10
153.5857408710716
 20
-151.2337200454145
 30
0.0
 10
153.4420555445697
 20
-151.2723487352387
 30
0.0
 10
153.3478083304904
 20
-151.4559116194139
 30
0.0
 10
153.2378462808535
 20
-151.6700842369274
 30
0.0
 10
153.2728060580901
 20
-151.962912684174
 30
0.0
 10
153.4244257894237
 20
-152.0976732066933
 30
0.0
 10
153.5937455172645
 20
-152.2481650110217
 30
0.0
 10
153.7944302454491
 20
-152.1542163047294
 30
0.0
 10
154.0132232304202
 20
-151.8149065323006
 30
0.0
  0
SPLINE
  5
E0
330
79
100
AcDbEntity
  8
0
 62
    29
370
    18
100
AcDbSpline
210
0.0
220
0.0
230
1.0
 70
     8
 71
     3
 72
     8
 73
     4
 74
     0
 42
0.000000001
 43
0.00000001
 40
2.0
 40
2.0
 40
2.0
 40
2.0
 40
3.0
 40
3.0
 40
3.0
 40
3.0
 10
153.377791581183
 20
-151.6318233677716
 30
0.0
 10
153.5102396919877
 20
-151.5371712702682
 30
0.0
 10
153.6327704561428
 20
-151.4496062636497
 30
0.0
 10
153.7614820137086
 20
-151.3576236074075
 30
0.0
  0
SPLINE
  5
E1
330
79
100
AcDbEntity
  8
0
 62
    29
370
    18
100
AcDbSpline
210
0.0
220
0.0
230
1.0
 70
     8
 71
     3
 72
     8
 73
     4
 74
     0
 42
0.000000001
 43
0.00000001
 40
1.0
 40
1.0
 40
1.0
 40
1.0
 40
2.0
 40
2.0
 40
2.0
 40
2.0
 10
153.5387464296417
 20
-151.9923733805871
 30
0.0
 10
153.4840134351156
 20
-151.8697680018559
 30
0.0
 10
153.4329820514375
 20
-151.7554522331712
 30
0.0
 10
153.377791581183
 20
-151.6318233677716
 30
0.0
  0
SPLINE
  5
E2
330
79
100
AcDbEntity
  8
0
 62
    29
370
    18
100
AcDbSpline
210
0.0
220
0.0
230
1.0
 70
     8
 71
     3
 72
     8
 73
     4
 74
     0
 42
0.000000001
 43
0.00000001
 40
0.0
 40
0.0
 40
0.0
 40
0.0
 40
1.0
 40
1.0
 40
1.0
 40
1.0
 10
154.2646005197042
 20
-151.4567729934159
 30
0.0
 10
154.0223382865783
 20
-151.635535596175
 30
0.0
 10
153.7858985706941
 20
-151.8100024523667
 30
0.0
 10
153.5387464296417
 20
-151.9923733805871
 30
0.0
  0
SPLINE
  5
E3
330
79
100
AcDbEntity
  8
0
 62
    29
370
    18
100
AcDbSpline
210
0.0
220
0.0
230
1.0
 70
     8
 71
     3
 72
     8
 73
     4
 74
     0
 42
0.000000001
 43
0.00000001
 40
10.0
 40
10.0
 40
10.0
 40
10.0
 40
11.0
 40
11.0
 40
11.0
 40
11.0
 10
158.6374720378857
 20
-152.1834636386305
 30
0.0
 10
158.738404736495
 20
-152.2577585811716
 30
0.0
 10
158.8403824499856
 20
-152.3328224797507
 30
0.0
 10
158.9506308703595
 20
-152.4139738752725
 30
0.0
  0
SPLINE
  5
E4
330
79
100
AcDbEntity
  8
0
 62
    29
370
    18
100
AcDbSpline
210
0.0
220
0.0
230
1.0
 70
     8
 71
     3
 72
    14
 73
    10
 74
     0
 42
0.000000001
 43
0.00000001
 40
7.0
 40
7.0
 40
7.0
 40
7.0
 40
8.0
 40
8.0
 40
8.0
 40
9.0
 40
9.0
 40
9.0
 40
10.0
 40
10.0
 40
10.0
 40
10.0
 10
158.378059576378
 20
-151.7304642649056
 30
0.0
 10
158.2343414197139
 20
-151.6018954634729
 30
0.0
 10
158.0885985349366
 20
-151.6280463074278
 30
0.0
 10
157.9874143127774
 20
-151.7927850544287
 30
0.0
 10
157.8622946244884
 20
-151.9964940942706
 30
0.0
 10
157.8824267689146
 20
-152.2999006776647
 30
0.0
 10
158.0310973290829
 20
-152.4511375351333
 30
0.0
 10
158.1985092979533
 20
-152.6214385881759
 30
0.0
 10
158.3929654576182
 20
-152.5371215172061
 30
0.0
 10
158.6374720378857
 20
-152.1834636386305
 30
0.0
  0
SPLINE
  5
E5
330
79
100
AcDbEntity
  8
0
 62
    29
370
    18
100
AcDbSpline
210
0.0
220
0.0
230
1.0
 70
     8
 71
     3
 72
     8
 73
     4
 74
     0
 42
0.000000001
 43
0.00000001
 40
6.0
 40
6.0
 40
6.0
 40
6.0
 40
7.0
 40
7.0
 40
7.0
 40
7.0
 10
157.9992225695515
 20
-151.9993860935135
 30
0.0
 10
158.1282172816755
 20
-151.9078177152238
 30
0.0
 10
158.2516551902256
 20
-151.8201938122996
 30
0.0
 10
158.378059576378
 20
-151.7304642649056
 30
0.0
  0
SPLINE
  5
E6
330
79
100
AcDbEntity
  8
0
 62
    29
370
    18
100
AcDbSpline
210
0.0
220
0.0
230
1.0
 70
     8
 71
     3
 72
     8
 73
     4
 74
     0
 42
0.000000001
 43
0.00000001
 40
5.0
 40
5.0
 40
5.0
 40
5.0
 40
6.0
 40
6.0
 40
6.0
 40
6.0
 10
158.1608054283052
 20
-152.3610774650673
 30
0.0
 10
158.1071340417411
 20
-152.2409390592136
 30
0.0
 10
158.0559299304656
 20
-152.1263218725648
 30
0.0
 10
157.9992225695515
 20
-151.9993860935135
 30
0.0
  0
SPLINE
  5
E7
330
79
100
AcDbEntity
  8
0
 62
    29
370
    18
100
AcDbSpline
210
0.0
220
0.0
230
1.0
 70
     8
 71
     3
 72
     8
 73
     4
 74
     0
 42
0.000000001
 43
0.00000001
 40
4.0
 40
4.0
 40
4.0
 40
4.0
 40
5.0
 40
5.0
 40
5.0
 40
5.0
 10
158.8887922824692
 20
-151.8220948605669
 30
0.0
 10
158.6517455387168
 20
-151.9975981709698
 30
0.0
 10
158.4128853106185
 20
-152.1744443129595
 30
0.0
 10
158.1608054283052
 20
-152.3610774650673
 30
0.0
  0
SPLINE
  5
E8
330
79
100
AcDbEntity
  8
0
 62
    29
370
    18
100
AcDbSpline
210
0.0
220
0.0
230
1.0
 70
     8
 71
     3
 72
    17
 73
    13
 74
     0
 42
0.000000001
 43
0.00000001
 40
0.0
 40
0.0
 40
0.0
 40
0.0
 40
1.0
 40
1.0
 40
1.0
 40
2.0
 40
2.0
 40
2.0
 40
3.0
 40
3.0
 40
3.0
 40
4.0
 40
4.0
 40
4.0
 40
4.0
 10
158.9506308703595
 20
-152.4139738752725
 30
0.0
 10
158.7555181924583
 20
-152.8783276626814
 30
0.0
 10
158.3663619306406
 20
-153.1282579082217
 30
0.0
 10
158.0248552880855
 20
-153.0189297135414
 30
0.0
 10
157.6756760330311
 20
-152.9071452131065
 30
0.0
 10
157.432577401361
 20
-152.5109503377425
 30
0.0
 10
157.4480142322563
 20
-152.0788127707052
 30
0.0
 10
157.4625139028168
 20
-151.6729070005459
 30
0.0
 10
157.721778968681
 20
-151.3020166236943
 30
0.0
 10
158.0475034474103
 20
-151.2212187510886
 30
0.0
 10
158.4037297407807
 20
-151.1328548918036
 30
0.0
 10
158.7245820854096
 20
-151.3570764905308
 30
0.0
 10
158.8887922824692
 20
-151.8220948605669
 30
0.0
  0
SPLINE
  5
E9
330
79
100
AcDbEntity
  8
0
 62
    29
370
    18
100
AcDbSpline
210
0.0
220
0.0
230
1.0
 70
     8
 71
     3
 72
    17
 73
    13
 74
     0
 42
0.000000001
 43
0.00000001
 40
10.0
 40
10.0
 40
10.0
 40
10.0
 40
11.0
 40
11.0
 40
11.0
 40
12.0
 40
12.0
 40
12.0
 40
13.0
 40
13.0
 40
13.0
 40
14.0
 40
14.0
 40
14.0
 40
14.0
 10
163.8725060673407
 20
-153.4559180512687
 30
0.0
 10
163.8729012276074
 20
-153.3915173257222
 30
0.0
 10
163.8713225919912
 20
-153.3435174294143
 30
0.0
 10
163.8737743938329
 20
-153.2958338307757
 30
0.0
 10
163.9022115847841
 20
-152.7427962721549
 30
0.0
 10
163.9308182192903
 20
-152.1897706114737
 30
0.0
 10
163.9602821942439
 20
-151.6368150170192
 30
0.0
 10
163.9832453346172
 20
-151.2058612326764
 30
0.0
 10
164.2054347637285
 20
-150.9610166349405
 30
0.0
 10
164.5536925141966
 20
-150.9820894042678
 30
0.0
 10
164.6408767619336
 20
-150.9873648049955
 30
0.0
 10
164.7279392644651
 20
-150.9957112432596
 30
0.0
 10
164.8226508229245
 20
-151.0032507384145
 30
0.0
  0
SPLINE
  5
EA
330
79
100
AcDbEntity
  8
0
 62
    29
370
    18
100
AcDbSpline
210
0.0
220
0.0
230
1.0
 70
     8
 71
     3
 72
    17
 73
    13
 74
     0
 42
0.000000001
 43
0.00000001
 40
6.0
 40
6.0
 40
6.0
 40
6.0
 40
7.0
 40
7.0
 40
7.0
 40
8.0
 40
8.0
 40
8.0
 40
9.0
 40
9.0
 40
9.0
 40
10.0
 40
10.0
 40
10.0
 40
10.0
 10
164.4042598410061
 20
-152.2476998973414
 30
0.0
 10
164.3999853443595
 20
-152.3295417891283
 30
0.0
 10
164.3965190934058
 20
-152.3959966585171
 30
0.0
 10
164.3930429447436
 20
-152.4624507400009
 30
0.0
 10
164.3772878364894
 20
-152.7636381215737
 30
0.0
 10
164.3593145247403
 20
-153.0646880063478
 30
0.0
 10
164.3470754373735
 20
-153.3660927929485
 30
0.0
 10
164.34322813659
 20
-153.4608428578197
 30
0.0
 10
164.3181175462346
 20
-153.4977400128997
 30
0.0
 10
164.2380488776146
 20
-153.4867716540118
 30
0.0
 10
164.1196927969301
 20
-153.4705590673917
 30
0.0
 10
164.0002814776343
 20
-153.466089587906
 30
0.0
 10
163.8725060673407
 20
-153.4559180512687
 30
0.0
  0
SPLINE
  5
EB
330
79
100
AcDbEntity
  8
0
 62
    29
370
    18
100
AcDbSpline
210
0.0
220
0.0
230
1.0
 70
    24
 71
     3
 72
     8
 73
     4
 74
     0
 42
0.000000001
 43
0.00000001
 40
5.0
 40
5.0
 40
5.0
 40
5.0
 40
6.0
 40
6.0
 40
6.0
 40
6.0
 10
164.7637807950763
 20
-152.2763194928309
 30
0.0
 10
164.644216268813
 20
-152.2668015820168
 30
0.0
 10
164.5344141843525
 20
-152.2580608084812
 30
0.0
 10
164.4042598410061
 20
-152.2476998973414
 30
0.0
  0
SPLINE
  5
EC
330
79
100
AcDbEntity
  8
0
 62
    29
370
    18
100
AcDbSpline
210
0.0
220
0.0
230
1.0
 70
     8
 71
     3
 72
    14
 73
    10
 74
     0
 42
0.000000001
 43
0.00000001
 40
2.0
 40
2.0
 40
2.0
 40
2.0
 40
3.0
 40
3.0
 40
3.0
 40
4.0
 40
4.0
 40
4.0
 40
5.0
 40
5.0
 40
5.0
 40
5.0
 10
164.4346214794246
 20
-151.7239115859654
 30
0.0
 10
164.5277862456816
 20
-151.7313279490286
 30
0.0
 10
164.6144086744995
 20
-151.7419297925938
 30
0.0
 10
164.7011617158373
 20
-151.7439449408174
 30
0.0
 10
164.7693210694789
 20
-151.7455285897805
 30
0.0
 10
164.7925195844054
 20
-151.7810235991225
 30
0.0
 10
164.7862157615139
 20
-151.8633122305811
 30
0.0
 10
164.7760930716543
 20
-151.9954501671924
 30
0.0
 10
164.771515039121
 20
-152.1282353518567
 30
0.0
 10
164.7637807950763
 20
-152.2763194928309
 30
0.0
  0
SPLINE
  5
ED
330
79
100
AcDbEntity
  8
0
 62
    29
370
    18
100
AcDbSpline
210
0.0
220
0.0
230
1.0
 70
     8
 71
     3
 72
     8
 73
     4
 74
     0
 42
0.000000001
 43
0.00000001
 40
1.0
 40
1.0
 40
1.0
 40
1.0
 40
2.0
 40
2.0
 40
2.0
 40
2.0
 10
164.7962979251749
 20
-151.5078179853342
 30
0.0
 10
164.6802172151996
 20
-151.593227906042
 30
0.0
 10
164.4641161072838
 20
-151.3813921299815
 30
0.0
 10
164.4346214794246
 20
-151.7239115859654
 30
0.0
  0
SPLINE
  5
EE
330
79
100
AcDbEntity
  8
0
 62
    29
370
    18
100
AcDbSpline
210
0.0
220
0.0
230
1.0
 70
    24
 71
     3
 72
     8
 73
     4
 74
     0
 42
0.000000001
 43
0.00000001
 40
0.0
 40
0.0
 40
0.0
 40
0.0
 40
1.0
 40
1.0
 40
1.0
 40
1.0
 10
164.8226508229245
 20
-151.0032507384145
 30
0.0
 10
164.8132983789397
 20
-151.1823178360224
 30
0.0
 10
164.8046723757774
 20
-151.3474760933422
 30
0.0
 10
164.7962979251749
 20
-151.5078179853342
 30
0.0
  0
SPLINE
  5
EF
330
79
100
AcDbEntity
  8
0
 62
    29
370
    18
100
AcDbSpline
210
0.0
220
0.0
230
1.0
 70
     8
 71
     3
 72
    23
 73
    19
 74
     0
 42
0.000000001
 43
0.00000001
 40
9.0
 40
9.0
 40
9.0
 40
9.0
 40
10.0
 40
10.0
 40
10.0
 40
11.0
 40
11.0
 40
11.0
 40
12.0
 40
12.0
 40
12.0
 40
13.0
 40
13.0
 40
13.0
 40
14.0
 40
14.0
 40
14.0
 40
15.0
 40
15.0
 40
15.0
 40
15.0
 10
165.5677137252943
 20
-153.068807719267
 30
0.0
 10
165.5600752471983
 20
-153.2150582720336
 30
0.0
 10
165.5555363895533
 20
-153.3661827981396
 30
0.0
 10
165.5411180542125
 20
-153.5158566889817
 30
0.0
 10
165.5386674586873
 20
-153.541294965967
 30
0.0
 10
165.492596375342
 20
-153.5812471375363
 30
0.0
 10
165.4687723245275
 20
-153.5790984078414
 30
0.0
 10
165.3494982478937
 20
-153.5683397876402
 30
0.0
 10
165.2278820214165
 20
-153.5604581809257
 30
0.0
 10
165.1127837484661
 20
-153.5240941358627
 30
0.0
 10
164.9215149599795
 20
-153.4636648053767
 30
0.0
 10
164.7762768075794
 20
-153.2332475506618
 30
0.0
 10
164.7851994447407
 20
-152.9810762899964
 30
0.0
 10
164.8040628603024
 20
-152.4479400836696
 30
0.0
 10
164.8387917676393
 20
-151.9156578400649
 30
0.0
 10
164.8675131243983
 20
-151.3830666498789
 30
0.0
 10
164.8679696132527
 20
-151.3746013307459
 30
0.0
 10
164.8748015585021
 20
-151.3666602296808
 30
0.0
 10
164.8858642458969
 20
-151.3431799817482
 30
0.0
  0
SPLINE
  5
F0
330
79
100
AcDbEntity
  8
0
 62
    29
370
    18
100
AcDbSpline
210
0.0
220
0.0
230
1.0
 70
     8
 71
     3
 72
    14
 73
    10
 74
     0
 42
0.000000001
 43
0.00000001
 40
6.0
 40
6.0
 40
6.0
 40
6.0
 40
7.0
 40
7.0
 40
7.0
 40
8.0
 40
8.0
 40
8.0
 40
9.0
 40
9.0
 40
9.0
 40
9.0
 10
165.2754407212954
 20
-152.3184177543723
 30
0.0
 10
165.265054683417
 20
-152.5172746158754
 30
0.0
 10
165.2479538180714
 20
-152.6980151119698
 30
0.0
 10
165.2512797171297
 20
-152.8781809936189
 30
0.0
 10
165.2521761557863
 20
-152.9267360036915
 30
0.0
 10
165.3081416091445
 20
-152.992759576618
 30
0.0
 10
165.3512199837793
 20
-153.016510545269
 30
0.0
 10
165.4110855621938
 20
-153.0495171338093
 30
0.0
 10
165.4826348541357
 20
-153.0502258739606
 30
0.0
 10
165.5677137252943
 20
-153.068807719267
 30
0.0
  0
SPLINE
  5
F1
330
79
100
AcDbEntity
  8
0
 62
    29
370
    18
100
AcDbSpline
210
0.0
220
0.0
230
1.0
 70
    24
 71
     3
 72
     8
 73
     4
 74
     0
 42
0.000000001
 43
0.00000001
 40
5.0
 40
5.0
 40
5.0
 40
5.0
 40
6.0
 40
6.0
 40
6.0
 40
6.0
 10
165.5847901807839
 20
-152.3430434578116
 30
0.0
 10
165.4881087946404
 20
-152.3353471549086
 30
0.0
 10
165.3868748282444
 20
-152.3272884447419
 30
0.0
 10
165.2754407212954
 20
-152.3184177543723
 30
0.0
  0
SPLINE
  5
F2
330
79
100
AcDbEntity
  8
0
 62
    29
370
    18
100
AcDbSpline
210
0.0
220
0.0
230
1.0
 70
    24
 71
     3
 72
     8
 73
     4
 74
     0
 42
0.000000001
 43
0.00000001
 40
4.0
 40
4.0
 40
4.0
 40
4.0
 40
5.0
 40
5.0
 40
5.0
 40
5.0
 10
165.6124870106021
 20
-151.8127445395567
 30
0.0
 10
165.6029891153539
 20
-151.9945965279585
 30
0.0
 10
165.5943825064811
 20
-152.1593834514202
 30
0.0
 10
165.5847901807839
 20
-152.3430434578116
 30
0.0
  0
SPLINE
  5
F3
330
79
100
AcDbEntity
  8
0
 62
    29
370
    18
100
AcDbSpline
210
0.0
220
0.0
230
1.0
 70
    24
 71
     3
 72
     8
 73
     4
 74
     0
 42
0.000000001
 43
0.00000001
 40
3.0
 40
3.0
 40
3.0
 40
3.0
 40
4.0
 40
4.0
 40
4.0
 40
4.0
 10
165.3005734942176
 20
-151.7879147248675
 30
0.0
 10
165.4069221941662
 20
-151.7963805924029
 30
0.0
 10
165.5046001331247
 20
-151.8041562256994
 30
0.0
 10
165.6124870106021
 20
-151.8127445395567
 30
0.0
  0
SPLINE
  5
F4
330
79
100
AcDbEntity
  8
0
 62
    29
370
    18
100
AcDbSpline
210
0.0
220
0.0
230
1.0
 70
     8
 71
     3
 72
    14
 73
    10
 74
     0
 42
0.000000001
 43
0.00000001
 40
0.0
 40
0.0
 40
0.0
 40
0.0
 40
1.0
 40
1.0
 40
1.0
 40
2.0
 40
2.0
 40
2.0
 40
3.0
 40
3.0
 40
3.0
 40
3.0
 10
164.8858642458969
 20
-151.3431799817482
 30
0.0
 10
165.006315716995
 20
-151.3527684976327
 30
0.0
 10
165.1335646065967
 20
-151.3581534162326
 30
0.0
 10
165.2594258536473
 20
-151.3773818156362
 30
0.0
 10
165.2815404253091
 20
-151.3807603175889
 30
0.0
 10
165.3127946722789
 20
-151.4414005316349
 30
0.0
 10
165.3139572924867
 20
-151.4768878363019
 30
0.0
 10
165.3171521768249
 20
-151.5744087194814
 30
0.0
 10
165.3065953915182
 20
-151.672616127676
 30
0.0
 10
165.3005734942176
 20
-151.7879147248675
 30
0.0
  0
SPLINE
  5
F5
330
79
100
AcDbEntity
  8
0
 62
    29
370
    18
100
AcDbSpline
210
0.0
220
0.0
230
1.0
 70
    24
 71
     3
 72
     8
 73
     4
 74
     0
 42
0.000000001
 43
0.00000001
 40
8.0
 40
8.0
 40
8.0
 40
8.0
 40
9.0
 40
9.0
 40
9.0
 40
9.0
 10
159.0846373279823
 20
-151.3301584759609
 30
0.0
 10
159.212588330994
 20
-151.3403439906219
 30
0.0
 10
159.3418253032058
 20
-151.3506318746105
 30
0.0
 10
159.4820069437543
 20
-151.36179100679
 30
0.0
  0
SPLINE
  5
F6
330
79
100
AcDbEntity
  8
0
 62
    29
370
    18
100
AcDbSpline
210
0.0
220
0.0
230
1.0
 70
    24
 71
     3
 72
     8
 73
     4
 74
     0
 42
0.000000001
 43
0.00000001
 40
7.0
 40
7.0
 40
7.0
 40
7.0
 40
8.0
 40
8.0
 40
8.0
 40
8.0
 10
158.9944270424393
 20
-153.0573748090698
 30
0.0
 10
159.0244580063047
 20
-152.4823852613506
 30
0.0
 10
159.0542475993128
 20
-151.9120171343398
 30
0.0
 10
159.0846373279823
 20
-151.3301584759609
 30
0.0
  0
SPLINE
  5
F7
330
79
100
AcDbEntity
  8
0
 62
    29
370
    18
100
AcDbSpline
210
0.0
220
0.0
230
1.0
 70
    24
 71
     3
 72
     8
 73
     4
 74
     0
 42
0.000000001
 43
0.00000001
 40
6.0
 40
6.0
 40
6.0
 40
6.0
 40
7.0
 40
7.0
 40
7.0
 40
7.0
 10
159.4516169542124
 20
-153.0937693229054
 30
0.0
 10
159.29360037249
 20
-153.0811904437101
 30
0.0
 10
159.1479991855628
 20
-153.0695998895968
 30
0.0
 10
158.9944270424393
 20
-153.0573748090698
 30
0.0
  0
SPLINE
  5
F8
330
79
100
AcDbEntity
  8
0
 62
    29
370
    18
100
AcDbSpline
210
0.0
220
0.0
230
1.0
 70
     8
 71
     3
 72
    14
 73
    10
 74
     0
 42
0.000000001
 43
0.00000001
 40
3.0
 40
3.0
 40
3.0
 40
3.0
 40
4.0
 40
4.0
 40
4.0
 40
5.0
 40
5.0
 40
5.0
 40
6.0
 40
6.0
 40
6.0
 40
6.0
 10
159.8619755809499
 20
-151.8969416041406
 30
0.0
 10
159.8373571496927
 20
-151.9018938440129
 30
0.0
 10
159.8107776521892
 20
-151.9109018332644
 30
0.0
 10
159.7839753157792
 20
-151.9120539253162
 30
0.0
 10
159.5656584659716
 20
-151.9214382057011
 30
0.0
 10
159.5128705761424
 20
-151.981360327098
 30
0.0
 10
159.4958876504632
 20
-152.2570058915299
 30
0.0
 10
159.4789209288815
 20
-152.5323693951636
 30
0.0
 10
159.4665338219139
 20
-152.8081626719644
 30
0.0
 10
159.4516169542124
 20
-153.0937693229054
 30
0.0
  0
SPLINE
  5
F9
330
79
100
AcDbEntity
  8
0
 62
    29
370
    18
100
AcDbSpline
210
0.0
220
0.0
230
1.0
 70
    24
 71
     3
 72
     8
 73
     4
 74
     0
 42
0.000000001
 43
0.00000001
 40
2.0
 40
2.0
 40
2.0
 40
2.0
 40
3.0
 40
3.0
 40
3.0
 40
3.0
 10
159.8883620966506
 20
-151.3917306892371
 30
0.0
 10
159.8797553104975
 20
-151.5565210069742
 30
0.0
 10
159.8710958134804
 20
-151.7223205562826
 30
0.0
 10
159.8619755809499
 20
-151.8969416041406
 30
0.0
  0
SPLINE
  5
FA
330
79
100
AcDbEntity
  8
0
 62
    29
370
    18
100
AcDbSpline
210
0.0
220
0.0
230
1.0
 70
     8
 71
     3
 72
     8
 73
     4
 74
     0
 42
0.000000001
 43
0.00000001
 40
1.0
 40
1.0
 40
1.0
 40
1.0
 40
2.0
 40
2.0
 40
2.0
 40
2.0
 10
159.4797081199206
 20
-151.5674999160065
 30
0.0
 10
159.6428077980116
 20
-151.3822933500537
 30
0.0
 10
159.6943561297053
 20
-151.3602004229558
 30
0.0
 10
159.8883620966506
 20
-151.3917306892371
 30
0.0
  0
SPLINE
  5
FB
330
79
100
AcDbEntity
  8
0
 62
    29
370
    18
100
AcDbSpline
210
0.0
220
0.0
230
1.0
 70
     8
 71
     3
 72
     8
 73
     4
 74
     0
 42
0.000000001
 43
0.00000001
 40
0.0
 40
0.0
 40
0.0
 40
0.0
 40
1.0
 40
1.0
 40
1.0
 40
1.0
 10
159.4820069437543
 20
-151.36179100679
 30
0.0
 10
159.4811916258117
 20
-151.4348001419996
 30
0.0
 10
159.4804975639016
 20
-151.496903223745
 30
0.0
 10
159.4797081199206
 20
-151.5674999160065
 30
0.0
  0
SPLINE
  5
FC
330
79
100
AcDbEntity
  8
0
 62
    29
370
    18
100
AcDbSpline
210
0.0
220
0.0
230
1.0
 70
     8
 71
     3
 72
    17
 73
    13
 74
     0
 42
0.000000001
 43
0.00000001
 40
5.0
 40
5.0
 40
5.0
 40
5.0
 40
6.0
 40
6.0
 40
6.0
 40
7.0
 40
7.0
 40
7.0
 40
8.0
 40
8.0
 40
8.0
 40
9.0
 40
9.0
 40
9.0
 40
9.0
 10
162.1700808541661
 20
-151.5750806586464
 30
0.0
 10
162.1623705900179
 20
-151.7227056671426
 30
0.0
 10
162.1597823476135
 20
-151.8702635110062
 30
0.0
 10
162.1429761160833
 20
-152.0153102732751
 30
0.0
 10
162.1394105134148
 20
-152.0460841275232
 30
0.0
 10
162.0851802052947
 20
-152.0872339051072
 30
0.0
 10
162.0522210211512
 20
-152.0903646921293
 30
0.0
 10
161.8344309948706
 20
-152.111052681302
 30
0.0
 10
161.7872904899168
 20
-152.1634001054908
 30
0.0
 10
161.7724916293352
 20
-152.4293036200275
 30
0.0
 10
161.7571269819611
 20
-152.7053704469492
 30
0.0
 10
161.7434360412437
 20
-152.9815795980026
 30
0.0
 10
161.7280489477108
 20
-153.2761894544302
 30
0.0
  0
SPLINE
  5
FD
330
79
100
AcDbEntity
  8
0
 62
    29
370
    18
100
AcDbSpline
210
0.0
220
0.0
230
1.0
 70
     8
 71
     3
 72
     8
 73
     4
 74
     0
 42
0.000000001
 43
0.00000001
 40
4.0
 40
4.0
 40
4.0
 40
4.0
 40
5.0
 40
5.0
 40
5.0
 40
5.0
 10
161.7493509993827
 20
-151.7835625601078
 30
0.0
 10
161.8570862186614
 20
-151.5821850040344
 30
0.0
 10
161.9921805307206
 20
-151.5314509172541
 30
0.0
 10
162.1700808541661
 20
-151.5750806586464
 30
0.0
  0
SPLINE
  5
FE
330
79
100
AcDbEntity
  8
0
 62
    29
370
    18
100
AcDbSpline
210
0.0
220
0.0
230
1.0
 70
     8
 71
     3
 72
     8
 73
     4
 74
     0
 42
0.000000001
 43
0.00000001
 40
3.0
 40
3.0
 40
3.0
 40
3.0
 40
4.0
 40
4.0
 40
4.0
 40
4.0
 10
161.7466016539644
 20
-151.5408441058809
 30
0.0
 10
161.7473963125784
 20
-151.6110222397884
 30
0.0
 10
161.7481914679805
 20
-151.6812049577622
 30
0.0
 10
161.7493509993827
 20
-151.7835625601078
 30
0.0
  0
SPLINE
  5
FF
330
79
100
AcDbEntity
  8
0
 62
    29
370
    18
100
AcDbSpline
210
0.0
220
0.0
230
1.0
 70
    24
 71
     3
 72
     8
 73
     4
 74
     0
 42
0.000000001
 43
0.00000001
 40
2.0
 40
2.0
 40
2.0
 40
2.0
 40
3.0
 40
3.0
 40
3.0
 40
3.0
 10
161.3581777355864
 20
-151.5099236955492
 30
0.0
 10
161.4856525487465
 20
-151.5200713032107
 30
0.0
 10
161.6115928501964
 20
-151.5300967563649
 30
0.0
 10
161.7466016539644
 20
-151.5408441058809
 30
0.0
  0
SPLINE
  5
100
330
79
100
AcDbEntity
  8
0
 62
    29
370
    18
100
AcDbSpline
210
0.0
220
0.0
230
1.0
 70
    24
 71
     3
 72
     8
 73
     4
 74
     0
 42
0.000000001
 43
0.00000001
 40
1.0
 40
1.0
 40
1.0
 40
1.0
 40
2.0
 40
2.0
 40
2.0
 40
2.0
 10
161.2678413339794
 20
-153.2395547170196
 30
0.0
 10
161.2980865923303
 20
-152.6604621677681
 30
0.0
 10
161.3278638940156
 20
-152.090329377266
 30
0.0
 10
161.3581777355864
 20
-151.5099236955492
 30
0.0
  0
SPLINE
  5
101
330
79
100
AcDbEntity
  8
0
 62
    29
370
    18
100
AcDbSpline
210
0.0
220
0.0
230
1.0
 70
    24
 71
     3
 72
     8
 73
     4
 74
     0
 42
0.000000001
 43
0.00000001
 40
0.0
 40
0.0
 40
0.0
 40
0.0
 40
1.0
 40
1.0
 40
1.0
 40
1.0
 10
161.7280489477108
 20
-153.2761894544302
 30
0.0
 10
161.5675084498058
 20
-153.2634096593792
 30
0.0
 10
161.4218555748392
 20
-153.2518149906506
 30
0.0
 10
161.2678413339794
 20
-153.2395547170196
 30
0.0
  0
SPLINE
  5
102
330
79
100
AcDbEntity
  8
0
 62
    29
370
    18
100
AcDbSpline
210
0.0
220
0.0
230
1.0
 70
     8
 71
     3
 72
    11
 73
     7
 74
     0
 42
0.000000001
 43
0.00000001
 40
2.0
 40
2.0
 40
2.0
 40
2.0
 40
3.0
 40
3.0
 40
3.0
 40
4.0
 40
4.0
 40
4.0
 40
4.0
 10
148.1468656758436
 20
-150.9538070100987
 30
0.0
 10
148.1389990536134
 20
-151.1101486827274
 30
0.0
 10
148.0325691731189
 20
-151.2254558555715
 30
0.0
 10
147.9054412301693
 20
-151.2153694898823
 30
0.0
 10
147.7801638161374
 20
-151.2054299807357
 30
0.0
 10
147.6814966186493
 20
-151.0702795466102
 30
0.0
 10
147.6893156602247
 20
-150.9193313836366
 30
0.0
  0
SPLINE
  5
103
330
79
100
AcDbEntity
  8
0
 62
    29
370
    18
100
AcDbSpline
210
0.0
220
0.0
230
1.0
 70
     8
 71
     3
 72
    11
 73
     7
 74
     0
 42
0.000000001
 43
0.00000001
 40
0.0
 40
0.0
 40
0.0
 40
0.0
 40
1.0
 40
1.0
 40
1.0
 40
2.0
 40
2.0
 40
2.0
 40
2.0
 10
147.6893156602247
 20
-150.9193313836366
 30
0.0
 10
147.6970028781824
 20
-150.770935380811
 30
0.0
 10
147.8130916852445
 20
-150.6443548127908
 30
0.0
 10
147.9329987387801
 20
-150.6536259559612
 30
0.0
 10
148.0553416577285
 20
-150.6630853250743
 30
0.0
 10
148.1544926230398
 20
-150.8022516319665
 30
0.0
 10
148.1468656758436
 20
-150.9538070100987
 30
0.0
  0
ENDBLK
  5
7B
330
79
100
AcDbEntity
  8
0
100
AcDbBlockEnd
  0
BLOCK
  5
105
330
104
100
AcDbEntity
  8
0
100
AcDbBlockBegin
  2
ﾌﾞﾛｯｸ3
 70
     0
 10
0.0
 20
0.0
 30
0.0
  3
ﾌﾞﾛｯｸ3
  1

  0
LINE
  5
107
330
104
100
AcDbEntity
  8
_U+30EC_U+30A4_U+30E4_U+30FC_2
370
    18
100
AcDbLine
 10
165.9154353263
 20
-152.2736447477
 30
0.0
 11
165.9315605965
 21
-151.9649013498
 31
0.0
  0
LINE
  5
108
330
104
100
AcDbEntity
  8
_U+30EC_U+30A4_U+30E4_U+30FC_2
370
    18
100
AcDbLine
 10
166.0737065837
 20
-152.1287308917
 30
0.0
 11
166.0734465749
 21
-152.133709164
 31
0.0
  0
LINE
  5
109
330
104
100
AcDbEntity
  8
_U+30EC_U+30A4_U+30E4_U+30FC_2
370
    18
100
AcDbLine
 10
166.1276862295
 20
-152.2905409395
 30
0.0
 11
166.0708660395
 21
-152.2860177793
 31
0.0
  0
LINE
  5
10A
330
104
100
AcDbEntity
  8
_U+30EC_U+30A4_U+30E4_U+30FC_2
370
    18
100
AcDbLine
 10
165.9760761213
 20
-152.1528615571
 30
0.0
 11
165.9695428104
 21
-152.2779519634
 31
0.0
  0
LINE
  5
10B
330
104
100
AcDbEntity
  8
_U+30EC_U+30A4_U+30E4_U+30FC_2
370
    18
100
AcDbLine
 10
165.9695428104
 20
-152.2779519634
 30
0.0
 11
165.9154353263
 21
-152.2736447477
 31
0.0
  0
LINE
  5
10C
330
104
100
AcDbEntity
  8
_U+30EC_U+30A4_U+30E4_U+30FC_2
370
    18
100
AcDbLine
 10
165.984718608
 20
-152.0127603599
 30
0.0
 11
165.9799249921
 21
-152.1045415986
 31
0.0
  0
SPLINE
  5
10D
330
104
100
AcDbEntity
  8
_U+30EC_U+30A4_U+30E4_U+30FC_2
370
    18
100
AcDbSpline
210
0.0
220
0.0
230
1.0
 70
     8
 71
     3
 72
    11
 73
     7
 74
     0
 42
0.000000001
 43
0.00000001
 40
2.0
 40
2.0
 40
2.0
 40
2.0
 40
3.0
 40
3.0
 40
3.0
 40
4.0
 40
4.0
 40
4.0
 40
4.0
 10
166.002414143357
 20
-152.4280837474616
 30
0.0
 10
165.8617933377273
 20
-152.4168896556321
 30
0.0
 10
165.7580017632624
 20
-152.2728371370934
 30
0.0
 10
165.7669791564371
 20
-152.1009509710198
 30
0.0
 10
165.7760416433875
 20
-151.9274355521874
 30
0.0
 10
165.8964067540256
 20
-151.8063168435184
 30
0.0
 10
166.0343148538097
 20
-151.8172949909271
 30
0.0
  0
SPLINE
  5
10E
330
104
100
AcDbEntity
  8
_U+30EC_U+30A4_U+30E4_U+30FC_2
370
    18
100
AcDbSpline
210
0.0
220
0.0
230
1.0
 70
     8
 71
     3
 72
    11
 73
     7
 74
     0
 42
0.000000001
 43
0.00000001
 40
0.0
 40
0.0
 40
0.0
 40
0.0
 40
1.0
 40
1.0
 40
1.0
 40
2.0
 40
2.0
 40
2.0
 40
2.0
 10
166.0343148538097
 20
-151.8172949909271
 30
0.0
 10
166.176255354172
 20
-151.828594136799
 30
0.0
 10
166.2787437387348
 20
-151.9708159981611
 30
0.0
 10
166.2698561667644
 20
-152.1409823974328
 30
0.0
 10
166.2608787735884
 20
-152.3128685635058
 30
0.0
 10
166.1443546437194
 20
-152.4393828933342
 30
0.0
 10
166.002414143357
 20
-152.4280837474616
 30
0.0
  0
SPLINE
  5
10F
330
104
100
AcDbEntity
  8
_U+30EC_U+30A4_U+30E4_U+30FC_2
370
    18
100
AcDbSpline
210
0.0
220
0.0
230
1.0
 70
     8
 71
     3
 72
    11
 73
     7
 74
     0
 42
0.000000001
 43
0.00000001
 40
2.0
 40
2.0
 40
2.0
 40
2.0
 40
3.0
 40
3.0
 40
3.0
 40
4.0
 40
4.0
 40
4.0
 40
4.0
 10
166.0298726491249
 20
-151.8755656577467
 30
0.0
 10
165.9204113025133
 20
-151.8668520085786
 30
0.0
 10
165.8321770969669
 20
-151.9704417202583
 30
0.0
 10
165.8250292199366
 20
-152.107298952013
 30
0.0
 10
165.8173613253966
 20
-152.2541127284067
 30
0.0
 10
165.9041566126819
 20
-152.3599107712225
 30
0.0
 10
166.0055531581376
 20
-152.3679824234648
 30
0.0
  0
SPLINE
  5
110
330
104
100
AcDbEntity
  8
_U+30EC_U+30A4_U+30E4_U+30FC_2
370
    18
100
AcDbSpline
210
0.0
220
0.0
230
1.0
 70
     8
 71
     3
 72
    11
 73
     7
 74
     0
 42
0.000000001
 43
0.00000001
 40
0.0
 40
0.0
 40
0.0
 40
0.0
 40
1.0
 40
1.0
 40
1.0
 40
2.0
 40
2.0
 40
2.0
 40
2.0
 10
166.0055531581376
 20
-152.3679824234648
 30
0.0
 10
166.1163341994838
 20
-152.3768011266733
 30
0.0
 10
166.203158889088
 20
-152.2748261277545
 30
0.0
 10
166.2103067661189
 20
-152.1379688959998
 30
0.0
 10
166.2174546431498
 20
-152.0011116642444
 30
0.0
 10
166.1407270068472
 20
-151.8843901972901
 30
0.0
 10
166.0298726491249
 20
-151.8755656577467
 30
0.0
  0
SPLINE
  5
111
330
104
100
AcDbEntity
  8
_U+30EC_U+30A4_U+30E4_U+30FC_2
370
    18
100
AcDbSpline
210
0.0
220
0.0
230
1.0
 70
     8
 71
     3
 72
     8
 73
     4
 74
     0
 42
0.000000001
 43
0.00000001
 40
1.0
 40
1.0
 40
1.0
 40
1.0
 40
2.0
 40
2.0
 40
2.0
 40
2.0
 10
165.9315605965025
 20
-151.9649013498389
 30
0.0
 10
165.9547686303662
 20
-151.9617498505873
 30
0.0
 10
165.9847950870261
 20
-151.9591411305539
 30
0.0
 10
166.0240193472002
 20
-151.9622635701405
 30
0.0
  0
SPLINE
  5
112
330
104
100
AcDbEntity
  8
_U+30EC_U+30A4_U+30E4_U+30FC_2
370
    18
100
AcDbSpline
210
0.0
220
0.0
230
1.0
 70
     8
 71
     3
 72
     8
 73
     4
 74
     0
 42
0.000000001
 43
0.00000001
 40
2.0
 40
2.0
 40
2.0
 40
2.0
 40
3.0
 40
3.0
 40
3.0
 40
3.0
 10
166.0240193472002
 20
-151.9622635701405
 30
0.0
 10
166.0685957026858
 20
-151.9658120622326
 30
0.0
 10
166.132960676304
 20
-151.9809337639457
 30
0.0
 10
166.1287768990737
 20
-152.061038691263
 30
0.0
  0
SPLINE
  5
113
330
104
100
AcDbEntity
  8
_U+30EC_U+30A4_U+30E4_U+30FC_2
370
    18
100
AcDbSpline
210
0.0
220
0.0
230
1.0
 70
     8
 71
     3
 72
     8
 73
     4
 74
     0
 42
0.000000001
 43
0.00000001
 40
3.0
 40
3.0
 40
3.0
 40
3.0
 40
4.0
 40
4.0
 40
4.0
 40
4.0
 10
166.1287768990737
 20
-152.061038691263
 30
0.0
 10
166.1268575617215
 20
-152.0977873923812
 30
0.0
 10
166.1026000379747
 20
-152.1210330089951
 30
0.0
 10
166.0737065836699
 20
-152.1287308917252
 30
0.0
  0
SPLINE
  5
114
330
104
100
AcDbEntity
  8
_U+30EC_U+30A4_U+30E4_U+30FC_2
370
    18
100
AcDbSpline
210
0.0
220
0.0
230
1.0
 70
     8
 71
     3
 72
     8
 73
     4
 74
     0
 42
0.000000001
 43
0.00000001
 40
5.0
 40
5.0
 40
5.0
 40
5.0
 40
6.0
 40
6.0
 40
6.0
 40
6.0
 10
166.0734465749156
 20
-152.133709164046
 30
0.0
 10
166.097189549821
 20
-152.1456880498345
 30
0.0
 10
166.1080505692933
 20
-152.1717292712369
 30
0.0
 10
166.1127794671894
 20
-152.2122792570936
 30
0.0
  0
SPLINE
  5
115
330
104
100
AcDbEntity
  8
_U+30EC_U+30A4_U+30E4_U+30FC_2
370
    18
100
AcDbSpline
210
0.0
220
0.0
230
1.0
 70
     8
 71
     3
 72
     8
 73
     4
 74
     0
 42
0.000000001
 43
0.00000001
 40
6.0
 40
6.0
 40
6.0
 40
6.0
 40
7.0
 40
7.0
 40
7.0
 40
7.0
 10
166.1127794671894
 20
-152.2122792570936
 30
0.0
 10
166.118404913488
 20
-152.2596264997746
 30
0.0
 10
166.1228706565007
 20
-152.2784327391754
 30
0.0
 10
166.1276862294722
 20
-152.2905409394542
 30
0.0
  0
SPLINE
  5
116
330
104
100
AcDbEntity
  8
_U+30EC_U+30A4_U+30E4_U+30FC_2
370
    18
100
AcDbSpline
210
0.0
220
0.0
230
1.0
 70
     8
 71
     3
 72
     8
 73
     4
 74
     0
 42
0.000000001
 43
0.00000001
 40
8.0
 40
8.0
 40
8.0
 40
8.0
 40
9.0
 40
9.0
 40
9.0
 40
9.0
 10
166.0708660395022
 20
-152.2860177793053
 30
0.0
 10
166.0647307717962
 20
-152.2738045249822
 30
0.0
 10
166.0606999525176
 20
-152.2466709937031
 30
0.0
 10
166.05595927722
 20
-152.2077560969434
 30
0.0
  0
SPLINE
  5
117
330
104
100
AcDbEntity
  8
_U+30EC_U+30A4_U+30E4_U+30FC_2
370
    18
100
AcDbSpline
210
0.0
220
0.0
230
1.0
 70
     8
 71
     3
 72
     8
 73
     4
 74
     0
 42
0.000000001
 43
0.00000001
 40
9.0
 40
9.0
 40
9.0
 40
9.0
 40
10.0
 40
10.0
 40
10.0
 40
10.0
 10
166.05595927722
 20
-152.2077560969434
 30
0.0
 10
166.0490259135878
 20
-152.158668711123
 30
0.0
 10
166.0273975832129
 20
-152.1569469920988
 30
0.0
 10
165.9760761213051
 20
-152.1528615571245
 30
0.0
  0
SPLINE
  5
118
330
104
100
AcDbEntity
  8
_U+30EC_U+30A4_U+30E4_U+30FC_2
370
    18
100
AcDbSpline
210
0.0
220
0.0
230
1.0
 70
     8
 71
     3
 72
     8
 73
     4
 74
     0
 42
0.000000001
 43
0.00000001
 40
0.0
 40
0.0
 40
0.0
 40
0.0
 40
1.0
 40
1.0
 40
1.0
 40
1.0
 10
165.9799249921054
 20
-152.1045415986084
 30
0.0
 10
166.0218619581213
 20
-152.1078799826152
 30
0.0
 10
166.0677580083428
 20
-152.111533528749
 30
0.0
 10
166.0701973632035
 20
-152.0648282829918
 30
0.0
  0
SPLINE
  5
119
330
104
100
AcDbEntity
  8
_U+30EC_U+30A4_U+30E4_U+30FC_2
370
    18
100
AcDbSpline
210
0.0
220
0.0
230
1.0
 70
     8
 71
     3
 72
     8
 73
     4
 74
     0
 42
0.000000001
 43
0.00000001
 40
1.0
 40
1.0
 40
1.0
 40
1.0
 40
2.0
 40
2.0
 40
2.0
 40
2.0
 10
166.0701973632035
 20
-152.0648282829918
 30
0.0
 10
166.0716817768188
 20
-152.0364068737519
 30
0.0
 10
166.0565236205799
 20
-152.0151134402482
 30
0.0
 10
166.0172993604078
 20
-152.011991000661
 30
0.0
  0
SPLINE
  5
11A
330
104
100
AcDbEntity
  8
_U+30EC_U+30A4_U+30E4_U+30FC_2
370
    18
100
AcDbSpline
210
0.0
220
0.0
230
1.0
 70
     8
 71
     3
 72
     8
 73
     4
 74
     0
 42
0.000000001
 43
0.00000001
 40
2.0
 40
2.0
 40
2.0
 40
2.0
 40
3.0
 40
3.0
 40
3.0
 40
3.0
 10
166.0172993604078
 20
-152.011991000661
 30
0.0
 10
166.0010964417211
 20
-152.0107011704759
 30
0.0
 10
165.9902338409451
 20
-152.01147248189
 30
0.0
 10
165.9847186080499
 20
-152.0127603598508
 30
0.0
  0
ENDBLK
  5
106
330
104
100
AcDbEntity
  8
0
100
AcDbBlockEnd
  0
BLOCK
  5
11C
330
11B
100
AcDbEntity
  8
0
100
AcDbBlockBegin
  2
ﾌﾞﾛｯｸ5
 70
     0
 10
0.0
 20
0.0
 30
0.0
  3
ﾌﾞﾛｯｸ5
  1

  0
INSERT
  5
13E
330
11B
100
AcDbEntity
  8
0
  6
Continuous
 62
     7
100
AcDbBlockReference
  2
ﾌﾞﾛｯｸ4
 10
0.0
 20
0.0
 30
0.0
  0
ENDBLK
  5
11D
330
11B
100
AcDbEntity
  8
0
100
AcDbBlockEnd
  0
BLOCK
  5
11F
330
11E
100
AcDbEntity
  8
0
100
AcDbBlockBegin
  2
ﾌﾞﾛｯｸ4
 70
     0
 10
0.0
 20
0.0
 30
0.0
  3
ﾌﾞﾛｯｸ4
  1

  0
SPLINE
  5
121
330
11E
100
AcDbEntity
  8
0
 62
    29
370
    18
100
AcDbSpline
210
0.0
220
0.0
230
1.0
 70
     8
 71
     3
 72
    17
 73
    13
 74
     0
 42
0.000000001
 43
0.00000001
 40
28.0
 40
28.0
 40
28.0
 40
28.0
 40
29.0
 40
29.0
 40
29.0
 40
30.0
 40
30.0
 40
30.0
 40
31.0
 40
31.0
 40
31.0
 40
32.0
 40
32.0
 40
32.0
 40
32.0
 10
156.6666726922518
 20
-185.6093753587156
 30
0.0
 10
155.2004142268101
 20
-187.8003322809564
 30
0.0
 10
152.606075176546
 20
-187.2463688284971
 30
0.0
 10
151.6218417390837
 20
-184.5470665684248
 30
0.0
 10
151.4522867120849
 20
-184.0820598674471
 30
0.0
 10
151.1669913929796
 20
-183.901158166786
 30
0.0
 10
150.8795027247397
 20
-184.0763615488033
 30
0.0
 10
150.6030630527637
 20
-184.2448347219749
 30
0.0
 10
150.5137160619005
 20
-184.6352131395449
 30
0.0
 10
150.6488903412286
 20
-185.0839756491225
 30
0.0
 10
151.2454950140619
 20
-187.0645998290062
 30
0.0
 10
152.9591449838874
 20
-188.4868150862684
 30
0.0
 10
154.5709915675638
 20
-188.3390541214235
 30
0.0
  0
SPLINE
  5
122
330
11E
100
AcDbEntity
  8
0
 62
    29
370
    18
100
AcDbSpline
210
0.0
220
0.0
230
1.0
 70
     8
 71
     3
 72
     8
 73
     4
 74
     0
 42
0.000000001
 43
0.00000001
 40
27.0
 40
27.0
 40
27.0
 40
27.0
 40
28.0
 40
28.0
 40
28.0
 40
28.0
 10
156.8407834881808
 20
-184.884242140194
 30
0.0
 10
156.8808897909875
 20
-185.0978622006393
 30
0.0
 10
156.7864341244353
 20
-185.4304096734625
 30
0.0
 10
156.6666726922518
 20
-185.6093753587156
 30
0.0
  0
SPLINE
  5
123
330
11E
100
AcDbEntity
  8
0
 62
    29
370
    18
100
AcDbSpline
210
0.0
220
0.0
230
1.0
 70
     8
 71
     3
 72
     8
 73
     4
 74
     0
 42
0.000000001
 43
0.00000001
 40
26.0
 40
26.0
 40
26.0
 40
26.0
 40
27.0
 40
27.0
 40
27.0
 40
27.0
 10
156.0806966237626
 20
-184.8145553557441
 30
0.0
 10
156.4013825450381
 20
-184.4704105794389
 30
0.0
 10
156.7614847780378
 20
-184.4619194683804
 30
0.0
 10
156.8407834881808
 20
-184.884242140194
 30
0.0
  0
SPLINE
  5
124
330
11E
100
AcDbEntity
  8
0
 62
    29
370
    18
100
AcDbSpline
210
0.0
220
0.0
230
1.0
 70
     8
 71
     3
 72
     8
 73
     4
 74
     0
 42
0.000000001
 43
0.00000001
 40
25.0
 40
25.0
 40
25.0
 40
25.0
 40
26.0
 40
26.0
 40
26.0
 40
26.0
 10
155.1708131524589
 20
-185.6411625371741
 30
0.0
 10
155.5052623395496
 20
-185.467364570071
 30
0.0
 10
155.7949626348304
 20
-185.1211860757147
 30
0.0
 10
156.0806966237626
 20
-184.8145553557441
 30
0.0
  0
SPLINE
  5
125
330
11E
100
AcDbEntity
  8
0
 62
    29
370
    18
100
AcDbSpline
210
0.0
220
0.0
230
1.0
 70
     8
 71
     3
 72
     8
 73
     4
 74
     0
 42
0.000000001
 43
0.00000001
 40
24.0
 40
24.0
 40
24.0
 40
24.0
 40
25.0
 40
25.0
 40
25.0
 40
25.0
 10
152.3312119742588
 20
-183.8219423686085
 30
0.0
 10
152.748492077494
 20
-185.4301714293301
 30
0.0
 10
153.9927242073836
 20
-186.253377055736
 30
0.0
 10
155.1708131524589
 20
-185.6411625371741
 30
0.0
  0
SPLINE
  5
126
330
11E
100
AcDbEntity
  8
0
 62
    29
370
    18
100
AcDbSpline
210
0.0
220
0.0
230
1.0
 70
     8
 71
     3
 72
    23
 73
    19
 74
     0
 42
0.000000001
 43
0.00000001
 40
18.0
 40
18.0
 40
18.0
 40
18.0
 40
19.0
 40
19.0
 40
19.0
 40
20.0
 40
20.0
 40
20.0
 40
21.0
 40
21.0
 40
21.0
 40
22.0
 40
22.0
 40
22.0
 40
23.0
 40
23.0
 40
23.0
 40
24.0
 40
24.0
 40
24.0
 40
24.0
 10
158.2236855475807
 20
-181.0354758247346
 30
0.0
 10
158.1790828790495
 20
-180.8662443287579
 30
0.0
 10
158.1209362796164
 20
-180.7015935835227
 30
0.0
 10
158.0574662390562
 20
-180.5428087545415
 30
0.0
 10
157.1974266268177
 20
-178.3911046198684
 30
0.0
 10
155.5769574393591
 20
-177.3118782415143
 30
0.0
 10
153.7332555743308
 20
-177.6596853637396
 30
0.0
 10
152.1660527844835
 20
-177.9553324279673
 30
0.0
 10
150.721590726059
 20
-179.7645779084496
 30
0.0
 10
150.4154905765243
 20
-181.8153255284317
 30
0.0
 10
150.3341356015683
 20
-182.3603559532709
 30
0.0
 10
150.5175818397495
 20
-182.7164843342716
 30
0.0
 10
150.9310098735649
 20
-182.8001538697606
 30
0.0
 10
151.0535861038045
 20
-182.8249628249784
 30
0.0
 10
151.1793472597651
 20
-182.8253423621612
 30
0.0
 10
151.3038061146787
 20
-182.8307483244405
 30
0.0
 10
151.9630720305786
 20
-182.8593849685092
 30
0.0
 10
152.1207235690492
 20
-183.0106820173983
 30
0.0
 10
152.3312119742588
 20
-183.8219423686085
 30
0.0
  0
SPLINE
  5
127
330
11E
100
AcDbEntity
  8
0
 62
    29
370
    18
100
AcDbSpline
210
0.0
220
0.0
230
1.0
 70
     8
 71
     3
 72
    14
 73
    10
 74
     0
 42
0.000000001
 43
0.00000001
 40
15.0
 40
15.0
 40
15.0
 40
15.0
 40
16.0
 40
16.0
 40
16.0
 40
17.0
 40
17.0
 40
17.0
 40
18.0
 40
18.0
 40
18.0
 40
18.0
 10
156.391585585572
 20
-179.9889084330201
 30
0.0
 10
156.7451214796039
 20
-180.4207954418263
 30
0.0
 10
156.9856541984708
 20
-181.0223167821144
 30
0.0
 10
157.2476634609373
 20
-181.5711493428051
 30
0.0
 10
157.4295195209972
 20
-181.952082921229
 30
0.0
 10
157.6759011708841
 20
-182.1321195777373
 30
0.0
 10
157.9555211991071
 20
-181.9858038604197
 30
0.0
 10
158.2222827180296
 20
-181.8462130910354
 30
0.0
 10
158.335368143789
 20
-181.4591520539061
 30
0.0
 10
158.2236855475807
 20
-181.0354758247346
 30
0.0
  0
SPLINE
  5
128
330
11E
100
AcDbEntity
  8
0
 62
    29
370
    18
100
AcDbSpline
210
0.0
220
0.0
230
1.0
 70
     8
 71
     3
 72
    11
 73
     7
 74
     0
 42
0.000000001
 43
0.00000001
 40
13.0
 40
13.0
 40
13.0
 40
13.0
 40
14.0
 40
14.0
 40
14.0
 40
15.0
 40
15.0
 40
15.0
 40
15.0
 10
152.0814169247797
 20
-181.1551172179506
 30
0.0
 10
151.843849796723
 20
-180.8294141909057
 30
0.0
 10
151.9999065875938
 20
-180.5282473032431
 30
0.0
 10
152.1919114568743
 20
-180.2554897131181
 30
0.0
 10
153.3061739421543
 20
-178.6726073479179
 30
0.0
 10
155.1904938914569
 20
-178.5215973944828
 30
0.0
 10
156.391585585572
 20
-179.9889084330201
 30
0.0
  0
SPLINE
  5
129
330
11E
100
AcDbEntity
  8
0
 62
    29
370
    18
100
AcDbSpline
210
0.0
220
0.0
230
1.0
 70
     8
 71
     3
 72
    17
 73
    13
 74
     0
 42
0.000000001
 43
0.00000001
 40
9.0
 40
9.0
 40
9.0
 40
9.0
 40
10.0
 40
10.0
 40
10.0
 40
11.0
 40
11.0
 40
11.0
 40
12.0
 40
12.0
 40
12.0
 40
13.0
 40
13.0
 40
13.0
 40
13.0
 10
155.8680651336703
 20
-181.5007034839909
 30
0.0
 10
156.0639723366171
 20
-181.1669061689222
 30
0.0
 10
155.9541358092635
 20
-180.8374663916395
 30
0.0
 10
155.7146495007147
 20
-180.6677388668704
 30
0.0
 10
155.3924328045217
 20
-180.4393754779022
 30
0.0
 10
155.0448052447206
 20
-180.2119834786549
 30
0.0
 10
154.6895877830198
 20
-180.1380627878385
 30
0.0
 10
153.9547975452783
 20
-179.9851510149165
 30
0.0
 10
153.3218883748031
 20
-180.3294096523766
 30
0.0
 10
152.7971158861028
 20
-181.0321960222333
 30
0.0
 10
152.5937924213978
 20
-181.3044857670198
 30
0.0
 10
152.3346208043731
 20
-181.5022449310405
 30
0.0
 10
152.0814169247797
 20
-181.1551172179506
 30
0.0
  0
SPLINE
  5
12A
330
11E
100
AcDbEntity
  8
0
 62
    29
370
    18
100
AcDbSpline
210
0.0
220
0.0
230
1.0
 70
     8
 71
     3
 72
    20
 73
    16
 74
     0
 42
0.000000001
 43
0.00000001
 40
4.0
 40
4.0
 40
4.0
 40
4.0
 40
5.0
 40
5.0
 40
5.0
 40
6.0
 40
6.0
 40
6.0
 40
7.0
 40
7.0
 40
7.0
 40
8.0
 40
8.0
 40
8.0
 40
9.0
 40
9.0
 40
9.0
 40
9.0
 10
155.5941021184232
 20
-183.79766175921
 30
0.0
 10
155.3293191831971
 20
-184.4809399179
 30
0.0
 10
154.8562046360759
 20
-184.8193472945048
 30
0.0
 10
154.2638495771889
 20
-184.7316005526536
 30
0.0
 10
153.7087220503727
 20
-184.6493687491033
 30
0.0
 10
153.3244061568305
 20
-184.2283447708555
 30
0.0
 10
153.134932778008
 20
-183.5352407327188
 30
0.0
 10
152.9444312667822
 20
-182.8383743913475
 30
0.0
 10
153.1301942299844
 20
-182.0486108758282
 30
0.0
 10
153.5714595198921
 20
-181.5889951059561
 30
0.0
 10
154.0534799783918
 20
-181.0869252839075
 30
0.0
 10
154.6748283711402
 20
-181.0555108786035
 30
0.0
 10
155.241603495753
 20
-181.5317030288522
 30
0.0
 10
155.4684003656669
 20
-181.7222547442051
 30
0.0
 10
155.6851535243403
 20
-181.8123719024397
 30
0.0
 10
155.8680651336703
 20
-181.5007034839909
 30
0.0
  0
SPLINE
  5
12B
330
11E
100
AcDbEntity
  8
0
 62
    29
370
    18
100
AcDbSpline
210
0.0
220
0.0
230
1.0
 70
     8
 71
     3
 72
    14
 73
    10
 74
     0
 42
0.000000001
 43
0.00000001
 40
1.0
 40
1.0
 40
1.0
 40
1.0
 40
2.0
 40
2.0
 40
2.0
 40
3.0
 40
3.0
 40
3.0
 40
4.0
 40
4.0
 40
4.0
 40
4.0
 10
158.3505707949728
 20
-184.3503362883667
 30
0.0
 10
158.5022865823524
 20
-183.5713027775002
 30
0.0
 10
158.2520071682718
 20
-183.1111609164869
 30
0.0
 10
157.6350546127451
 20
-183.07091193776
 30
0.0
 10
157.2741390127744
 20
-183.0473663528462
 30
0.0
 10
156.9115098587927
 20
-183.0733387210499
 30
0.0
 10
156.5500550604928
 20
-183.0591868692862
 30
0.0
 10
156.1095985680782
 20
-183.0419423531551
 30
0.0
 10
155.8079627979258
 20
-183.2457786214457
 30
0.0
 10
155.5941021184232
 20
-183.79766175921
 30
0.0
  0
SPLINE
  5
12C
330
11E
100
AcDbEntity
  8
0
 62
    29
370
    18
100
AcDbSpline
210
0.0
220
0.0
230
1.0
 70
     8
 71
     3
 72
     8
 73
     4
 74
     0
 42
0.000000001
 43
0.00000001
 40
0.0
 40
0.0
 40
0.0
 40
0.0
 40
1.0
 40
1.0
 40
1.0
 40
1.0
 10
154.5709915675638
 20
-188.3390541214235
 30
0.0
 10
156.4377692932719
 20
-188.1679241879769
 30
0.0
 10
157.9096162295269
 20
-186.6146333222698
 30
0.0
 10
158.3505707949728
 20
-184.3503362883667
 30
0.0
  0
SPLINE
  5
12D
330
11E
100
AcDbEntity
  8
0
 62
    29
370
    18
100
AcDbSpline
210
0.0
220
0.0
230
1.0
 70
     8
 71
     3
 72
    11
 73
     7
 74
     0
 42
0.000000001
 43
0.00000001
 40
2.0
 40
2.0
 40
2.0
 40
2.0
 40
3.0
 40
3.0
 40
3.0
 40
4.0
 40
4.0
 40
4.0
 40
4.0
 10
155.1202198991043
 20
-182.9647467449689
 30
0.0
 10
155.1193242815428
 20
-182.4614631554971
 30
0.0
 10
154.7890653051952
 20
-182.0272711159225
 30
0.0
 10
154.4078566562575
 20
-182.0281962847766
 30
0.0
 10
154.0342379092188
 20
-182.0291026646616
 30
0.0
 10
153.6944881283891
 20
-182.4783386562678
 30
0.0
 10
153.6946846159169
 20
-182.9711883552428
 30
0.0
  0
SPLINE
  5
12E
330
11E
100
AcDbEntity
  8
0
 62
    29
370
    18
100
AcDbSpline
210
0.0
220
0.0
230
1.0
 70
     8
 71
     3
 72
    11
 73
     7
 74
     0
 42
0.000000001
 43
0.00000001
 40
0.0
 40
0.0
 40
0.0
 40
0.0
 40
1.0
 40
1.0
 40
1.0
 40
2.0
 40
2.0
 40
2.0
 40
2.0
 10
153.6946846159169
 20
-182.9711883552428
 30
0.0
 10
153.6948856729214
 20
-183.4725141341022
 30
0.0
 10
154.022992425431
 20
-183.8935508888493
 30
0.0
 10
154.4133857238644
 20
-183.8934411612667
 30
0.0
 10
154.8095457027317
 20
-183.8933299305682
 30
0.0
 10
155.1211475030105
 20
-183.4839242994496
 30
0.0
 10
155.1202198991043
 20
-182.9647467449689
 30
0.0
  0
SPLINE
  5
12F
330
11E
100
AcDbEntity
  8
0
 62
    29
370
    18
100
AcDbSpline
210
0.0
220
0.0
230
1.0
 70
     8
 71
     3
 72
     8
 73
     4
 74
     0
 42
0.000000001
 43
0.00000001
 40
31.0
 40
31.0
 40
31.0
 40
31.0
 40
32.0
 40
32.0
 40
32.0
 40
32.0
 10
158.3505707949728
 20
-184.3503362883667
 30
0.0
 10
157.9096162295269
 20
-186.6146333222698
 30
0.0
 10
156.4377692932719
 20
-188.1679241879769
 30
0.0
 10
154.5709915675638
 20
-188.3390541214235
 30
0.0
  0
SPLINE
  5
130
330
11E
100
AcDbEntity
  8
0
 62
    29
370
    18
100
AcDbSpline
210
0.0
220
0.0
230
1.0
 70
     8
 71
     3
 72
    14
 73
    10
 74
     0
 42
0.000000001
 43
0.00000001
 40
28.0
 40
28.0
 40
28.0
 40
28.0
 40
29.0
 40
29.0
 40
29.0
 40
30.0
 40
30.0
 40
30.0
 40
31.0
 40
31.0
 40
31.0
 40
31.0
 10
155.5941021184232
 20
-183.79766175921
 30
0.0
 10
155.8079627979258
 20
-183.2457786214457
 30
0.0
 10
156.1095985680782
 20
-183.0419423531551
 30
0.0
 10
156.5500550604928
 20
-183.0591868692862
 30
0.0
 10
156.9115098587927
 20
-183.0733387210499
 30
0.0
 10
157.2741390127744
 20
-183.0473663528462
 30
0.0
 10
157.6350546127451
 20
-183.07091193776
 30
0.0
 10
158.2520071682718
 20
-183.1111609164869
 30
0.0
 10
158.5022865823524
 20
-183.5713027775002
 30
0.0
 10
158.3505707949728
 20
-184.3503362883667
 30
0.0
  0
SPLINE
  5
131
330
11E
100
AcDbEntity
  8
0
 62
    29
370
    18
100
AcDbSpline
210
0.0
220
0.0
230
1.0
 70
     8
 71
     3
 72
    20
 73
    16
 74
     0
 42
0.000000001
 43
0.00000001
 40
23.0
 40
23.0
 40
23.0
 40
23.0
 40
24.0
 40
24.0
 40
24.0
 40
25.0
 40
25.0
 40
25.0
 40
26.0
 40
26.0
 40
26.0
 40
27.0
 40
27.0
 40
27.0
 40
28.0
 40
28.0
 40
28.0
 40
28.0
 10
155.8680651336703
 20
-181.5007034839909
 30
0.0
 10
155.6851535243403
 20
-181.8123719024397
 30
0.0
 10
155.4684003656669
 20
-181.7222547442051
 30
0.0
 10
155.241603495753
 20
-181.5317030288522
 30
0.0
 10
154.6748283711402
 20
-181.0555108786035
 30
0.0
 10
154.0534799783918
 20
-181.0869252839075
 30
0.0
 10
153.5714595198921
 20
-181.5889951059561
 30
0.0
 10
153.1301942299844
 20
-182.0486108758282
 30
0.0
 10
152.9444312667822
 20
-182.8383743913475
 30
0.0
 10
153.134932778008
 20
-183.5352407327188
 30
0.0
 10
153.3244061568305
 20
-184.2283447708555
 30
0.0
 10
153.7087220503727
 20
-184.6493687491033
 30
0.0
 10
154.2638495771889
 20
-184.7316005526536
 30
0.0
 10
154.8562046360759
 20
-184.8193472945048
 30
0.0
 10
155.3293191831971
 20
-184.4809399179
 30
0.0
 10
155.5941021184232
 20
-183.79766175921
 30
0.0
  0
SPLINE
  5
132
330
11E
100
AcDbEntity
  8
0
 62
    29
370
    18
100
AcDbSpline
210
0.0
220
0.0
230
1.0
 70
     8
 71
     3
 72
    17
 73
    13
 74
     0
 42
0.000000001
 43
0.00000001
 40
19.0
 40
19.0
 40
19.0
 40
19.0
 40
20.0
 40
20.0
 40
20.0
 40
21.0
 40
21.0
 40
21.0
 40
22.0
 40
22.0
 40
22.0
 40
23.0
 40
23.0
 40
23.0
 40
23.0
 10
152.0814169247797
 20
-181.1551172179506
 30
0.0
 10
152.3346208043731
 20
-181.5022449310405
 30
0.0
 10
152.5937924213978
 20
-181.3044857670198
 30
0.0
 10
152.7971158861028
 20
-181.0321960222333
 30
0.0
 10
153.3218883748031
 20
-180.3294096523766
 30
0.0
 10
153.9547975452783
 20
-179.9851510149165
 30
0.0
 10
154.6895877830198
 20
-180.1380627878385
 30
0.0
 10
155.0448052447206
 20
-180.2119834786549
 30
0.0
 10
155.3924328045217
 20
-180.4393754779022
 30
0.0
 10
155.7146495007147
 20
-180.6677388668704
 30
0.0
 10
155.9541358092635
 20
-180.8374663916395
 30
0.0
 10
156.0639723366171
 20
-181.1669061689222
 30
0.0
 10
155.8680651336703
 20
-181.5007034839909
 30
0.0
  0
SPLINE
  5
133
330
11E
100
AcDbEntity
  8
0
 62
    29
370
    18
100
AcDbSpline
210
0.0
220
0.0
230
1.0
 70
     8
 71
     3
 72
    11
 73
     7
 74
     0
 42
0.000000001
 43
0.00000001
 40
17.0
 40
17.0
 40
17.0
 40
17.0
 40
18.0
 40
18.0
 40
18.0
 40
19.0
 40
19.0
 40
19.0
 40
19.0
 10
156.391585585572
 20
-179.9889084330201
 30
0.0
 10
155.1904938914569
 20
-178.5215973944828
 30
0.0
 10
153.3061739421543
 20
-178.6726073479179
 30
0.0
 10
152.1919114568743
 20
-180.2554897131181
 30
0.0
 10
151.9999065875938
 20
-180.5282473032431
 30
0.0
 10
151.843849796723
 20
-180.8294141909057
 30
0.0
 10
152.0814169247797
 20
-181.1551172179506
 30
0.0
  0
SPLINE
  5
134
330
11E
100
AcDbEntity
  8
0
 62
    29
370
    18
100
AcDbSpline
210
0.0
220
0.0
230
1.0
 70
     8
 71
     3
 72
    14
 73
    10
 74
     0
 42
0.000000001
 43
0.00000001
 40
14.0
 40
14.0
 40
14.0
 40
14.0
 40
15.0
 40
15.0
 40
15.0
 40
16.0
 40
16.0
 40
16.0
 40
17.0
 40
17.0
 40
17.0
 40
17.0
 10
158.2236855475807
 20
-181.0354758247346
 30
0.0
 10
158.335368143789
 20
-181.4591520539061
 30
0.0
 10
158.2222827180296
 20
-181.8462130910354
 30
0.0
 10
157.9555211991071
 20
-181.9858038604197
 30
0.0
 10
157.6759011708841
 20
-182.1321195777373
 30
0.0
 10
157.4295195209972
 20
-181.952082921229
 30
0.0
 10
157.2476634609373
 20
-181.5711493428051
 30
0.0
 10
156.9856541984708
 20
-181.0223167821144
 30
0.0
 10
156.7451214796039
 20
-180.4207954418263
 30
0.0
 10
156.391585585572
 20
-179.9889084330201
 30
0.0
  0
SPLINE
  5
135
330
11E
100
AcDbEntity
  8
0
 62
    29
370
    18
100
AcDbSpline
210
0.0
220
0.0
230
1.0
 70
     8
 71
     3
 72
    23
 73
    19
 74
     0
 42
0.000000001
 43
0.00000001
 40
8.0
 40
8.0
 40
8.0
 40
8.0
 40
9.0
 40
9.0
 40
9.0
 40
10.0
 40
10.0
 40
10.0
 40
11.0
 40
11.0
 40
11.0
 40
12.0
 40
12.0
 40
12.0
 40
13.0
 40
13.0
 40
13.0
 40
14.0
 40
14.0
 40
14.0
 40
14.0
 10
152.3312119742588
 20
-183.8219423686085
 30
0.0
 10
152.1207235690492
 20
-183.0106820173983
 30
0.0
 10
151.9630720305786
 20
-182.8593849685092
 30
0.0
 10
151.3038061146787
 20
-182.8307483244405
 30
0.0
 10
151.1793472597651
 20
-182.8253423621612
 30
0.0
 10
151.0535861038045
 20
-182.8249628249784
 30
0.0
 10
150.9310098735649
 20
-182.8001538697606
 30
0.0
 10
150.5175818397495
 20
-182.7164843342716
 30
0.0
 10
150.3341356015683
 20
-182.3603559532709
 30
0.0
 10
150.4154905765243
 20
-181.8153255284317
 30
0.0
 10
150.721590726059
 20
-179.7645779084496
 30
0.0
 10
152.1660527844835
 20
-177.9553324279673
 30
0.0
 10
153.7332555743308
 20
-177.6596853637396
 30
0.0
 10
155.5769574393591
 20
-177.3118782415143
 30
0.0
 10
157.1974266268177
 20
-178.3911046198684
 30
0.0
 10
158.0574662390562
 20
-180.5428087545415
 30
0.0
 10
158.1209362796164
 20
-180.7015935835227
 30
0.0
 10
158.1790828790495
 20
-180.8662443287579
 30
0.0
 10
158.2236855475807
 20
-181.0354758247346
 30
0.0
  0
SPLINE
  5
136
330
11E
100
AcDbEntity
  8
0
 62
    29
370
    18
100
AcDbSpline
210
0.0
220
0.0
230
1.0
 70
     8
 71
     3
 72
     8
 73
     4
 74
     0
 42
0.000000001
 43
0.00000001
 40
7.0
 40
7.0
 40
7.0
 40
7.0
 40
8.0
 40
8.0
 40
8.0
 40
8.0
 10
155.1708131524589
 20
-185.6411625371741
 30
0.0
 10
153.9927242073836
 20
-186.253377055736
 30
0.0
 10
152.748492077494
 20
-185.4301714293301
 30
0.0
 10
152.3312119742588
 20
-183.8219423686085
 30
0.0
  0
SPLINE
  5
137
330
11E
100
AcDbEntity
  8
0
 62
    29
370
    18
100
AcDbSpline
210
0.0
220
0.0
230
1.0
 70
     8
 71
     3
 72
     8
 73
     4
 74
     0
 42
0.000000001
 43
0.00000001
 40
6.0
 40
6.0
 40
6.0
 40
6.0
 40
7.0
 40
7.0
 40
7.0
 40
7.0
 10
156.0806966237626
 20
-184.8145553557441
 30
0.0
 10
155.7949626348304
 20
-185.1211860757147
 30
0.0
 10
155.5052623395496
 20
-185.467364570071
 30
0.0
 10
155.1708131524589
 20
-185.6411625371741
 30
0.0
  0
SPLINE
  5
138
330
11E
100
AcDbEntity
  8
0
 62
    29
370
    18
100
AcDbSpline
210
0.0
220
0.0
230
1.0
 70
     8
 71
     3
 72
     8
 73
     4
 74
     0
 42
0.000000001
 43
0.00000001
 40
5.0
 40
5.0
 40
5.0
 40
5.0
 40
6.0
 40
6.0
 40
6.0
 40
6.0
 10
156.8407834881808
 20
-184.884242140194
 30
0.0
 10
156.7614847780378
 20
-184.4619194683804
 30
0.0
 10
156.4013825450381
 20
-184.4704105794389
 30
0.0
 10
156.0806966237626
 20
-184.8145553557441
 30
0.0
  0
SPLINE
  5
139
330
11E
100
AcDbEntity
  8
0
 62
    29
370
    18
100
AcDbSpline
210
0.0
220
0.0
230
1.0
 70
     8
 71
     3
 72
     8
 73
     4
 74
     0
 42
0.000000001
 43
0.00000001
 40
4.0
 40
4.0
 40
4.0
 40
4.0
 40
5.0
 40
5.0
 40
5.0
 40
5.0
 10
156.6666726922518
 20
-185.6093753587156
 30
0.0
 10
156.7864341244353
 20
-185.4304096734625
 30
0.0
 10
156.8808897909875
 20
-185.0978622006393
 30
0.0
 10
156.8407834881808
 20
-184.884242140194
 30
0.0
  0
SPLINE
  5
13A
330
11E
100
AcDbEntity
  8
0
 62
    29
370
    18
100
AcDbSpline
210
0.0
220
0.0
230
1.0
 70
     8
 71
     3
 72
    17
 73
    13
 74
     0
 42
0.000000001
 43
0.00000001
 40
0.0
 40
0.0
 40
0.0
 40
0.0
 40
1.0
 40
1.0
 40
1.0
 40
2.0
 40
2.0
 40
2.0
 40
3.0
 40
3.0
 40
3.0
 40
4.0
 40
4.0
 40
4.0
 40
4.0
 10
154.5709915675638
 20
-188.3390541214235
 30
0.0
 10
152.9591449838874
 20
-188.4868150862684
 30
0.0
 10
151.2454950140619
 20
-187.0645998290062
 30
0.0
 10
150.6488903412286
 20
-185.0839756491225
 30
0.0
 10
150.5137160619005
 20
-184.6352131395449
 30
0.0
 10
150.6030630527637
 20
-184.2448347219749
 30
0.0
 10
150.8795027247397
 20
-184.0763615488033
 30
0.0
 10
151.1669913929796
 20
-183.901158166786
 30
0.0
 10
151.4522867120849
 20
-184.0820598674471
 30
0.0
 10
151.6218417390837
 20
-184.5470665684248
 30
0.0
 10
152.606075176546
 20
-187.2463688284971
 30
0.0
 10
155.2004142268101
 20
-187.8003322809564
 30
0.0
 10
156.6666726922518
 20
-185.6093753587156
 30
0.0
  0
SPLINE
  5
13B
330
11E
100
AcDbEntity
  8
0
 62
    29
370
    18
100
AcDbSpline
210
0.0
220
0.0
230
1.0
 70
     8
 71
     3
 72
    11
 73
     7
 74
     0
 42
0.000000001
 43
0.00000001
 40
2.0
 40
2.0
 40
2.0
 40
2.0
 40
3.0
 40
3.0
 40
3.0
 40
4.0
 40
4.0
 40
4.0
 40
4.0
 10
155.1202198991043
 20
-182.9647467449689
 30
0.0
 10
155.1211475030105
 20
-183.4839242994496
 30
0.0
 10
154.8095457027317
 20
-183.8933299305682
 30
0.0
 10
154.4133857238644
 20
-183.8934411612667
 30
0.0
 10
154.022992425431
 20
-183.8935508888493
 30
0.0
 10
153.6948856729214
 20
-183.4725141341022
 30
0.0
 10
153.6946846159169
 20
-182.9711883552428
 30
0.0
  0
SPLINE
  5
13C
330
11E
100
AcDbEntity
  8
0
 62
    29
370
    18
100
AcDbSpline
210
0.0
220
0.0
230
1.0
 70
     8
 71
     3
 72
    11
 73
     7
 74
     0
 42
0.000000001
 43
0.00000001
 40
0.0
 40
0.0
 40
0.0
 40
0.0
 40
1.0
 40
1.0
 40
1.0
 40
2.0
 40
2.0
 40
2.0
 40
2.0
 10
153.6946846159169
 20
-182.9711883552428
 30
0.0
 10
153.6944881283891
 20
-182.4783386562678
 30
0.0
 10
154.0342379092188
 20
-182.0291026646616
 30
0.0
 10
154.4078566562575
 20
-182.0281962847766
 30
0.0
 10
154.7890653051952
 20
-182.0272711159225
 30
0.0
 10
155.1193242815428
 20
-182.4614631554971
 30
0.0
 10
155.1202198991043
 20
-182.9647467449689
 30
0.0
  0
ENDBLK
  5
120
330
11E
100
AcDbEntity
  8
0
100
AcDbBlockEnd
  0
ENDSEC
  0
SECTION
  2
ENTITIES
  0
LINE
  5
13F
330
1F
100
AcDbEntity
  8
_U+30EC_U+30A4_U+30E4_U+30FC_2
100
AcDbLine
 10
128.7604610028
 20
200.0624893805
 30
0.0
 11
128.776586273
 21
200.3712327783
 31
0.0
  0
LINE
  5
140
330
1F
100
AcDbEntity
  8
_U+30EC_U+30A4_U+30E4_U+30FC_2
100
AcDbLine
 10
128.9187322602
 20
200.2074032364
 30
0.0
 11
128.9184722514
 21
200.2024249641
 31
0.0
  0
LINE
  5
141
330
1F
100
AcDbEntity
  8
_U+30EC_U+30A4_U+30E4_U+30FC_2
100
AcDbLine
 10
128.972711906
 20
200.0455931887
 30
0.0
 11
128.915891716
 21
200.0501163489
 31
0.0
  0
LINE
  5
142
330
1F
100
AcDbEntity
  8
_U+30EC_U+30A4_U+30E4_U+30FC_2
100
AcDbLine
 10
128.8211017978
 20
200.183272571
 30
0.0
 11
128.8145684869
 21
200.0581821648
 31
0.0
  0
LINE
  5
143
330
1F
100
AcDbEntity
  8
_U+30EC_U+30A4_U+30E4_U+30FC_2
100
AcDbLine
 10
128.8145684869
 20
200.0581821648
 30
0.0
 11
128.7604610028
 21
200.0624893805
 31
0.0
  0
LINE
  5
144
330
1F
100
AcDbEntity
  8
_U+30EC_U+30A4_U+30E4_U+30FC_2
100
AcDbLine
 10
128.8297442846
 20
200.3233737683
 30
0.0
 11
128.8249506686
 21
200.2315925296
 31
0.0
  0
LINE
  5
145
330
1F
100
AcDbEntity
  8
_U+30EC_U+30A4_U+30E4_U+30FC_2
 62
    29
370
    18
100
AcDbLine
 10
106.714791115
 20
162.6882629982
 30
0.0
 11
106.6086584531
 21
155.9166333092
 31
0.0
  0
LINE
  5
146
330
1F
100
AcDbEntity
  8
_U+30EC_U+30A4_U+30E4_U+30FC_2
 62
    29
370
    18
100
AcDbLine
 10
106.6086584531
 20
155.9166333092
 30
0.0
 11
108.1722741305
 21
155.5849572564
 31
0.0
  0
LINE
  5
147
330
1F
100
AcDbEntity
  8
_U+30EC_U+30A4_U+30E4_U+30FC_2
 62
    29
370
    18
100
AcDbLine
 10
108.89912885
 20
154.6475813031
 30
0.0
 11
108.8832482962
 21
146.2626489366
 31
0.0
  0
LINE
  5
148
330
1F
100
AcDbEntity
  8
_U+30EC_U+30A4_U+30E4_U+30FC_2
 62
    29
370
    18
100
AcDbLine
 10
108.8832482962
 20
146.2626489366
 30
0.0
 11
102.997095954
 21
147.3044458114
 31
0.0
  0
LINE
  5
149
330
1F
100
AcDbEntity
  8
_U+30EC_U+30A4_U+30E4_U+30FC_2
 62
    29
370
    18
100
AcDbLine
 10
102.997095954
 20
147.3044458114
 30
0.0
 11
103.4138147039
 21
164.3204614321
 31
0.0
  0
LINE
  5
14A
330
1F
100
AcDbEntity
  8
_U+30EC_U+30A4_U+30E4_U+30FC_2
 62
    29
370
    18
100
AcDbLine
 10
113.8396123978
 20
162.6887042191
 30
0.0
 11
113.9104958851
 21
157.961607623
 31
0.0
  0
LINE
  5
14B
330
1F
100
AcDbEntity
  8
0
  6
SLD-実線
 62
     7
370
    18
100
AcDbLine
 10
114.122591379
 20
146.8645499139
 30
0.0
 11
115.3769645126
 21
146.627216837
 31
0.0
  0
LINE
  5
14C
330
1F
100
AcDbEntity
  8
_U+30EC_U+30A4_U+30E4_U+30FC_2
 62
    29
370
    18
100
AcDbLine
 10
116.139596436
 20
155.0181462051
 30
0.0
 11
116.1237366189
 21
146.6388533989
 31
0.0
  0
LINE
  5
14D
330
1F
100
AcDbEntity
  8
_U+30EC_U+30A4_U+30E4_U+30FC_2
 62
    29
370
    18
100
AcDbLine
 10
116.1237366189
 20
146.6388533989
 30
0.0
 11
115.3771155253
 21
146.6041268364
 31
0.0
  0
LINE
  5
14E
330
1F
100
AcDbEntity
  8
_U+30EC_U+30A4_U+30E4_U+30FC_2
 62
    29
370
    18
100
AcDbLine
 10
115.3771155253
 20
146.6041268364
 30
0.0
 11
115.408970723
 21
154.9714254401
 31
0.0
  0
LINE
  5
14F
330
1F
100
AcDbEntity
  8
_U+30EC_U+30A4_U+30E4_U+30FC_2
 62
    29
370
    18
100
AcDbLine
 10
112.876786104
 20
156.2117136094
 30
0.0
 11
113.0985296193
 21
156.2187677357
 31
0.0
  0
LINE
  5
150
330
1F
100
AcDbEntity
  8
_U+30EC_U+30A4_U+30E4_U+30FC_2
 62
    29
370
    18
100
AcDbLine
 10
108.9006115775
 20
146.2742244575
 30
0.0
 11
109.6298693898
 21
146.30895102
 31
0.0
  0
LINE
  5
151
330
1F
100
AcDbEntity
  8
_U+30EC_U+30A4_U+30E4_U+30FC_2
 62
    29
370
    18
100
AcDbLine
 10
109.6298693898
 20
146.30895102
 30
0.0
 11
109.6926512434
 21
154.6013875152
 31
0.0
  0
LINE
  5
152
330
1F
100
AcDbEntity
  8
_U+30EC_U+30A4_U+30E4_U+30FC_2
 62
    29
370
    18
100
AcDbLine
 10
108.9853796683
 20
155.6380065753
 30
0.0
 11
107.5462756403
 21
155.9513598717
 31
0.0
  0
LINE
  5
153
330
1F
100
AcDbEntity
  8
_U+30EC_U+30A4_U+30E4_U+30FC_2
 62
    29
370
    18
100
AcDbLine
 10
107.5462756403
 20
155.9513598717
 30
0.0
 11
106.6086584531
 21
155.9166333092
 31
0.0
  0
LINE
  5
154
330
1F
100
AcDbEntity
  8
_U+30EC_U+30A4_U+30E4_U+30FC_2
 62
    29
370
    18
100
AcDbLine
 10
115.724381107
 20
144.9304028432
 30
0.0
 11
115.724381107
 21
146.3957674262
 31
0.0
  0
LINE
  5
155
330
1F
100
AcDbEntity
  8
_U+30EC_U+30A4_U+30E4_U+30FC_2
 62
    29
370
    18
100
AcDbLine
 10
115.724381107
 20
146.3957674262
 30
0.0
 11
126.6458850106
 21
147.1771150822
 31
0.0
  0
LINE
  5
156
330
1F
100
AcDbEntity
  8
_U+30EC_U+30A4_U+30E4_U+30FC_2
 62
    29
370
    18
100
AcDbLine
 10
115.7242278349
 20
146.4072628281
 30
0.0
 11
114.1059840382
 21
146.7134903856
 31
0.0
  0
LINE
  5
157
330
1F
100
AcDbEntity
  8
_U+30EC_U+30A4_U+30E4_U+30FC_2
 62
    29
370
    18
100
AcDbLine
 10
109.7514123585
 20
70.3677466119
 30
0.0
 11
114.9314579302
 21
144.2137817496
 31
0.0
  0
LINE
  5
158
330
1F
100
AcDbEntity
  8
_U+30EC_U+30A4_U+30E4_U+30FC_2
 62
    29
370
    18
100
AcDbLine
 10
109.0723151365
 20
70.3677466119
 30
0.0
 11
114.2523607081
 21
144.2137817496
 31
0.0
  0
LINE
  5
159
330
1F
100
AcDbEntity
  8
_U+30EC_U+30A4_U+30E4_U+30FC_2
 62
    29
370
    18
100
AcDbLine
 10
117.4093521142
 20
175.9743346138
 30
0.0
 11
114.9090396148
 21
175.9743346138
 31
0.0
  0
LINE
  5
15A
330
1F
100
AcDbEntity
  8
_U+30EC_U+30A4_U+30E4_U+30FC_2
 62
    29
370
    18
100
AcDbLine
 10
114.517407181
 20
162.6882629982
 30
0.0
 11
117.0177196804
 21
162.6882629982
 31
0.0
  0
LINE
  5
15B
330
1F
100
AcDbEntity
  8
_U+30EC_U+30A4_U+30E4_U+30FC_2
 62
    29
370
    18
100
AcDbLine
 10
110.5674865771
 20
180.6766723655
 30
0.0
 11
110.0768858167
 21
174.9562024142
 31
0.0
  0
LINE
  5
15C
330
1F
100
AcDbEntity
  8
_U+30EC_U+30A4_U+30E4_U+30FC_2
 62
    29
370
    18
100
AcDbLine
 10
111.446908368
 20
163.3360096245
 30
0.0
 11
112.350116785
 21
163.3481176824
 31
0.0
  0
LINE
  5
15D
330
1F
100
AcDbEntity
  8
_U+30EC_U+30A4_U+30E4_U+30FC_2
 62
    29
370
    18
100
AcDbLine
 10
122.2008850117
 20
182.5171801776
 30
0.0
 11
119.8742053247
 21
175.2246020544
 31
0.0
  0
LINE
  5
15E
330
1F
100
AcDbEntity
  8
_U+30EC_U+30A4_U+30E4_U+30FC_2
 62
    29
370
    18
100
AcDbLine
 10
113.2067053264
 20
180.9544848655
 30
0.0
 11
112.5816272016
 21
175.3982348668
 31
0.0
  0
LINE
  5
15F
330
1F
100
AcDbEntity
  8
_U+30EC_U+30A4_U+30E4_U+30FC_2
 62
    29
370
    18
100
AcDbLine
 10
109.6298693898
 20
169.2169067434
 30
0.0
 11
111.904459233
 21
169.1474536184
 31
0.0
  0
LINE
  5
160
330
1F
100
AcDbEntity
  8
_U+30EC_U+30A4_U+30E4_U+30FC_2
 62
    29
370
    18
100
AcDbLine
 10
109.6645959523
 20
169.8072583057
 30
0.0
 11
111.9391857955
 21
169.7378051808
 31
0.0
  0
LINE
  5
161
330
1F
100
AcDbEntity
  8
_U+30EC_U+30A4_U+30E4_U+30FC_2
 62
    29
370
    18
100
AcDbLine
 10
109.6993225148
 20
170.4149731493
 30
0.0
 11
111.973912358
 21
170.3455200244
 31
0.0
  0
LINE
  5
162
330
1F
100
AcDbEntity
  8
_U+30EC_U+30A4_U+30E4_U+30FC_2
 62
    29
370
    18
100
AcDbLine
 10
109.8382287648
 20
170.9879614305
 30
0.0
 11
112.1128186079
 21
170.9185083055
 31
0.0
  0
LINE
  5
163
330
1F
100
AcDbEntity
  8
_U+30EC_U+30A4_U+30E4_U+30FC_2
 62
    29
370
    18
100
AcDbLine
 10
109.9424084522
 20
171.5609497116
 30
0.0
 11
112.2169982954
 21
171.4914965866
 31
0.0
  0
LINE
  5
164
330
1F
100
AcDbEntity
  8
_U+30EC_U+30A4_U+30E4_U+30FC_2
 62
    29
370
    18
100
AcDbLine
 10
110.1160412647
 20
172.0818481489
 30
0.0
 11
112.3906311079
 21
172.0123950239
 31
0.0
  0
LINE
  5
165
330
1F
100
AcDbEntity
  8
_U+30EC_U+30A4_U+30E4_U+30FC_2
 62
    29
370
    18
100
AcDbLine
 10
110.3336975146
 20
172.5853833051
 30
0.0
 11
112.6082873578
 21
172.5159301801
 31
0.0
  0
LINE
  5
166
330
1F
100
AcDbEntity
  8
_U+30EC_U+30A4_U+30E4_U+30FC_2
 62
    29
370
    18
100
AcDbLine
 10
110.5767834521
 20
173.0194653362
 30
0.0
 11
112.8513732953
 21
172.9500122112
 31
0.0
  0
LINE
  5
167
330
1F
100
AcDbEntity
  8
_U+30EC_U+30A4_U+30E4_U+30FC_2
 62
    29
370
    18
100
AcDbLine
 10
110.8025061083
 20
173.4361840861
 30
0.0
 11
113.0770959514
 21
173.3667309611
 31
0.0
  0
LINE
  5
168
330
1F
100
AcDbEntity
  8
_U+30EC_U+30A4_U+30E4_U+30FC_2
 62
    29
370
    18
100
AcDbLine
 10
111.0976818894
 20
173.8702661172
 30
0.0
 11
113.3722717326
 21
173.8008129922
 31
0.0
  0
LINE
  5
169
330
1F
100
AcDbEntity
  8
_U+30EC_U+30A4_U+30E4_U+30FC_2
 62
    29
370
    18
100
AcDbLine
 10
111.3754943894
 20
174.2522583046
 30
0.0
 11
113.6500842326
 21
174.1828051797
 31
0.0
  0
LINE
  5
16A
330
1F
100
AcDbEntity
  8
_U+30EC_U+30A4_U+30E4_U+30FC_2
 62
    29
370
    18
100
AcDbLine
 10
111.705396733
 20
174.634250492
 30
0.0
 11
113.9799865762
 21
174.5647973671
 31
0.0
  0
LINE
  5
16B
330
1F
100
AcDbEntity
  8
_U+30EC_U+30A4_U+30E4_U+30FC_2
 62
    29
370
    18
100
AcDbLine
 10
112.1221154829
 20
174.9988793982
 30
0.0
 11
114.3967053261
 21
174.9294262732
 31
0.0
  0
LINE
  5
16C
330
1F
100
AcDbEntity
  8
_U+30EC_U+30A4_U+30E4_U+30FC_2
 62
    29
370
    18
100
AcDbLine
 10
112.5041076703
 20
175.2766918981
 30
0.0
 11
114.7786975135
 21
175.2072387731
 31
0.0
  0
LINE
  5
16D
330
1F
100
AcDbEntity
  8
_U+30EC_U+30A4_U+30E4_U+30FC_2
 62
    29
370
    18
100
AcDbLine
 10
112.8513732953
 20
175.5024145543
 30
0.0
 11
115.1259631384
 21
175.4329614293
 31
0.0
  0
LINE
  5
16E
330
1F
100
AcDbEntity
  8
_U+30EC_U+30A4_U+30E4_U+30FC_2
 62
    29
370
    18
100
AcDbLine
 10
113.2854553264
 20
175.6760473668
 30
0.0
 11
115.5600451696
 21
175.6065942418
 31
0.0
  0
LINE
  5
16F
330
1F
100
AcDbEntity
  8
_U+30EC_U+30A4_U+30E4_U+30FC_2
 62
    29
370
    18
100
AcDbLine
 10
113.5979943888
 20
175.7975903355
 30
0.0
 11
115.872584232
 21
175.7281372105
 31
0.0
  0
LINE
  5
170
330
1F
100
AcDbEntity
  8
_U+30EC_U+30A4_U+30E4_U+30FC_2
 62
    29
370
    18
100
AcDbLine
 10
113.962623295
 20
175.901770023
 30
0.0
 11
116.2372092631
 21
175.832316898
 31
0.0
  0
LINE
  5
171
330
1F
100
AcDbEntity
  8
_U+30EC_U+30A4_U+30E4_U+30FC_2
 62
    29
370
    18
100
AcDbLine
 10
110.0813147022
 20
174.9641528357
 30
0.0
 11
111.9652307174
 21
174.8946997107
 31
0.0
  0
LINE
  5
172
330
1F
100
AcDbEntity
  8
_U+30EC_U+30A4_U+30E4_U+30FC_2
 62
    29
370
    18
100
AcDbLine
 10
110.5501232958
 20
180.4683129906
 30
0.0
 11
103.680051683
 21
179.958990074
 31
0.0
  0
LINE
  5
173
330
1F
100
AcDbEntity
  8
_U+30EC_U+30A4_U+30E4_U+30FC_2
 62
    29
370
    18
100
AcDbLine
 10
103.680051683
 20
179.958990074
 30
0.0
 11
106.678111578
 21
168.7770369518
 31
0.0
  0
LINE
  5
174
330
1F
100
AcDbEntity
  8
_U+30EC_U+30A4_U+30E4_U+30FC_2
 62
    29
370
    18
100
AcDbLine
 10
103.680051683
 20
179.958990074
 30
0.0
 11
102.8929162665
 21
179.9358390324
 31
0.0
  0
LINE
  5
175
330
1F
100
AcDbEntity
  8
_U+30EC_U+30A4_U+30E4_U+30FC_2
 62
    29
370
    18
100
AcDbLine
 10
102.8929162665
 20
179.9358390324
 30
0.0
 11
106.0067313699
 21
168.8696411185
 31
0.0
  0
LINE
  5
176
330
1F
100
AcDbEntity
  8
_U+30EC_U+30A4_U+30E4_U+30FC_2
 62
    29
370
    18
100
AcDbLine
 10
112.8420731376
 20
156.2117730629
 30
0.0
 11
112.8391462708
 21
155.4479952057
 31
0.0
  0
LINE
  5
177
330
1F
100
AcDbEntity
  8
_U+30EC_U+30A4_U+30E4_U+30FC_2
 62
    29
370
    18
100
AcDbLine
 10
102.9797326727
 20
147.912160655
 30
0.0
 11
92.752760019
 21
147.2234199916
 31
0.0
  0
LINE
  5
178
330
1F
100
AcDbEntity
  8
_U+30EC_U+30A4_U+30E4_U+30FC_2
 62
    29
370
    18
100
AcDbLine
 10
90.7154655268
 20
146.4825810064
 30
0.0
 11
90.6691662696
 21
145.0935185067
 31
0.0
  0
LINE
  5
179
330
1F
100
AcDbEntity
  8
_U+30EC_U+30A4_U+30E4_U+30FC_2
 62
    29
370
    18
100
AcDbLine
 10
102.6151037666
 20
143.8896699924
 30
0.0
 11
110.964668452
 21
144.550023069
 31
0.0
  0
LINE
  5
17A
330
1F
100
AcDbEntity
  8
_U+30EC_U+30A4_U+30E4_U+30FC_2
 62
    29
370
    18
100
AcDbLine
 10
110.964668452
 20
144.550023069
 30
0.0
 11
110.964668452
 21
145.9810390148
 31
0.0
  0
LINE
  5
17B
330
1F
100
AcDbEntity
  8
_U+30EC_U+30A4_U+30E4_U+30FC_2
 62
    29
370
    18
100
AcDbLine
 10
110.964668452
 20
145.9810390148
 30
0.0
 11
102.3587464352
 21
145.3498843162
 31
0.0
  0
LINE
  5
17C
330
1F
100
AcDbEntity
  8
_U+30EC_U+30A4_U+30E4_U+30FC_2
 62
    29
370
    18
100
AcDbLine
 10
110.964668452
 20
146.0157655773
 30
0.0
 11
109.5546285044
 21
146.2822908637
 31
0.0
  0
LINE
  5
17D
330
1F
100
AcDbEntity
  8
_U+30EC_U+30A4_U+30E4_U+30FC_2
 62
    29
370
    18
100
AcDbLine
 10
109.5835052525
 20
144.4452372597
 30
0.0
 11
109.570086556
 21
142.5311256952
 31
0.0
  0
LINE
  5
17E
330
1F
100
AcDbEntity
  8
_U+30EC_U+30A4_U+30E4_U+30FC_2
 62
    29
370
    18
100
AcDbLine
 10
109.0628017479
 20
70.1694236477
 30
0.0
 11
108.8659999685
 21
70.1303918191
 31
0.0
  0
LINE
  5
17F
330
1F
100
AcDbEntity
  8
_U+30EC_U+30A4_U+30E4_U+30FC_2
 62
    29
370
    18
100
AcDbLine
 10
97.6144184409
 20
143.7201306262
 30
0.0
 11
108.1251663596
 21
70.2461452629
 31
0.0
  0
LINE
  5
180
330
1F
100
AcDbEntity
  8
_U+30EC_U+30A4_U+30E4_U+30FC_2
 62
    29
370
    18
100
AcDbLine
 10
108.1251663596
 20
70.2461452629
 30
0.0
 11
108.8659999685
 21
70.1303918191
 31
0.0
  0
LINE
  5
181
330
1F
100
AcDbEntity
  8
_U+30EC_U+30A4_U+30E4_U+30FC_2
 62
    29
370
    18
100
AcDbLine
 10
108.8659999685
 20
70.1303918191
 30
0.0
 11
98.4941580791
 21
143.69698168
 31
0.0
  0
LINE
  5
182
330
1F
100
AcDbEntity
  8
_U+30EC_U+30A4_U+30E4_U+30FC_2
 62
    29
370
    18
100
AcDbLine
 10
109.1012803616
 20
70.146328753
 30
0.0
 11
109.7649435559
 21
70.2698009752
 31
0.0
  0
LINE
  5
183
330
1F
100
AcDbEntity
  8
_U+30EC_U+30A4_U+30E4_U+30FC_2
 62
    29
370
    18
100
AcDbLine
 10
109.7649435559
 20
70.2698009752
 30
0.0
 11
121.7494396993
 21
145.3423950306
 31
0.0
  0
LINE
  5
184
330
1F
100
AcDbEntity
  8
_U+30EC_U+30A4_U+30E4_U+30FC_2
 62
    29
370
    18
100
AcDbLine
 10
109.6449540252
 20
168.626555181
 30
0.0
 11
111.9195438684
 21
168.5571020561
 31
0.0
  0
LINE
  5
185
330
1F
100
AcDbEntity
  8
_U+30EC_U+30A4_U+30E4_U+30FC_2
 62
    29
370
    18
100
AcDbLine
 10
109.725982671
 20
168.1172322645
 30
0.0
 11
112.0005725142
 21
168.0477791395
 31
0.0
  0
LINE
  5
186
330
1F
100
AcDbEntity
  8
_U+30EC_U+30A4_U+30E4_U+30FC_2
 62
    29
370
    18
100
AcDbLine
 10
109.795435796
 20
167.5500317438
 30
0.0
 11
112.0700256392
 21
167.4805786188
 31
0.0
  0
LINE
  5
187
330
1F
100
AcDbEntity
  8
_U+30EC_U+30A4_U+30E4_U+30FC_2
 62
    29
370
    18
100
AcDbLine
 10
109.9459175668
 20
167.0175577856
 30
0.0
 11
112.22050741
 21
166.9481046606
 31
0.0
  0
LINE
  5
188
330
1F
100
AcDbEntity
  8
_U+30EC_U+30A4_U+30E4_U+30FC_2
 62
    29
370
    18
100
AcDbLine
 10
110.1311259001
 20
166.4619327857
 30
0.0
 11
112.4057157433
 21
166.3924796608
 31
0.0
  0
LINE
  5
189
330
1F
100
AcDbEntity
  8
_U+30EC_U+30A4_U+30E4_U+30FC_2
 62
    29
370
    18
100
AcDbLine
 10
110.3510607959
 20
165.8831567442
 30
0.0
 11
112.6256506391
 21
165.8137036192
 31
0.0
  0
LINE
  5
18A
330
1F
100
AcDbEntity
  8
_U+30EC_U+30A4_U+30E4_U+30FC_2
 62
    29
370
    18
100
AcDbLine
 10
110.6057222542
 20
165.3969848693
 30
0.0
 11
112.8803120973
 21
165.3275317444
 31
0.0
  0
LINE
  5
18B
330
1F
100
AcDbEntity
  8
_U+30EC_U+30A4_U+30E4_U+30FC_2
 62
    29
370
    18
100
AcDbLine
 10
110.8372326708
 20
164.945539557
 30
0.0
 11
113.1118225139
 21
164.876086432
 31
0.0
  0
LINE
  5
18C
330
1F
100
AcDbEntity
  8
_U+30EC_U+30A4_U+30E4_U+30FC_2
 62
    29
370
    18
100
AcDbLine
 10
111.1960738165
 20
164.4940942446
 30
0.0
 11
113.4706636597
 21
164.4246411196
 31
0.0
  0
LINE
  5
18D
330
1F
100
AcDbEntity
  8
_U+30EC_U+30A4_U+30E4_U+30FC_2
 62
    29
370
    18
100
AcDbLine
 10
111.5317639206
 20
164.0889510155
 30
0.0
 11
113.8063537638
 21
164.0194978905
 31
0.0
  0
LINE
  5
18E
330
1F
100
AcDbEntity
  8
_U+30EC_U+30A4_U+30E4_U+30FC_2
 62
    29
370
    18
100
AcDbLine
 10
111.9369071496
 20
163.7301098698
 30
0.0
 11
114.2114969928
 21
163.6606567448
 31
0.0
  0
LINE
  5
18F
330
1F
100
AcDbEntity
  8
_U+30EC_U+30A4_U+30E4_U+30FC_2
 62
    29
370
    18
100
AcDbLine
 10
112.3188993371
 20
163.4291463282
 30
0.0
 11
114.5934891802
 21
163.3596932032
 31
0.0
  0
LINE
  5
190
330
1F
100
AcDbEntity
  8
_U+30EC_U+30A4_U+30E4_U+30FC_2
 62
    29
370
    18
100
AcDbLine
 10
112.7356180869
 20
163.1860603907
 30
0.0
 11
115.0102079301
 21
163.1166072658
 31
0.0
  0
LINE
  5
191
330
1F
100
AcDbEntity
  8
_U+30EC_U+30A4_U+30E4_U+30FC_2
 62
    29
370
    18
100
AcDbLine
 10
113.1523368368
 20
163.0008520574
 30
0.0
 11
115.42692668
 21
162.9313989325
 31
0.0
  0
LINE
  5
192
330
1F
100
AcDbEntity
  8
_U+30EC_U+30A4_U+30E4_U+30FC_2
 62
    29
370
    18
100
AcDbLine
 10
113.6269331909
 20
162.8040682033
 30
0.0
 11
115.9015230341
 21
162.7346150783
 31
0.0
  0
LINE
  5
193
330
1F
100
AcDbEntity
  8
_U+30EC_U+30A4_U+30E4_U+30FC_2
 62
   179
370
    18
100
AcDbLine
 10
116.9229379566
 20
162.5962224156
 30
0.0
 11
115.2706973946
 21
162.585931225
 31
0.0
  0
LINE
  5
194
330
1F
100
AcDbEntity
  8
_U+30EC_U+30A4_U+30E4_U+30FC_2
100
AcDbLine
 10
104.0084724841
 20
139.2557245571
 30
0.0
 11
104.6470243966
 21
139.6174338404
 31
0.0
  0
LINE
  5
195
330
1F
100
AcDbEntity
  8
_U+30EC_U+30A4_U+30E4_U+30FC_2
100
AcDbLine
 10
104.6470243966
 20
139.6174338404
 30
0.0
 11
104.6819859481
 21
139.6357501372
 31
0.0
  0
LINE
  5
196
330
1F
100
AcDbEntity
  8
_U+30EC_U+30A4_U+30E4_U+30FC_2
100
AcDbLine
 10
104.6819859481
 20
139.6357501372
 30
0.0
 11
105.1493016211
 21
139.8805760164
 31
0.0
  0
LINE
  5
197
330
1F
100
AcDbEntity
  8
_U+30EC_U+30A4_U+30E4_U+30FC_2
100
AcDbLine
 10
105.1493016211
 20
139.8805760164
 30
0.0
 11
105.8167479083
 21
140.2364762438
 31
0.0
  0
LINE
  5
198
330
1F
100
AcDbEntity
  8
_U+30EC_U+30A4_U+30E4_U+30FC_2
100
AcDbLine
 10
105.8167479083
 20
140.2364762438
 30
0.0
 11
105.8168052736
 21
140.2325404415
 31
0.0
  0
LINE
  5
199
330
1F
100
AcDbEntity
  8
_U+30EC_U+30A4_U+30E4_U+30FC_2
100
AcDbLine
 10
105.8168052736
 20
140.2325404415
 30
0.0
 11
105.8167479083
 21
140.2364762438
 31
0.0
  0
LINE
  5
19A
330
1F
100
AcDbEntity
  8
_U+30EC_U+30A4_U+30E4_U+30FC_2
100
AcDbLine
 10
105.8167479083
 20
140.2364762438
 30
0.0
 11
105.8180542559
 21
140.233203771
 31
0.0
  0
LINE
  5
19B
330
1F
100
AcDbEntity
  8
_U+30EC_U+30A4_U+30E4_U+30FC_2
100
AcDbLine
 10
105.8167479083
 20
140.2364762438
 30
0.0
 11
106.5882822339
 21
140.6478813435
 31
0.0
  0
LINE
  5
19C
330
1F
100
AcDbEntity
  8
_U+30EC_U+30A4_U+30E4_U+30FC_2
100
AcDbLine
 10
106.5882822339
 20
140.6478813435
 30
0.0
 11
106.6119117184
 21
140.6404893922
 31
0.0
  0
LINE
  5
19D
330
1F
100
AcDbEntity
  8
_U+30EC_U+30A4_U+30E4_U+30FC_2
100
AcDbLine
 10
106.6119117184
 20
140.6404893922
 30
0.0
 11
106.5882822339
 21
140.6478813435
 31
0.0
  0
LINE
  5
19E
330
1F
100
AcDbEntity
  8
_U+30EC_U+30A4_U+30E4_U+30FC_2
100
AcDbLine
 10
106.5882822339
 20
140.6478813435
 30
0.0
 11
109.2355524049
 21
142.2760202758
 31
0.0
  0
LINE
  5
19F
330
1F
100
AcDbEntity
  8
_U+30EC_U+30A4_U+30E4_U+30FC_2
100
AcDbLine
 10
109.2355524049
 20
142.2760202758
 30
0.0
 11
111.1193246504
 21
144.2768983759
 31
0.0
  0
LINE
  5
1A0
330
1F
100
AcDbEntity
  8
0
  6
SLD-実線
 62
     7
370
    18
100
AcDbLine
 10
113.0812772894
 20
156.1725082763
 30
0.0
 11
112.876786104
 21
156.2117136094
 31
0.0
  0
LINE
  5
1A1
330
1F
100
AcDbEntity
  8
0
  6
SLD-実線
 62
     7
370
    18
100
AcDbLine
 10
105.8180542559
 20
140.233203771
 30
0.0
 11
105.8167479083
 21
140.2364762438
 31
0.0
  0
LINE
  5
1A2
330
1F
100
AcDbEntity
  8
0
  6
SLD-実線
 62
     7
370
    18
100
AcDbLine
 10
113.8179913867
 20
145.3309711228
 30
0.0
 11
115.7243811073
 21
144.9390844835
 31
0.0
  0
LINE
  5
1A3
330
1F
100
AcDbEntity
  8
_U+30EC_U+30A4_U+30E4_U+30FC_2
100
AcDbLine
 10
113.4816935846
 20
144.0735861964
 30
0.0
 11
113.3925934567
 21
143.9508439364
 31
0.0
  0
LINE
  5
1A4
330
1F
100
AcDbEntity
  8
_U+30EC_U+30A4_U+30E4_U+30FC_2
100
AcDbLine
 10
114.3583297452
 20
149.0088141245
 30
0.0
 11
114.048911056
 21
146.1943574373
 31
0.0
  0
LINE
  5
1A5
330
1F
100
AcDbEntity
  8
_U+30EC_U+30A4_U+30E4_U+30FC_2
100
AcDbLine
 10
114.508816147
 20
151.8363340992
 30
0.0
 11
114.3583297452
 21
149.0088141245
 31
0.0
  0
LINE
  5
1A6
330
1F
100
AcDbEntity
  8
_U+30EC_U+30A4_U+30E4_U+30FC_2
100
AcDbLine
 10
114.535725045
 20
152.3419309219
 30
0.0
 11
114.508816147
 21
151.8363340992
 31
0.0
  0
LINE
  5
1A7
330
1F
100
AcDbEntity
  8
_U+30EC_U+30A4_U+30E4_U+30FC_2
100
AcDbLine
 10
114.5089168717
 20
158.9969523919
 30
0.0
 11
114.5357860473
 21
159.049248412
 31
0.0
  0
LINE
  5
1A8
330
1F
100
AcDbEntity
  8
_U+30EC_U+30A4_U+30E4_U+30FC_2
100
AcDbLine
 10
114.5357860473
 20
159.049248412
 30
0.0
 11
114.7769879585
 21
159.5175683434
 31
0.0
  0
LINE
  5
1A9
330
1F
100
AcDbEntity
  8
_U+30EC_U+30A4_U+30E4_U+30FC_2
100
AcDbLine
 10
114.7769879585
 20
159.5175683434
 30
0.0
 11
115.061007899
 21
160.0690242251
 31
0.0
  0
LINE
  5
1AA
330
1F
100
AcDbEntity
  8
_U+30EC_U+30A4_U+30E4_U+30FC_2
100
AcDbLine
 10
115.2628631967
 20
162.1799113724
 30
0.0
 11
115.270649654
 21
162.5841601786
 31
0.0
  0
LINE
  5
1AB
330
1F
100
AcDbEntity
  8
_U+30EC_U+30A4_U+30E4_U+30FC_2
100
AcDbLine
 10
115.270649654
 20
162.5841601786
 30
0.0
 11
115.698708686
 21
162.5884840313
 31
0.0
  0
LINE
  5
1AC
330
1F
100
AcDbEntity
  8
_U+30EC_U+30A4_U+30E4_U+30FC_2
100
AcDbLine
 10
115.698708686
 20
162.5884840313
 30
0.0
 11
116.1742992815
 21
162.5932880034
 31
0.0
  0
LINE
  5
1AD
330
1F
100
AcDbEntity
  8
_U+30EC_U+30A4_U+30E4_U+30FC_2
100
AcDbLine
 10
116.1742992815
 20
162.5932880034
 30
0.0
 11
117.3247331063
 21
162.600453627
 31
0.0
  0
LINE
  5
1AE
330
1F
100
AcDbEntity
  8
_U+30EC_U+30A4_U+30E4_U+30FC_2
100
AcDbLine
 10
117.3247331063
 20
162.600453627
 30
0.0
 11
117.4372679588
 21
162.6011545647
 31
0.0
  0
LINE
  5
1AF
330
1F
100
AcDbEntity
  8
0
  6
SLD-実線
 62
     7
370
    18
100
AcDbLine
 10
109.5524368268
 20
140.0134779664
 30
0.0
 11
109.0628017479
 21
70.1694236477
 31
0.0
  0
LINE
  5
1B0
330
1F
100
AcDbEntity
  8
_U+30EC_U+30A4_U+30E4_U+30FC_2
100
AcDbLine
 10
117.4792663796
 20
162.4010622083
 30
0.0
 11
117.4879846486
 21
162.3592812074
 31
0.0
  0
LINE
  5
1B1
330
1F
100
AcDbEntity
  8
_U+30EC_U+30A4_U+30E4_U+30FC_2
 62
   179
370
    18
100
AcDbLine
 10
94.1418225187
 20
118.3772192561
 30
0.0
 11
94.1418225187
 21
91.7072192628
 31
0.0
  0
LINE
  5
1B2
330
1F
100
AcDbEntity
  8
_U+30EC_U+30A4_U+30E4_U+30FC_2
 62
   179
370
    18
100
AcDbLine
 10
94.1418225187
 20
91.7072192628
 30
0.0
 11
96.3643049047
 21
91.7072192628
 31
0.0
  0
LINE
  5
1B3
330
1F
100
AcDbEntity
  8
_U+30EC_U+30A4_U+30E4_U+30FC_2
 62
   179
370
    18
100
AcDbLine
 10
96.3643049047
 20
91.7072192628
 30
0.0
 11
96.3643049047
 21
118.3584584939
 31
0.0
  0
LINE
  5
1B4
330
1F
100
AcDbEntity
  8
_U+30EC_U+30A4_U+30E4_U+30FC_2
100
AcDbLine
 10
94.1438355446
 20
92.0045234395
 30
0.0
 11
94.1438355446
 21
118.4573439148
 31
0.0
  0
LINE
  5
1B5
330
1F
100
AcDbEntity
  8
_U+30EC_U+30A4_U+30E4_U+30FC_2
100
AcDbLine
 10
94.9128358219
 20
91.7072192628
 30
0.0
 11
94.4143446439
 21
91.7072192628
 31
0.0
  0
LINE
  5
1B6
330
1F
100
AcDbEntity
  8
_U+30EC_U+30A4_U+30E4_U+30FC_2
100
AcDbLine
 10
95.2530725184
 20
91.7072192628
 30
0.0
 11
94.9128358219
 21
91.7072192628
 31
0.0
  0
LINE
  5
1B7
330
1F
100
AcDbEntity
  8
_U+30EC_U+30A4_U+30E4_U+30FC_2
100
AcDbLine
 10
95.5969995934
 20
91.7072192628
 30
0.0
 11
95.2530725184
 21
91.7072192628
 31
0.0
  0
LINE
  5
1B8
330
1F
100
AcDbEntity
  8
_U+30EC_U+30A4_U+30E4_U+30FC_2
100
AcDbLine
 10
96.091800393
 20
91.7072192628
 30
0.0
 11
95.5969995934
 21
91.7072192628
 31
0.0
  0
LINE
  5
1B9
330
1F
100
AcDbEntity
  8
_U+30EC_U+30A4_U+30E4_U+30FC_2
100
AcDbLine
 10
96.3643049047
 20
118.3584584939
 30
0.0
 11
96.3643225181
 21
92.0065256323
 31
0.0
  0
LINE
  5
1BA
330
1F
100
AcDbEntity
  8
_U+30EC_U+30A4_U+30E4_U+30FC_2
100
AcDbLine
 10
96.3643049047
 20
117.699659148
 30
0.0
 11
96.3643049047
 21
118.3584584939
 31
0.0
  0
LINE
  5
1BB
330
1F
100
AcDbEntity
  8
_U+30EC_U+30A4_U+30E4_U+30FC_2
100
AcDbLine
 10
96.5034638574
 20
121.1172188293
 30
0.0
 11
96.5045015686
 21
121.012481927
 31
0.0
  0
LINE
  5
1BC
330
1F
100
AcDbEntity
  8
_U+30EC_U+30A4_U+30E4_U+30FC_2
100
AcDbLine
 10
96.5045015686
 20
121.012481927
 30
0.0
 11
96.5034638574
 21
121.1172188293
 31
0.0
  0
LINE
  5
1BD
330
1F
100
AcDbEntity
  8
_U+30EC_U+30A4_U+30E4_U+30FC_2
100
AcDbLine
 10
96.5045015686
 20
121.1335401489
 30
0.0
 11
96.5045015686
 21
121.012481927
 31
0.0
  0
LINE
  5
1BE
330
1F
100
AcDbEntity
  8
_U+30EC_U+30A4_U+30E4_U+30FC_2
100
AcDbLine
 10
96.5045015686
 20
121.012481927
 30
0.0
 11
96.5045015686
 21
121.1335401489
 31
0.0
  0
LINE
  5
1BF
330
1F
100
AcDbEntity
  8
_U+30EC_U+30A4_U+30E4_U+30FC_2
100
AcDbLine
 10
96.8830949405
 20
125.3800231385
 30
0.0
 11
96.5548717876
 21
121.8816102747
 31
0.0
  0
SPLINE
  5
1C0
330
1F
100
AcDbEntity
  8
_U+30EC_U+30A4_U+30E4_U+30FC_2
100
AcDbSpline
210
0.0
220
0.0
230
1.0
 70
     8
 71
     3
 72
    11
 73
     7
 74
     0
 42
0.000000001
 43
0.00000001
 40
2.0
 40
2.0
 40
2.0
 40
2.0
 40
3.0
 40
3.0
 40
3.0
 40
4.0
 40
4.0
 40
4.0
 40
4.0
 10
128.8474398198629
 20
199.9080503807077
 30
0.0
 10
128.7068190142332
 20
199.9192444725373
 30
0.0
 10
128.6030274397683
 20
200.063296991076
 30
0.0
 10
128.612004832943
 20
200.2351831571495
 30
0.0
 10
128.6210673198934
 20
200.408698575982
 30
0.0
 10
128.7414324305315
 20
200.5298172846509
 30
0.0
 10
128.8793405303156
 20
200.5188391372423
 30
0.0
  0
SPLINE
  5
1C1
330
1F
100
AcDbEntity
  8
_U+30EC_U+30A4_U+30E4_U+30FC_2
100
AcDbSpline
210
0.0
220
0.0
230
1.0
 70
     8
 71
     3
 72
    11
 73
     7
 74
     0
 42
0.000000001
 43
0.00000001
 40
0.0
 40
0.0
 40
0.0
 40
0.0
 40
1.0
 40
1.0
 40
1.0
 40
2.0
 40
2.0
 40
2.0
 40
2.0
 10
128.8793405303156
 20
200.5188391372423
 30
0.0
 10
129.0212810306779
 20
200.5075399913703
 30
0.0
 10
129.1237694152407
 20
200.3653181300083
 30
0.0
 10
129.1148818432703
 20
200.1951517307366
 30
0.0
 10
129.1059044500943
 20
200.0232655646636
 30
0.0
 10
128.9893803202253
 20
199.8967512348352
 30
0.0
 10
128.8474398198629
 20
199.9080503807077
 30
0.0
  0
SPLINE
  5
1C2
330
1F
100
AcDbEntity
  8
_U+30EC_U+30A4_U+30E4_U+30FC_2
100
AcDbSpline
210
0.0
220
0.0
230
1.0
 70
     8
 71
     3
 72
    11
 73
     7
 74
     0
 42
0.000000001
 43
0.00000001
 40
2.0
 40
2.0
 40
2.0
 40
2.0
 40
3.0
 40
3.0
 40
3.0
 40
4.0
 40
4.0
 40
4.0
 40
4.0
 10
128.8748983256308
 20
200.4605684704226
 30
0.0
 10
128.7654369790192
 20
200.4692821195907
 30
0.0
 10
128.6772027734728
 20
200.365692407911
 30
0.0
 10
128.6700548964425
 20
200.2288351761563
 30
0.0
 10
128.6623870019025
 20
200.0820213997627
 30
0.0
 10
128.7491822891878
 20
199.9762233569468
 30
0.0
 10
128.8505788346435
 20
199.9681517047045
 30
0.0
  0
SPLINE
  5
1C3
330
1F
100
AcDbEntity
  8
_U+30EC_U+30A4_U+30E4_U+30FC_2
100
AcDbSpline
210
0.0
220
0.0
230
1.0
 70
     8
 71
     3
 72
    11
 73
     7
 74
     0
 42
0.000000001
 43
0.00000001
 40
0.0
 40
0.0
 40
0.0
 40
0.0
 40
1.0
 40
1.0
 40
1.0
 40
2.0
 40
2.0
 40
2.0
 40
2.0
 10
128.8505788346435
 20
199.9681517047045
 30
0.0
 10
128.9613598759897
 20
199.9593330014961
 30
0.0
 10
129.0481845655939
 20
200.0613080004149
 30
0.0
 10
129.0553324426248
 20
200.1981652321696
 30
0.0
 10
129.0624803196557
 20
200.335022463925
 30
0.0
 10
128.9857526833531
 20
200.4517439308793
 30
0.0
 10
128.8748983256308
 20
200.4605684704226
 30
0.0
  0
SPLINE
  5
1C4
330
1F
100
AcDbEntity
  8
_U+30EC_U+30A4_U+30E4_U+30FC_2
100
AcDbSpline
210
0.0
220
0.0
230
1.0
 70
     8
 71
     3
 72
    14
 73
    10
 74
     0
 42
0.000000001
 43
0.00000001
 40
0.0
 40
0.0
 40
0.0
 40
0.0
 40
1.0
 40
2.0
 40
3.0
 40
4.0
 40
5.0
 40
6.0
 40
7.0
 40
7.0
 40
7.0
 40
7.0
 10
128.7765862730084
 20
200.3712327783305
 30
0.0
 10
128.7997943068721
 20
200.3743842775821
 30
0.0
 10
128.829820763532
 20
200.3769929976155
 30
0.0
 10
128.8690450237061
 20
200.3738705580288
 30
0.0
 10
128.9136213791917
 20
200.3703220659368
 30
0.0
 10
128.9779863528099
 20
200.3552003642236
 30
0.0
 10
128.9738025755796
 20
200.2750954369064
 30
0.0
 10
128.9718832382274
 20
200.2383467357881
 30
0.0
 10
128.9476257144806
 20
200.2151011191742
 30
0.0
 10
128.9187322601758
 20
200.2074032364442
 30
0.0
  0
SPLINE
  5
1C5
330
1F
100
AcDbEntity
  8
_U+30EC_U+30A4_U+30E4_U+30FC_2
100
AcDbSpline
210
0.0
220
0.0
230
1.0
 70
     8
 71
     3
 72
    11
 73
     7
 74
     0
 42
0.000000001
 43
0.00000001
 40
0.0
 40
0.0
 40
0.0
 40
0.0
 40
1.0
 40
2.0
 40
3.0
 40
4.0
 40
4.0
 40
4.0
 40
4.0
 10
128.9184722514215
 20
200.2024249641234
 30
0.0
 10
128.9422152263269
 20
200.1904460783348
 30
0.0
 10
128.9530762457992
 20
200.1644048569325
 30
0.0
 10
128.9578051436953
 20
200.1238548710758
 30
0.0
 10
128.9634305899939
 20
200.0765076283947
 30
0.0
 10
128.9678963330066
 20
200.057701388994
 30
0.0
 10
128.9727119059781
 20
200.0455931887152
 30
0.0
  0
SPLINE
  5
1C6
330
1F
100
AcDbEntity
  8
_U+30EC_U+30A4_U+30E4_U+30FC_2
100
AcDbSpline
210
0.0
220
0.0
230
1.0
 70
     8
 71
     3
 72
    11
 73
     7
 74
     0
 42
0.000000001
 43
0.00000001
 40
0.0
 40
0.0
 40
0.0
 40
0.0
 40
1.0
 40
2.0
 40
3.0
 40
4.0
 40
4.0
 40
4.0
 40
4.0
 10
128.9158917160081
 20
200.0501163488641
 30
0.0
 10
128.9097564483021
 20
200.0623296031872
 30
0.0
 10
128.9057256290235
 20
200.0894631344662
 30
0.0
 10
128.9009849537259
 20
200.128378031226
 30
0.0
 10
128.8940515900937
 20
200.1774654170464
 30
0.0
 10
128.8724232597188
 20
200.1791871360705
 30
0.0
 10
128.821101797811
 20
200.1832725710449
 30
0.0
  0
SPLINE
  5
1C7
330
1F
100
AcDbEntity
  8
_U+30EC_U+30A4_U+30E4_U+30FC_2
100
AcDbSpline
210
0.0
220
0.0
230
1.0
 70
     8
 71
     3
 72
    14
 73
    10
 74
     0
 42
0.000000001
 43
0.00000001
 40
0.0
 40
0.0
 40
0.0
 40
0.0
 40
1.0
 40
2.0
 40
3.0
 40
4.0
 40
5.0
 40
6.0
 40
7.0
 40
7.0
 40
7.0
 40
7.0
 10
128.8249506686113
 20
200.2315925295609
 30
0.0
 10
128.8668876346272
 20
200.2282541455542
 30
0.0
 10
128.9127836848487
 20
200.2246005994204
 30
0.0
 10
128.9152230397094
 20
200.2713058451775
 30
0.0
 10
128.9167074533247
 20
200.2997272544174
 30
0.0
 10
128.9015492970858
 20
200.3210206879212
 30
0.0
 10
128.8623250369137
 20
200.3241431275084
 30
0.0
 10
128.846122118227
 20
200.3254329576935
 30
0.0
 10
128.835259517451
 20
200.3246616462793
 30
0.0
 10
128.8297442845558
 20
200.3233737683186
 30
0.0
  0
SPLINE
  5
1C8
330
1F
100
AcDbEntity
  8
_U+30EC_U+30A4_U+30E4_U+30FC_2
 62
    29
370
    18
100
AcDbSpline
210
0.0
220
0.0
230
1.0
 70
     8
 71
     3
 72
    11
 73
     7
 74
     0
 42
0.000000001
 43
0.00000001
 40
2.0
 40
2.0
 40
2.0
 40
2.0
 40
3.0
 40
3.0
 40
3.0
 40
4.0
 40
4.0
 40
4.0
 40
4.0
 10
84.59720356068811
 20
207.9301879843684
 30
0.0
 10
84.5972035613311
 20
222.2397310933196
 30
0.0
 10
78.4822242631697
 20
233.8399077698319
 30
0.0
 10
70.9390150236003
 20
233.8399077701701
 30
0.0
 10
63.395805784031
 20
233.8399077705096
 30
0.0
 10
57.28082648482752
 20
222.2397310945467
 30
0.0
 10
57.28082648418582
 20
207.9301879855947
 30
0.0
  0
SPLINE
  5
1C9
330
1F
100
AcDbEntity
  8
_U+30EC_U+30A4_U+30E4_U+30FC_2
 62
    29
370
    18
100
AcDbSpline
210
0.0
220
0.0
230
1.0
 70
     8
 71
     3
 72
    11
 73
     7
 74
     0
 42
0.000000001
 43
0.00000001
 40
0.0
 40
0.0
 40
0.0
 40
0.0
 40
1.0
 40
1.0
 40
1.0
 40
2.0
 40
2.0
 40
2.0
 40
2.0
 10
57.28082648418582
 20
207.9301879855947
 30
0.0
 10
57.28082648354284
 20
193.6206448766439
 30
0.0
 10
63.3958057817042
 20
182.0204682001317
 30
0.0
 10
70.9390150212735
 20
182.0204681997929
 30
0.0
 10
78.48222426084419
 20
182.0204681994541
 30
0.0
 10
84.5972035600451
 20
193.6206448754177
 30
0.0
 10
84.59720356068811
 20
207.9301879843684
 30
0.0
  0
SPLINE
  5
1CA
330
1F
100
AcDbEntity
  8
_U+30EC_U+30A4_U+30E4_U+30FC_2
 62
    29
370
    18
100
AcDbSpline
210
0.0
220
0.0
230
1.0
 70
     8
 71
     3
 72
    11
 73
     7
 74
     0
 42
0.000000001
 43
0.00000001
 40
2.0
 40
2.0
 40
2.0
 40
2.0
 40
3.0
 40
3.0
 40
3.0
 40
4.0
 40
4.0
 40
4.0
 40
4.0
 10
84.05767779705081
 20
207.9301879843934
 30
0.0
 10
84.05767779766809
 20
221.6744755214543
 30
0.0
 10
78.1842524117432
 20
232.8164220188918
 30
0.0
 10
70.9390150235542
 20
232.8164220192159
 30
0.0
 10
63.6937776353664
 20
232.8164220195425
 30
0.0
 10
57.82035224844039
 20
221.6744755226324
 30
0.0
 10
57.82035224782437
 20
207.9301879855703
 30
0.0
  0
SPLINE
  5
1CB
330
1F
100
AcDbEntity
  8
_U+30EC_U+30A4_U+30E4_U+30FC_2
 62
    29
370
    18
100
AcDbSpline
210
0.0
220
0.0
230
1.0
 70
     8
 71
     3
 72
    11
 73
     7
 74
     0
 42
0.000000001
 43
0.00000001
 40
0.0
 40
0.0
 40
0.0
 40
0.0
 40
1.0
 40
1.0
 40
1.0
 40
2.0
 40
2.0
 40
2.0
 40
2.0
 10
57.82035224782437
 20
207.9301879855703
 30
0.0
 10
57.82035224720576
 20
194.1859004485087
 30
0.0
 10
63.69377763313069
 20
183.0439539510731
 30
0.0
 10
70.9390150213197
 20
183.0439539507465
 30
0.0
 10
78.18425240950882
 20
183.0439539504224
 30
0.0
 10
84.0576777964335
 20
194.1859004473318
 30
0.0
 10
84.05767779705081
 20
207.9301879843934
 30
0.0
  0
SPLINE
  5
1CC
330
1F
100
AcDbEntity
  8
_U+30EC_U+30A4_U+30E4_U+30FC_2
 62
    29
370
    18
100
AcDbSpline
210
0.0
220
0.0
230
1.0
 70
     8
 71
     3
 72
    11
 73
     7
 74
     0
 42
0.000000001
 43
0.00000001
 40
0.0
 40
0.0
 40
0.0
 40
0.0
 40
1.0
 40
1.0
 40
1.0
 40
2.0
 40
2.0
 40
2.0
 40
2.0
 10
75.05393152446482
 20
231.5550062986533
 30
0.0
 10
69.6703928543034
 20
228.3778650986511
 30
0.0
 10
64.85914644124149
 20
219.996114998528
 30
0.0
 10
63.0729469124808
 20
209.6009763422193
 30
0.0
 10
61.08829145358612
 20
198.0508844582905
 30
0.0
 10
63.4698489924667
 20
187.6495151411081
 30
0.0
 10
68.2472096947401
 20
183.5868993823097
 30
0.0
  0
SPLINE
  5
1CD
330
1F
100
AcDbEntity
  8
_U+30EC_U+30A4_U+30E4_U+30FC_2
 62
    29
370
    18
100
AcDbSpline
210
0.0
220
0.0
230
1.0
 70
     8
 71
     3
 72
    14
 73
    10
 74
     0
 42
0.000000001
 43
0.00000001
 40
0.0
 40
0.0
 40
0.0
 40
0.0
 40
1.0
 40
1.0
 40
1.0
 40
2.0
 40
2.0
 40
2.0
 40
3.0
 40
3.0
 40
3.0
 40
3.0
 10
82.23700555902968
 20
220.4520683977238
 30
0.0
 10
78.2225067786981
 20
221.1418808251216
 30
0.0
 10
73.90729796852492
 20
215.5274659176418
 30
0.0
 10
72.5987169185451
 20
207.9119217197391
 30
0.0
 10
71.2901358685665
 20
200.2963775218342
 30
0.0
 10
73.4837156009486
 20
193.5635556924371
 30
0.0
 10
77.4982143812796
 20
192.8737432650395
 30
0.0
 10
79.0184717614213
 20
192.6125170221037
 30
0.0
 10
80.581853186895
 20
193.2553636679837
 30
0.0
 10
82.00874642004722
 20
194.5685940189134
 30
0.0
  0
SPLINE
  5
1CE
330
1F
100
AcDbEntity
  8
_U+30EC_U+30A4_U+30E4_U+30FC_2
 62
    29
370
    18
100
AcDbSpline
210
0.0
220
0.0
230
1.0
 70
     8
 71
     3
 72
    11
 73
     7
 74
     0
 42
0.000000001
 43
0.00000001
 40
2.0
 40
2.0
 40
2.0
 40
2.0
 40
3.0
 40
3.0
 40
3.0
 40
4.0
 40
4.0
 40
4.0
 40
4.0
 10
122.3225143632798
 20
169.1646429744971
 30
0.0
 10
122.4306606736545
 20
172.8334903435442
 30
0.0
 10
120.2309630080411
 20
175.8822931396408
 30
0.0
 10
117.4093521142153
 20
175.9743346138449
 30
0.0
 10
114.5877412203895
 20
176.066376088049
 30
0.0
 10
112.2127037416645
 20
173.1668020065508
 30
0.0
 10
112.1045574312923
 20
169.4979546375024
 30
0.0
  0
SPLINE
  5
1CF
330
1F
100
AcDbEntity
  8
_U+30EC_U+30A4_U+30E4_U+30FC_2
 62
    29
370
    18
100
AcDbSpline
210
0.0
220
0.0
230
1.0
 70
     8
 71
     3
 72
    11
 73
     7
 74
     0
 42
0.000000001
 43
0.00000001
 40
0.0
 40
0.0
 40
0.0
 40
0.0
 40
1.0
 40
1.0
 40
1.0
 40
2.0
 40
2.0
 40
2.0
 40
2.0
 10
112.1045574312923
 20
169.4979546375024
 30
0.0
 10
111.9964111209195
 20
165.829107268454
 30
0.0
 10
114.1961087865315
 20
162.7803044723574
 30
0.0
 10
117.0177196803574
 20
162.6882629981526
 30
0.0
 10
119.8393305741832
 20
162.5962215239484
 30
0.0
 10
122.2143680529076
 20
165.4957956054466
 30
0.0
 10
122.3225143632798
 20
169.1646429744971
 30
0.0
  0
SPLINE
  5
1D0
330
1F
100
AcDbEntity
  8
_U+30EC_U+30A4_U+30E4_U+30FC_2
 62
    29
370
    18
100
AcDbSpline
210
0.0
220
0.0
230
1.0
 70
     8
 71
     3
 72
     8
 73
     4
 74
     0
 42
0.000000001
 43
0.00000001
 40
0.0
 40
0.0
 40
0.0
 40
0.0
 40
1.0
 40
1.0
 40
1.0
 40
1.0
 10
104.2392107211911
 20
174.9516030338587
 30
0.0
 10
102.8326735383535
 20
173.8051063816028
 30
0.0
 10
101.8695866502766
 20
171.8034122844783
 30
0.0
 10
101.8016288659475
 20
169.4979546375024
 30
0.0
  0
SPLINE
  5
1D1
330
1F
100
AcDbEntity
  8
_U+30EC_U+30A4_U+30E4_U+30FC_2
 62
    29
370
    18
100
AcDbSpline
210
0.0
220
0.0
230
1.0
 70
     8
 71
     3
 72
     8
 73
     4
 74
     0
 42
0.000000001
 43
0.00000001
 40
1.0
 40
1.0
 40
1.0
 40
1.0
 40
2.0
 40
2.0
 40
2.0
 40
2.0
 10
101.8016288659475
 20
169.4979546375024
 30
0.0
 10
101.6934825555741
 20
165.829107268454
 30
0.0
 10
103.8931802211874
 20
162.7803044723574
 30
0.0
 10
106.7147911150126
 20
162.6882629981526
 30
0.0
  0
SPLINE
  5
1D2
330
1F
100
AcDbEntity
  8
_U+30EC_U+30A4_U+30E4_U+30FC_2
 62
    29
370
    18
100
AcDbSpline
210
0.0
220
0.0
230
1.0
 70
     8
 71
     2
 72
     6
 73
     3
 74
     0
 42
0.000000001
 43
0.00000001
 40
4.0
 40
4.0
 40
4.0
 40
5.0
 40
5.0
 40
5.0
 10
108.1722741305197
 20
155.5849572564263
 30
0.0
 10
108.3835980700961
 20
155.6083990441513
 30
0.0
 10
108.6575520630829
 20
155.3363743046355
 30
0.0
  0
SPLINE
  5
1D3
330
1F
100
AcDbEntity
  8
_U+30EC_U+30A4_U+30E4_U+30FC_2
 62
    29
370
    18
100
AcDbSpline
210
0.0
220
0.0
230
1.0
 70
     8
 71
     2
 72
     6
 73
     3
 74
     0
 42
0.000000001
 43
0.00000001
 40
5.0
 40
5.0
 40
5.0
 40
6.0
 40
6.0
 40
6.0
 10
108.6575520630829
 20
155.3363743046355
 30
0.0
 10
108.9315060560697
 20
155.0643495651209
 30
0.0
 10
108.8991288499714
 20
154.647581303114
 30
0.0
  0
SPLINE
  5
1D4
330
1F
100
AcDbEntity
  8
_U+30EC_U+30A4_U+30E4_U+30FC_2
 62
    29
370
    18
100
AcDbSpline
210
0.0
220
0.0
230
1.0
 70
     8
 71
     2
 72
     6
 73
     3
 74
     0
 42
0.000000001
 43
0.00000001
 40
0.0
 40
0.0
 40
0.0
 40
1.0
 40
1.0
 40
1.0
 10
72.0271139816579
 20
233.7620108951419
 30
0.0
 10
88.93283814498501
 20
231.2385473528878
 30
0.0
 10
107.7546350152787
 20
222.9736254799552
 30
0.0
  0
SPLINE
  5
1D5
330
1F
100
AcDbEntity
  8
_U+30EC_U+30A4_U+30E4_U+30FC_2
 62
    29
370
    18
100
AcDbSpline
210
0.0
220
0.0
230
1.0
 70
     8
 71
     3
 72
     8
 73
     4
 74
     0
 42
0.000000001
 43
0.00000001
 40
1.0
 40
1.0
 40
1.0
 40
1.0
 40
2.0
 40
2.0
 40
2.0
 40
2.0
 10
107.7546350152787
 20
222.9736254799552
 30
0.0
 10
119.2366680535203
 20
217.9316995332733
 30
0.0
 10
127.1623162065987
 20
213.0929467484488
 30
0.0
 10
130.5352600095838
 20
210.6109692330449
 30
0.0
  0
SPLINE
  5
1D6
330
1F
100
AcDbEntity
  8
_U+30EC_U+30A4_U+30E4_U+30FC_2
 62
    29
370
    18
100
AcDbSpline
210
0.0
220
0.0
230
1.0
 70
     8
 71
     3
 72
     8
 73
     4
 74
     0
 42
0.000000001
 43
0.00000001
 40
2.0
 40
2.0
 40
2.0
 40
2.0
 40
3.0
 40
3.0
 40
3.0
 40
3.0
 10
130.5352600095838
 20
210.6109692330449
 30
0.0
 10
134.2162756336638
 20
207.9022973587226
 30
0.0
 10
138.2445568826557
 20
202.6933129850249
 30
0.0
 10
137.4111193828644
 20
196.303625486622
 30
0.0
  0
SPLINE
  5
1D7
330
1F
100
AcDbEntity
  8
_U+30EC_U+30A4_U+30E4_U+30FC_2
 62
    29
370
    18
100
AcDbSpline
210
0.0
220
0.0
230
1.0
 70
     8
 71
     3
 72
     8
 73
     4
 74
     0
 42
0.000000001
 43
0.00000001
 40
3.0
 40
3.0
 40
3.0
 40
3.0
 40
4.0
 40
4.0
 40
4.0
 40
4.0
 10
137.4111193828644
 20
196.303625486622
 30
0.0
 10
136.4855253540528
 20
189.2074045990486
 30
0.0
 10
131.4381506343584
 20
186.1634692391577
 30
0.0
 10
129.7712756347743
 20
185.3300317393658
 30
0.0
  0
SPLINE
  5
1D8
330
1F
100
AcDbEntity
  8
_U+30EC_U+30A4_U+30E4_U+30FC_2
 62
    29
370
    18
100
AcDbSpline
210
0.0
220
0.0
230
1.0
 70
     8
 71
     3
 72
     8
 73
     4
 74
     0
 42
0.000000001
 43
0.00000001
 40
4.0
 40
4.0
 40
4.0
 40
4.0
 40
5.0
 40
5.0
 40
5.0
 40
5.0
 10
129.7712756347743
 20
185.3300317393658
 30
0.0
 10
128.6600256350529
 20
184.774406739505
 30
0.0
 10
122.4092443866528
 20
181.9962817398614
 30
0.0
 10
114.9083068884906
 20
181.1628442404074
 30
0.0
  0
SPLINE
  5
1D9
330
1F
100
AcDbEntity
  8
_U+30EC_U+30A4_U+30E4_U+30FC_2
 62
    29
370
    18
100
AcDbSpline
210
0.0
220
0.0
230
1.0
 70
     8
 71
     3
 72
     8
 73
     4
 74
     0
 42
0.000000001
 43
0.00000001
 40
5.0
 40
5.0
 40
5.0
 40
5.0
 40
6.0
 40
6.0
 40
6.0
 40
6.0
 10
114.9083068884906
 20
181.1628442404074
 30
0.0
 10
107.4073693903283
 20
180.3294067409524
 30
0.0
 10
97.16914522294212
 20
179.6348754908777
 30
0.0
 10
89.76081189147239
 20
179.9126879911407
 30
0.0
  0
SPLINE
  5
1DA
330
1F
100
AcDbEntity
  8
_U+30EC_U+30A4_U+30E4_U+30FC_2
 62
    29
370
    18
100
AcDbSpline
210
0.0
220
0.0
230
1.0
 70
     8
 71
     2
 72
     6
 73
     3
 74
     0
 42
0.000000001
 43
0.00000001
 40
6.0
 40
6.0
 40
6.0
 40
7.0
 40
7.0
 40
7.0
 10
89.76081189147239
 20
179.9126879911407
 30
0.0
 10
82.35247856000521
 20
180.1905004914044
 30
0.0
 10
70.0609071074537
 20
182.0612471278154
 30
0.0
  0
SPLINE
  5
1DB
330
1F
100
AcDbEntity
  8
_U+30EC_U+30A4_U+30E4_U+30FC_2
 62
    29
370
    18
100
AcDbSpline
210
0.0
220
0.0
230
1.0
 70
     8
 71
     2
 72
     6
 73
     3
 74
     0
 42
0.000000001
 43
0.00000001
 40
2.08989224732695
 40
2.08989224732695
 40
2.08989224732695
 40
3.0
 40
3.0
 40
3.0
 10
115.3960328439629
 20
155.9688353232937
 30
0.0
 10
115.7419018687821
 20
155.9092315282727
 30
0.0
 10
115.9385546654301
 20
155.7125787316248
 30
0.0
  0
SPLINE
  5
1DC
330
1F
100
AcDbEntity
  8
_U+30EC_U+30A4_U+30E4_U+30FC_2
 62
    29
370
    18
100
AcDbSpline
210
0.0
220
0.0
230
1.0
 70
     8
 71
     2
 72
     6
 73
     3
 74
     0
 42
0.000000001
 43
0.00000001
 40
3.0
 40
3.0
 40
3.0
 40
4.0
 40
4.0
 40
4.0
 10
115.9385546654301
 20
155.7125787316248
 30
0.0
 10
116.1546310542634
 20
155.4965023427901
 30
0.0
 10
116.1395964359541
 20
155.0181462050831
 30
0.0
  0
SPLINE
  5
1DD
330
1F
100
AcDbEntity
  8
_U+30EC_U+30A4_U+30E4_U+30FC_2
 62
    29
370
    18
100
AcDbSpline
210
0.0
220
0.0
230
1.0
 70
     8
 71
     2
 72
     6
 73
     3
 74
     0
 42
0.000000001
 43
0.00000001
 40
7.0
 40
7.0
 40
7.0
 40
7.921642549770995
 40
7.921642549770995
 40
7.921642549770995
 10
115.4089707230391
 20
154.9714254401366
 30
0.0
 10
115.406307201302
 20
155.4091285537448
 30
0.0
 10
115.2389453713016
 20
155.5958301719205
 30
0.0
  0
SPLINE
  5
1DE
330
1F
100
AcDbEntity
  8
0
  6
Continuous
 62
     7
370
    18
100
AcDbSpline
210
0.0
220
0.0
230
1.0
 70
     8
 71
     3
 72
     8
 73
     4
 74
     0
 42
0.000000001
 43
0.00000001
 40
6.749996494420426
 40
6.749996494420426
 40
6.749996494420426
 40
6.749996494420426
 40
7.0
 40
7.0
 40
7.0
 40
7.0
 10
96.88308696316739
 20
125.3799381106117
 30
0.0
 10
97.00945500369983
 20
126.404599872862
 30
0.0
 10
97.16348800469669
 20
127.3634119495
 30
0.0
 10
97.34994241662206
 20
128.1090261183959
 30
0.0
  0
SPLINE
  5
1DF
330
1F
100
AcDbEntity
  8
_U+30EC_U+30A4_U+30E4_U+30FC_2
 62
    29
370
    18
100
AcDbSpline
210
0.0
220
0.0
230
1.0
 70
     8
 71
     2
 72
     6
 73
     3
 74
     0
 42
0.000000001
 43
0.00000001
 40
2.0
 40
2.0
 40
2.0
 40
3.0
 40
3.0
 40
3.0
 10
109.6926512434025
 20
154.6013875152001
 30
0.0
 10
109.6723393892186
 20
155.1878217873123
 30
0.0
 10
109.4562630003839
 20
155.3884641483728
 30
0.0
  0
SPLINE
  5
1E0
330
1F
100
AcDbEntity
  8
_U+30EC_U+30A4_U+30E4_U+30FC_2
 62
    29
370
    18
100
AcDbSpline
210
0.0
220
0.0
230
1.0
 70
     8
 71
     2
 72
     6
 73
     3
 74
     0
 42
0.000000001
 43
0.00000001
 40
3.0
 40
3.0
 40
3.0
 40
4.0
 40
4.0
 40
4.0
 10
109.4562630003839
 20
155.3884641483728
 30
0.0
 10
109.2401866115481
 20
155.5891065094332
 30
0.0
 10
108.9853796682696
 20
155.6380065753038
 30
0.0
  0
SPLINE
  5
1E1
330
1F
100
AcDbEntity
  8
_U+30EC_U+30A4_U+30E4_U+30FC_2
 62
    29
370
    18
100
AcDbSpline
210
0.0
220
0.0
230
1.0
 70
     8
 71
     2
 72
     6
 73
     3
 74
     0
 42
0.000000001
 43
0.00000001
 40
0.0
 40
0.0
 40
0.0
 40
1.0
 40
1.0
 40
1.0
 10
116.1121610548558
 20
148.8324145609905
 30
0.0
 10
119.422760012362
 20
149.1028963317553
 30
0.0
 10
120.858124595336
 20
149.1028963317553
 30
0.0
  0
SPLINE
  5
1E2
330
1F
100
AcDbEntity
  8
_U+30EC_U+30A4_U+30E4_U+30FC_2
 62
    29
370
    18
100
AcDbSpline
210
0.0
220
0.0
230
1.0
 70
     8
 71
     3
 72
     8
 73
     4
 74
     0
 42
0.000000001
 43
0.00000001
 40
1.0
 40
1.0
 40
1.0
 40
1.0
 40
2.0
 40
2.0
 40
2.0
 40
2.0
 10
120.858124595336
 20
149.1028963317553
 30
0.0
 10
122.2934891783112
 20
149.1028963317553
 30
0.0
 10
125.3957287608692
 20
148.7513859151771
 30
0.0
 10
126.5069787605907
 20
148.5661775818907
 30
0.0
  0
SPLINE
  5
1E3
330
1F
100
AcDbEntity
  8
_U+30EC_U+30A4_U+30E4_U+30FC_2
 62
    29
370
    18
100
AcDbSpline
210
0.0
220
0.0
230
1.0
 70
     8
 71
     3
 72
     8
 73
     4
 74
     0
 42
0.000000001
 43
0.00000001
 40
2.0
 40
2.0
 40
2.0
 40
2.0
 40
3.0
 40
3.0
 40
3.0
 40
3.0
 10
126.5069787605907
 20
148.5661775818907
 30
0.0
 10
127.6182287603134
 20
148.3809692486026
 30
0.0
 10
128.3127600101397
 20
148.242062998637
 30
0.0
 10
128.5905725100697
 20
147.917948415385
 30
0.0
  0
SPLINE
  5
1E4
330
1F
100
AcDbEntity
  8
_U+30EC_U+30A4_U+30E4_U+30FC_2
 62
    29
370
    18
100
AcDbSpline
210
0.0
220
0.0
230
1.0
 70
     8
 71
     2
 72
     6
 73
     3
 74
     0
 42
0.000000001
 43
0.00000001
 40
3.0
 40
3.0
 40
3.0
 40
4.0
 40
4.0
 40
4.0
 10
128.5905725100697
 20
147.917948415385
 30
0.0
 10
128.8683850100011
 20
147.5938338321331
 30
0.0
 10
128.6831766767135
 20
146.2973754991234
 30
0.0
  0
SPLINE
  5
1E5
330
1F
100
AcDbEntity
  8
_U+30EC_U+30A4_U+30E4_U+30FC_2
 62
    29
370
    18
100
AcDbSpline
210
0.0
220
0.0
230
1.0
 70
     8
 71
     2
 72
     6
 73
     3
 74
     0
 42
0.000000001
 43
0.00000001
 40
4.0
 40
4.0
 40
4.0
 40
5.0
 40
5.0
 40
5.0
 10
128.6831766767135
 20
146.2973754991234
 30
0.0
 10
128.6920846540588
 20
146.0664716227783
 30
0.0
 10
127.8034370935996
 20
145.8806567492285
 30
0.0
  0
SPLINE
  5
1E6
330
1F
100
AcDbEntity
  8
_U+30EC_U+30A4_U+30E4_U+30FC_2
 62
    29
370
    18
100
AcDbSpline
210
0.0
220
0.0
230
1.0
 70
     8
 71
     2
 72
     6
 73
     3
 74
     0
 42
0.000000001
 43
0.00000001
 40
5.0
 40
5.0
 40
5.0
 40
6.0
 40
6.0
 40
6.0
 10
127.8034370935996
 20
145.8806567492285
 30
0.0
 10
126.7900086782062
 20
145.6687503858533
 30
0.0
 10
115.7243811070368
 20
144.9304028432158
 30
0.0
  0
SPLINE
  5
1E7
330
1F
100
AcDbEntity
  8
_U+30EC_U+30A4_U+30E4_U+30FC_2
 62
    29
370
    18
100
AcDbSpline
210
0.0
220
0.0
230
1.0
 70
     8
 71
     2
 72
     6
 73
     3
 74
     0
 42
0.000000001
 43
0.00000001
 40
8.0
 40
8.0
 40
8.0
 40
9.0
 40
9.0
 40
9.0
 10
126.6458850105557
 20
147.1771150822381
 30
0.0
 10
127.5719266769908
 20
147.2697192488812
 30
0.0
 10
128.0349475102084
 20
147.3623234155243
 30
0.0
  0
SPLINE
  5
1E8
330
1F
100
AcDbEntity
  8
_U+30EC_U+30A4_U+30E4_U+30FC_2
 62
    29
370
    18
100
AcDbSpline
210
0.0
220
0.0
230
1.0
 70
     8
 71
     2
 72
     6
 73
     3
 74
     0
 42
0.000000001
 43
0.00000001
 40
9.0
 40
9.0
 40
9.0
 40
10.0
 40
10.0
 40
10.0
 10
128.0349475102084
 20
147.3623234155243
 30
0.0
 10
128.4343029788596
 20
147.4259887800914
 30
0.0
 10
128.5211193850879
 20
147.5012296654899
 30
0.0
  0
SPLINE
  5
1E9
330
1F
100
AcDbEntity
  8
_U+30EC_U+30A4_U+30E4_U+30FC_2
 62
    29
370
    18
100
AcDbSpline
210
0.0
220
0.0
230
1.0
 70
     8
 71
     2
 72
     6
 73
     3
 74
     0
 42
0.000000001
 43
0.00000001
 40
10.0
 40
10.0
 40
10.0
 40
11.0
 40
11.0
 40
11.0
 10
128.5211193850879
 20
147.5012296654899
 30
0.0
 10
128.6914710897157
 20
147.6488678095
 30
0.0
 10
128.6484501142219
 20
147.790617686251
 30
0.0
  0
SPLINE
  5
1EA
330
1F
100
AcDbEntity
  8
0
  6
Continuous
 62
     7
370
    18
100
AcDbSpline
210
0.0
220
0.0
230
1.0
 70
     8
 71
     3
 72
     8
 73
     4
 74
     0
 42
0.000000001
 43
0.00000001
 40
2.598657287261823
 40
2.598657287261823
 40
2.598657287261823
 40
2.598657287261823
 40
3.0
 40
3.0
 40
3.0
 40
3.0
 10
106.3986313764494
 20
140.5445627820249
 30
0.0
 10
106.3021267371132
 20
140.7676168765351
 30
0.0
 10
106.1755968302083
 20
140.9658871513982
 30
0.0
 10
106.0258146609172
 20
141.12998615421
 30
0.0
  0
SPLINE
  5
1EB
330
1F
100
AcDbEntity
  8
_U+30EC_U+30A4_U+30E4_U+30FC_2
 62
    29
370
    18
100
AcDbSpline
210
0.0
220
0.0
230
1.0
 70
     8
 71
     2
 72
     6
 73
     3
 74
     0
 42
0.000000001
 43
0.00000001
 40
1.0
 40
1.0
 40
1.0
 40
2.0
 40
2.0
 40
2.0
 10
114.9314579301512
 20
144.2137817496444
 30
0.0
 10
114.9468046958077
 20
144.5393558192146
 30
0.0
 10
115.064576419702
 20
144.6999536245233
 30
0.0
  0
SPLINE
  5
1EC
330
1F
100
AcDbEntity
  8
_U+30EC_U+30A4_U+30E4_U+30FC_2
 62
    29
370
    18
100
AcDbSpline
210
0.0
220
0.0
230
1.0
 70
     8
 71
     2
 72
     6
 73
     3
 74
     0
 42
0.000000001
 43
0.00000001
 40
2.0
 40
2.0
 40
2.0
 40
3.0
 40
3.0
 40
3.0
 10
115.064576419702
 20
144.6999536245233
 30
0.0
 10
115.2555725134038
 20
144.9604028432082
 30
0.0
 10
115.5420666539577
 20
144.9951294056991
 30
0.0
  0
SPLINE
  5
1ED
330
1F
100
AcDbEntity
  8
_U+30EC_U+30A4_U+30E4_U+30FC_2
 62
    29
370
    18
100
AcDbSpline
210
0.0
220
0.0
230
1.0
 70
     8
 71
     2
 72
     6
 73
     3
 74
     0
 42
0.000000001
 43
0.00000001
 40
1.0
 40
1.0
 40
1.0
 40
2.0
 40
2.0
 40
2.0
 10
114.2523607080997
 20
144.2137817496444
 30
0.0
 10
114.2677074737568
 20
144.5393558192146
 30
0.0
 10
114.3854791976498
 20
144.6999536245233
 30
0.0
  0
SPLINE
  5
1EE
330
1F
100
AcDbEntity
  8
_U+30EC_U+30A4_U+30E4_U+30FC_2
 62
    29
370
    18
100
AcDbSpline
210
0.0
220
0.0
230
1.0
 70
     8
 71
     2
 72
     6
 73
     3
 74
     0
 42
0.000000001
 43
0.00000001
 40
2.0
 40
2.0
 40
2.0
 40
3.0
 40
3.0
 40
3.0
 10
114.3854791976498
 20
144.6999536245233
 30
0.0
 10
114.5764752913516
 20
144.9604028432082
 30
0.0
 10
114.8629694319055
 20
144.9951294056991
 30
0.0
  0
SPLINE
  5
1EF
330
1F
100
AcDbEntity
  8
_U+30EC_U+30A4_U+30E4_U+30FC_2
 62
    29
370
    18
100
AcDbSpline
210
0.0
220
0.0
230
1.0
 70
     8
 71
     3
 72
    11
 73
     7
 74
     0
 42
0.000000001
 43
0.00000001
 40
2.522321969005785
 40
2.522321969005785
 40
2.522321969005785
 40
2.522321969005785
 40
3.0
 40
3.0
 40
3.0
 40
4.0
 40
4.0
 40
4.0
 40
4.0
 10
106.6119117183875
 20
140.6404893921741
 30
0.0
 10
106.3251962970203
 20
141.0113544241152
 30
0.0
 10
105.9324058530925
 20
141.2454260347319
 30
0.0
 10
105.4933938806486
 20
141.2597466872456
 30
0.0
 10
104.5743397396593
 20
141.2897264049289
 30
0.0
 10
103.8007433396001
 20
140.3452781209579
 30
0.0
 10
103.7655179601566
 20
139.1502624033209
 30
0.0
  0
SPLINE
  5
1F0
330
1F
100
AcDbEntity
  8
0
  6
Continuous
 62
     7
370
    18
100
AcDbSpline
210
0.0
220
0.0
230
1.0
 70
     8
 71
     3
 72
     8
 73
     4
 74
     0
 42
0.000000001
 43
0.00000001
 40
8.88740885595998
 40
8.88740885595998
 40
8.88740885595998
 40
8.88740885595998
 40
8.887595576340505
 40
8.887595576340505
 40
8.887595576340505
 40
8.887595576340505
 10
114.5360550586161
 20
159.0437017749055
 30
0.0
 10
114.535965394062
 20
159.0435477185068
 30
0.0
 10
114.5358757236165
 20
159.0433936550847
 30
0.0
 10
114.5357860472811
 20
159.0432395846371
 30
0.0
  0
SPLINE
  5
1F1
330
1F
100
AcDbEntity
  8
0
  6
Continuous
 62
     7
370
    18
100
AcDbSpline
210
0.0
220
0.0
230
1.0
 70
     8
 71
     3
 72
     8
 73
     4
 74
     0
 42
0.000000001
 43
0.00000001
 40
8.905508721782866
 40
8.905508721782866
 40
8.905508721782866
 40
8.905508721782866
 40
9.0
 40
9.0
 40
9.0
 40
9.0
 10
114.5098152566714
 20
158.9987009367518
 30
0.0
 10
114.4638688972007
 20
158.9200391197784
 30
0.0
 10
114.4164507564257
 20
158.8395194674697
 30
0.0
 10
114.3677539035406
 20
158.7568328549471
 30
0.0
  0
SPLINE
  5
1F2
330
1F
100
AcDbEntity
  8
_U+30EC_U+30A4_U+30E4_U+30FC_2
 62
    29
370
    18
100
AcDbSpline
210
0.0
220
0.0
230
1.0
 70
     8
 71
     3
 72
    17
 73
    13
 74
     0
 42
0.000000001
 43
0.00000001
 40
0.0
 40
0.0
 40
0.0
 40
0.0
 40
1.0
 40
1.0
 40
1.0
 40
2.0
 40
2.0
 40
2.0
 40
3.0
 40
3.0
 40
3.0
 40
4.0
 40
4.0
 40
4.0
 40
4.0
 10
114.4774209446683
 20
137.8900620238072
 30
0.0
 10
114.5849002566924
 20
137.8577047812304
 30
0.0
 10
114.6966172920738
 20
137.8389091359721
 30
0.0
 10
114.8114994979374
 20
137.8351616569671
 30
0.0
 10
115.730553638926
 20
137.8051819392821
 30
0.0
 10
116.5041500389837
 20
138.7496302232533
 30
0.0
 10
116.5393754184295
 20
139.9446459408922
 30
0.0
 10
116.5746007978733
 20
141.1396616585312
 30
0.0
 10
115.8581160221269
 20
142.1327166686805
 30
0.0
 10
114.9390618811383
 20
142.1626963863643
 30
0.0
 10
114.8895864323863
 20
142.164310284741
 30
0.0
 10
114.8405325191107
 20
142.163100297853
 30
0.0
 10
114.7919926403277
 20
142.1591793534964
 30
0.0
  0
SPLINE
  5
1F3
330
1F
100
AcDbEntity
  8
_U+30EC_U+30A4_U+30E4_U+30FC_2
 62
    29
370
    18
100
AcDbSpline
210
0.0
220
0.0
230
1.0
 70
     8
 71
     3
 72
    11
 73
     7
 74
     0
 42
0.000000001
 43
0.00000001
 40
0.0
 40
0.0
 40
0.0
 40
0.0
 40
1.0
 40
1.0
 40
1.0
 40
2.0
 40
2.0
 40
2.0
 40
2.0
 10
114.4957996519789
 20
138.2111993535376
 30
0.0
 10
115.338196358507
 20
138.2946325047581
 30
0.0
 10
116.0201797335234
 20
139.1947348023505
 30
0.0
 10
116.05320354355
 20
140.3150626074647
 30
0.0
 10
116.0734822165816
 20
141.0030135503825
 30
0.0
 10
115.8446354242585
 20
141.624032372073
 30
0.0
 10
115.4714327609533
 20
142.032907374916
 30
0.0
  0
SPLINE
  5
1F4
330
1F
100
AcDbEntity
  8
_U+30EC_U+30A4_U+30E4_U+30FC_2
 62
    29
370
    18
100
AcDbSpline
210
0.0
220
0.0
230
1.0
 70
     8
 71
     3
 72
     8
 73
     4
 74
     0
 42
0.000000001
 43
0.00000001
 40
1.0
 40
1.0
 40
1.0
 40
1.0
 40
2.0
 40
2.0
 40
2.0
 40
2.0
 10
114.9090396148412
 20
175.9743346138449
 30
0.0
 10
112.0874287210153
 20
176.066376088049
 30
0.0
 10
109.7123912422897
 20
173.1668020065508
 30
0.0
 10
109.6042449319175
 20
169.4979546375024
 30
0.0
  0
SPLINE
  5
1F5
330
1F
100
AcDbEntity
  8
_U+30EC_U+30A4_U+30E4_U+30FC_2
 62
    29
370
    18
100
AcDbSpline
210
0.0
220
0.0
230
1.0
 70
     8
 71
     3
 72
     8
 73
     4
 74
     0
 42
0.000000001
 43
0.00000001
 40
2.0
 40
2.0
 40
2.0
 40
2.0
 40
3.0
 40
3.0
 40
3.0
 40
3.0
 10
109.6042449319175
 20
169.4979546375024
 30
0.0
 10
109.4960986215428
 20
165.829107268454
 30
0.0
 10
111.6957962871561
 20
162.7803044723574
 30
0.0
 10
114.5174071809819
 20
162.6882629981526
 30
0.0
  0
SPLINE
  5
1F6
330
1F
100
AcDbEntity
  8
_U+30EC_U+30A4_U+30E4_U+30FC_2
 62
    29
370
    18
100
AcDbSpline
210
0.0
220
0.0
230
1.0
 70
     8
 71
     3
 72
     8
 73
     4
 74
     0
 42
0.000000001
 43
0.00000001
 40
0.0
 40
0.0
 40
0.0
 40
0.0
 40
1.0
 40
1.0
 40
1.0
 40
1.0
 10
105.8965202048582
 20
169.2171401704056
 30
0.0
 10
105.9239265406014
 20
165.695872221604
 30
0.0
 10
108.075932021806
 20
162.8238534136172
 30
0.0
 10
110.8132431363868
 20
162.7345613833045
 30
0.0
  0
SPLINE
  5
1F7
330
1F
100
AcDbEntity
  8
_U+30EC_U+30A4_U+30E4_U+30FC_2
 62
    29
370
    18
100
AcDbSpline
210
0.0
220
0.0
230
1.0
 70
     8
 71
     3
 72
     8
 73
     4
 74
     0
 42
0.000000001
 43
0.00000001
 40
1.0
 40
1.0
 40
1.0
 40
1.0
 40
2.0
 40
2.0
 40
2.0
 40
2.0
 10
110.8132431363868
 20
162.7345613833045
 30
0.0
 10
110.7904199170927
 20
162.7222256537086
 30
0.0
 10
111.6196437690435
 20
162.7204367609628
 30
0.0
 10
112.2343615766585
 20
162.8735185022572
 30
0.0
  0
SPLINE
  5
1F8
330
1F
100
AcDbEntity
  8
_U+30EC_U+30A4_U+30E4_U+30FC_2
 62
    29
370
    18
100
AcDbSpline
210
0.0
220
0.0
230
1.0
 70
     8
 71
     2
 72
     6
 73
     3
 74
     0
 42
0.000000001
 43
0.00000001
 40
2.0
 40
2.0
 40
2.0
 40
3.0
 40
3.0
 40
3.0
 10
112.2343615766585
 20
162.8735185022572
 30
0.0
 10
112.6595669693906
 20
162.9794023008303
 30
0.0
 10
112.8825907431637
 20
163.0587296615994
 30
0.0
  0
SPLINE
  5
1F9
330
1F
100
AcDbEntity
  8
_U+30EC_U+30A4_U+30E4_U+30FC_2
 62
    29
370
    18
100
AcDbSpline
210
0.0
220
0.0
230
1.0
 70
     8
 71
     2
 72
     6
 73
     3
 74
     0
 42
0.000000001
 43
0.00000001
 40
0.0
 40
0.0
 40
0.0
 40
1.0
 40
1.0
 40
1.0
 10
111.7250386601197
 20
162.7924926824996
 30
0.0
 10
111.1694136602584
 20
162.6883129950257
 30
0.0
 10
110.5122769736507
 20
162.7345650814751
 30
0.0
  0
SPLINE
  5
1FA
330
1F
100
AcDbEntity
  8
_U+30EC_U+30A4_U+30E4_U+30FC_2
 62
    29
370
    18
100
AcDbSpline
210
0.0
220
0.0
230
1.0
 70
     8
 71
     3
 72
     8
 73
     4
 74
     0
 42
0.000000001
 43
0.00000001
 40
1.0
 40
1.0
 40
1.0
 40
1.0
 40
2.0
 40
2.0
 40
2.0
 40
2.0
 10
110.5122769736507
 20
162.7345650814751
 30
0.0
 10
107.7749665273673
 20
162.8238566593405
 30
0.0
 10
105.6229629990101
 20
165.695872221604
 30
0.0
 10
105.5955566632663
 20
169.2171401704056
 30
0.0
  0
SPLINE
  5
1FB
330
1F
100
AcDbEntity
  8
_U+30EC_U+30A4_U+30E4_U+30FC_2
 62
    29
370
    18
100
AcDbSpline
210
0.0
220
0.0
230
1.0
 70
     8
 71
     2
 72
     6
 73
     3
 74
     0
 42
0.000000001
 43
0.00000001
 40
2.0
 40
2.0
 40
2.0
 40
3.0
 40
3.0
 40
3.0
 10
105.5955566632663
 20
169.2171401704056
 30
0.0
 10
105.6363147033081
 20
169.6452010141203
 30
0.0
 10
105.7057678282912
 20
169.9693155973722
 30
0.0
  0
SPLINE
  5
1FC
330
1F
100
AcDbEntity
  8
_U+30EC_U+30A4_U+30E4_U+30FC_2
 62
    29
370
    18
100
AcDbSpline
210
0.0
220
0.0
230
1.0
 70
     8
 71
     3
 72
     8
 73
     4
 74
     0
 42
0.000000001
 43
0.00000001
 40
1.0
 40
1.0
 40
1.0
 40
1.0
 40
2.0
 40
2.0
 40
2.0
 40
2.0
 10
110.0768858167471
 20
174.9562024141647
 30
0.0
 10
108.3514477445039
 20
174.1281616662173
 30
0.0
 10
107.0872111248186
 20
172.006840138904
 30
0.0
 10
107.0127794382573
 20
169.4817563290318
 30
0.0
  0
SPLINE
  5
1FD
330
1F
100
AcDbEntity
  8
_U+30EC_U+30A4_U+30E4_U+30FC_2
 62
    29
370
    18
100
AcDbSpline
210
0.0
220
0.0
230
1.0
 70
     8
 71
     3
 72
     8
 73
     4
 74
     0
 42
0.000000001
 43
0.00000001
 40
2.0
 40
2.0
 40
2.0
 40
2.0
 40
3.0
 40
3.0
 40
3.0
 40
3.0
 10
107.0127794382573
 20
169.4817563290318
 30
0.0
 10
106.9151773931443
 20
166.1706215784655
 30
0.0
 10
108.9004045363601
 20
163.4190770549883
 30
0.0
 10
111.446908368038
 20
163.3360096245177
 30
0.0
  0
SPLINE
  5
1FE
330
1F
100
AcDbEntity
  8
_U+30EC_U+30A4_U+30E4_U+30FC_2
 62
    29
370
    18
100
AcDbSpline
210
0.0
220
0.0
230
1.0
 70
     8
 71
     2
 72
     6
 73
     3
 74
     0
 42
0.000000001
 43
0.00000001
 40
1.0
 40
1.0
 40
1.0
 40
2.0
 40
2.0
 40
2.0
 10
92.75276001902999
 20
147.2234199916134
 30
0.0
 10
91.57907681467228
 20
147.1660736857815
 30
0.0
 10
91.17849201214509
 20
146.9919067489498
 30
0.0
  0
SPLINE
  5
1FF
330
1F
100
AcDbEntity
  8
_U+30EC_U+30A4_U+30E4_U+30FC_2
 62
    29
370
    18
100
AcDbSpline
210
0.0
220
0.0
230
1.0
 70
     8
 71
     3
 72
     8
 73
     4
 74
     0
 42
0.000000001
 43
0.00000001
 40
2.0
 40
2.0
 40
2.0
 40
2.0
 40
3.0
 40
3.0
 40
3.0
 40
3.0
 10
91.17849201214509
 20
146.9919067489498
 30
0.0
 10
90.91225220698928
 20
146.8761543667003
 30
0.0
 10
90.85482959767499
 20
146.7725766289181
 30
0.0
 10
90.78491865179991
 20
146.6793676865276
 30
0.0
  0
SPLINE
  5
200
330
1F
100
AcDbEntity
  8
_U+30EC_U+30A4_U+30E4_U+30FC_2
 62
    29
370
    18
100
AcDbSpline
210
0.0
220
0.0
230
1.0
 70
     8
 71
     2
 72
     6
 73
     3
 74
     0
 42
0.000000001
 43
0.00000001
 40
3.0
 40
3.0
 40
3.0
 40
4.0
 40
4.0
 40
4.0
 10
90.78491865179991
 20
146.6793676865276
 30
0.0
 10
90.7154655268167
 20
146.5867606938304
 30
0.0
 10
90.7154655268167
 20
146.4825810063557
 30
0.0
  0
SPLINE
  5
201
330
1F
100
AcDbEntity
  8
_U+30EC_U+30A4_U+30E4_U+30FC_2
 62
    29
370
    18
100
AcDbSpline
210
0.0
220
0.0
230
1.0
 70
     8
 71
     2
 72
     6
 73
     3
 74
     0
 42
0.000000001
 43
0.00000001
 40
5.0
 40
5.0
 40
5.0
 40
6.0
 40
6.0
 40
6.0
 10
90.6691662695509
 20
145.0935185067028
 30
0.0
 10
90.70389283204119
 20
144.8388598744882
 30
0.0
 10
91.3173982621101
 20
144.642073194315
 30
0.0
  0
SPLINE
  5
202
330
1F
100
AcDbEntity
  8
_U+30EC_U+30A4_U+30E4_U+30FC_2
 62
    29
370
    18
100
AcDbSpline
210
0.0
220
0.0
230
1.0
 70
     8
 71
     3
 72
     8
 73
     4
 74
     0
 42
0.000000001
 43
0.00000001
 40
6.0
 40
6.0
 40
6.0
 40
6.0
 40
7.0
 40
7.0
 40
7.0
 40
7.0
 10
91.3173982621101
 20
144.642073194315
 30
0.0
 10
91.77770325657772
 20
144.4944259565742
 30
0.0
 10
92.9379655262621
 20
143.9748754997041
 30
0.0
 10
96.59583576078973
 20
143.789669992472
 30
0.0
  0
SPLINE
  5
203
330
1F
100
AcDbEntity
  8
_U+30EC_U+30A4_U+30E4_U+30FC_2
 62
    29
370
    18
100
AcDbSpline
210
0.0
220
0.0
230
1.0
 70
     8
 71
     2
 72
     6
 73
     3
 74
     0
 42
0.000000001
 43
0.00000001
 40
7.0
 40
7.0
 40
7.0
 40
8.0
 40
8.0
 40
8.0
 10
96.59583576078973
 20
143.789669992472
 30
0.0
 10
100.2536975171537
 20
143.6044560070755
 30
0.0
 10
102.6151037665641
 20
143.8896699924465
 30
0.0
  0
SPLINE
  5
204
330
1F
100
AcDbEntity
  8
_U+30EC_U+30A4_U+30E4_U+30FC_2
 62
    29
370
    18
100
AcDbSpline
210
0.0
220
0.0
230
1.0
 70
     8
 71
     2
 72
     6
 73
     3
 74
     0
 42
0.000000001
 43
0.00000001
 40
11.0
 40
11.0
 40
11.0
 40
12.0
 40
12.0
 40
12.0
 10
102.3587464352355
 20
145.3498843161958
 30
0.0
 10
99.03826782995762
 20
145.186125499402
 30
0.0
 10
96.572681893075
 20
145.3250317493665
 30
0.0
  0
SPLINE
  5
205
330
1F
100
AcDbEntity
  8
_U+30EC_U+30A4_U+30E4_U+30FC_2
 62
    29
370
    18
100
AcDbSpline
210
0.0
220
0.0
230
1.0
 70
     8
 71
     3
 72
     8
 73
     4
 74
     0
 42
0.000000001
 43
0.00000001
 40
12.0
 40
12.0
 40
12.0
 40
12.0
 40
13.0
 40
13.0
 40
13.0
 40
13.0
 10
96.572681893075
 20
145.3250317493665
 30
0.0
 10
93.759830331278
 20
145.4639379993314
 30
0.0
 10
92.5559733388574
 20
145.7533316722026
 30
0.0
 10
91.74568970678071
 20
145.9501098742103
 30
0.0
  0
SPLINE
  5
206
330
1F
100
AcDbEntity
  8
_U+30EC_U+30A4_U+30E4_U+30FC_2
 62
    29
370
    18
100
AcDbSpline
210
0.0
220
0.0
230
1.0
 70
     8
 71
     2
 72
     6
 73
     3
 74
     0
 42
0.000000001
 43
0.00000001
 40
13.0
 40
13.0
 40
13.0
 40
14.0
 40
14.0
 40
14.0
 10
91.74568970678071
 20
145.9501098742103
 30
0.0
 10
90.9316672040853
 20
146.1478037180032
 30
0.0
 10
90.75019208930831
 20
146.4941621792954
 30
0.0
  0
SPLINE
  5
207
330
1F
100
AcDbEntity
  8
_U+30EC_U+30A4_U+30E4_U+30FC_2
370
    18
100
AcDbSpline
210
0.0
220
0.0
230
1.0
 70
     8
 71
     3
 72
     8
 73
     4
 74
     0
 42
0.000000001
 43
0.00000001
 40
0.0
 40
0.0
 40
0.0
 40
0.0
 40
1.0
 40
1.0
 40
1.0
 40
1.0
 10
104.6819859440238
 20
137.1482183652345
 30
0.0
 10
105.0772944006856
 20
137.3617280733645
 30
0.0
 10
105.463791397652
 20
137.5362614498152
 30
0.0
 10
105.8975348155295
 20
137.7635349477845
 30
0.0
  0
SPLINE
  5
208
330
1F
100
AcDbEntity
  8
_U+30EC_U+30A4_U+30E4_U+30FC_2
370
    18
100
AcDbSpline
210
0.0
220
0.0
230
1.0
 70
     8
 71
     3
 72
     8
 73
     4
 74
     0
 42
0.000000001
 43
0.00000001
 40
1.0
 40
1.0
 40
1.0
 40
1.0
 40
2.0
 40
2.0
 40
2.0
 40
2.0
 10
105.8975348155295
 20
137.7635349477845
 30
0.0
 10
108.0527521001476
 20
138.8926908312917
 30
0.0
 10
110.4958200316658
 20
140.172418919351
 30
0.0
 10
111.8935641719411
 20
141.6420578960329
 30
0.0
  0
SPLINE
  5
209
330
1F
100
AcDbEntity
  8
_U+30EC_U+30A4_U+30E4_U+30FC_2
370
    18
100
AcDbSpline
210
0.0
220
0.0
230
1.0
 70
     8
 71
     3
 72
     8
 73
     4
 74
     0
 42
0.000000001
 43
0.00000001
 40
2.0
 40
2.0
 40
2.0
 40
2.0
 40
3.0
 40
3.0
 40
3.0
 40
3.0
 10
111.8935641719411
 20
141.6420578960329
 30
0.0
 10
113.9888238760076
 20
143.8447529028072
 30
0.0
 10
114.2633807607043
 20
146.0900422088864
 30
0.0
 10
114.5135205311496
 20
151.944994905177
 30
0.0
  0
SPLINE
  5
20A
330
1F
100
AcDbEntity
  8
_U+30EC_U+30A4_U+30E4_U+30FC_2
370
    18
100
AcDbSpline
210
0.0
220
0.0
230
1.0
 70
     8
 71
     3
 72
     8
 73
     4
 74
     0
 42
0.000000001
 43
0.00000001
 40
3.0
 40
3.0
 40
3.0
 40
3.0
 40
4.0
 40
4.0
 40
4.0
 40
4.0
 10
114.5135205311496
 20
151.944994905177
 30
0.0
 10
114.6372120244298
 20
154.8322314933743
 30
0.0
 10
115.5120322898839
 20
156.31837543968
 30
0.0
 10
116.2840123079488
 20
157.6295352818703
 30
0.0
  0
SPLINE
  5
20B
330
1F
100
AcDbEntity
  8
_U+30EC_U+30A4_U+30E4_U+30FC_2
 62
   179
370
    18
100
AcDbSpline
210
0.0
220
0.0
230
1.0
 70
     8
 71
     3
 72
     8
 73
     4
 74
     0
 42
0.000000001
 43
0.00000001
 40
4.0
 40
4.0
 40
4.0
 40
4.0
 40
5.0
 40
5.0
 40
5.0
 40
5.0
 10
116.2840123079488
 20
157.6295352818703
 30
0.0
 10
116.898238382015
 20
158.6735025667648
 30
0.0
 10
117.4785517973971
 20
159.6594113799957
 30
0.0
 10
117.4785517973976
 20
161.0213437527021
 30
0.0
  0
SPLINE
  5
20C
330
1F
100
AcDbEntity
  8
_U+30EC_U+30A4_U+30E4_U+30FC_2
 62
   179
370
    18
100
AcDbSpline
210
0.0
220
0.0
230
1.0
 70
     8
 71
     3
 72
     8
 73
     4
 74
     0
 42
0.000000001
 43
0.00000001
 40
5.0
 40
5.0
 40
5.0
 40
5.0
 40
6.0
 40
6.0
 40
6.0
 40
6.0
 10
117.4785517973976
 20
161.0213437527021
 30
0.0
 10
117.4785517973977
 20
162.0077951684702
 30
0.0
 10
117.4926594634096
 20
162.5962476219372
 30
0.0
 10
117.4926594634096
 20
162.6014023460565
 30
0.0
  0
SPLINE
  5
20D
330
1F
100
AcDbEntity
  8
_U+30EC_U+30A4_U+30E4_U+30FC_2
370
    18
100
AcDbSpline
210
0.0
220
0.0
230
1.0
 70
     8
 71
     3
 72
    11
 73
     7
 74
     0
 42
0.000000001
 43
0.00000001
 40
7.0
 40
7.0
 40
7.0
 40
7.0
 40
8.0
 40
8.0
 40
8.0
 40
8.437189262350667
 40
8.437189262350667
 40
8.437189262350667
 40
8.437189262350667
 10
115.2706973945725
 20
162.5859312249743
 30
0.0
 10
115.2698813998311
 20
162.5642361443174
 30
0.0
 10
115.2554500231753
 20
162.0426044686602
 30
0.0
 10
115.2553357222657
 20
161.020355100664
 30
0.0
 10
115.2552987625863
 20
160.6898064723035
 30
0.0
 10
115.1841486312862
 20
160.3829019555313
 30
0.0
 10
115.0610078989685
 20
160.0690242250789
 30
0.0
  0
SPLINE
  5
20E
330
1F
100
AcDbEntity
  8
_U+30EC_U+30A4_U+30E4_U+30FC_2
370
    18
100
AcDbSpline
210
0.0
220
0.0
230
1.0
 70
     8
 71
     3
 72
     8
 73
     4
 74
     0
 42
0.000000001
 43
0.00000001
 40
9.0
 40
9.0
 40
9.0
 40
9.0
 40
10.0
 40
10.0
 40
10.0
 40
10.0
 10
114.3677539035406
 20
158.7568328549471
 30
0.0
 10
113.5543926976886
 20
157.3745528870313
 30
0.0
 10
112.4401583840022
 20
155.4814126287162
 30
0.0
 10
112.2931130959523
 20
152.0399560255725
 30
0.0
  0
SPLINE
  5
20F
330
1F
100
AcDbEntity
  8
_U+30EC_U+30A4_U+30E4_U+30FC_2
370
    18
100
AcDbSpline
210
0.0
220
0.0
230
1.0
 70
     8
 71
     3
 72
     8
 73
     4
 74
     0
 42
0.000000001
 43
0.00000001
 40
10.0
 40
10.0
 40
10.0
 40
10.0
 40
10.7812507942378
 40
10.7812507942378
 40
10.7812507942378
 40
10.7812507942378
 10
112.2931130959524
 20
152.0399560255727
 30
0.0
 10
112.1047197340467
 20
147.6338567037484
 30
0.0
 10
111.9237590803061
 20
145.6889091324146
 30
0.0
 10
111.1193246504413
 20
144.2768983759261
 30
0.0
  0
SPLINE
  5
210
330
1F
100
AcDbEntity
  8
_U+30EC_U+30A4_U+30E4_U+30FC_2
 62
   179
370
    18
100
AcDbSpline
210
0.0
220
0.0
230
1.0
 70
     8
 71
     3
 72
     8
 73
     4
 74
     0
 42
0.000000001
 43
0.00000001
 40
12.0
 40
12.0
 40
12.0
 40
12.0
 40
13.0
 40
13.0
 40
13.0
 40
13.0
 10
104.8660474045656
 20
139.7320970131089
 30
0.0
 10
104.467633740786
 20
139.5234367957866
 30
0.0
 10
104.1224485087134
 20
139.3435003552968
 30
0.0
 10
103.7502030041978
 20
139.1435516166481
 30
0.0
  0
SPLINE
  5
211
330
1F
100
AcDbEntity
  8
_U+30EC_U+30A4_U+30E4_U+30FC_2
 62
   179
370
    18
100
AcDbSpline
210
0.0
220
0.0
230
1.0
 70
     8
 71
     2
 72
     6
 73
     3
 74
     0
 42
0.000000001
 43
0.00000001
 40
13.0
 40
13.0
 40
13.0
 40
14.0
 40
14.0
 40
14.0
 10
103.7502030041978
 20
139.1435516166481
 30
0.0
 10
103.7668452460889
 20
138.3829071042539
 30
0.0
 10
103.9673973586989
 20
137.9663757934475
 30
0.0
  0
SPLINE
  5
212
330
1F
100
AcDbEntity
  8
_U+30EC_U+30A4_U+30E4_U+30FC_2
370
    18
100
AcDbSpline
210
0.0
220
0.0
230
1.0
 70
     8
 71
     3
 72
     8
 73
     4
 74
     0
 42
0.000000001
 43
0.00000001
 40
0.0
 40
0.0
 40
0.0
 40
0.0
 40
1.0
 40
1.0
 40
1.0
 40
1.0
 10
98.81479376791
 20
135.4826740804656
 30
0.0
 10
97.31836646612349
 20
133.939965521926
 30
0.0
 10
95.9674604474863
 20
131.7428758015207
 30
0.0
 10
95.19365754039222
 20
128.648142715449
 30
0.0
  0
SPLINE
  5
213
330
1F
100
AcDbEntity
  8
_U+30EC_U+30A4_U+30E4_U+30FC_2
370
    18
100
AcDbSpline
210
0.0
220
0.0
230
1.0
 70
     8
 71
     3
 72
     8
 73
     4
 74
     0
 42
0.000000001
 43
0.00000001
 40
1.0
 40
1.0
 40
1.0
 40
1.0
 40
2.0
 40
2.0
 40
2.0
 40
2.0
 10
95.19365754039222
 20
128.648142715449
 30
0.0
 10
94.371614693918
 20
125.360242630823
 30
0.0
 10
94.15131806311389
 20
118.6946417413754
 30
0.0
 10
94.1423651212214
 20
118.4124884211334
 30
0.0
  0
SPLINE
  5
214
330
1F
100
AcDbEntity
  8
_U+30EC_U+30A4_U+30E4_U+30FC_2
 62
   179
370
    18
100
AcDbSpline
210
0.0
220
0.0
230
1.0
 70
     8
 71
     3
 72
     8
 73
     4
 74
     0
 42
0.000000001
 43
0.00000001
 40
2.0
 40
2.0
 40
2.0
 40
2.0
 40
3.0
 40
3.0
 40
3.0
 40
3.0
 10
94.1423651212214
 20
118.4124884211334
 30
0.0
 10
94.1420938199514
 20
118.4008224665468
 30
0.0
 10
94.14182251868269
 20
118.3888852106897
 30
0.0
 10
94.14182251868269
 20
118.3772192561031
 30
0.0
  0
SPLINE
  5
215
330
1F
100
AcDbEntity
  8
_U+30EC_U+30A4_U+30E4_U+30FC_2
370
    18
100
AcDbSpline
210
0.0
220
0.0
230
1.0
 70
     8
 71
     3
 72
     8
 73
     4
 74
     0
 42
0.000000001
 43
0.00000001
 40
6.0
 40
6.0
 40
6.0
 40
6.0
 40
6.468751493158513
 40
6.468751493158513
 40
6.468751493158513
 40
6.468751493158513
 10
96.36430490466115
 20
118.3584584938805
 30
0.0
 10
96.37028202979343
 20
118.5340842344716
 30
0.0
 10
96.42335301026971
 20
120.0322127355778
 30
0.0
 10
96.55487038209317
 20
121.8815860235845
 30
0.0
  0
SPLINE
  5
216
330
1F
100
AcDbEntity
  8
_U+30EC_U+30A4_U+30E4_U+30FC_2
 62
   179
370
    18
100
AcDbSpline
210
0.0
220
0.0
230
1.0
 70
     8
 71
     3
 72
     8
 73
     4
 74
     0
 42
0.000000001
 43
0.00000001
 40
7.0
 40
7.0
 40
7.0
 40
7.0
 40
8.0
 40
8.0
 40
8.0
 40
8.0
 10
97.34994241662206
 20
128.1090261183959
 30
0.0
 10
97.80779756733475
 20
129.9405524719136
 30
0.0
 10
98.46551430351776
 20
131.3691372797993
 30
0.0
 10
99.24335364246107
 20
132.5245107333449
 30
0.0
  0
SPLINE
  5
217
330
1F
100
AcDbEntity
  8
0
  6
Continuous
 62
     7
370
    18
100
AcDbSpline
210
0.0
220
0.0
230
1.0
 70
     8
 71
     3
 72
    11
 73
     7
 74
     0
 42
0.000000001
 43
0.00000001
 40
0.3548554758722588
 40
0.3548554758722588
 40
0.3548554758722588
 40
0.3548554758722588
 40
1.0
 40
1.0
 40
1.0
 40
1.829617294086796
 40
1.829617294086796
 40
1.829617294086796
 40
1.829617294086796
 10
103.9874517244066
 20
137.9883927733832
 30
0.0
 10
104.2642977033436
 20
137.3717374380108
 30
0.0
 10
104.7729087591265
 20
136.9515532166218
 30
0.0
 10
105.3658315055631
 20
136.9322119659224
 30
0.0
 10
106.1282947151283
 20
136.9073402736608
 30
0.0
 10
106.790644473775
 20
137.5531331283225
 30
0.0
 10
107.0143294176817
 20
138.4562687324276
 30
0.0
  0
INSERT
  5
218
330
1F
100
AcDbEntity
  8
0
  6
Continuous
 62
     7
100
AcDbBlockReference
  2
ﾌﾞﾛｯｸ2
 10
-37.1549743235
 20
352.3361341282
 30
0.0
  0
INSERT
  5
219
330
1F
100
AcDbEntity
  8
0
  6
Continuous
 62
     7
100
AcDbBlockReference
  2
ﾌﾞﾛｯｸ5
 10
-37.1549743235
 20
352.3361341282
 30
0.0
  0
INSERT
  5
21A
330
1F
100
AcDbEntity
  8
0
  6
Continuous
 62
     7
100
AcDbBlockReference
  2
ﾌﾞﾛｯｸ3
 10
-37.1549743235
 20
352.3361341282
 30
0.0
  0
MTEXT
  5
21C
330
1F
100
AcDbEntity
  8
0
  6
Continuous
 62
     7
370
     0
100
AcDbMText
 10
152.3512423076
 20
76.1657495526
 30
0.0
 40
3.5
 41
0.0
 71
     1
 72
     1
  1
HIC-027K
  7
SLDTEXTSTYLE0
 73
     1
 44
1.0
  0
ENDSEC
  0
SECTION
  2
OBJECTS
  0
DICTIONARY
  5
C
330
0
100
AcDbDictionary
281
     1
  3
ACAD_GROUP
350
D
  3
ACAD_LAYOUT
350
1A
  3
ACAD_MLINESTYLE
350
17
  3
ACAD_PLOTSETTINGS
350
19
  3
ACAD_PLOTSTYLENAME
350
E
  3
ACAD_SCALELIST
350
47
  0
DICTIONARY
  5
D
102
{ACAD_REACTORS
330
C
102
}
330
C
100
AcDbDictionary
281
     1
  0
DICTIONARY
  5
1A
102
{ACAD_REACTORS
330
C
102
}
330
C
100
AcDbDictionary
281
     1
  3
Layout1
350
1E
  3
Layout2
350
26
  3
Model
350
22
  0
DICTIONARY
  5
17
102
{ACAD_REACTORS
330
C
102
}
330
C
100
AcDbDictionary
281
     1
  3
Standard
350
18
  0
DICTIONARY
  5
19
102
{ACAD_REACTORS
330
C
102
}
330
C
100
AcDbDictionary
281
     1
  0
ACDBDICTIONARYWDFLT
  5
E
102
{ACAD_REACTORS
330
C
102
}
330
C
100
AcDbDictionary
281
     1
  3
Normal
350
F
100
AcDbDictionaryWithDefault
340
F
  0
DICTIONARY
  5
47
102
{ACAD_REACTORS
330
C
102
}
330
C
100
AcDbDictionary
281
     1
  3
A0
350
48
  3
A1
350
49
  3
A2
350
4A
  3
A3
350
4B
  3
A4
350
4C
  3
A5
350
4D
  3
A6
350
4E
  3
A7
350
4F
  3
A8
350
50
  3
A9
350
51
  3
B0
350
52
  3
B1
350
53
  3
B2
350
54
  3
B3
350
55
  3
B4
350
56
  3
B5
350
57
  3
B6
350
58
  3
B7
350
59
  3
B8
350
5A
  3
B9
350
5B
  3
C0
350
5C
  3
C1
350
5D
  3
C2
350
5E
  3
C3
350
5F
  3
C4
350
60
  3
C5
350
61
  3
C6
350
62
  3
C7
350
63
  3
C8
350
64
  3
C9
350
65
  3
D0
350
66
  3
D1
350
67
  3
D2
350
68
  0
LAYOUT
  5
1E
102
{ACAD_REACTORS
330
1A
102
}
330
1A
100
AcDbPlotSettings
  1

  2
none_device
  4

  6

 40
0.0
 41
0.0
 42
0.0
 43
0.0
 44
0.0
 45
0.0
 46
0.0
 47
0.0
 48
0.0
 49
0.0
140
0.0
141
0.0
142
1.0
143
1.0
 70
   688
 72
     1
 73
     0
 74
     5
  7

 75
    16
147
1.0
148
0.0
149
0.0
100
AcDbLayout
  1
Layout1
 70
     1
 71
     1
 10
0.0
 20
0.0
 11
420.0
 21
297.0
 12
0.0
 22
0.0
 32
0.0
 14
1.0000000000E+20
 24
1.0000000000E+20
 34
1.0000000000E+20
 15
-1.0000000000E+20
 25
-1.0000000000E+20
 35
-1.0000000000E+20
146
0.0
 13
0.0
 23
0.0
 33
0.0
 16
1.0
 26
0.0
 36
0.0
 17
0.0
 27
1.0
 37
0.0
 76
     0
330
1B
  0
LAYOUT
  5
26
102
{ACAD_REACTORS
330
1A
102
}
330
1A
100
AcDbPlotSettings
  1

  2
none_device
  4

  6

 40
0.0
 41
0.0
 42
0.0
 43
0.0
 44
0.0
 45
0.0
 46
0.0
 47
0.0
 48
0.0
 49
0.0
140
0.0
141
0.0
142
1.0
143
1.0
 70
   688
 72
     1
 73
     0
 74
     5
  7

 75
    16
147
1.0
148
0.0
149
0.0
100
AcDbLayout
  1
Layout2
 70
     1
 71
     2
 10
0.0
 20
0.0
 11
0.0
 21
0.0
 12
0.0
 22
0.0
 32
0.0
 14
0.0
 24
0.0
 34
0.0
 15
0.0
 25
0.0
 35
0.0
146
0.0
 13
0.0
 23
0.0
 33
0.0
 16
1.0
 26
0.0
 36
0.0
 17
0.0
 27
1.0
 37
0.0
 76
     0
330
23
  0
LAYOUT
  5
22
102
{ACAD_REACTORS
330
1A
102
}
330
1A
100
AcDbPlotSettings
  1

  2
none_device
  4
Letter_(8.50_x_11.00_Inches)
  6

 40
6.35
 41
6.35
 42
6.35000508
 43
6.35000508
 44
215.9
 45
279.4
 46
0.0
 47
0.0
 48
0.0
 49
0.0
140
0.0
141
0.0
142
1.0
143
1.0
 70
  1712
 72
     1
 73
     0
 74
     0
  7

 75
     0
147
1.0
148
0.0
149
0.0
100
AcDbLayout
  1
Model
 70
     1
 71
     0
 10
0.0
 20
0.0
 11
210.0
 21
297.0
 12
0.0
 22
0.0
 32
0.0
 14
0.0
 24
0.0
 34
0.0
 15
210.0
 25
297.0
 35
0.0
146
0.0
 13
0.0
 23
0.0
 33
0.0
 16
1.0
 26
0.0
 36
0.0
 17
0.0
 27
1.0
 37
0.0
 76
     0
330
1F
331
29
  0
MLINESTYLE
  5
18
102
{ACAD_REACTORS
330
17
102
}
330
17
100
AcDbMlineStyle
  2
Standard
 70
     0
  3

 62
   256
 51
90.0
 52
90.0
 71
     2
 49
0.5
 62
   256
  6
BYLAYER
 49
-0.5
 62
   256
  6
BYLAYER
  0
ACDBPLACEHOLDER
  5
F
102
{ACAD_REACTORS
330
E
102
}
330
E
  0
SCALE
  5
48
102
{ACAD_REACTORS
330
47
102
}
330
47
100
AcDbScale
 70
     0
300
1:1
140
1.0
141
1.0
290
     1
  0
SCALE
  5
49
102
{ACAD_REACTORS
330
47
102
}
330
47
100
AcDbScale
 70
     0
300
1:2
140
1.0
141
2.0
290
     0
  0
SCALE
  5
4A
102
{ACAD_REACTORS
330
47
102
}
330
47
100
AcDbScale
 70
     0
300
1:4
140
1.0
141
4.0
290
     0
  0
SCALE
  5
4B
102
{ACAD_REACTORS
330
47
102
}
330
47
100
AcDbScale
 70
     0
300
1:5
140
1.0
141
5.0
290
     0
  0
SCALE
  5
4C
102
{ACAD_REACTORS
330
47
102
}
330
47
100
AcDbScale
 70
     0
300
1:8
140
1.0
141
8.0
290
     0
  0
SCALE
  5
4D
102
{ACAD_REACTORS
330
47
102
}
330
47
100
AcDbScale
 70
     0
300
1:10
140
1.0
141
10.0
290
     0
  0
SCALE
  5
4E
102
{ACAD_REACTORS
330
47
102
}
330
47
100
AcDbScale
 70
     0
300
1:16
140
1.0
141
16.0
290
     0
  0
SCALE
  5
4F
102
{ACAD_REACTORS
330
47
102
}
330
47
100
AcDbScale
 70
     0
300
1:20
140
1.0
141
20.0
290
     0
  0
SCALE
  5
50
102
{ACAD_REACTORS
330
47
102
}
330
47
100
AcDbScale
 70
     0
300
1:30
140
1.0
141
30.0
290
     0
  0
SCALE
  5
51
102
{ACAD_REACTORS
330
47
102
}
330
47
100
AcDbScale
 70
     0
300
1:40
140
1.0
141
40.0
290
     0
  0
SCALE
  5
52
102
{ACAD_REACTORS
330
47
102
}
330
47
100
AcDbScale
 70
     0
300
1:50
140
1.0
141
50.0
290
     0
  0
SCALE
  5
53
102
{ACAD_REACTORS
330
47
102
}
330
47
100
AcDbScale
 70
     0
300
1:100
140
1.0
141
100.0
290
     0
  0
SCALE
  5
54
102
{ACAD_REACTORS
330
47
102
}
330
47
100
AcDbScale
 70
     0
300
2:1
140
2.0
141
1.0
290
     0
  0
SCALE
  5
55
102
{ACAD_REACTORS
330
47
102
}
330
47
100
AcDbScale
 70
     0
300
4:1
140
4.0
141
1.0
290
     0
  0
SCALE
  5
56
102
{ACAD_REACTORS
330
47
102
}
330
47
100
AcDbScale
 70
     0
300
8:1
140
8.0
141
1.0
290
     0
  0
SCALE
  5
57
102
{ACAD_REACTORS
330
47
102
}
330
47
100
AcDbScale
 70
     0
300
10:1
140
10.0
141
1.0
290
     0
  0
SCALE
  5
58
102
{ACAD_REACTORS
330
47
102
}
330
47
100
AcDbScale
 70
     0
300
100:1
140
100.0
141
1.0
290
     0
  0
SCALE
  5
59
102
{ACAD_REACTORS
330
47
102
}
330
47
100
AcDbScale
 70
     0
300
1/128" = 1'-0"
140
0.0078125
141
12.0
290
     0
  0
SCALE
  5
5A
102
{ACAD_REACTORS
330
47
102
}
330
47
100
AcDbScale
 70
     0
300
1/64" = 1'-0"
140
0.015625
141
12.0
290
     0
  0
SCALE
  5
5B
102
{ACAD_REACTORS
330
47
102
}
330
47
100
AcDbScale
 70
     0
300
1/32" = 1'-0"
140
0.03125
141
12.0
290
     0
  0
SCALE
  5
5C
102
{ACAD_REACTORS
330
47
102
}
330
47
100
AcDbScale
 70
     0
300
1/16" = 1'-0"
140
0.0625
141
12.0
290
     0
  0
SCALE
  5
5D
102
{ACAD_REACTORS
330
47
102
}
330
47
100
AcDbScale
 70
     0
300
3/32" = 1'-0"
140
0.09375
141
12.0
290
     0
  0
SCALE
  5
5E
102
{ACAD_REACTORS
330
47
102
}
330
47
100
AcDbScale
 70
     0
300
1/8" = 1'-0"
140
0.125
141
12.0
290
     0
  0
SCALE
  5
5F
102
{ACAD_REACTORS
330
47
102
}
330
47
100
AcDbScale
 70
     0
300
3/16" = 1'-0"
140
0.1875
141
12.0
290
     0
  0
SCALE
  5
60
102
{ACAD_REACTORS
330
47
102
}
330
47
100
AcDbScale
 70
     0
300
1/4" = 1'-0"
140
0.25
141
12.0
290
     0
  0
SCALE
  5
61
102
{ACAD_REACTORS
330
47
102
}
330
47
100
AcDbScale
 70
     0
300
3/8" = 1'-0"
140
0.375
141
12.0
290
     0
  0
SCALE
  5
62
102
{ACAD_REACTORS
330
47
102
}
330
47
100
AcDbScale
 70
     0
300
1/2" = 1'-0"
140
0.5
141
12.0
290
     0
  0
SCALE
  5
63
102
{ACAD_REACTORS
330
47
102
}
330
47
100
AcDbScale
 70
     0
300
3/4" = 1'-0"
140
0.75
141
12.0
290
     0
  0
SCALE
  5
64
102
{ACAD_REACTORS
330
47
102
}
330
47
100
AcDbScale
 70
     0
300
1" = 1'-0"
140
1.0
141
12.0
290
     0
  0
SCALE
  5
65
102
{ACAD_REACTORS
330
47
102
}
330
47
100
AcDbScale
 70
     0
300
1-1/2" = 1'-0"
140
1.5
141
12.0
290
     0
  0
SCALE
  5
66
102
{ACAD_REACTORS
330
47
102
}
330
47
100
AcDbScale
 70
     0
300
3" = 1'-0"
140
3.0
141
12.0
290
     0
  0
SCALE
  5
67
102
{ACAD_REACTORS
330
47
102
}
330
47
100
AcDbScale
 70
     0
300
6" = 1'-0"
140
6.0
141
12.0
290
     0
  0
SCALE
  5
68
102
{ACAD_REACTORS
330
47
102
}
330
47
100
AcDbScale
 70
     0
300
1'-0" = 1'-0"
140
12.0
141
12.0
290
     0
  0
ENDSEC
  0
EOF
