  0
SECTION
  2
HEADER
  9
$ACADVER
  1
AC1015
  9
$ACADMAINTVER
 70
     6
  9
$DWGCODEPAGE
  3
DOS932
  9
$INSBASE
 10
0.0
 20
0.0
 30
0.0
  9
$EXTMIN
 10
0.0
 20
0.0
 30
0.0
  9
$EXTMAX
 10
1050.0
 20
1485.0
 30
0.0
  9
$LIMMIN
 10
0.0
 20
0.0
  9
$LIMMAX
 10
1050.0
 20
1485.0
  9
$ORTHOMODE
 70
     0
  9
$REGENMODE
 70
     1
  9
$FILLMODE
 70
     1
  9
$QTEXTMODE
 70
     0
  9
$MIRRTEXT
 70
     1
  9
$LTSCALE
 40
5.0
  9
$ATTMODE
 70
     1
  9
$TEXTSIZE
 40
17.5
  9
$TRACEWID
 40
1.0
  9
$TEXTSTYLE
  7
STANDARD
  9
$CLAYER
  8
0
  9
$CELTYPE
  6
ByLayer
  9
$CECOLOR
 62
   256
  9
$CELTSCALE
 40
1.0
  9
$DISPSILH
 70
     0
  9
$DIMSCALE
 40
1.0
  9
$DIMASZ
 40
16.51
  9
$DIMEXO
 40
5.0
  9
$DIMDLI
 40
3.75
  9
$DIMRND
 40
0.0
  9
$DIMDLE
 40
0.0
  9
$DIMEXE
 40
5.0
  9
$DIMTP
 40
0.0
  9
$DIMTM
 40
0.0
  9
$DIMTXT
 40
17.5
  9
$DIMCEN
 40
2.5
  9
$DIMTSZ
 40
0.0
  9
$DIMTOL
 70
     0
  9
$DIMLIM
 70
     0
  9
$DIMTIH
 70
     1
  9
$DIMTOH
 70
     1
  9
$DIMSE1
 70
     0
  9
$DIMSE2
 70
     0
  9
$DIMTAD
 70
     1
  9
$DIMZIN
 70
     1
  9
$DIMBLK
  1

  9
$DIMASO
 70
     1
  9
$DIMSHO
 70
     1
  9
$DIMPOST
  1

  9
$DIMAPOST
  1

  9
$DIMALT
 70
     0
  9
$DIMALTD
 70
     3
  9
$DIMALTF
 40
0.0393700787
  9
$DIMLFAC
 40
1.0
  9
$DIMTOFL
 70
     1
  9
$DIMTVP
 40
0.0
  9
$DIMTIX
 70
     0
  9
$DIMSOXD
 70
     0
  9
$DIMSAH
 70
     0
  9
$DIMBLK1
  1

  9
$DIMBLK2
  1

  9
$DIMSTYLE
  2
ISO-25
  9
$DIMCLRD
 70
     0
  9
$DIMCLRE
 70
     0
  9
$DIMCLRT
 70
     0
  9
$DIMTFAC
 40
1.0
  9
$DIMGAP
 40
7.62
  9
$DIMJUST
 70
     0
  9
$DIMSD1
 70
     0
  9
$DIMSD2
 70
     0
  9
$DIMTOLJ
 70
     0
  9
$DIMTZIN
 70
     1
  9
$DIMALTZ
 70
     0
  9
$DIMALTTZ
 70
     0
  9
$DIMUPT
 70
     0
  9
$DIMDEC
 70
     2
  9
$DIMTDEC
 70
     2
  9
$DIMALTU
 70
     2
  9
$DIMALTTD
 70
     3
  9
$DIMTXSTY
  7
STANDARD
  9
$DIMAUNIT
 70
     0
  9
$DIMADEC
 70
     2
  9
$DIMALTRND
 40
0.0
  9
$DIMAZIN
 70
     0
  9
$DIMDSEP
 70
    44
  9
$DIMATFIT
 70
     3
  9
$DIMFRAC
 70
     0
  9
$DIMLDRBLK
  1

  9
$DIMLUNIT
 70
     2
  9
$DIMLWD
 70
    -2
  9
$DIMLWE
 70
    -2
  9
$DIMTMOVE
 70
     0
  9
$LUNITS
 70
     2
  9
$LUPREC
 70
     4
  9
$SKETCHINC
 40
1.0
  9
$FILLETRAD
 40
10.0
  9
$AUNITS
 70
     0
  9
$AUPREC
 70
     2
  9
$MENU
  1
.
  9
$ELEVATION
 40
0.0
  9
$PELEVATION
 40
0.0
  9
$THICKNESS
 40
0.0
  9
$LIMCHECK
 70
     0
  9
$CHAMFERA
 40
0.0
  9
$CHAMFERB
 40
0.0
  9
$CHAMFERC
 40
0.0
  9
$CHAMFERD
 40
0.0
  9
$SKPOLY
 70
     0
  9
$TDCREATE
 40
2458876.438387743
  9
$TDUCREATE
 40
2458876.063387743
  9
$TDUPDATE
 40
2458876.438388021
  9
$TDUUPDATE
 40
2458876.063388021
  9
$TDINDWG
 40
0.0000000116
  9
$TDUSRTIMER
 40
0.0000000116
  9
$USRTIMER
 70
     1
  9
$ANGBASE
 50
0.0
  9
$ANGDIR
 70
     0
  9
$PDMODE
 70
     0
  9
$PDSIZE
 40
-1.0
  9
$PLINEWID
 40
0.0
  9
$SPLFRAME
 70
     0
  9
$SPLINETYPE
 70
     6
  9
$SPLINESEGS
 70
     8
  9
$HANDSEED
  5
F2
  9
$SURFTAB1
 70
     6
  9
$SURFTAB2
 70
     6
  9
$SURFTYPE
 70
     6
  9
$SURFU
 70
     6
  9
$SURFV
 70
     6
  9
$UCSBASE
  2

  9
$UCSNAME
  2

  9
$UCSORG
 10
0.0
 20
0.0
 30
0.0
  9
$UCSXDIR
 10
1.0
 20
0.0
 30
0.0
  9
$UCSYDIR
 10
0.0
 20
1.0
 30
0.0
  9
$UCSORTHOREF
  2

  9
$UCSORTHOVIEW
 70
     0
  9
$UCSORGTOP
 10
0.0
 20
0.0
 30
0.0
  9
$UCSORGBOTTOM
 10
0.0
 20
0.0
 30
0.0
  9
$UCSORGLEFT
 10
0.0
 20
0.0
 30
0.0
  9
$UCSORGRIGHT
 10
0.0
 20
0.0
 30
0.0
  9
$UCSORGFRONT
 10
0.0
 20
0.0
 30
0.0
  9
$UCSORGBACK
 10
0.0
 20
0.0
 30
0.0
  9
$PUCSBASE
  2

  9
$PUCSNAME
  2

  9
$PUCSORG
 10
0.0
 20
0.0
 30
0.0
  9
$PUCSXDIR
 10
1.0
 20
0.0
 30
0.0
  9
$PUCSYDIR
 10
0.0
 20
1.0
 30
0.0
  9
$PUCSORTHOREF
  2

  9
$PUCSORTHOVIEW
 70
     0
  9
$PUCSORGTOP
 10
0.0
 20
0.0
 30
0.0
  9
$PUCSORGBOTTOM
 10
0.0
 20
0.0
 30
0.0
  9
$PUCSORGLEFT
 10
0.0
 20
0.0
 30
0.0
  9
$PUCSORGRIGHT
 10
0.0
 20
0.0
 30
0.0
  9
$PUCSORGFRONT
 10
0.0
 20
0.0
 30
0.0
  9
$PUCSORGBACK
 10
0.0
 20
0.0
 30
0.0
  9
$USERI1
 70
     0
  9
$USERI2
 70
     0
  9
$USERI3
 70
     0
  9
$USERI4
 70
     0
  9
$USERI5
 70
     0
  9
$USERR1
 40
0.0
  9
$USERR2
 40
0.0
  9
$USERR3
 40
0.0
  9
$USERR4
 40
0.0
  9
$USERR5
 40
0.0
  9
$WORLDVIEW
 70
     1
  9
$SHADEDGE
 70
     3
  9
$SHADEDIF
 70
    70
  9
$TILEMODE
 70
     1
  9
$MAXACTVP
 70
    64
  9
$PINSBASE
 10
0.0
 20
0.0
 30
0.0
  9
$PLIMCHECK
 70
     0
  9
$PEXTMIN
 10
1.0000000000E+20
 20
1.0000000000E+20
 30
1.0000000000E+20
  9
$PEXTMAX
 10
-1.0000000000E+20
 20
-1.0000000000E+20
 30
-1.0000000000E+20
  9
$PLIMMIN
 10
0.0
 20
0.0
  9
$PLIMMAX
 10
420.0
 20
297.0
  9
$UNITMODE
 70
     0
  9
$VISRETAIN
 70
     1
  9
$PLINEGEN
 70
     0
  9
$PSLTSCALE
 70
     1
  9
$TREEDEPTH
 70
  3020
  9
$CMLSTYLE
  2
Standard
  9
$CMLJUST
 70
     0
  9
$CMLSCALE
 40
20.0
  9
$PROXYGRAPHICS
 70
     1
  9
$MEASUREMENT
 70
     1
  9
$CELWEIGHT
370
    -1
  9
$ENDCAPS
280
     0
  9
$JOINSTYLE
280
     0
  9
$LWDISPLAY
290
     1
  9
$INSUNITS
 70
     4
  9
$HYPERLINKBASE
  1

  9
$STYLESHEET
  1

  9
$XEDIT
290
     1
  9
$CEPSNTYPE
380
     0
  9
$PSTYLEMODE
290
     1
  9
$FINGERPRINTGUID
  2
{AEBBBB41-6F5D-4F55-ABC4-49702367C733}
  9
$VERSIONGUID
  2
{FAEB1C32-E019-11D5-929B-00C0DF256EC4}
  9
$EXTNAMES
290
     1
  9
$PSVPSCALE
 40
0.0
  9
$OLESTARTUP
290
     0
  0
ENDSEC
  0
SECTION
  2
CLASSES
  0
CLASS
  1
ACDBDICTIONARYWDFLT
  2
AcDbDictionaryWithDefault
  3
ObjectDBX Classes
 90
        0
280
     0
281
     0
  0
CLASS
  1
VISUALSTYLE
  2
AcDbVisualStyle
  3
ObjectDBX Classes
 90
     4095
280
     0
281
     0
  0
CLASS
  1
MATERIAL
  2
AcDbMaterial
  3
ObjectDBX Classes
 90
     1153
280
     0
281
     0
  0
CLASS
  1
SCALE
  2
AcDbScale
  3
ObjectDBX Classes
 90
     1153
280
     0
281
     0
  0
CLASS
  1
TABLESTYLE
  2
AcDbTableStyle
  3
ObjectDBX Classes
 90
     4095
280
     0
281
     0
  0
CLASS
  1
MLEADERSTYLE
  2
AcDbMLeaderStyle
  3
ACDB_MLEADERSTYLE_CLASS
 90
     4095
280
     0
281
     0
  0
CLASS
  1
SUN
  2
AcDbSun
  3
SCENEOE
 90
     1153
280
     0
281
     0
  0
CLASS
  1
ACDBPLACEHOLDER
  2
AcDbPlaceHolder
  3
ObjectDBX Classes
 90
        0
280
     0
281
     0
  0
CLASS
  1
LAYOUT
  2
AcDbLayout
  3
ObjectDBX Classes
 90
        0
280
     0
281
     0
  0
ENDSEC
  0
SECTION
  2
TABLES
  0
TABLE
  2
VPORT
  5
8
330
0
100
AcDbSymbolTable
 70
     1
  0
VPORT
  5
29
330
8
100
AcDbSymbolTableRecord
100
AcDbViewportTableRecord
  2
*Active
 70
     0
 10
0.0
 20
0.0
 11
1.0
 21
1.0
 12
525.0
 22
742.5
 13
0.0
 23
0.0
 14
10.0
 24
10.0
 15
10.0
 25
10.0
 16
0.0
 26
0.0
 36
1.0
 17
0.0
 27
0.0
 37
0.0
 40
1485.0
 41
0.7070707071
 42
50.0
 43
0.0
 44
0.0
 50
0.0
 51
0.0
 71
     0
 72
  2000
 73
     1
 74
     3
 75
     0
 76
     0
 77
     0
 78
     0
281
     0
 65
     1
110
0.0
120
0.0
130
0.0
111
1.0
121
0.0
131
0.0
112
0.0
122
1.0
132
0.0
 79
     0
146
0.0
  0
ENDTAB
  0
TABLE
  2
LTYPE
  5
5
330
0
100
AcDbSymbolTable
 70
     8
  0
LTYPE
  5
14
330
5
100
AcDbSymbolTableRecord
100
AcDbLinetypeTableRecord
  2
ByBlock
 70
     0
  3

 72
    65
 73
     0
 40
0.0
  0
LTYPE
  5
15
330
5
100
AcDbSymbolTableRecord
100
AcDbLinetypeTableRecord
  2
ByLayer
 70
     0
  3

 72
    65
 73
     0
 40
0.0
  0
LTYPE
  5
16
330
5
100
AcDbSymbolTableRecord
100
AcDbLinetypeTableRecord
  2
Continuous
 70
     0
  3
Solid line
 72
    65
 73
     0
 40
0.0
  0
LTYPE
  5
6E
330
5
100
AcDbSymbolTableRecord
100
AcDbLinetypeTableRecord
  2
SLD-実線
 70
     0
  3
SolidWorks Line Style
 72
    65
 73
     0
 40
0.0
  0
LTYPE
  5
6F
330
5
100
AcDbSymbolTableRecord
100
AcDbLinetypeTableRecord
  2
SLD-破線
 70
     0
  3
SolidWorks Line Style
 72
    65
 73
     2
 40
1.905
 49
1.27
 74
     0
 49
-0.635
 74
     0
  0
LTYPE
  5
70
330
5
100
AcDbSymbolTableRecord
100
AcDbLinetypeTableRecord
  2
SLD-2点鎖線
 70
     0
  3
SolidWorks Line Style
 72
    65
 73
     6
 40
12.7
 49
6.35
 74
     0
 49
-1.27
 74
     0
 49
1.27
 74
     0
 49
-1.27
 74
     0
 49
1.27
 74
     0
 49
-1.27
 74
     0
  0
LTYPE
  5
71
330
5
100
AcDbSymbolTableRecord
100
AcDbLinetypeTableRecord
  2
SLD-鎖線
 70
     0
  3
SolidWorks Line Style
 72
    65
 73
     4
 40
10.16
 49
6.35
 74
     0
 49
-1.27
 74
     0
 49
1.27
 74
     0
 49
-1.27
 74
     0
  0
LTYPE
  5
72
330
5
100
AcDbSymbolTableRecord
100
AcDbLinetypeTableRecord
  2
SLD-1点鎖線(中心線)
 70
     0
  3
SolidWorks Line Style
 72
    65
 73
     4
 40
34.29
 49
30.48
 74
     0
 49
-1.27
 74
     0
 49
1.27
 74
     0
 49
-1.27
 74
     0
  0
LTYPE
  5
73
330
5
100
AcDbSymbolTableRecord
100
AcDbLinetypeTableRecord
  2
SLD-点線
 70
     0
  3
SolidWorks Line Style
 72
    65
 73
     2
 40
0.635
 49
0.0
 74
     0
 49
-0.635
 74
     0
  0
LTYPE
  5
74
330
5
100
AcDbSymbolTableRecord
100
AcDbLinetypeTableRecord
  2
SLD-細-太鎖線(切断面)
 70
     0
  3
SolidWorks Line Style
 72
    65
 73
     4
 40
10.16
 49
6.35
 74
     0
 49
-1.27
 74
     0
 49
1.27
 74
     0
 49
-1.27
 74
     0
  0
ENDTAB
  0
TABLE
  2
LAYER
  5
2
330
0
100
AcDbSymbolTable
 70
     1
  0
LAYER
  5
10
330
2
100
AcDbSymbolTableRecord
100
AcDbLayerTableRecord
  2
0
 70
     0
 62
     7
  6
Continuous
370
    -3
390
F
  0
ENDTAB
  0
TABLE
  2
STYLE
  5
3
330
0
100
AcDbSymbolTable
 70
     2
  0
STYLE
  5
11
330
3
100
AcDbSymbolTableRecord
100
AcDbTextStyleTableRecord
  2
STANDARD
 70
     0
 40
0.0
 41
1.0
 50
0.0
 71
     0
 42
17.5
  3
MSGOTHIC.TTC
  4

1001
ACAD
1000
ＭＳ Ｐゴシック
1071
    32818
  0
STYLE
  5
75
330
3
100
AcDbSymbolTableRecord
100
AcDbTextStyleTableRecord
  2
SLDTEXTSTYLE0
 70
     0
 40
0.0
 41
1.0
 50
0.0
 71
     0
 42
17.5
  3
MSGOTHIC.TTC
  4

1001
ACAD
1000
ＭＳ Ｐゴシック
1071
      306
  0
ENDTAB
  0
TABLE
  2
VIEW
  5
6
330
0
100
AcDbSymbolTable
 70
     0
  0
ENDTAB
  0
TABLE
  2
UCS
  5
7
330
0
100
AcDbSymbolTable
 70
     0
  0
ENDTAB
  0
TABLE
  2
APPID
  5
9
330
0
100
AcDbSymbolTable
 70
     1
  0
APPID
  5
12
330
9
100
AcDbSymbolTableRecord
100
AcDbRegAppTableRecord
  2
ACAD
 70
     0
  0
ENDTAB
  0
TABLE
  2
DIMSTYLE
  5
A
330
0
100
AcDbSymbolTable
 70
     1
100
AcDbDimStyleTable
  0
DIMSTYLE
105
27
330
A
100
AcDbSymbolTableRecord
100
AcDbDimStyleTableRecord
  2
ISO-25
 70
     0
 41
2.5
 42
0.625
 43
3.75
 44
1.25
 73
     0
 74
     0
 77
     1
 78
     8
140
2.5
141
2.5
143
0.0393700787
147
0.625
171
     3
172
     1
178
     0
271
     2
272
     2
274
     3
278
    44
283
     0
284
     8
340
11
  0
ENDTAB
  0
TABLE
  2
BLOCK_RECORD
  5
1
330
0
100
AcDbSymbolTable
 70
     1
  0
BLOCK_RECORD
  5
1F
330
1
100
AcDbSymbolTableRecord
100
AcDbBlockTableRecord
  2
*Model_Space
340
22
  0
BLOCK_RECORD
  5
1B
330
1
100
AcDbSymbolTableRecord
100
AcDbBlockTableRecord
  2
*Paper_Space
340
1E
  0
BLOCK_RECORD
  5
23
330
1
100
AcDbSymbolTableRecord
100
AcDbBlockTableRecord
  2
*Paper_Space0
340
26
  0
ENDTAB
  0
ENDSEC
  0
SECTION
  2
BLOCKS
  0
BLOCK
  5
20
330
1F
100
AcDbEntity
  8
0
100
AcDbBlockBegin
  2
*Model_Space
 70
     0
 10
0.0
 20
0.0
 30
0.0
  3
*Model_Space
  1

  0
ENDBLK
  5
21
330
1F
100
AcDbEntity
  8
0
100
AcDbBlockEnd
  0
BLOCK
  5
1C
330
1B
100
AcDbEntity
 67
     1
  8
0
100
AcDbBlockBegin
  2
*Paper_Space
 70
     0
 10
0.0
 20
0.0
 30
0.0
  3
*Paper_Space
  1

  0
ENDBLK
  5
1D
330
1B
100
AcDbEntity
 67
     1
  8
0
100
AcDbBlockEnd
  0
BLOCK
  5
24
330
23
100
AcDbEntity
  8
0
100
AcDbBlockBegin
  2
*Paper_Space0
 70
     0
 10
0.0
 20
0.0
 30
0.0
  3
*Paper_Space0
  1

  0
ENDBLK
  5
25
330
23
100
AcDbEntity
  8
0
100
AcDbBlockEnd
  0
ENDSEC
  0
SECTION
  2
ENTITIES
  0
MTEXT
  5
76
330
1F
100
AcDbEntity
  8
0
  6
Continuous
 62
     7
370
     0
100
AcDbMText
 10
737.8758982857
 20
467.2672038064
 30
0.0
 40
17.5
 41
0.0
 71
     1
 72
     1
  1
HIC-028S
  7
SLDTEXTSTYLE0
 73
     1
 44
1.0
  0
SPLINE
  5
77
330
1F
100
AcDbEntity
  8
0
  6
SLD-実線
 62
     7
370
    25
100
AcDbSpline
210
0.0
220
0.0
230
1.0
 70
     8
 71
     3
 72
    16
 73
    12
 74
     0
 42
0.000000001
 43
0.00000001
 40
0.0
 40
0.0
 40
0.0
 40
0.0
 40
0.0628219538964671
 40
0.1262930459781489
 40
0.2324729066613606
 40
0.3454193474015873
 40
0.4688319883485214
 40
0.599832526215145
 40
0.7368523503175229
 40
0.8786098309163747
 40
1.0
 40
1.0
 40
1.0
 40
1.0
 10
678.4044020449269
 20
912.712695703272
 30
0.0
 10
678.1588609475507
 20
912.9316985748509
 30
0.0
 10
677.6652415807996
 20
913.3719672709705
 30
0.0
 10
676.6102520707826
 20
913.9835957043342
 30
0.0
 10
675.2730763647402
 20
914.6152446819683
 30
0.0
 10
673.5459008440545
 20
915.1147951237339
 30
0.0
 10
671.6333046562173
 20
915.3508324545923
 30
0.0
 10
669.5786500846388
 20
915.2473042466532
 30
0.0
 10
667.4900257648444
 20
914.7408749790686
 30
0.0
 10
665.5517613065534
 20
913.9018292055805
 30
0.0
 10
664.4616794395118
 20
913.0577142032142
 30
0.0
 10
663.9588240185537
 20
912.6683234448818
 30
0.0
  0
SPLINE
  5
78
330
1F
100
AcDbEntity
  8
0
  6
SLD-実線
 62
     7
370
    25
100
AcDbSpline
210
0.0
220
0.0
230
1.0
 70
     8
 71
     3
 72
    11
 73
     7
 74
     0
 42
0.000000001
 43
0.00000001
 40
0.0
 40
0.0
 40
0.0
 40
0.0
 40
0.0983790743811592
 40
0.6535539549566705
 40
0.867458532383999
 40
1.0
 40
1.0
 40
1.0
 40
1.0
 10
669.9483646528595
 20
911.3868779729202
 30
0.0
 10
669.9280109841793
 20
911.4398731440793
 30
0.0
 10
669.7927970604105
 20
911.7919317899104
 30
0.0
 10
669.5783572687083
 20
912.2209493838689
 30
0.0
 10
669.3920544331995
 20
912.6984577884348
 30
0.0
 10
669.3394192390377
 20
912.8932942499926
 30
0.0
 10
669.3192823490882
 20
912.9678337372502
 30
0.0
  0
SPLINE
  5
79
330
1F
100
AcDbEntity
  8
0
  6
SLD-実線
 62
     7
370
    25
100
AcDbSpline
210
0.0
220
0.0
230
1.0
 70
     8
 71
     3
 72
    10
 73
     6
 74
     0
 42
0.000000001
 43
0.00000001
 40
0.0
 40
0.0
 40
0.0
 40
0.0
 40
0.3404820205956479
 40
0.9272588586506643
 40
0.9999999999999999
 40
0.9999999999999999
 40
0.9999999999999999
 40
0.9999999999999999
 10
673.1284985375587
 20
914.3965510774708
 30
0.0
 10
673.082259114841
 20
914.1727832038074
 30
0.0
 10
672.9563320122624
 20
913.5633802674264
 30
0.0
 10
672.7547858159587
 20
912.9186898189033
 30
0.0
 10
672.6356215333634
 20
912.5025818768077
 30
0.0
 10
672.6224783800383
 20
912.4566875000388
 30
0.0
  0
SPLINE
  5
7A
330
1F
100
AcDbEntity
  8
0
  6
SLD-実線
 62
     7
370
    25
100
AcDbSpline
210
0.0
220
0.0
230
1.0
 70
     8
 71
     3
 72
    16
 73
    12
 74
     0
 42
0.000000001
 43
0.00000001
 40
0.0
 40
0.0
 40
0.0
 40
0.0
 40
0.0662883731561637
 40
0.1296753986314851
 40
0.2357137518737341
 40
0.3485085795644257
 40
0.4717583618540735
 40
0.6025843134031134
 40
0.739421051691874
 40
0.8809891904015159
 40
1.0
 40
1.0
 40
1.0
 40
1.0
 10
368.9008570920699
 20
996.8050965920078
 30
0.0
 10
368.6416018323654
 20
997.036737007575
 30
0.0
 10
368.1344385464255
 20
997.4898792676372
 30
0.0
 10
367.0641757831167
 20
998.1120314354946
 30
0.0
 10
365.7266357998909
 20
998.7431800104922
 30
0.0
 10
363.9995778611831
 20
999.2428999749308
 30
0.0
 10
362.0869523680687
 20
999.4788774324172
 30
0.0
 10
360.0322624245273
 20
999.3754272507822
 30
0.0
 10
357.943799569865
 20
998.8687381399369
 30
0.0
 10
356.015712430732
 20
998.0352742047263
 30
0.0
 10
354.9345710120597
 20
997.1986953342464
 30
0.0
 10
354.4407954543562
 20
996.8166156255238
 30
0.0
  0
SPLINE
  5
7B
330
1F
100
AcDbEntity
  8
0
  6
SLD-実線
 62
     7
370
    25
100
AcDbSpline
210
0.0
220
0.0
230
1.0
 70
     8
 71
     3
 72
    11
 73
     7
 74
     0
 42
0.000000001
 43
0.00000001
 40
0.0
 40
0.0
 40
0.0
 40
0.0
 40
0.097715885495943
 40
0.6532816949942944
 40
0.8677990702041938
 40
1.0
 40
1.0
 40
1.0
 40
1.0
 10
360.401065602486
 20
995.5151959691941
 30
0.0
 10
360.3808408182698
 20
995.5678772094715
 30
0.0
 10
360.2456275799454
 20
995.9200787964306
 30
0.0
 10
360.0320394076674
 20
996.351030111821
 30
0.0
 10
359.8432000063537
 20
996.8279714722336
 30
0.0
 10
359.791801376513
 20
997.0245590985734
 30
0.0
 10
359.7722034880916
 20
997.0995163956451
 30
0.0
  0
SPLINE
  5
7C
330
1F
100
AcDbEntity
  8
0
  6
SLD-実線
 62
     7
370
    25
100
AcDbSpline
210
0.0
220
0.0
230
1.0
 70
     8
 71
     3
 72
    10
 73
     6
 74
     0
 42
0.000000001
 43
0.00000001
 40
0.0
 40
0.0
 40
0.0
 40
0.0
 40
0.3411183003450454
 40
0.9266200403791597
 40
0.9999999999999999
 40
0.9999999999999999
 40
0.9999999999999999
 40
0.9999999999999999
 10
363.5828370460022
 20
998.5268188037468
 30
0.0
 10
363.5362521986824
 20
998.3024823267846
 30
0.0
 10
363.4097082605213
 20
997.6930905845916
 30
0.0
 10
363.2076822005173
 20
997.0474625280852
 30
0.0
 10
363.0885844773208
 20
996.6311928982492
 30
0.0
 10
363.0753205088061
 20
996.5848327570513
 30
0.0
  0
SPLINE
  5
7D
330
1F
100
AcDbEntity
  8
0
  6
SLD-実線
 62
     7
370
    25
100
AcDbSpline
210
0.0
220
0.0
230
1.0
 70
     8
 71
     3
 72
    15
 73
    11
 74
     0
 42
0.000000001
 43
0.00000001
 40
0.0
 40
0.0
 40
0.0
 40
0.0
 40
0.0771982608559491
 40
0.2204951130126494
 40
0.363716582835494
 40
0.5064339885127629
 40
0.648384164802925
 40
0.7893673727146018
 40
0.9293561599648656
 40
1.0
 40
1.0
 40
1.0
 40
1.0
 10
693.4273860768202
 20
676.3950398548548
 30
0.0
 10
694.0417268147036
 20
676.2405259174449
 30
0.0
 10
695.7964182925417
 20
675.7992003265124
 30
0.0
 10
698.6888878832755
 20
675.4046505160713
 30
0.0
 10
702.0381740279454
 20
675.3605199257684
 30
0.0
 10
705.2607453542331
 20
675.7708535054095
 30
0.0
 10
708.3035271125154
 20
676.6148512919195
 30
0.0
 10
711.090754992018
 20
677.9009807241304
 30
0.0
 10
713.2384586523926
 20
679.2516089709721
 30
0.0
 10
714.3151908655323
 20
680.2989536284118
 30
0.0
 10
714.6763148718459
 20
680.6502213754623
 30
0.0
  0
LINE
  5
7E
330
1F
100
AcDbEntity
  8
0
  6
SLD-実線
 62
     7
370
    25
100
AcDbLine
 10
715.0373961503
 20
680.9106854115
 30
0.0
 11
758.2067204543
 21
723.0452693491
 31
0.0
  0
LINE
  5
7F
330
1F
100
AcDbEntity
  8
0
  6
SLD-実線
 62
     7
370
    25
100
AcDbLine
 10
282.1729620996
 20
788.1651801755
 30
0.0
 11
693.4273860768
 21
676.3950398549
 31
0.0
  0
SPLINE
  5
80
330
1F
100
AcDbEntity
  8
0
  6
SLD-実線
 62
     7
370
    25
100
AcDbSpline
210
0.0
220
0.0
230
1.0
 70
     8
 71
     3
 72
    13
 73
     9
 74
     0
 42
0.000000001
 43
0.00000001
 40
0.0
 40
0.0
 40
0.0
 40
0.0
 40
0.0898561019188758
 40
0.2717983873861701
 40
0.4537009231224997
 40
0.6361494007328472
 40
0.8195760386331477
 40
1.0
 40
1.0
 40
1.0
 40
1.0
 10
262.2353422649471
 20
981.5761885161891
 30
0.0
 10
261.8691946684215
 20
981.2520031740496
 30
0.0
 10
260.7616646937648
 20
980.2714013971414
 30
0.0
 10
259.2830165589816
 20
978.2671837434145
 30
0.0
 10
257.8170627258003
 20
975.6371992488052
 30
0.0
 10
256.7784498417679
 20
972.7405613751619
 30
0.0
 10
256.1262811354578
 20
969.6741012048839
 30
0.0
 10
256.0466255788679
 20
967.5233510524442
 30
0.0
 10
256.0071264792546
 20
966.4568505074536
 30
0.0
  0
LINE
  5
81
330
1F
100
AcDbEntity
  8
0
  6
SLD-実線
 62
     7
370
    25
100
AcDbLine
 10
305.0436017641
 20
1023.4503059363
 30
0.0
 11
261.8742774601
 21
981.3157219987
 31
0.0
  0
LINE
  5
82
330
1F
100
AcDbEntity
  8
0
  6
SLD-実線
 62
     7
370
    25
100
AcDbLine
 10
256.0071264793
 20
966.4568505075
 30
0.0
 11
256.0071264793
 21
820.7598328104
 31
0.0
  0
SPLINE
  5
83
330
1F
100
AcDbEntity
  8
0
  6
SLD-実線
 62
     7
370
    25
100
AcDbSpline
210
0.0
220
0.0
230
1.0
 70
     8
 71
     3
 72
    20
 73
    16
 74
     0
 42
0.000000001
 43
0.00000001
 40
0.0
 40
0.0
 40
0.0
 40
0.0
 40
0.0445727367568388
 40
0.1263419857500334
 40
0.2082945014449018
 40
0.2904342488321007
 40
0.3726765126843586
 40
0.454966459597381
 40
0.5372801770510022
 40
0.6196189759435897
 40
0.701993563774245
 40
0.7844129920556473
 40
0.8668879255514861
 40
0.9494194093315049
 40
1.0
 40
1.0
 40
1.0
 40
1.0
 10
256.0071264792546
 20
820.7598328104003
 30
0.0
 10
256.0201621208714
 20
820.1521747712567
 30
0.0
 10
256.0571118118085
 20
818.4297603783242
 30
0.0
 10
256.4583832158584
 20
815.5332483047447
 30
0.0
 10
257.3339307507345
 20
812.1066758952727
 30
0.0
 10
258.6268230987986
 20
808.710733946026
 30
0.0
 10
260.308290907319
 20
805.4015100570414
 30
0.0
 10
262.3525663047224
 20
802.2322047229198
 30
0.0
 10
264.7257759566883
 20
799.2537837264963
 30
0.0
 10
267.3901787273603
 20
796.5134409774976
 30
0.0
 10
270.3038425212291
 20
794.0554624545842
 30
0.0
 10
273.4213756987231
 20
791.9173250874017
 30
0.0
 10
276.6945448628805
 20
790.1422537692364
 30
0.0
 10
279.6358723561101
 20
788.9129178125423
 30
0.0
 10
281.4743631777695
 20
788.3710730527182
 30
0.0
 10
282.1729620996435
 20
788.1651801754863
 30
0.0
  0
LINE
  5
84
330
1F
100
AcDbEntity
  8
0
  6
SLD-実線
 62
     7
370
    25
100
AcDbLine
 10
307.3770788196
 20
1026.7993123757
 30
0.0
 11
305.0436017641
 21
1024.5217672335
 31
0.0
  0
ARC
  5
85
330
1F
100
AcDbEntity
  8
0
  6
SLD-実線
 62
     7
370
    25
100
AcDbCircle
 10
667.3317709323
 20
900.0989440256
 30
0.0
 40
14.48860873082586
100
AcDbArc
 50
59.3356867958
 51
59.8083374089
  0
SPLINE
  5
86
330
1F
100
AcDbEntity
  8
0
  6
SLD-実線
 62
     7
370
    25
100
AcDbSpline
210
0.0
220
0.0
230
1.0
 70
     8
 71
     3
 72
    12
 73
     8
 74
     0
 42
0.000000001
 43
0.00000001
 40
0.0
 40
0.0
 40
0.0
 40
0.0
 40
0.2063699216980569
 40
0.4133994618256503
 40
0.6147765270094392
 40
0.8108549033530824
 40
1.0
 40
1.0
 40
1.0
 40
1.0
 10
673.4209708155896
 20
914.6162380098172
 30
0.0
 10
673.3064033258415
 20
914.5460642471451
 30
0.0
 10
673.0769021552501
 20
914.4054924259987
 30
0.0
 10
673.0923100096064
 20
914.0159551326246
 30
0.0
 10
673.3863616416534
 20
913.5548460548638
 30
0.0
 10
673.9109189004032
 20
913.0670875278136
 30
0.0
 10
674.3851566776809
 20
912.7686680898462
 30
0.0
 10
674.618007883555
 20
912.6221438580866
 30
0.0
  0
LINE
  5
87
330
1F
100
AcDbEntity
  8
0
  6
SLD-実線
 62
     7
370
    25
100
AcDbLine
 10
673.4753621596
 20
914.6368029173
 30
0.0
 11
673.4209708156
 21
914.6162380098
 31
0.0
  0
LINE
  5
88
330
1F
100
AcDbEntity
  8
0
  6
SLD-実線
 62
     7
370
    25
100
AcDbLine
 10
672.3587835008
 20
914.9402650714
 30
0.0
 11
673.4753621596
 21
914.6368029173
 31
0.0
  0
LINE
  5
89
330
1F
100
AcDbEntity
  8
0
  6
SLD-実線
 62
     7
370
    25
100
AcDbLine
 10
672.3587835008
 20
914.9402650714
 30
0.0
 11
672.3043921568
 21
914.9197001639
 31
0.0
  0
SPLINE
  5
8A
330
1F
100
AcDbEntity
  8
0
  6
SLD-実線
 62
     7
370
    25
100
AcDbSpline
210
0.0
220
0.0
230
1.0
 70
     8
 71
     3
 72
    14
 73
    10
 74
     0
 42
0.000000001
 43
0.00000001
 40
0.0
 40
0.0
 40
0.0
 40
0.0
 40
0.0102225093271956
 40
0.0511525855051624
 40
0.2162565807251794
 40
0.4213704661786766
 40
0.6246250594262278
 40
0.8207933628070088
 40
1.0
 40
1.0
 40
1.0
 40
1.0
 10
668.4326760891922
 20
914.303184504166
 30
0.0
 10
668.445779244756
 20
914.3037001387894
 30
0.0
 10
668.5113463441745
 20
914.3062803315104
 30
0.0
 10
668.7963406819232
 20
914.3196843362911
 30
0.0
 10
669.3869833442651
 20
914.3629123481375
 30
0.0
 10
670.2685171022092
 20
914.4633705753863
 30
0.0
 10
671.1478112261401
 20
914.6095805111115
 30
0.0
 10
671.8642163414899
 20
914.7703067305644
 30
0.0
 10
672.1621544215345
 20
914.8714253998575
 30
0.0
 10
672.3043921567835
 20
914.919700163894
 30
0.0
  0
ARC
  5
8B
330
1F
100
AcDbEntity
  8
0
  6
SLD-実線
 62
     7
370
    25
100
AcDbCircle
 10
668.7830905997
 20
905.1017717274
 30
0.0
 40
9.20808272214958
100
AcDbArc
 50
92.1809232447
 51
92.8230092583
  0
LINE
  5
8C
330
1F
100
AcDbEntity
  8
0
  6
SLD-実線
 62
     7
370
    25
100
AcDbLine
 10
667.7403822267
 20
913.7236004204
 30
0.0
 11
668.3295844804
 21
914.2986798827
 31
0.0
  0
ARC
  5
8D
330
1F
100
AcDbEntity
  8
0
  6
SLD-実線
 62
     7
370
    25
100
AcDbCircle
 10
668.1938883463
 20
904.5266922612
 30
0.0
 40
9.208082726008337
100
AcDbArc
 50
92.1809232448
 51
92.8230092582
  0
SPLINE
  5
8E
330
1F
100
AcDbEntity
  8
0
  6
SLD-実線
 62
     7
370
    25
100
AcDbSpline
210
0.0
220
0.0
230
1.0
 70
     8
 71
     3
 72
    14
 73
    10
 74
     0
 42
0.000000001
 43
0.00000001
 40
0.0
 40
0.0
 40
0.0
 40
0.0
 40
0.0102263940641892
 40
0.051152298542172
 40
0.2162623973857266
 40
0.4213702660042803
 40
0.6246287964172075
 40
0.8207938708642945
 40
1.0
 40
1.0
 40
1.0
 40
1.0
 10
669.0404790430158
 20
911.7340209049748
 30
0.0
 10
669.0473072297729
 20
911.7448020052592
 30
0.0
 10
669.0814617367575
 20
911.798728937558
 30
0.0
 10
669.2135598929988
 20
912.026954134831
 30
0.0
 10
669.378474766968
 20
912.4593152188636
 30
0.0
 10
669.3670188736535
 20
913.0079108888048
 30
0.0
 10
669.0559703499795
 20
913.4467927853509
 30
0.0
 10
668.5271380550448
 20
913.7041184546435
 30
0.0
 10
668.0643931035917
 20
913.7203540156097
 30
0.0
 10
667.843473835583
 20
913.7281050418135
 30
0.0
  0
LINE
  5
8F
330
1F
100
AcDbEntity
  8
0
  6
SLD-実線
 62
     7
370
    25
100
AcDbLine
 10
668.986087699
 20
911.648410574
 30
0.0
 11
669.040479043
 21
911.734020905
 31
0.0
  0
LINE
  5
90
330
1F
100
AcDbEntity
  8
0
  6
SLD-実線
 62
     7
370
    25
100
AcDbLine
 10
670.1026663578
 20
911.3449484199
 30
0.0
 11
668.986087699
 21
911.648410574
 31
0.0
  0
LINE
  5
91
330
1F
100
AcDbEntity
  8
0
  6
SLD-実線
 62
     7
370
    25
100
AcDbLine
 10
670.1026663578
 20
911.3449484199
 30
0.0
 11
670.1570577018
 21
911.4305587509
 31
0.0
  0
SPLINE
  5
92
330
1F
100
AcDbEntity
  8
0
  6
SLD-実線
 62
     7
370
    25
100
AcDbSpline
210
0.0
220
0.0
230
1.0
 70
     8
 71
     3
 72
    14
 73
    10
 74
     0
 42
0.000000001
 43
0.00000001
 40
0.0
 40
0.0
 40
0.0
 40
0.0
 40
0.0102302783109287
 40
0.0511523854447813
 40
0.216263577906139
 40
0.421369625170525
 40
0.6246238835327094
 40
0.8207944773337885
 40
1.0
 40
1.0
 40
1.0
 40
1.0
 10
674.028805629946
 20
912.047064395734
 30
0.0
 10
674.0156914108658
 20
912.0546118210508
 30
0.0
 10
673.9501190413946
 20
912.0923496808811
 30
0.0
 10
673.6651297152832
 20
912.2418400290226
 30
0.0
 10
673.0744827751263
 20
912.454927074839
 30
0.0
 10
672.1929529309058
 20
912.5435910508871
 30
0.0
 10
671.3136735744987
 20
912.3694192352151
 30
0.0
 10
670.597229300867
 20
911.9854008372718
 30
0.0
 10
670.2992931742999
 20
911.6098484335516
 30
0.0
 10
670.1570577018219
 20
911.430558750898
 30
0.0
  0
ARC
  5
93
330
1F
100
AcDbEntity
  8
0
  6
SLD-実線
 62
     7
370
    25
100
AcDbCircle
 10
666.742568677
 20
899.5238645604
 30
0.0
 40
14.48860873408722
100
AcDbArc
 50
59.3356867959
 51
59.8083374089
  0
LINE
  5
94
330
1F
100
AcDbEntity
  8
0
  6
SLD-実線
 62
     7
370
    25
100
AcDbLine
 10
674.7210665452
 20
912.5616120104
 30
0.0
 11
674.1318642916
 21
911.986532548
 31
0.0
  0
LINE
  5
95
330
1F
100
AcDbEntity
  8
0
  6
SLD-実線
 62
     7
370
    25
100
AcDbLine
 10
678.4988664717
 20
912.7118715098
 30
0.0
 11
679.1554532143
 21
912.073487134
 31
0.0
  0
LWPOLYLINE
  5
96
330
1F
100
AcDbEntity
  8
0
  6
SLD-実線
 62
     7
370
    25
100
AcDbPolyline
 90
        3
 70
   128
 43
0.0
 10
663.3060189206
 20
912.0734820877
 10
663.8704082067
 20
912.6358957345
 10
663.9244159751
 20
912.6807977398
  0
LINE
  5
97
330
1F
100
AcDbEntity
  8
0
  6
SLD-実線
 62
     7
370
    25
100
AcDbLine
 10
674.114246075
 20
911.9969511543
 30
0.0
 11
674.7210665452
 21
912.5616120104
 31
0.0
  0
LINE
  5
98
330
1F
100
AcDbEntity
  8
0
  6
SLD-実線
 62
     7
370
    25
100
AcDbLine
 10
668.3295844804
 20
914.2986798827
 30
0.0
 11
668.8834918398
 21
913.4822144567
 31
0.0
  0
LINE
  5
99
330
1F
100
AcDbEntity
  8
0
  6
SLD-実線
 62
     7
370
    25
100
AcDbLine
 10
669.382080947
 20
912.7472497425
 30
0.0
 11
670.2249017989
 21
911.5048759151
 31
0.0
  0
LINE
  5
9A
330
1F
100
AcDbEntity
  8
0
  6
SLD-実線
 62
     7
370
    25
100
AcDbLine
 10
671.5709185365
 20
912.3762290029
 30
0.0
 11
672.3587835008
 21
914.9402650714
 31
0.0
  0
ARC
  5
9B
330
1F
100
AcDbEntity
  8
0
  6
SLD-実線
 62
     7
370
    25
100
AcDbCircle
 10
358.6539204163
 20
988.5196075476
 30
0.0
 40
9.343378312118341
100
AcDbArc
 50
92.188505282
 51
92.8211938306
  0
SPLINE
  5
9C
330
1F
100
AcDbEntity
  8
0
  6
SLD-実線
 62
     7
370
    25
100
AcDbSpline
210
0.0
220
0.0
230
1.0
 70
     8
 71
     3
 72
    12
 73
     8
 74
     0
 42
0.000000001
 43
0.00000001
 40
0.0
 40
0.0
 40
0.0
 40
0.0
 40
0.2063690736373102
 40
0.4133998711866987
 40
0.6147746240503361
 40
0.8108605716903668
 40
0.9999999999999999
 40
0.9999999999999999
 40
0.9999999999999999
 40
0.9999999999999999
 10
359.4941433748183
 20
995.8620821639386
 30
0.0
 10
359.6087187254711
 20
996.0812654250167
 30
0.0
 10
359.8382368134589
 20
996.520334759869
 30
0.0
 10
359.8228016334037
 20
997.1126103972089
 30
0.0
 10
359.5287818467675
 20
997.557872564318
 30
0.0
 10
359.00419449386
 20
997.8292503816317
 30
0.0
 10
358.5299621188929
 20
997.8473058399607
 30
0.0
 10
358.2971216938142
 20
997.8561707779409
 30
0.0
  0
LINE
  5
9D
330
1F
100
AcDbEntity
  8
0
  6
SLD-実線
 62
     7
370
    25
100
AcDbLine
 10
359.4397520308
 20
995.776471833
 30
0.0
 11
359.4941433748
 21
995.8620821639
 31
0.0
  0
LINE
  5
9E
330
1F
100
AcDbEntity
  8
0
  6
SLD-実線
 62
     7
370
    25
100
AcDbLine
 10
360.5563306896
 20
995.4730096789
 30
0.0
 11
359.4397520308
 21
995.776471833
 31
0.0
  0
LINE
  5
9F
330
1F
100
AcDbEntity
  8
0
  6
SLD-実線
 62
     7
370
    25
100
AcDbLine
 10
360.5563306896
 20
995.4730096789
 30
0.0
 11
360.6107220336
 21
995.5586200099
 31
0.0
  0
SPLINE
  5
A0
330
1F
100
AcDbEntity
  8
0
  6
SLD-実線
 62
     7
370
    25
100
AcDbSpline
210
0.0
220
0.0
230
1.0
 70
     8
 71
     3
 72
    14
 73
    10
 74
     0
 42
0.000000001
 43
0.00000001
 40
0.0
 40
0.0
 40
0.0
 40
0.0
 40
0.0102263950132092
 40
0.0511524916961386
 40
0.2162620493343666
 40
0.4213702604673436
 40
0.6246248987153499
 40
0.8207941423954813
 40
1.0
 40
1.0
 40
1.0
 40
1.0
 10
364.4824534881772
 20
996.1751301318615
 30
0.0
 10
364.469344800968
 20
996.1826762187815
 30
0.0
 10
364.4037750657146
 20
996.2204217926629
 30
0.0
 10
364.1187806461088
 20
996.3698868371505
 30
0.0
 10
363.5281356968888
 20
996.5829996657598
 30
0.0
 10
362.6466037015102
 20
996.6716543242981
 30
0.0
 10
361.7673200870566
 20
996.4974891867529
 30
0.0
 10
361.0508951848658
 20
996.1134580170524
 30
0.0
 10
360.7529584479807
 20
995.7379089293898
 30
0.0
 10
360.6107220336244
 20
995.5586200098617
 30
0.0
  0
ARC
  5
A1
330
1F
100
AcDbEntity
  8
0
  6
SLD-実線
 62
     7
370
    25
100
AcDbCircle
 10
357.1750849099
 20
983.6148603889
 30
0.0
 40
14.53127701042661
100
AcDbArc
 50
59.338496827
 51
59.8098245345
  0
LINE
  5
A2
330
1F
100
AcDbEntity
  8
0
  6
SLD-実線
 62
     7
370
    25
100
AcDbLine
 10
365.174730877
 20
996.6896732693
 30
0.0
 11
364.5855286234
 21
996.114593807
 31
0.0
  0
ARC
  5
A3
330
1F
100
AcDbEntity
  8
0
  6
SLD-実線
 62
     7
370
    25
100
AcDbCircle
 10
357.7642871709
 20
984.1899398639
 30
0.0
 40
14.53127699582435
100
AcDbArc
 50
59.3384968267
 51
59.8098245346
  0
SPLINE
  5
A4
330
1F
100
AcDbEntity
  8
0
  6
SLD-実線
 62
     7
370
    25
100
AcDbSpline
210
0.0
220
0.0
230
1.0
 70
     8
 71
     3
 72
    14
 73
    10
 74
     0
 42
0.000000001
 43
0.00000001
 40
0.0
 40
0.0
 40
0.0
 40
0.0
 40
0.0102268695459257
 40
0.0511530200738603
 40
0.2162620108796241
 40
0.4213696325496092
 40
0.6246237701322238
 40
0.8207920592438755
 40
0.9999999999999999
 40
0.9999999999999999
 40
0.9999999999999999
 40
0.9999999999999999
 10
363.8746351473921
 20
998.7442992687809
 30
0.0
 10
363.8678063446441
 20
998.7415778448039
 30
0.0
 10
363.8336498627916
 20
998.7279657561089
 30
0.0
 10
363.701625189994
 20
998.6626276159881
 30
0.0
 10
363.5366270320733
 20
998.4865766279121
 30
0.0
 10
363.5481270528338
 20
998.1271263411603
 30
0.0
 10
363.8591279173396
 20
997.66028068337
 30
0.0
 10
364.3879870805046
 20
997.1796411540087
 30
0.0
 10
364.8507355290619
 20
996.8889758078979
 30
0.0
 10
365.0716557417863
 20
996.7502095942141
 30
0.0
  0
LINE
  5
A5
330
1F
100
AcDbEntity
  8
0
  6
SLD-実線
 62
     7
370
    25
100
AcDbLine
 10
363.9290264914
 20
998.7648641763
 30
0.0
 11
363.8746351474
 21
998.7442992688
 31
0.0
  0
LINE
  5
A6
330
1F
100
AcDbEntity
  8
0
  6
SLD-実線
 62
     7
370
    25
100
AcDbLine
 10
362.8124478326
 20
999.0683263303
 30
0.0
 11
363.9290264914
 21
998.7648641763
 31
0.0
  0
LINE
  5
A7
330
1F
100
AcDbEntity
  8
0
  6
SLD-実線
 62
     7
370
    25
100
AcDbLine
 10
362.8124478326
 20
999.0683263303
 30
0.0
 11
362.7580564886
 21
999.0477614229
 31
0.0
  0
SPLINE
  5
A8
330
1F
100
AcDbEntity
  8
0
  6
SLD-実線
 62
     7
370
    25
100
AcDbSpline
210
0.0
220
0.0
230
1.0
 70
     8
 71
     3
 72
    14
 73
    10
 74
     0
 42
0.000000001
 43
0.00000001
 40
0.0
 40
0.0
 40
0.0
 40
0.0
 40
0.0102263949996313
 40
0.0511524916282217
 40
0.2162620490472281
 40
0.421370259907876
 40
0.6246245231761518
 40
0.8207933664197117
 40
1.0
 40
1.0
 40
1.0
 40
1.0
 10
358.8863239474234
 20
998.4312502402934
 30
0.0
 10
358.8994326346738
 20
998.431764145927
 30
0.0
 10
358.9650023701337
 20
998.4343347051143
 30
0.0
 10
359.2499967775153
 20
998.4477715223437
 30
0.0
 10
359.8406419541942
 20
998.4909525889545
 30
0.0
 10
360.722172185003
 20
998.5914449516362
 30
0.0
 10
361.6014591980724
 20
998.7376454130523
 30
0.0
 10
362.3178712850312
 20
998.898370343137
 30
0.0
 10
362.6158158591084
 20
998.9994874666997
 30
0.0
 10
362.758056488586
 20
999.0477614228578
 30
0.0
  0
ARC
  5
A9
330
1F
100
AcDbEntity
  8
0
  6
SLD-実線
 62
     7
370
    25
100
AcDbCircle
 10
359.2431226697
 20
989.094687014
 30
0.0
 40
9.343378307987168
100
AcDbArc
 50
92.1885052818
 51
92.8211938308
  0
LINE
  5
AA
330
1F
100
AcDbEntity
  8
0
  6
SLD-実線
 62
     7
370
    25
100
AcDbLine
 10
358.1940465586
 20
997.8516616793
 30
0.0
 11
358.7832488122
 21
998.4267411417
 31
0.0
  0
LWPOLYLINE
  5
AB
330
1F
100
AcDbEntity
  8
0
  6
SLD-実線
 62
     7
370
    25
100
AcDbPolyline
 90
        3
 70
   128
 43
0.0
 10
353.759658542
 20
996.2015500624
 10
353.8185866003
 20
996.2705769434
 10
354.3960975502
 20
996.82360767
  0
LWPOLYLINE
  5
AC
330
1F
100
AcDbEntity
  8
0
  6
SLD-実線
 62
     7
370
    25
100
AcDbPolyline
 90
        3
 70
   128
 43
0.0
 10
368.9746962787
 20
996.8219660603
 10
369.4245690187
 20
996.408069089
 10
369.6091175461
 20
996.2015483929
  0
LINE
  5
AD
330
1F
100
AcDbEntity
  8
0
  6
SLD-実線
 62
     7
370
    25
100
AcDbLine
 10
364.56790217
 20
996.1250146519
 30
0.0
 11
365.174730877
 21
996.6896732693
 31
0.0
  0
LINE
  5
AE
330
1F
100
AcDbEntity
  8
0
  6
SLD-実線
 62
     7
370
    25
100
AcDbLine
 10
360.6785743675
 20
995.6329349355
 30
0.0
 11
359.8335131099
 21
996.8785839767
 31
0.0
  0
LINE
  5
AF
330
1F
100
AcDbEntity
  8
0
  6
SLD-実線
 62
     7
370
    25
100
AcDbLine
 10
359.3407803573
 20
997.6049000937
 30
0.0
 11
358.7832488122
 21
998.4267411417
 31
0.0
  0
LINE
  5
B0
330
1F
100
AcDbEntity
  8
0
  6
SLD-実線
 62
     7
370
    25
100
AcDbLine
 10
362.0245828683
 20
996.5042902619
 30
0.0
 11
362.8124478326
 21
999.0683263303
 31
0.0
  0
ARC
  5
B1
330
1F
100
AcDbEntity
  8
0
  6
SLD-実線
 62
     7
370
    25
100
AcDbCircle
 10
683.8671926586
 20
838.3274659377
 30
0.0
 40
33.43053172002853
100
AcDbArc
 50
3.4303875962
 51
74.295014158
  0
ARC
  5
B2
330
1F
100
AcDbEntity
  8
0
  6
SLD-実線
 62
     7
370
    25
100
AcDbCircle
 10
698.0286111631
 20
870.5406401848
 30
0.0
 40
5.112393141681146
100
AcDbArc
 50
140.5126251506
 51
180.3436674594
  0
ARC
  5
B3
330
1F
100
AcDbEntity
  8
0
  6
SLD-実線
 62
     7
370
    25
100
AcDbCircle
 10
684.4280886003
 20
838.8582000348
 30
0.0
 40
36.2431280775242
100
AcDbArc
 50
3.175182974
 51
74.5501891644
  0
ARC
  5
B4
330
1F
100
AcDbEntity
  8
0
  6
SLD-実線
 62
     7
370
    25
100
AcDbCircle
 10
718.3837968556
 20
844.0061500857
 30
0.0
 40
3.85271980167867
100
AcDbArc
 50
252.6957925949
 51
305.3995092981
  0
ARC
  5
B5
330
1F
100
AcDbEntity
  8
0
  6
SLD-実線
 62
     7
370
    25
100
AcDbCircle
 10
727.5974129044
 20
880.9927839723
 30
0.0
 40
36.24312807752361
100
AcDbArc
 50
3.175182974
 51
74.5501891644
  0
LINE
  5
B6
330
1F
100
AcDbEntity
  8
0
  6
SLD-実線
 62
     7
370
    25
100
AcDbLine
 10
763.784902307
 20
883.0002559098
 30
0.0
 11
720.6155780029
 21
840.8656719723
 31
0.0
  0
LINE
  5
B7
330
1F
100
AcDbEntity
  8
0
  6
SLD-実線
 62
     7
370
    25
100
AcDbLine
 10
694.0830464772
 20
873.7916527877
 30
0.0
 11
737.2523707812
 21
915.9262367253
 31
0.0
  0
LWPOLYLINE
  5
B8
330
1F
100
AcDbEntity
  8
0
  6
SLD-実線
 62
     7
370
    25
100
AcDbPolyline
 90
       12
 70
   128
 43
0.0
 10
692.9163099868
 20
677.6687555986
 10
696.3776379348
 20
676.9679716671
 10
699.7684589979
 20
676.7613240841
 10
703.0198148069
 20
677.053003257
 10
706.0655145525
 20
677.8370714049
 10
708.8435187653
 20
679.0975774311
 10
711.297290149
 20
680.808857373
 10
713.3768478884
 20
682.9360820868
 10
715.0399207996
 20
685.4359297454
 10
716.252606273
 20
688.2575238718
 10
716.9902598461
 20
691.3434139682
 10
717.2378246747
 20
694.6307906929
  0
LINE
  5
B9
330
1F
100
AcDbEntity
  8
0
  6
SLD-実線
 62
     7
370
    25
100
AcDbLine
 10
281.6618860096
 20
789.4388959192
 30
0.0
 11
692.9163099868
 21
677.6687555986
 31
0.0
  0
ARC
  5
BA
330
1F
100
AcDbEntity
  8
0
  6
SLD-実線
 62
     7
370
    25
100
AcDbCircle
 10
290.7109512276
 20
821.6213458632
 30
0.0
 40
33.43046014809001
100
AcDbArc
 50
183.4302983091
 51
254.295072441
  0
LINE
  5
BB
330
1F
100
AcDbEntity
  8
0
  6
SLD-実線
 62
     7
370
    25
100
AcDbLine
 10
257.3403875379
 20
965.3180773937
 30
0.0
 11
257.3403875379
 21
819.6210596966
 31
0.0
  0
LWPOLYLINE
  5
BC
330
1F
100
AcDbEntity
  8
0
  6
SLD-実線
 62
     7
370
    25
100
AcDbPolyline
 90
       12
 70
   128
 43
0.0
 10
281.6618860096
 20
982.2801158973
 10
278.2005765944
 20
982.9808888047
 10
274.8097287618
 20
983.1875396716
 10
271.558369864
 20
982.8958693211
 10
268.5126907104
 20
982.1117895895
 10
265.7346916455
 20
980.851292143
 10
263.2809238654
 20
979.1400082281
 10
261.2013393565
 20
977.0127867982
 10
259.5382726229
 20
974.5129334691
 10
258.3255789127
 20
971.6913430781
 10
257.5879451594
 20
968.6054575739
 10
257.3403875379
 20
965.3180773937
  0
LINE
  5
BD
330
1F
100
AcDbEntity
  8
0
  6
SLD-実線
 62
     7
370
    25
100
AcDbLine
 10
692.9163099868
 20
870.5099755767
 30
0.0
 11
281.6618860096
 21
982.2801158973
 31
0.0
  0
LINE
  5
BE
330
1F
100
AcDbEntity
  8
0
  6
SLD-実線
 62
     7
370
    25
100
AcDbLine
 10
717.2378246747
 20
694.6307906929
 30
0.0
 11
717.2378246747
 21
840.3278083899
 31
0.0
  0
LINE
  5
BF
330
1F
100
AcDbEntity
  8
0
  6
SLD-実線
 62
     7
370
    25
100
AcDbLine
 10
282.8286225
 20
985.5617931083
 30
0.0
 11
694.0830464772
 21
873.7916527877
 31
0.0
  0
ARC
  5
C0
330
1F
100
AcDbEntity
  8
0
  6
SLD-実線
 62
     7
370
    25
100
AcDbCircle
 10
286.7741871859
 20
982.3107805054
 30
0.0
 40
5.112393141682906
100
AcDbArc
 50
140.5126251506
 51
180.3436674594
  0
LINE
  5
C1
330
1F
100
AcDbEntity
  8
0
  6
SLD-実線
 62
     7
370
    25
100
AcDbLine
 10
737.2523707812
 20
915.9262367253
 30
0.0
 11
325.997946804
 21
1027.6963770459
 31
0.0
  0
LINE
  5
C2
330
1F
100
AcDbEntity
  8
0
  6
SLD-実線
 62
     7
370
    25
100
AcDbLine
 10
325.997946804
 20
1027.6963770459
 30
0.0
 11
282.8286225
 21
985.5617931083
 31
0.0
  0
LWPOLYLINE
  5
C3
330
1F
100
AcDbEntity
  8
0
  6
SLD-実線
 62
     7
370
    25
100
AcDbPolyline
 90
       27
 70
   128
 43
0.0
 10
666.7096139662
 20
910.5304916836
 10
668.891386792
 20
910.1014614048
 10
671.209141364
 20
909.9538135616
 10
673.528127075
 20
910.0961362689
 10
675.7136236859
 20
910.5201503536
 10
677.6385475242
 20
911.2012264631
 10
679.191102863
 20
912.0997685074
 10
680.2810225547
 20
913.1635635395
 10
680.8449648495
 20
914.3307880698
 10
680.8501915704
 20
915.5335980776
 10
680.2963287933
 20
916.7021086348
 10
679.2156317465
 20
917.7683936252
 10
677.6708599299
 20
918.6704963346
 10
675.7518358924
 20
919.3559774856
 10
673.5700608934
 20
919.7850056433
 10
671.252307408
 20
919.932654547
 10
668.9333206104
 20
919.7903307791
 10
666.7478591199
 20
919.3663098613
 10
664.8229012478
 20
918.6852416455
 10
663.2703469956
 20
917.7867006618
 10
662.1804273039
 20
916.7229056297
 10
661.6164839225
 20
915.5556800387
 10
661.6112912353
 20
914.3528621372
 10
662.1651188921
 20
913.1843584132
 10
663.2458170255
 20
912.1180744834
 10
664.7905877555
 20
911.2159707134
 10
666.7096139662
 20
910.5304916836
  0
LWPOLYLINE
  5
C4
330
1F
100
AcDbEntity
  8
0
  6
SLD-実線
 62
     7
370
    25
100
AcDbPolyline
 90
       27
 70
   128
 43
0.0
 10
357.163278298
 20
994.6585529425
 10
359.3450593605
 20
994.2295204252
 10
361.662797459
 20
994.0818770591
 10
363.9817914068
 20
994.2241975279
 10
366.1672633073
 20
994.6482183283
 10
368.092211856
 20
995.3292877221
 10
369.6447589581
 20
996.2278320049
 10
370.7346786497
 20
997.291627037
 10
371.2986291813
 20
998.4588493288
 10
371.3038311919
 20
999.6616660524
 10
370.7499931251
 20
1000.8301698938
 10
369.6692878415
 20
1001.8964571227
 10
368.1245324985
 20
1002.798555355
 10
366.2055002242
 20
1003.4840387446
 10
364.0237169885
 20
1003.9130691408
 10
361.7059799766
 20
1004.0607135674
 10
359.3869849422
 20
1003.9183920381
 10
357.2015152149
 20
1003.4943733588
 10
355.2765655796
 20
1002.8133029045
 10
353.7240154458
 20
1001.9147608014
 10
352.6340957541
 20
1000.8509657694
 10
352.0701482543
 20
999.6837412977
 10
352.0649473303
 20
998.4809256347
 10
352.6187832239
 20
997.3124196722
 10
353.6994895941
 20
996.2461335038
 10
355.2442438505
 20
995.3440342109
 10
357.163278298
 20
994.6585529425
  0
LINE
  5
C5
330
1F
100
AcDbEntity
  8
0
  6
SLD-実線
 62
     7
370
    25
100
AcDbLine
 10
720.6155780029
 20
840.8656719723
 30
0.0
 11
720.6155780029
 21
695.1686542752
 31
0.0
  0
ARC
  5
C6
330
1F
100
AcDbEntity
  8
0
  6
SLD-実線
 62
     7
370
    25
100
AcDbCircle
 10
718.3837968556
 20
698.3091323886
 30
0.0
 40
3.852719801679212
100
AcDbArc
 50
252.6957925949
 51
305.3995092981
  0
LINE
  5
C7
330
1F
100
AcDbEntity
  8
0
  6
SLD-実線
 62
     7
370
    25
100
AcDbLine
 10
763.784902307
 20
737.3032382128
 30
0.0
 11
763.784902307
 21
883.0002559098
 31
0.0
  0
LINE
  5
C8
330
1F
100
AcDbEntity
  8
0
  6
SLD-実線
 62
     7
370
    25
100
AcDbLine
 10
720.6155780029
 20
695.1686542752
 30
0.0
 11
763.784902307
 21
737.3032382128
 31
0.0
  0
LWPOLYLINE
  5
C9
330
1F
100
AcDbEntity
  8
0
  6
SLD-実線
 62
     7
370
    25
100
AcDbPolyline
 90
        3
 70
   128
 43
0.0
 10
679.4037586422
 20
912.2645933823
 10
679.2156317465
 20
912.4111031049
 10
677.9442947162
 20
913.1829470581
  0
LWPOLYLINE
  5
CA
330
1F
100
AcDbEntity
  8
0
  6
SLD-実線
 62
     7
370
    25
100
AcDbPolyline
 90
        3
 70
   128
 43
0.0
 10
664.7339387557
 20
913.2870428287
 10
663.2703469956
 20
912.4294101415
 10
663.0576769246
 20
912.2645938509
  0
LINE
  5
CB
330
1F
100
AcDbEntity
  8
0
  6
SLD-実線
 62
     7
370
    25
100
AcDbLine
 10
715.0373961503
 20
680.9106854115
 30
0.0
 11
714.7362263208
 21
680.6237645717
 31
0.0
  0
ARC
  5
CC
330
1F
100
AcDbEntity
  8
0
  6
SLD-実線
 62
     7
370
    25
100
AcDbCircle
 10
744.3203443465
 20
736.6982396644
 30
0.0
 40
19.47395799111068
100
AcDbArc
 50
315.4855905592
 51
1.7802976628
  0
LINE
  5
CD
330
1F
100
AcDbEntity
  8
0
  6
SLD-実線
 62
     7
370
    25
100
AcDbLine
 10
261.8742774601
 20
981.3157219987
 30
0.0
 11
262.1754318456
 21
981.6026410487
 31
0.0
  0
ARC
  5
CE
330
1F
100
AcDbEntity
  8
0
  6
SLD-実線
 62
     7
370
    25
100
AcDbCircle
 10
319.2450861486
 20
1007.1938763736
 30
0.0
 40
21.58595980840443
100
AcDbArc
 50
71.7697886319
 51
131.1401978186
  0
LWPOLYLINE
  5
CF
330
1F
100
AcDbEntity
  8
0
  6
SLD-実線
 62
     7
370
    25
100
AcDbPolyline
 90
        3
 70
   128
 43
0.0
 10
369.8574312108
 20
996.3926524026
 10
369.6692878415
 20
996.5391666025
 10
368.3979508112
 20
997.3110105557
  0
LWPOLYLINE
  5
D0
330
1F
100
AcDbEntity
  8
0
  6
SLD-実線
 62
     7
370
    25
100
AcDbPolyline
 90
        3
 70
   128
 43
0.0
 10
355.1876113242
 20
997.4151018491
 10
353.7240154458
 20
996.5574702812
 10
353.5113494931
 20
996.3926528713
  0
ARC
  5
D1
330
1F
100
AcDbEntity
  8
0
  6
SLD-実線
 62
     7
370
    25
100
AcDbCircle
 10
319.1118475944
 20
1009.7572673788
 30
0.0
 40
20.21930193439318
100
AcDbArc
 50
70.0883598439
 51
148.2248465203
  0
LINE
  5
D2
330
1F
100
AcDbEntity
  8
0
  6
SLD-実線
 62
     7
370
    25
100
AcDbLine
 10
737.2523707812
 20
916.9976980225
 30
0.0
 11
325.997946804
 21
1028.7678383431
 31
0.0
  0
ARC
  5
D3
330
1F
100
AcDbEntity
  8
0
  6
SLD-実線
 62
     7
370
    25
100
AcDbCircle
 10
727.5973890783
 20
882.06422607
 30
0.0
 40
36.24315293049047
100
AcDbArc
 50
3.1752111933
 51
74.5501609451
  0
LINE
  5
D4
330
1F
100
AcDbEntity
  8
0
  6
SLD-実線
 62
     7
370
    25
100
AcDbLine
 10
763.784902307
 20
738.3532681686
 30
0.0
 11
763.784902307
 21
884.0717172071
 31
0.0
  0
LINE
  5
D5
330
1F
100
AcDbEntity
  8
0
  6
SLD-実線
 62
     7
370
    25
100
AcDbLine
 10
763.784902307
 20
884.0717172071
 30
0.0
 11
766.1183793625
 21
886.3492623493
 31
0.0
  0
LINE
  5
D6
330
1F
100
AcDbEntity
  8
0
  6
SLD-実線
 62
     7
370
    25
100
AcDbLine
 10
739.5858478367
 20
919.2752431647
 30
0.0
 11
737.2523707812
 21
916.9976980225
 31
0.0
  0
ARC
  5
D7
330
1F
100
AcDbEntity
  8
0
  6
SLD-実線
 62
     7
370
    25
100
AcDbCircle
 10
729.9308661338
 20
884.3417712122
 30
0.0
 40
36.24315293049078
100
AcDbArc
 50
3.1752111933
 51
74.5501609451
  0
LINE
  5
D8
330
1F
100
AcDbEntity
  8
0
  6
SLD-実線
 62
     7
370
    25
100
AcDbLine
 10
325.997946804
 20
1028.7678383431
 30
0.0
 11
328.3314238595
 21
1031.0453834853
 31
0.0
  0
LINE
  5
D9
330
1F
100
AcDbEntity
  8
0
  6
SLD-実線
 62
     7
370
    25
100
AcDbLine
 10
328.3314238595
 20
1031.0453834853
 30
0.0
 11
739.5858478367
 21
919.2752431647
 31
0.0
  0
ARC
  5
DA
330
1F
100
AcDbEntity
  8
0
  6
SLD-実線
 62
     7
370
    25
100
AcDbCircle
 10
745.1847729268
 20
899.1589099168
 30
0.0
 40
22.6875765498051
100
AcDbArc
 50
3.2397903938
 51
74.4856686178
  0
LINE
  5
DB
330
1F
100
AcDbEntity
  8
0
  6
SLD-実線
 62
     7
370
    25
100
AcDbLine
 10
763.784902307
 20
738.3532681686
 30
0.0
 11
766.1183793625
 21
740.6308133108
 31
0.0
  0
LINE
  5
DC
330
1F
100
AcDbEntity
  8
0
  6
SLD-実線
 62
     7
370
    25
100
AcDbLine
 10
766.1183793625
 20
886.3492623493
 30
0.0
 11
766.1183793625
 21
740.6308133108
 31
0.0
  0
LINE
  5
DD
330
1F
100
AcDbEntity
  8
0
  6
SLD-実線
 62
     7
370
    25
100
AcDbLine
 10
339.998808322
 20
1032.7899726916
 30
0.0
 11
751.2532322992
 21
921.019832371
 31
0.0
  0
LINE
  5
DE
330
1F
100
AcDbEntity
  8
0
  6
SLD-実線
 62
     7
370
    25
100
AcDbLine
 10
767.8360892131
 20
900.4410956286
 30
0.0
 11
767.8360892131
 21
778.2947472317
 31
0.0
  0
ARC
  5
DF
330
1F
100
AcDbEntity
  8
0
  6
SLD-実線
 62
     7
370
    25
100
AcDbCircle
 10
755.9361758286
 20
778.0567133358
 30
0.0
 40
11.90229384169221
100
AcDbArc
 50
328.8131733906
 51
1.1459343123
  0
ARC
  5
E0
330
1F
100
AcDbEntity
  8
0
  6
SLD-実線
 62
     7
370
    25
100
AcDbCircle
 10
321.5785806317
 20
1010.5427968077
 30
0.0
 40
21.58603604497491
100
AcDbArc
 50
71.7699039836
 51
131.1400824669
  0
ARC
  5
E1
330
1F
100
AcDbEntity
  8
0
  6
SLD-実線
 62
     7
370
    25
100
AcDbCircle
 10
335.7631140169
 20
1019.58009717
 30
0.0
 40
13.87234362114674
100
AcDbArc
 50
72.2217574827
 51
123.7269570663
  0
LINE
  5
E2
330
1F
100
AcDbEntity
  8
0
  6
SLD-実線
 62
     8
370
    25
100
AcDbLine
 10
673.9884868321
 20
912.0992407145
 30
0.0
 11
674.6180078836
 21
912.6221438581
 31
0.0
  0
SPLINE
  5
E3
330
1F
100
AcDbEntity
  8
0
  6
SLD-実線
 62
     8
370
    25
100
AcDbSpline
210
0.0
220
0.0
230
1.0
 70
     8
 71
     3
 72
     9
 73
     5
 74
     0
 42
0.000000001
 43
0.00000001
 40
0.0
 40
0.0
 40
0.0
 40
0.0
 40
0.0844374988768272
 40
1.0
 40
1.0
 40
1.0
 40
1.0
 10
671.4661671710055
 20
912.3558460647915
 30
0.0
 10
671.4902014452257
 20
912.4277130516897
 30
0.0
 10
671.7748412621311
 20
913.2788394807536
 30
0.0
 10
672.0512879425927
 20
914.1354341792709
 30
0.0
 10
672.3043921567835
 20
914.919700163894
 30
0.0
  0
SPLINE
  5
E4
330
1F
100
AcDbEntity
  8
0
  6
SLD-実線
 62
     8
370
    25
100
AcDbSpline
210
0.0
220
0.0
230
1.0
 70
     8
 71
     3
 72
     9
 73
     5
 74
     0
 42
0.000000001
 43
0.00000001
 40
0.0
 40
0.0
 40
0.0
 40
0.0
 40
0.7151802833860029
 40
0.9999999999999999
 40
0.9999999999999999
 40
0.9999999999999999
 40
0.9999999999999999
 10
668.4326760891922
 20
914.303184504166
 30
0.0
 10
668.9132607543758
 20
913.6361589125971
 30
0.0
 10
669.5852377038915
 20
912.7034911544608
 30
0.0
 10
670.2771442108718
 20
911.7826910541094
 30
0.0
 10
670.4742128261133
 20
911.520429030469
 30
0.0
  0
LINE
  5
E5
330
1F
100
AcDbEntity
  8
0
  6
SLD-実線
 62
     8
370
    25
100
AcDbLine
 10
364.4420935064
 20
996.2273815074
 30
0.0
 11
365.0716557418
 21
996.7502095942
 31
0.0
  0
SPLINE
  5
E6
330
1F
100
AcDbEntity
  8
0
  6
SLD-実線
 62
     8
370
    25
100
AcDbSpline
210
0.0
220
0.0
230
1.0
 70
     8
 71
     3
 72
     9
 73
     5
 74
     0
 42
0.000000001
 43
0.00000001
 40
0.0
 40
0.0
 40
0.0
 40
0.0
 40
0.0844374988768272
 40
1.0
 40
1.0
 40
1.0
 40
1.0
 10
361.9198315028079
 20
996.4839073237554
 30
0.0
 10
361.9438657770282
 20
996.5557743106534
 30
0.0
 10
362.2285055939334
 20
997.4069007397173
 30
0.0
 10
362.5049522743952
 20
998.2634954382345
 30
0.0
 10
362.758056488586
 20
999.0477614228578
 30
0.0
  0
SPLINE
  5
E7
330
1F
100
AcDbEntity
  8
0
  6
SLD-実線
 62
     8
370
    25
100
AcDbSpline
210
0.0
220
0.0
230
1.0
 70
     8
 71
     3
 72
     9
 73
     5
 74
     0
 42
0.000000001
 43
0.00000001
 40
0.0
 40
0.0
 40
0.0
 40
0.0
 40
0.7151851611552306
 40
1.0
 40
1.0
 40
1.0
 40
1.0
 10
358.8863239474234
 20
998.4312502402934
 30
0.0
 10
359.3669192145565
 20
997.7642262448064
 30
0.0
 10
360.0389064050581
 20
996.8315670794378
 30
0.0
 10
360.7307929054508
 20
995.91075729542
 30
0.0
 10
360.927852447559
 20
995.6484970051783
 30
0.0
  0
ARC
  5
E8
330
1F
100
AcDbEntity
  8
0
  6
SLD-実線
 62
     8
370
    25
100
AcDbCircle
 10
701.2012618946
 20
694.5439994778
 30
0.0
 40
19.42436262975274
100
AcDbArc
 50
315.4230346949
 51
1.842853527
  0
LWPOLYLINE
  5
E9
330
1F
100
AcDbEntity
  8
0
  6
SLD-実線
 62
     8
370
    25
100
AcDbPolyline
 90
        6
 70
   128
 43
0.0
 10
692.9163099868
 20
677.6687555986
 10
692.9387289218
 20
677.2725758283
 10
693.0051207854
 20
676.9353787612
 10
693.1129385639
 20
676.670129516
 10
693.2580401006
 20
676.4870228879
 10
693.4272165657
 20
676.3950839603
  0
LWPOLYLINE
  5
EA
330
1F
100
AcDbEntity
  8
0
  6
SLD-実線
 62
     8
370
    25
100
AcDbPolyline
 90
        6
 70
   128
 43
0.0
 10
281.6618860096
 20
789.4388959192
 10
281.6843049447
 20
789.042716149
 10
281.7506968082
 20
788.7055190818
 10
281.8585145867
 20
788.4402698366
 10
282.0036161234
 20
788.2571632085
 10
282.1729620996
 20
788.1651801755
  0
ARC
  5
EB
330
1F
100
AcDbEntity
  8
0
  6
SLD-実線
 62
     8
370
    25
100
AcDbCircle
 10
276.0691716524
 20
964.9739610884
 30
0.0
 40
21.66907942303617
100
AcDbArc
 50
71.8238221163
 51
129.8797258298
  0
LWPOLYLINE
  5
EC
330
1F
100
AcDbEntity
  8
0
  6
SLD-実線
 62
     8
370
    25
100
AcDbPolyline
 90
        7
 70
   128
 43
0.0
 10
256.0071252715
 20
966.4575287766
 10
256.020500683
 20
966.3238211703
 10
256.1186723948
 20
966.0765273811
 10
256.3086250862
 20
965.8438432732
 10
256.5830678411
 20
965.6347195939
 10
256.931452831
 20
965.4571916386
 10
257.3403875379
 20
965.3180773937
  0
LWPOLYLINE
  5
ED
330
1F
100
AcDbEntity
  8
0
  6
SLD-実線
 62
     8
370
    25
100
AcDbPolyline
 90
        7
 70
   128
 43
0.0
 10
256.0071264793
 20
820.7598328104
 10
256.020500683
 20
820.6268034732
 10
256.1186723948
 20
820.379509684
 10
256.3086250862
 20
820.1468255761
 10
256.5830678411
 20
819.9377018968
 10
256.931452831
 20
819.7601739415
 10
257.3403875379
 20
819.6210596966
  0
LINE
  5
EE
330
1F
100
AcDbEntity
  8
0
  6
SLD-実線
 62
     8
370
    25
100
AcDbLine
 10
764.0835385033
 20
896.7784910961
 30
0.0
 11
767.8360892131
 21
900.4410956286
 31
0.0
  0
LINE
  5
EF
330
1F
100
AcDbEntity
  8
0
  6
SLD-実線
 62
     8
370
    25
100
AcDbLine
 10
751.2532322992
 20
921.019832371
 30
0.0
 11
746.5841196377
 21
916.4626352751
 31
0.0
  0
LINE
  5
F0
330
1F
100
AcDbEntity
  8
0
  6
SLD-実線
 62
     8
370
    25
100
AcDbLine
 10
336.0594737206
 20
1028.9450613548
 30
0.0
 11
339.998808322
 21
1032.7899726916
 31
0.0
  0
LINE
  5
F1
330
1F
100
AcDbEntity
  8
0
  6
SLD-実線
 62
     8
370
    25
100
AcDbLine
 10
767.8360892131
 20
778.2947472317
 30
0.0
 11
766.1184089164
 21
776.6182386041
 31
0.0
  0
ENDSEC
  0
SECTION
  2
OBJECTS
  0
DICTIONARY
  5
C
330
0
100
AcDbDictionary
281
     1
  3
ACAD_GROUP
350
D
  3
ACAD_LAYOUT
350
1A
  3
ACAD_MLINESTYLE
350
17
  3
ACAD_PLOTSETTINGS
350
19
  3
ACAD_PLOTSTYLENAME
350
E
  3
ACAD_SCALELIST
350
47
  0
DICTIONARY
  5
D
102
{ACAD_REACTORS
330
C
102
}
330
C
100
AcDbDictionary
281
     1
  0
DICTIONARY
  5
1A
102
{ACAD_REACTORS
330
C
102
}
330
C
100
AcDbDictionary
281
     1
  3
Layout1
350
1E
  3
Layout2
350
26
  3
Model
350
22
  0
DICTIONARY
  5
17
102
{ACAD_REACTORS
330
C
102
}
330
C
100
AcDbDictionary
281
     1
  3
Standard
350
18
  0
DICTIONARY
  5
19
102
{ACAD_REACTORS
330
C
102
}
330
C
100
AcDbDictionary
281
     1
  0
ACDBDICTIONARYWDFLT
  5
E
102
{ACAD_REACTORS
330
C
102
}
330
C
100
AcDbDictionary
281
     1
  3
Normal
350
F
100
AcDbDictionaryWithDefault
340
F
  0
DICTIONARY
  5
47
102
{ACAD_REACTORS
330
C
102
}
330
C
100
AcDbDictionary
281
     1
  3
A0
350
48
  3
A1
350
49
  3
A2
350
4A
  3
A3
350
4B
  3
A4
350
4C
  3
A5
350
4D
  3
A6
350
4E
  3
A7
350
4F
  3
A8
350
50
  3
A9
350
51
  3
B0
350
52
  3
B1
350
53
  3
B2
350
54
  3
B3
350
55
  3
B4
350
56
  3
B5
350
57
  3
B6
350
58
  3
B7
350
59
  3
B8
350
5A
  3
B9
350
5B
  3
C0
350
5C
  3
C1
350
5D
  3
C2
350
5E
  3
C3
350
5F
  3
C4
350
60
  3
C5
350
61
  3
C6
350
62
  3
C7
350
63
  3
C8
350
64
  3
C9
350
65
  3
D0
350
66
  3
D1
350
67
  3
D2
350
68
  0
LAYOUT
  5
1E
102
{ACAD_REACTORS
330
1A
102
}
330
1A
100
AcDbPlotSettings
  1

  2
none_device
  4

  6

 40
0.0
 41
0.0
 42
0.0
 43
0.0
 44
0.0
 45
0.0
 46
0.0
 47
0.0
 48
0.0
 49
0.0
140
0.0
141
0.0
142
1.0
143
1.0
 70
   688
 72
     1
 73
     0
 74
     5
  7

 75
    16
147
1.0
148
0.0
149
0.0
100
AcDbLayout
  1
Layout1
 70
     1
 71
     1
 10
0.0
 20
0.0
 11
420.0
 21
297.0
 12
0.0
 22
0.0
 32
0.0
 14
1.0000000000E+20
 24
1.0000000000E+20
 34
1.0000000000E+20
 15
-1.0000000000E+20
 25
-1.0000000000E+20
 35
-1.0000000000E+20
146
0.0
 13
0.0
 23
0.0
 33
0.0
 16
1.0
 26
0.0
 36
0.0
 17
0.0
 27
1.0
 37
0.0
 76
     0
330
1B
  0
LAYOUT
  5
26
102
{ACAD_REACTORS
330
1A
102
}
330
1A
100
AcDbPlotSettings
  1

  2
none_device
  4

  6

 40
0.0
 41
0.0
 42
0.0
 43
0.0
 44
0.0
 45
0.0
 46
0.0
 47
0.0
 48
0.0
 49
0.0
140
0.0
141
0.0
142
1.0
143
1.0
 70
   688
 72
     1
 73
     0
 74
     5
  7

 75
    16
147
1.0
148
0.0
149
0.0
100
AcDbLayout
  1
Layout2
 70
     1
 71
     2
 10
0.0
 20
0.0
 11
0.0
 21
0.0
 12
0.0
 22
0.0
 32
0.0
 14
0.0
 24
0.0
 34
0.0
 15
0.0
 25
0.0
 35
0.0
146
0.0
 13
0.0
 23
0.0
 33
0.0
 16
1.0
 26
0.0
 36
0.0
 17
0.0
 27
1.0
 37
0.0
 76
     0
330
23
  0
LAYOUT
  5
22
102
{ACAD_REACTORS
330
1A
102
}
330
1A
100
AcDbPlotSettings
  1

  2
none_device
  4
Letter_(8.50_x_11.00_Inches)
  6

 40
6.35
 41
6.35
 42
6.35000508
 43
6.35000508
 44
215.9
 45
279.4
 46
0.0
 47
0.0
 48
0.0
 49
0.0
140
0.0
141
0.0
142
1.0
143
1.0
 70
  1712
 72
     1
 73
     0
 74
     0
  7

 75
     0
147
1.0
148
0.0
149
0.0
100
AcDbLayout
  1
Model
 70
     1
 71
     0
 10
0.0
 20
0.0
 11
1050.0
 21
1485.0
 12
0.0
 22
0.0
 32
0.0
 14
0.0
 24
0.0
 34
0.0
 15
1050.0
 25
1485.0
 35
0.0
146
0.0
 13
0.0
 23
0.0
 33
0.0
 16
1.0
 26
0.0
 36
0.0
 17
0.0
 27
1.0
 37
0.0
 76
     0
330
1F
331
29
  0
MLINESTYLE
  5
18
102
{ACAD_REACTORS
330
17
102
}
330
17
100
AcDbMlineStyle
  2
Standard
 70
     0
  3

 62
   256
 51
90.0
 52
90.0
 71
     2
 49
0.5
 62
   256
  6
BYLAYER
 49
-0.5
 62
   256
  6
BYLAYER
  0
ACDBPLACEHOLDER
  5
F
102
{ACAD_REACTORS
330
E
102
}
330
E
  0
SCALE
  5
48
102
{ACAD_REACTORS
330
47
102
}
330
47
100
AcDbScale
 70
     0
300
1:1
140
1.0
141
1.0
290
     1
  0
SCALE
  5
49
102
{ACAD_REACTORS
330
47
102
}
330
47
100
AcDbScale
 70
     0
300
1:2
140
1.0
141
2.0
290
     0
  0
SCALE
  5
4A
102
{ACAD_REACTORS
330
47
102
}
330
47
100
AcDbScale
 70
     0
300
1:4
140
1.0
141
4.0
290
     0
  0
SCALE
  5
4B
102
{ACAD_REACTORS
330
47
102
}
330
47
100
AcDbScale
 70
     0
300
1:5
140
1.0
141
5.0
290
     0
  0
SCALE
  5
4C
102
{ACAD_REACTORS
330
47
102
}
330
47
100
AcDbScale
 70
     0
300
1:8
140
1.0
141
8.0
290
     0
  0
SCALE
  5
4D
102
{ACAD_REACTORS
330
47
102
}
330
47
100
AcDbScale
 70
     0
300
1:10
140
1.0
141
10.0
290
     0
  0
SCALE
  5
4E
102
{ACAD_REACTORS
330
47
102
}
330
47
100
AcDbScale
 70
     0
300
1:16
140
1.0
141
16.0
290
     0
  0
SCALE
  5
4F
102
{ACAD_REACTORS
330
47
102
}
330
47
100
AcDbScale
 70
     0
300
1:20
140
1.0
141
20.0
290
     0
  0
SCALE
  5
50
102
{ACAD_REACTORS
330
47
102
}
330
47
100
AcDbScale
 70
     0
300
1:30
140
1.0
141
30.0
290
     0
  0
SCALE
  5
51
102
{ACAD_REACTORS
330
47
102
}
330
47
100
AcDbScale
 70
     0
300
1:40
140
1.0
141
40.0
290
     0
  0
SCALE
  5
52
102
{ACAD_REACTORS
330
47
102
}
330
47
100
AcDbScale
 70
     0
300
1:50
140
1.0
141
50.0
290
     0
  0
SCALE
  5
53
102
{ACAD_REACTORS
330
47
102
}
330
47
100
AcDbScale
 70
     0
300
1:100
140
1.0
141
100.0
290
     0
  0
SCALE
  5
54
102
{ACAD_REACTORS
330
47
102
}
330
47
100
AcDbScale
 70
     0
300
2:1
140
2.0
141
1.0
290
     0
  0
SCALE
  5
55
102
{ACAD_REACTORS
330
47
102
}
330
47
100
AcDbScale
 70
     0
300
4:1
140
4.0
141
1.0
290
     0
  0
SCALE
  5
56
102
{ACAD_REACTORS
330
47
102
}
330
47
100
AcDbScale
 70
     0
300
8:1
140
8.0
141
1.0
290
     0
  0
SCALE
  5
57
102
{ACAD_REACTORS
330
47
102
}
330
47
100
AcDbScale
 70
     0
300
10:1
140
10.0
141
1.0
290
     0
  0
SCALE
  5
58
102
{ACAD_REACTORS
330
47
102
}
330
47
100
AcDbScale
 70
     0
300
100:1
140
100.0
141
1.0
290
     0
  0
SCALE
  5
59
102
{ACAD_REACTORS
330
47
102
}
330
47
100
AcDbScale
 70
     0
300
1/128" = 1'-0"
140
0.0078125
141
12.0
290
     0
  0
SCALE
  5
5A
102
{ACAD_REACTORS
330
47
102
}
330
47
100
AcDbScale
 70
     0
300
1/64" = 1'-0"
140
0.015625
141
12.0
290
     0
  0
SCALE
  5
5B
102
{ACAD_REACTORS
330
47
102
}
330
47
100
AcDbScale
 70
     0
300
1/32" = 1'-0"
140
0.03125
141
12.0
290
     0
  0
SCALE
  5
5C
102
{ACAD_REACTORS
330
47
102
}
330
47
100
AcDbScale
 70
     0
300
1/16" = 1'-0"
140
0.0625
141
12.0
290
     0
  0
SCALE
  5
5D
102
{ACAD_REACTORS
330
47
102
}
330
47
100
AcDbScale
 70
     0
300
3/32" = 1'-0"
140
0.09375
141
12.0
290
     0
  0
SCALE
  5
5E
102
{ACAD_REACTORS
330
47
102
}
330
47
100
AcDbScale
 70
     0
300
1/8" = 1'-0"
140
0.125
141
12.0
290
     0
  0
SCALE
  5
5F
102
{ACAD_REACTORS
330
47
102
}
330
47
100
AcDbScale
 70
     0
300
3/16" = 1'-0"
140
0.1875
141
12.0
290
     0
  0
SCALE
  5
60
102
{ACAD_REACTORS
330
47
102
}
330
47
100
AcDbScale
 70
     0
300
1/4" = 1'-0"
140
0.25
141
12.0
290
     0
  0
SCALE
  5
61
102
{ACAD_REACTORS
330
47
102
}
330
47
100
AcDbScale
 70
     0
300
3/8" = 1'-0"
140
0.375
141
12.0
290
     0
  0
SCALE
  5
62
102
{ACAD_REACTORS
330
47
102
}
330
47
100
AcDbScale
 70
     0
300
1/2" = 1'-0"
140
0.5
141
12.0
290
     0
  0
SCALE
  5
63
102
{ACAD_REACTORS
330
47
102
}
330
47
100
AcDbScale
 70
     0
300
3/4" = 1'-0"
140
0.75
141
12.0
290
     0
  0
SCALE
  5
64
102
{ACAD_REACTORS
330
47
102
}
330
47
100
AcDbScale
 70
     0
300
1" = 1'-0"
140
1.0
141
12.0
290
     0
  0
SCALE
  5
65
102
{ACAD_REACTORS
330
47
102
}
330
47
100
AcDbScale
 70
     0
300
1-1/2" = 1'-0"
140
1.5
141
12.0
290
     0
  0
SCALE
  5
66
102
{ACAD_REACTORS
330
47
102
}
330
47
100
AcDbScale
 70
     0
300
3" = 1'-0"
140
3.0
141
12.0
290
     0
  0
SCALE
  5
67
102
{ACAD_REACTORS
330
47
102
}
330
47
100
AcDbScale
 70
     0
300
6" = 1'-0"
140
6.0
141
12.0
290
     0
  0
SCALE
  5
68
102
{ACAD_REACTORS
330
47
102
}
330
47
100
AcDbScale
 70
     0
300
1'-0" = 1'-0"
140
12.0
141
12.0
290
     0
  0
ENDSEC
  0
EOF
