  0
SECTION
  2
HEADER
  9
$ACADVER
  1
AC1015
  9
$ACADMAINTVER
 70
     6
  9
$DWGCODEPAGE
  3
DOS932
  9
$INSBASE
 10
0.0
 20
0.0
 30
0.0
  9
$EXTMIN
 10
0.0
 20
0.0
 30
0.0
  9
$EXTMAX
 10
210.0
 20
297.0
 30
0.0
  9
$LIMMIN
 10
0.0
 20
0.0
  9
$LIMMAX
 10
210.0
 20
297.0
  9
$ORTHOMODE
 70
     0
  9
$REGENMODE
 70
     1
  9
$FILLMODE
 70
     1
  9
$QTEXTMODE
 70
     0
  9
$MIRRTEXT
 70
     1
  9
$LTSCALE
 40
1.0
  9
$ATTMODE
 70
     1
  9
$TEXTSIZE
 40
3.5
  9
$TRACEWID
 40
1.0
  9
$TEXTSTYLE
  7
STANDARD
  9
$CLAYER
  8
0
  9
$CELTYPE
  6
ByLayer
  9
$CECOLOR
 62
   256
  9
$CELTSCALE
 40
1.0
  9
$DISPSILH
 70
     0
  9
$DIMSCALE
 40
1.0
  9
$DIMASZ
 40
3.302
  9
$DIMEXO
 40
1.0
  9
$DIMDLI
 40
3.75
  9
$DIMRND
 40
0.0
  9
$DIMDLE
 40
0.0
  9
$DIMEXE
 40
1.0
  9
$DIMTP
 40
0.0
  9
$DIMTM
 40
0.0
  9
$DIMTXT
 40
3.5
  9
$DIMCEN
 40
2.5
  9
$DIMTSZ
 40
0.0
  9
$DIMTOL
 70
     0
  9
$DIMLIM
 70
     0
  9
$DIMTIH
 70
     1
  9
$DIMTOH
 70
     1
  9
$DIMSE1
 70
     0
  9
$DIMSE2
 70
     0
  9
$DIMTAD
 70
     1
  9
$DIMZIN
 70
     1
  9
$DIMBLK
  1

  9
$DIMASO
 70
     1
  9
$DIMSHO
 70
     1
  9
$DIMPOST
  1

  9
$DIMAPOST
  1

  9
$DIMALT
 70
     0
  9
$DIMALTD
 70
     3
  9
$DIMALTF
 40
0.0393700787
  9
$DIMLFAC
 40
1.0
  9
$DIMTOFL
 70
     1
  9
$DIMTVP
 40
0.0
  9
$DIMTIX
 70
     0
  9
$DIMSOXD
 70
     0
  9
$DIMSAH
 70
     0
  9
$DIMBLK1
  1

  9
$DIMBLK2
  1

  9
$DIMSTYLE
  2
ISO-25
  9
$DIMCLRD
 70
     0
  9
$DIMCLRE
 70
     0
  9
$DIMCLRT
 70
     0
  9
$DIMTFAC
 40
1.0
  9
$DIMGAP
 40
1.524
  9
$DIMJUST
 70
     0
  9
$DIMSD1
 70
     0
  9
$DIMSD2
 70
     0
  9
$DIMTOLJ
 70
     0
  9
$DIMTZIN
 70
     1
  9
$DIMALTZ
 70
     0
  9
$DIMALTTZ
 70
     0
  9
$DIMUPT
 70
     0
  9
$DIMDEC
 70
     2
  9
$DIMTDEC
 70
     2
  9
$DIMALTU
 70
     2
  9
$DIMALTTD
 70
     3
  9
$DIMTXSTY
  7
STANDARD
  9
$DIMAUNIT
 70
     0
  9
$DIMADEC
 70
     2
  9
$DIMALTRND
 40
0.0
  9
$DIMAZIN
 70
     0
  9
$DIMDSEP
 70
    44
  9
$DIMATFIT
 70
     3
  9
$DIMFRAC
 70
     0
  9
$DIMLDRBLK
  1

  9
$DIMLUNIT
 70
     2
  9
$DIMLWD
 70
    -2
  9
$DIMLWE
 70
    -2
  9
$DIMTMOVE
 70
     0
  9
$LUNITS
 70
     2
  9
$LUPREC
 70
     2
  9
$SKETCHINC
 40
1.0
  9
$FILLETRAD
 40
10.0
  9
$AUNITS
 70
     0
  9
$AUPREC
 70
     2
  9
$MENU
  1
.
  9
$ELEVATION
 40
0.0
  9
$PELEVATION
 40
0.0
  9
$THICKNESS
 40
0.0
  9
$LIMCHECK
 70
     0
  9
$CHAMFERA
 40
0.0
  9
$CHAMFERB
 40
0.0
  9
$CHAMFERC
 40
0.0
  9
$CHAMFERD
 40
0.0
  9
$SKPOLY
 70
     0
  9
$TDCREATE
 40
2458876.43893963
  9
$TDUCREATE
 40
2458876.06393963
  9
$TDUPDATE
 40
2458876.438939896
  9
$TDUUPDATE
 40
2458876.063939896
  9
$TDINDWG
 40
0.0000000116
  9
$TDUSRTIMER
 40
0.0000000116
  9
$USRTIMER
 70
     1
  9
$ANGBASE
 50
0.0
  9
$ANGDIR
 70
     0
  9
$PDMODE
 70
     0
  9
$PDSIZE
 40
-1.0
  9
$PLINEWID
 40
0.0
  9
$SPLFRAME
 70
     0
  9
$SPLINETYPE
 70
     6
  9
$SPLINESEGS
 70
     8
  9
$HANDSEED
  5
CE
  9
$SURFTAB1
 70
     6
  9
$SURFTAB2
 70
     6
  9
$SURFTYPE
 70
     6
  9
$SURFU
 70
     6
  9
$SURFV
 70
     6
  9
$UCSBASE
  2

  9
$UCSNAME
  2

  9
$UCSORG
 10
0.0
 20
0.0
 30
0.0
  9
$UCSXDIR
 10
1.0
 20
0.0
 30
0.0
  9
$UCSYDIR
 10
0.0
 20
1.0
 30
0.0
  9
$UCSORTHOREF
  2

  9
$UCSORTHOVIEW
 70
     0
  9
$UCSORGTOP
 10
0.0
 20
0.0
 30
0.0
  9
$UCSORGBOTTOM
 10
0.0
 20
0.0
 30
0.0
  9
$UCSORGLEFT
 10
0.0
 20
0.0
 30
0.0
  9
$UCSORGRIGHT
 10
0.0
 20
0.0
 30
0.0
  9
$UCSORGFRONT
 10
0.0
 20
0.0
 30
0.0
  9
$UCSORGBACK
 10
0.0
 20
0.0
 30
0.0
  9
$PUCSBASE
  2

  9
$PUCSNAME
  2

  9
$PUCSORG
 10
0.0
 20
0.0
 30
0.0
  9
$PUCSXDIR
 10
1.0
 20
0.0
 30
0.0
  9
$PUCSYDIR
 10
0.0
 20
1.0
 30
0.0
  9
$PUCSORTHOREF
  2

  9
$PUCSORTHOVIEW
 70
     0
  9
$PUCSORGTOP
 10
0.0
 20
0.0
 30
0.0
  9
$PUCSORGBOTTOM
 10
0.0
 20
0.0
 30
0.0
  9
$PUCSORGLEFT
 10
0.0
 20
0.0
 30
0.0
  9
$PUCSORGRIGHT
 10
0.0
 20
0.0
 30
0.0
  9
$PUCSORGFRONT
 10
0.0
 20
0.0
 30
0.0
  9
$PUCSORGBACK
 10
0.0
 20
0.0
 30
0.0
  9
$USERI1
 70
     0
  9
$USERI2
 70
     0
  9
$USERI3
 70
     0
  9
$USERI4
 70
     0
  9
$USERI5
 70
     0
  9
$USERR1
 40
0.0
  9
$USERR2
 40
0.0
  9
$USERR3
 40
0.0
  9
$USERR4
 40
0.0
  9
$USERR5
 40
0.0
  9
$WORLDVIEW
 70
     1
  9
$SHADEDGE
 70
     3
  9
$SHADEDIF
 70
    70
  9
$TILEMODE
 70
     1
  9
$MAXACTVP
 70
    64
  9
$PINSBASE
 10
0.0
 20
0.0
 30
0.0
  9
$PLIMCHECK
 70
     0
  9
$PEXTMIN
 10
1.0000000000E+20
 20
1.0000000000E+20
 30
1.0000000000E+20
  9
$PEXTMAX
 10
-1.0000000000E+20
 20
-1.0000000000E+20
 30
-1.0000000000E+20
  9
$PLIMMIN
 10
0.0
 20
0.0
  9
$PLIMMAX
 10
420.0
 20
297.0
  9
$UNITMODE
 70
     0
  9
$VISRETAIN
 70
     1
  9
$PLINEGEN
 70
     0
  9
$PSLTSCALE
 70
     1
  9
$TREEDEPTH
 70
  3020
  9
$CMLSTYLE
  2
Standard
  9
$CMLJUST
 70
     0
  9
$CMLSCALE
 40
20.0
  9
$PROXYGRAPHICS
 70
     1
  9
$MEASUREMENT
 70
     1
  9
$CELWEIGHT
370
    -1
  9
$ENDCAPS
280
     0
  9
$JOINSTYLE
280
     0
  9
$LWDISPLAY
290
     1
  9
$INSUNITS
 70
     4
  9
$HYPERLINKBASE
  1

  9
$STYLESHEET
  1

  9
$XEDIT
290
     1
  9
$CEPSNTYPE
380
     0
  9
$PSTYLEMODE
290
     1
  9
$FINGERPRINTGUID
  2
{FE873B40-BEA0-4A67-A694-16C758897860}
  9
$VERSIONGUID
  2
{FAEB1C32-E019-11D5-929B-00C0DF256EC4}
  9
$EXTNAMES
290
     1
  9
$PSVPSCALE
 40
0.0
  9
$OLESTARTUP
290
     0
  0
ENDSEC
  0
SECTION
  2
CLASSES
  0
CLASS
  1
ACDBDICTIONARYWDFLT
  2
AcDbDictionaryWithDefault
  3
ObjectDBX Classes
 90
        0
280
     0
281
     0
  0
CLASS
  1
VISUALSTYLE
  2
AcDbVisualStyle
  3
ObjectDBX Classes
 90
     4095
280
     0
281
     0
  0
CLASS
  1
MATERIAL
  2
AcDbMaterial
  3
ObjectDBX Classes
 90
     1153
280
     0
281
     0
  0
CLASS
  1
SCALE
  2
AcDbScale
  3
ObjectDBX Classes
 90
     1153
280
     0
281
     0
  0
CLASS
  1
TABLESTYLE
  2
AcDbTableStyle
  3
ObjectDBX Classes
 90
     4095
280
     0
281
     0
  0
CLASS
  1
MLEADERSTYLE
  2
AcDbMLeaderStyle
  3
ACDB_MLEADERSTYLE_CLASS
 90
     4095
280
     0
281
     0
  0
CLASS
  1
SUN
  2
AcDbSun
  3
SCENEOE
 90
     1153
280
     0
281
     0
  0
CLASS
  1
ACDBPLACEHOLDER
  2
AcDbPlaceHolder
  3
ObjectDBX Classes
 90
        0
280
     0
281
     0
  0
CLASS
  1
LAYOUT
  2
AcDbLayout
  3
ObjectDBX Classes
 90
        0
280
     0
281
     0
  0
ENDSEC
  0
SECTION
  2
TABLES
  0
TABLE
  2
VPORT
  5
8
330
0
100
AcDbSymbolTable
 70
     1
  0
VPORT
  5
29
330
8
100
AcDbSymbolTableRecord
100
AcDbViewportTableRecord
  2
*Active
 70
     0
 10
0.0
 20
0.0
 11
1.0
 21
1.0
 12
105.0
 22
148.5
 13
0.0
 23
0.0
 14
10.0
 24
10.0
 15
10.0
 25
10.0
 16
0.0
 26
0.0
 36
1.0
 17
0.0
 27
0.0
 37
0.0
 40
297.0
 41
0.7070707071
 42
50.0
 43
0.0
 44
0.0
 50
0.0
 51
0.0
 71
     0
 72
  2000
 73
     1
 74
     3
 75
     0
 76
     0
 77
     0
 78
     0
281
     0
 65
     1
110
0.0
120
0.0
130
0.0
111
1.0
121
0.0
131
0.0
112
0.0
122
1.0
132
0.0
 79
     0
146
0.0
  0
ENDTAB
  0
TABLE
  2
LTYPE
  5
5
330
0
100
AcDbSymbolTable
 70
     8
  0
LTYPE
  5
14
330
5
100
AcDbSymbolTableRecord
100
AcDbLinetypeTableRecord
  2
ByBlock
 70
     0
  3

 72
    65
 73
     0
 40
0.0
  0
LTYPE
  5
15
330
5
100
AcDbSymbolTableRecord
100
AcDbLinetypeTableRecord
  2
ByLayer
 70
     0
  3

 72
    65
 73
     0
 40
0.0
  0
LTYPE
  5
16
330
5
100
AcDbSymbolTableRecord
100
AcDbLinetypeTableRecord
  2
Continuous
 70
     0
  3
Solid line
 72
    65
 73
     0
 40
0.0
  0
LTYPE
  5
6E
330
5
100
AcDbSymbolTableRecord
100
AcDbLinetypeTableRecord
  2
SLD-実線
 70
     0
  3
SolidWorks Line Style
 72
    65
 73
     0
 40
0.0
  0
LTYPE
  5
6F
330
5
100
AcDbSymbolTableRecord
100
AcDbLinetypeTableRecord
  2
SLD-破線
 70
     0
  3
SolidWorks Line Style
 72
    65
 73
     2
 40
1.905
 49
1.27
 74
     0
 49
-0.635
 74
     0
  0
LTYPE
  5
70
330
5
100
AcDbSymbolTableRecord
100
AcDbLinetypeTableRecord
  2
SLD-2点鎖線
 70
     0
  3
SolidWorks Line Style
 72
    65
 73
     6
 40
12.7
 49
6.35
 74
     0
 49
-1.27
 74
     0
 49
1.27
 74
     0
 49
-1.27
 74
     0
 49
1.27
 74
     0
 49
-1.27
 74
     0
  0
LTYPE
  5
71
330
5
100
AcDbSymbolTableRecord
100
AcDbLinetypeTableRecord
  2
SLD-鎖線
 70
     0
  3
SolidWorks Line Style
 72
    65
 73
     4
 40
10.16
 49
6.35
 74
     0
 49
-1.27
 74
     0
 49
1.27
 74
     0
 49
-1.27
 74
     0
  0
LTYPE
  5
72
330
5
100
AcDbSymbolTableRecord
100
AcDbLinetypeTableRecord
  2
SLD-1点鎖線(中心線)
 70
     0
  3
SolidWorks Line Style
 72
    65
 73
     4
 40
34.29
 49
30.48
 74
     0
 49
-1.27
 74
     0
 49
1.27
 74
     0
 49
-1.27
 74
     0
  0
LTYPE
  5
73
330
5
100
AcDbSymbolTableRecord
100
AcDbLinetypeTableRecord
  2
SLD-点線
 70
     0
  3
SolidWorks Line Style
 72
    65
 73
     2
 40
0.635
 49
0.0
 74
     0
 49
-0.635
 74
     0
  0
LTYPE
  5
74
330
5
100
AcDbSymbolTableRecord
100
AcDbLinetypeTableRecord
  2
SLD-細-太鎖線(切断面)
 70
     0
  3
SolidWorks Line Style
 72
    65
 73
     4
 40
10.16
 49
6.35
 74
     0
 49
-1.27
 74
     0
 49
1.27
 74
     0
 49
-1.27
 74
     0
  0
ENDTAB
  0
TABLE
  2
LAYER
  5
2
330
0
100
AcDbSymbolTable
 70
     1
  0
LAYER
  5
10
330
2
100
AcDbSymbolTableRecord
100
AcDbLayerTableRecord
  2
0
 70
     0
 62
     7
  6
Continuous
370
    -3
390
F
  0
ENDTAB
  0
TABLE
  2
STYLE
  5
3
330
0
100
AcDbSymbolTable
 70
     2
  0
STYLE
  5
11
330
3
100
AcDbSymbolTableRecord
100
AcDbTextStyleTableRecord
  2
STANDARD
 70
     0
 40
0.0
 41
1.0
 50
0.0
 71
     0
 42
3.5
  3
MSGOTHIC.TTC
  4

1001
ACAD
1000
ＭＳ Ｐゴシック
1071
    32818
  0
STYLE
  5
75
330
3
100
AcDbSymbolTableRecord
100
AcDbTextStyleTableRecord
  2
SLDTEXTSTYLE0
 70
     0
 40
0.0
 41
1.0
 50
0.0
 71
     0
 42
3.5
  3
MSGOTHIC.TTC
  4

1001
ACAD
1000
ＭＳ Ｐゴシック
1071
      306
  0
ENDTAB
  0
TABLE
  2
VIEW
  5
6
330
0
100
AcDbSymbolTable
 70
     0
  0
ENDTAB
  0
TABLE
  2
UCS
  5
7
330
0
100
AcDbSymbolTable
 70
     0
  0
ENDTAB
  0
TABLE
  2
APPID
  5
9
330
0
100
AcDbSymbolTable
 70
     1
  0
APPID
  5
12
330
9
100
AcDbSymbolTableRecord
100
AcDbRegAppTableRecord
  2
ACAD
 70
     0
  0
ENDTAB
  0
TABLE
  2
DIMSTYLE
  5
A
330
0
100
AcDbSymbolTable
 70
     1
100
AcDbDimStyleTable
  0
DIMSTYLE
105
27
330
A
100
AcDbSymbolTableRecord
100
AcDbDimStyleTableRecord
  2
ISO-25
 70
     0
 41
2.5
 42
0.625
 43
3.75
 44
1.25
 73
     0
 74
     0
 77
     1
 78
     8
140
2.5
141
2.5
143
0.0393700787
147
0.625
171
     3
172
     1
178
     0
271
     2
272
     2
274
     3
278
    44
283
     0
284
     8
340
11
  0
ENDTAB
  0
TABLE
  2
BLOCK_RECORD
  5
1
330
0
100
AcDbSymbolTable
 70
     1
  0
BLOCK_RECORD
  5
1F
330
1
100
AcDbSymbolTableRecord
100
AcDbBlockTableRecord
  2
*Model_Space
340
22
  0
BLOCK_RECORD
  5
1B
330
1
100
AcDbSymbolTableRecord
100
AcDbBlockTableRecord
  2
*Paper_Space
340
1E
  0
BLOCK_RECORD
  5
23
330
1
100
AcDbSymbolTableRecord
100
AcDbBlockTableRecord
  2
*Paper_Space0
340
26
  0
ENDTAB
  0
ENDSEC
  0
SECTION
  2
BLOCKS
  0
BLOCK
  5
20
330
1F
100
AcDbEntity
  8
0
100
AcDbBlockBegin
  2
*Model_Space
 70
     0
 10
0.0
 20
0.0
 30
0.0
  3
*Model_Space
  1

  0
ENDBLK
  5
21
330
1F
100
AcDbEntity
  8
0
100
AcDbBlockEnd
  0
BLOCK
  5
1C
330
1B
100
AcDbEntity
 67
     1
  8
0
100
AcDbBlockBegin
  2
*Paper_Space
 70
     0
 10
0.0
 20
0.0
 30
0.0
  3
*Paper_Space
  1

  0
ENDBLK
  5
1D
330
1B
100
AcDbEntity
 67
     1
  8
0
100
AcDbBlockEnd
  0
BLOCK
  5
24
330
23
100
AcDbEntity
  8
0
100
AcDbBlockBegin
  2
*Paper_Space0
 70
     0
 10
0.0
 20
0.0
 30
0.0
  3
*Paper_Space0
  1

  0
ENDBLK
  5
25
330
23
100
AcDbEntity
  8
0
100
AcDbBlockEnd
  0
ENDSEC
  0
SECTION
  2
ENTITIES
  0
MTEXT
  5
76
330
1F
100
AcDbEntity
  8
0
  6
Continuous
 62
     7
370
     0
100
AcDbMText
 10
150.3856230905
 20
95.7099112338
 30
0.0
 40
3.5
 41
0.0
 71
     1
 72
     1
  1
HIC-C20N
  7
SLDTEXTSTYLE0
 73
     1
 44
1.0
  0
SPLINE
  5
77
330
1F
100
AcDbEntity
  8
0
  6
SLD-実線
 62
     7
370
    25
100
AcDbSpline
210
0.0
220
0.0
230
1.0
 70
     8
 71
     3
 72
    29
 73
    25
 74
     0
 42
0.000000001
 43
0.00000001
 40
0.0
 40
0.0
 40
0.0
 40
0.0
 40
0.0351075581312968
 40
0.0727269370876966
 40
0.1127673127604162
 40
0.157900429856693
 40
0.2081297150788045
 40
0.2625806469313328
 40
0.3169558738761194
 40
0.3705575413169713
 40
0.4233662949516526
 40
0.4754409354030621
 40
0.5267679301392044
 40
0.577286981293517
 40
0.6269406546730198
 40
0.6755228641577287
 40
0.7229029422256172
 40
0.7690602172298854
 40
0.8143806517231457
 40
0.8594597079297297
 40
0.9044399172885735
 40
0.9495207575990039
 40
0.9945551904289555
 40
1.0
 40
1.0
 40
1.0
 40
1.0
 10
102.0921913855336
 20
140.672859101447
 30
0.0
 10
102.0297840470559
 20
140.5668014294102
 30
0.0
 10
101.9005043471603
 20
140.3470980363961
 30
0.0
 10
101.8253821267161
 20
139.9783537082504
 30
0.0
 10
101.8580397016723
 20
139.5708715659056
 30
0.0
 10
102.0317432934246
 20
139.1520492297165
 30
0.0
 10
102.3746397586901
 20
138.7274153419388
 30
0.0
 10
102.9091054997276
 20
138.3370670074303
 30
0.0
 10
103.60437939725
 20
138.0135516740689
 30
0.0
 10
104.4062371384419
 20
137.774550832781
 30
0.0
 10
105.2810148816587
 20
137.6264455759502
 30
0.0
 10
106.1985511227995
 20
137.5763358971398
 30
0.0
 10
107.1207853629725
 20
137.617895308946
 30
0.0
 10
108.0154607090848
 20
137.7451946637913
 30
0.0
 10
108.8523940096103
 20
137.9531167205668
 30
0.0
 10
109.6009395875607
 20
138.2359468423489
 30
0.0
 10
110.2460554796323
 20
138.5779468850929
 30
0.0
 10
110.7794815736989
 20
138.9675642757122
 30
0.0
 10
111.1965458749728
 20
139.3992327106512
 30
0.0
 10
111.4837783030711
 20
139.8699666069029
 30
0.0
 10
111.6365449418549
 20
140.3734670559963
 30
0.0
 10
111.6335111816057
 20
140.8808663321304
 30
0.0
 10
111.5654697494707
 20
141.2456746472891
 30
0.0
 10
111.4622689558755
 20
141.4216003983335
 30
0.0
 10
111.4511374760439
 20
141.4405761627769
 30
0.0
  0
SPLINE
  5
78
330
1F
100
AcDbEntity
  8
0
  6
SLD-実線
 62
     7
370
    25
100
AcDbSpline
210
0.0
220
0.0
230
1.0
 70
     8
 71
     3
 72
    29
 73
    25
 74
     0
 42
0.000000001
 43
0.00000001
 40
0.0
 40
0.0
 40
0.0
 40
0.0
 40
0.0066197612450087
 40
0.0447267879869306
 40
0.0869061133621076
 40
0.1325911554270061
 40
0.1814789666522208
 40
0.233593649566952
 40
0.2868817492515767
 40
0.3398256799218792
 40
0.3924894070770129
 40
0.44502457923427
 40
0.4968513981180194
 40
0.5477777488530428
 40
0.59785182633558
 40
0.6471318447029899
 40
0.6951863298219523
 40
0.7419198605843551
 40
0.7874742674554889
 40
0.8327458449679563
 40
0.8779034325695759
 40
0.9230633218584458
 40
0.9681857559024593
 40
1.0
 40
1.0
 40
1.0
 40
1.0
 10
102.0910010467556
 20
142.2024064908711
 30
0.0
 10
102.0763717251205
 20
142.1832818028812
 30
0.0
 10
101.9775278933042
 20
142.0540647762575
 30
0.0
 10
101.8750208214684
 20
141.7756174895913
 30
0.0
 10
101.8169798816707
 20
141.3590843833285
 30
0.0
 10
101.9138119948613
 20
140.9185020571558
 30
0.0
 10
102.1763287436276
 20
140.4823668293163
 30
0.0
 10
102.6178583161035
 20
140.075240657128
 30
0.0
 10
103.2176559755992
 20
139.7205690572717
 30
0.0
 10
103.9455252705842
 20
139.4379898144396
 30
0.0
 10
104.7739605660652
 20
139.2423676439598
 30
0.0
 10
105.6671382370239
 20
139.1392790440786
 30
0.0
 10
106.5876179504826
 20
139.1258061339622
 30
0.0
 10
107.4994374239945
 20
139.2008837376809
 30
0.0
 10
108.3698366488745
 20
139.3645161231546
 30
0.0
 10
109.1680058357708
 20
139.6060537555591
 30
0.0
 10
109.8753159959562
 20
139.9114833341762
 30
0.0
 10
110.4763224347457
 20
140.2697412561385
 30
0.0
 10
110.9600963011846
 20
140.6748242869874
 30
0.0
 10
111.3204599685696
 20
141.122474892016
 30
0.0
 10
111.5578172134385
 20
141.6085896901791
 30
0.0
 10
111.6532243900797
 20
142.1143883362047
 30
0.0
 10
111.6254770894838
 20
142.5784949432938
 30
0.0
 10
111.5017528700704
 20
142.85520290591
 30
0.0
 10
111.4505914135028
 20
142.9696249849372
 30
0.0
  0
SPLINE
  5
79
330
1F
100
AcDbEntity
  8
0
  6
SLD-実線
 62
     7
370
    25
100
AcDbSpline
210
0.0
220
0.0
230
1.0
 70
     8
 71
     3
 72
    28
 73
    24
 74
     0
 42
0.000000001
 43
0.00000001
 40
0.0
 40
0.0
 40
0.0
 40
0.0
 40
0.0213198212809434
 40
0.0644039392403987
 40
0.1115875326332203
 40
0.160699236651553
 40
0.2116057037062574
 40
0.2638573093086677
 40
0.3163988111430631
 40
0.369327640716554
 40
0.4227759635030945
 40
0.4759293903805996
 40
0.5281172021739735
 40
0.579510403056017
 40
0.6301692311573303
 40
0.679634249921858
 40
0.7276949477498484
 40
0.7744911537411746
 40
0.8206991848257262
 40
0.8667367714350414
 40
0.912610462439328
 40
0.9585464383771071
 40
1.0
 40
1.0
 40
1.0
 40
1.0
 10
102.0986386836717
 20
143.7441947489084
 30
0.0
 10
102.0561354303288
 20
143.6822727299105
 30
0.0
 10
101.9277395629459
 20
143.4952157233518
 30
0.0
 10
101.8270508676077
 20
143.1371737403391
 30
0.0
 10
101.8394068249457
 20
142.6849977583831
 30
0.0
 10
102.0301147934959
 20
142.2370981360112
 30
0.0
 10
102.380987792849
 20
141.8160614009096
 30
0.0
 10
102.88471620658
 20
141.4401546637198
 30
0.0
 10
103.5298143609482
 20
141.1250755386081
 30
0.0
 10
104.2967219839852
 20
140.8873111154201
 30
0.0
 10
105.1494006764236
 20
140.7318021258714
 30
0.0
 10
106.0541607296281
 20
140.6635739809996
 30
0.0
 10
106.9730480748595
 20
140.6878687044118
 30
0.0
 10
107.8681725589852
 20
140.8042617744697
 30
0.0
 10
108.709205888485
 20
141.0001051990528
 30
0.0
 10
109.4715770595399
 20
141.2655488159596
 30
0.0
 10
110.1340371828669
 20
141.5916323203446
 30
0.0
 10
110.6811193117755
 20
141.9701918647203
 30
0.0
 10
111.1144092629071
 20
142.3922484621393
 30
0.0
 10
111.4314390300473
 20
142.8542060382203
 30
0.0
 10
111.6159284005644
 20
143.3489577400208
 30
0.0
 10
111.6636319282539
 20
143.8432189411161
 30
0.0
 10
111.575945264119
 20
144.1616386960121
 30
0.0
 10
111.5343507593684
 20
144.3126823254897
 30
0.0
  0
SPLINE
  5
7A
330
1F
100
AcDbEntity
  8
0
  6
SLD-実線
 62
     7
370
    25
100
AcDbSpline
210
0.0
220
0.0
230
1.0
 70
     8
 71
     3
 72
    22
 73
    18
 74
     0
 42
0.000000001
 43
0.00000001
 40
0.0
 40
0.0
 40
0.0
 40
0.0
 40
0.0351220928262644
 40
0.1199163241002663
 40
0.2054622432162496
 40
0.2896171065032002
 40
0.3716407966228318
 40
0.4515594736485838
 40
0.5333602514079417
 40
0.5811510436650589
 40
0.6342220551637296
 40
0.6926419448723679
 40
0.7564108151036888
 40
0.8254611371773118
 40
0.8997423081032216
 40
0.9794193114771883
 40
1.0
 40
1.0
 40
1.0
 40
1.0
 10
101.8764682300157
 20
144.3401931928019
 30
0.0
 10
101.8810011053012
 20
144.2694975497546
 30
0.0
 10
101.8964775674964
 20
144.028123503906
 30
0.0
 10
102.1245431449496
 20
143.6471229826555
 30
0.0
 10
102.5285942200956
 20
143.2223324842988
 30
0.0
 10
103.0962372354201
 20
142.8655878165036
 30
0.0
 10
103.7711301940409
 20
142.5852449797135
 30
0.0
 10
104.531296437033
 20
142.3786007390892
 30
0.0
 10
105.2447181909775
 20
142.2669247842913
 30
0.0
 10
105.8945721446307
 20
142.2207824513172
 30
0.0
 10
106.4737050858755
 20
142.2163334240119
 30
0.0
 10
107.1156574932967
 20
142.2535248135567
 30
0.0
 10
107.8089871584585
 20
142.343669478463
 30
0.0
 10
108.5386829173362
 20
142.4970701369298
 30
0.0
 10
109.268410024521
 20
142.7319578989256
 30
0.0
 10
109.8053650804434
 20
142.9551061724858
 30
0.0
 10
110.0508360331624
 20
143.1173990394898
 30
0.0
 10
110.1012257950224
 20
143.150714178529
 30
0.0
  0
SPLINE
  5
7B
330
1F
100
AcDbEntity
  8
0
  6
SLD-実線
 62
     7
370
    25
100
AcDbSpline
210
0.0
220
0.0
230
1.0
 70
     8
 71
     3
 72
    19
 73
    15
 74
     0
 42
0.000000001
 43
0.00000001
 40
0.0
 40
0.0
 40
0.0
 40
0.0
 40
0.0596938092588748
 40
0.1457397978289046
 40
0.2316311255821017
 40
0.3173815174715786
 40
0.4030282059904082
 40
0.4886143068399453
 40
0.5741835837503342
 40
0.6597743927368577
 40
0.7454226456805856
 40
0.831175708662432
 40
0.9170836120252945
 40
1.0
 40
1.0
 40
1.0
 40
1.0
 10
103.3429078686648
 20
143.8724971099302
 30
0.0
 10
103.4512009931561
 20
143.8174588343839
 30
0.0
 10
103.7155938718411
 20
143.683085316417
 30
0.0
 10
104.1990385835675
 20
143.5105244639152
 30
0.0
 10
104.7729041423079
 20
143.3527971864332
 30
0.0
 10
105.3821788321631
 20
143.2378893574905
 30
0.0
 10
106.0137437735515
 20
143.1658294301619
 30
0.0
 10
106.657607844617
 20
143.1380756129877
 30
0.0
 10
107.3026975144827
 20
143.1548832693755
 30
0.0
 10
107.9380139783287
 20
143.2160774501264
 30
0.0
 10
108.5532071186561
 20
143.3204917547113
 30
0.0
 10
109.1363590592994
 20
143.4675180080173
 30
0.0
 10
109.6767160464769
 20
143.6494462020388
 30
0.0
 10
109.991278399507
 20
143.8002352712515
 30
0.0
 10
110.1457726011377
 20
143.8742938375047
 30
0.0
  0
LINE
  5
7C
330
1F
100
AcDbEntity
  8
0
  6
SLD-実線
 62
     7
370
    25
100
AcDbLine
 10
102.8202075995
 20
143.4780093869
 30
0.0
 11
102.9250614526
 21
143.4061654855
 31
0.0
  0
LINE
  5
7D
330
1F
100
AcDbEntity
  8
0
  6
SLD-実線
 62
     7
370
    25
100
AcDbLine
 10
110.414068982
 20
143.3136989869
 30
0.0
 11
110.65387516
 21
143.4780093085
 31
0.0
  0
LINE
  5
7E
330
1F
100
AcDbEntity
  8
0
  6
SLD-実線
 62
     7
370
    25
100
AcDbLine
 10
102.1370411945
 20
139.0618063213
 30
0.0
 11
102.1370411945
 21
138.9942223061
 31
0.0
  0
LINE
  5
7F
330
1F
100
AcDbEntity
  8
0
  6
SLD-実線
 62
     7
370
    25
100
AcDbLine
 10
102.1370411945
 20
140.5980661849
 30
0.0
 11
102.1370411945
 21
140.1510792715
 31
0.0
  0
LINE
  5
80
330
1F
100
AcDbEntity
  8
0
  6
SLD-実線
 62
     7
370
    25
100
AcDbLine
 10
102.1370411945
 20
142.1469379794
 30
0.0
 11
102.1370411945
 21
141.6937758221
 31
0.0
  0
LINE
  5
81
330
1F
100
AcDbEntity
  8
0
  6
SLD-実線
 62
     7
370
    25
100
AcDbLine
 10
102.1370411945
 20
143.6695996135
 30
0.0
 11
102.1370411945
 21
143.237425542
 31
0.0
  0
LINE
  5
82
330
1F
100
AcDbEntity
  8
0
  6
SLD-実線
 62
     7
370
    25
100
AcDbLine
 10
111.3370413743
 20
144.0089439173
 30
0.0
 11
111.3370413743
 21
144.1249088589
 31
0.0
  0
LINE
  5
83
330
1F
100
AcDbEntity
  8
0
  6
SLD-実線
 62
     7
370
    25
100
AcDbLine
 10
111.3370413743
 20
142.4656494406
 30
0.0
 11
111.3370413743
 21
142.753706148
 31
0.0
  0
LINE
  5
84
330
1F
100
AcDbEntity
  8
0
  6
SLD-実線
 62
     7
370
    25
100
AcDbLine
 10
111.3370413743
 20
140.9223330106
 30
0.0
 11
111.3370413743
 21
141.2051512783
 31
0.0
  0
LINE
  5
85
330
1F
100
AcDbEntity
  8
0
  6
SLD-実線
 62
     7
370
    25
100
AcDbLine
 10
111.3370413743
 20
139.2707244924
 30
0.0
 11
111.3370413743
 21
139.6713980743
 31
0.0
  0
SPLINE
  5
86
330
1F
100
AcDbEntity
  8
0
  6
SLD-実線
 62
     7
370
    25
100
AcDbSpline
210
0.0
220
0.0
230
1.0
 70
     8
 71
     3
 72
    31
 73
    27
 74
     0
 42
0.000000001
 43
0.00000001
 40
0.0
 40
0.0
 40
0.0
 40
0.0
 40
0.0157759047127137
 40
0.0547216616298658
 40
0.0933329795351786
 40
0.1326196759219492
 40
0.1735326899466438
 40
0.2167751171941207
 40
0.2624545776113364
 40
0.3098381221017307
 40
0.3576924455894401
 40
0.4052330727398766
 40
0.4523626056602061
 40
0.4992014819924811
 40
0.5459401863204878
 40
0.5927786116446822
 40
0.6398836053920823
 40
0.6874987144858582
 40
0.7358752406428625
 40
0.7852041332827558
 40
0.8353831457465789
 40
0.878416224026621
 40
0.9190806772907401
 40
0.957866870964683
 40
0.9954930257753954
 40
1.0
 40
1.0
 40
1.0
 40
1.0
 10
102.147607401821
 20
138.9895233855798
 30
0.0
 10
102.1450600574687
 20
138.9327856851706
 30
0.0
 10
102.1362241194836
 20
138.7359804115595
 30
0.0
 10
102.2103428751388
 20
138.4042615089114
 30
0.0
 10
102.3601277702381
 20
138.0132536262723
 30
0.0
 10
102.58529523359
 20
137.6507796126982
 30
0.0
 10
102.8774181214252
 20
137.3161690841155
 30
0.0
 10
103.23997635296
 20
137.009851081056
 30
0.0
 10
103.6728728879928
 20
136.7355970451813
 30
0.0
 10
104.1704344370959
 20
136.5001991461684
 30
0.0
 10
104.7195738371814
 20
136.3102619688929
 30
0.0
 10
105.3046109137018
 20
136.1694463020665
 30
0.0
 10
105.9121706526788
 20
136.0786141229926
 30
0.0
 10
106.5318024562745
 20
136.0375434261225
 30
0.0
 10
107.1540252784697
 20
136.0459763988698
 30
0.0
 10
107.769549544133
 20
136.103835154462
 30
0.0
 10
108.3694892819318
 20
136.2113089380751
 30
0.0
 10
108.9454940482087
 20
136.3691647378496
 30
0.0
 10
109.4896485870875
 20
136.5793328177817
 30
0.0
 10
109.9929530935877
 20
136.8450766538871
 30
0.0
 10
110.4213989279858
 20
137.1544646439892
 30
0.0
 10
110.7656112258315
 20
137.4955614708033
 30
0.0
 10
111.023897818107
 20
137.851310842508
 30
0.0
 10
111.2078183936804
 20
138.2291674223992
 30
0.0
 10
111.286326048914
 20
138.5104028289133
 30
0.0
 10
111.3102690628075
 20
138.6598397230246
 30
0.0
 10
111.3128302432597
 20
138.6758249642205
 30
0.0
  0
LINE
  5
87
330
1F
100
AcDbEntity
  8
0
  6
SLD-実線
 62
     7
370
    25
100
AcDbLine
 10
103.9397181183
 20
136.6212445985
 30
0.0
 11
104.4112655704
 21
135.8660586747
 31
0.0
  0
LINE
  5
88
330
1F
100
AcDbEntity
  8
0
  6
SLD-実線
 62
     7
370
    25
100
AcDbLine
 10
109.0628169472
 20
135.866058701
 30
0.0
 11
109.529732027
 21
136.6138253009
 31
0.0
  0
SPLINE
  5
89
330
1F
100
AcDbEntity
  8
0
  6
SLD-実線
 62
     7
370
    25
100
AcDbSpline
210
0.0
220
0.0
230
1.0
 70
     8
 71
     3
 72
    10
 73
     6
 74
     0
 42
0.000000001
 43
0.00000001
 40
0.0
 40
0.0
 40
0.0
 40
0.0
 40
0.349143080183399
 40
0.9226191381847809
 40
0.9999999999999999
 40
0.9999999999999999
 40
0.9999999999999999
 40
0.9999999999999999
 10
111.3379013880406
 20
138.8680850223602
 30
0.0
 10
111.3574925128806
 20
138.9588209747776
 30
0.0
 10
111.409262539961
 20
139.1985929507187
 30
0.0
 10
111.4031350981367
 20
139.462566937992
 30
0.0
 10
111.3440642981287
 20
139.6270503951816
 30
0.0
 10
111.337041326914
 20
139.6466059553734
 30
0.0
  0
SPLINE
  5
8A
330
1F
100
AcDbEntity
  8
0
  6
SLD-実線
 62
     7
370
    25
100
AcDbSpline
210
0.0
220
0.0
230
1.0
 70
     8
 71
     3
 72
     9
 73
     5
 74
     0
 42
0.000000001
 43
0.00000001
 40
0.0
 40
0.0
 40
0.0
 40
0.0
 40
0.4537919600362095
 40
1.0
 40
1.0
 40
1.0
 40
1.0
 10
111.261240077618
 20
138.6104983326335
 30
0.0
 10
111.2801813761244
 20
138.6488796850998
 30
0.0
 10
111.3219214248131
 20
138.7334588664129
 30
0.0
 10
111.3322563621659
 20
138.8205274577458
 30
0.0
 10
111.3379013880406
 20
138.8680850223602
 30
0.0
  0
LINE
  5
8B
330
1F
100
AcDbEntity
  8
0
  6
SLD-実線
 62
     7
370
    25
100
AcDbLine
 10
81.7370414116
 20
192.2071687572
 30
0.0
 11
81.7370414116
 21
191.0928515627
 31
0.0
  0
LINE
  5
8C
330
1F
100
AcDbEntity
  8
0
  6
SLD-実線
 62
     7
370
    25
100
AcDbLine
 10
131.7370411572
 20
191.0928516817
 30
0.0
 11
131.7370411572
 21
192.2071688762
 31
0.0
  0
SPLINE
  5
8D
330
1F
100
AcDbEntity
  8
0
  6
SLD-実線
 62
     7
370
    25
100
AcDbSpline
210
0.0
220
0.0
230
1.0
 70
     8
 71
     3
 72
    24
 73
    20
 74
     0
 42
0.000000001
 43
0.00000001
 40
0.0
 40
0.0
 40
0.0
 40
0.0
 40
0.0415408008288691
 40
0.1004649604891701
 40
0.1596372190870494
 40
0.2190939232093062
 40
0.2788300891998665
 40
0.3388102386798704
 40
0.3989825998236304
 40
0.4592920695038739
 40
0.5196889765679014
 40
0.5801332397079724
 40
0.6405950957617896
 40
0.7010491533741278
 40
0.7614845612478509
 40
0.8218952566534904
 40
0.8822786965386963
 40
0.9426345620368148
 40
1.0
 40
1.0
 40
1.0
 40
1.0
 10
81.91422595004266
 20
189.5606995368643
 30
0.0
 10
81.95458988549063
 20
189.3805621976547
 30
0.0
 10
82.05220863859732
 20
188.9449064013
 30
0.0
 10
82.30409614857538
 20
188.2630784035872
 30
0.0
 10
82.65495919092584
 20
187.5164391454007
 30
0.0
 10
83.09132402017642
 20
186.7820963957359
 30
0.0
 10
83.6082122776714
 20
186.0621969548328
 30
0.0
 10
84.20513169957921
 20
185.3594816806109
 30
0.0
 10
84.87976986173406
 20
184.6765991279304
 30
0.0
 10
85.62973010570393
 20
184.0161527535473
 30
0.0
 10
86.45216092657942
 20
183.3805761252843
 30
0.0
 10
87.34395477474324
 20
182.7721278979139
 30
0.0
 10
88.30176926810643
 20
182.1928885868388
 30
0.0
 10
89.32206737309444
 20
181.6447431814026
 30
0.0
 10
90.40125289285531
 20
181.1294843810718
 30
0.0
 10
91.53531329903998
 20
180.6484573676497
 30
0.0
 10
92.72127490113881
 20
180.2040669711895
 30
0.0
 10
93.93146424444103
 20
179.8008577827899
 30
0.0
 10
94.76546441004186
 20
179.5652124153393
 30
0.0
 10
95.17187160529336
 20
179.4503827344715
 30
0.0
  0
SPLINE
  5
8E
330
1F
100
AcDbEntity
  8
0
  6
SLD-実線
 62
     7
370
    25
100
AcDbSpline
210
0.0
220
0.0
230
1.0
 70
     8
 71
     3
 72
    41
 73
    37
 74
     0
 42
0.000000001
 43
0.00000001
 40
0.0
 40
0.0
 40
0.0
 40
0.0
 40
0.0159349855463343
 40
0.0461957597051244
 40
0.0764495093129716
 40
0.106694426113473
 40
0.1369320158679048
 40
0.1671637609166119
 40
0.1973911589806782
 40
0.2276156464667519
 40
0.2578387053419008
 40
0.2880617756553577
 40
0.318285904999649
 40
0.3485124684678619
 40
0.3787428808510798
 40
0.4089787134689473
 40
0.4392214771874308
 40
0.4694727400413595
 40
0.4997340603176319
 40
0.5300070684581633
 40
0.5602932698121638
 40
0.5905940958462268
 40
0.6209106969904647
 40
0.651243795047334
 40
0.6815933186434966
 40
0.711958029046815
 40
0.7423348778169694
 40
0.7727180470179155
 40
0.8030944251757194
 40
0.8334483603365921
 40
0.8637585613905555
 40
0.893998460645546
 40
0.9241384103088711
 40
0.9541504662380321
 40
0.984015425581878
 40
1.0
 40
1.0
 40
1.0
 40
1.0
 10
95.17187160529336
 20
179.4503827344715
 30
0.0
 10
95.39975995964559
 20
179.38984416966
 30
0.0
 10
96.060411682651
 20
179.2143419713809
 30
0.0
 10
97.18248333507216
 20
178.9543174975135
 30
0.0
 10
98.54503661916971
 20
178.6846086807648
 30
0.0
 10
99.93568008823249
 20
178.4573109724441
 30
0.0
 10
101.3489943811743
 20
178.2724761730853
 30
0.0
 10
102.7804222220319
 20
178.130847641004
 30
0.0
 10
104.2251064356142
 20
178.0328259624876
 30
0.0
 10
105.6782098295672
 20
177.9787255546534
 30
0.0
 10
107.1348493011648
 20
177.9687119439218
 30
0.0
 10
108.590128253362
 20
178.0028087258002
 30
0.0
 10
110.0391526149469
 20
178.0809230397843
 30
0.0
 10
111.477049121183
 20
178.2027864351189
 30
0.0
 10
112.8989923231594
 20
178.3680300288715
 30
0.0
 10
114.3002110760631
 20
178.5761242272739
 30
0.0
 10
115.6760086713934
 20
178.8264255025558
 30
0.0
 10
117.0217736319873
 20
179.1181525608951
 30
0.0
 10
118.3329943213036
 20
179.4504084973338
 30
0.0
 10
119.6052790641344
 20
179.8221751549589
 30
0.0
 10
120.834360581711
 20
180.2323284972941
 30
0.0
 10
122.0161100446331
 20
180.6796284096459
 30
0.0
 10
123.1465451035598
 20
181.1627496799374
 30
0.0
 10
124.2218384046272
 20
181.6802573872509
 30
0.0
 10
125.2383093250424
 20
182.230638956928
 30
0.0
 10
126.192440253572
 20
182.8122821923757
 30
0.0
 10
127.0808531247409
 20
183.4234794603992
 30
0.0
 10
127.9002879933627
 20
184.0623879377386
 30
0.0
 10
128.6476322946444
 20
184.727001423388
 30
0.0
 10
129.3199015920409
 20
185.4151272608806
 30
0.0
 10
129.9144520473056
 20
186.1243589947097
 30
0.0
 10
130.4284055559357
 20
186.8520575302917
 30
0.0
 10
130.8610813978383
 20
187.595155136497
 30
0.0
 10
131.2053966037554
 20
188.3509644357742
 30
0.0
 10
131.4380858552373
 20
188.9974076488408
 30
0.0
 10
131.5222230245807
 20
189.3938949805294
 30
0.0
 10
131.5515558603665
 20
189.5321228040034
 30
0.0
  0
LINE
  5
8F
330
1F
100
AcDbEntity
  8
0
  6
SLD-実線
 62
     7
370
    25
100
AcDbLine
 10
128.4870404867
 20
190.0752564251
 30
0.0
 11
128.4870404867
 21
191.4357180195
 31
0.0
  0
LINE
  5
90
330
1F
100
AcDbEntity
  8
0
  6
SLD-実線
 62
     7
370
    25
100
AcDbLine
 10
84.9870420822
 20
191.4357179005
 30
0.0
 11
84.9870420822
 21
190.0752563061
 31
0.0
  0
SPLINE
  5
91
330
1F
100
AcDbEntity
  8
0
  6
SLD-実線
 62
     7
370
    25
100
AcDbSpline
210
0.0
220
0.0
230
1.0
 70
     8
 71
     3
 72
    21
 73
    17
 74
     0
 42
0.000000001
 43
0.00000001
 40
0.0
 40
0.0
 40
0.0
 40
0.0
 40
0.0478734408716341
 40
0.1209377592714999
 40
0.1946484307476948
 40
0.2692055204320769
 40
0.3445417984848364
 40
0.4206240161562375
 40
0.4974510963468126
 40
0.5750530938720418
 40
0.6534892354322289
 40
0.7328454911231072
 40
0.813231088498031
 40
0.8947758353775958
 40
0.9776260187686632
 40
1.0
 40
1.0
 40
1.0
 40
1.0
 10
120.2876074524227
 20
167.0332449575239
 30
0.0
 10
120.5160956936677
 20
167.2622558101152
 30
0.0
 10
121.0933020822819
 20
167.8407824181255
 30
0.0
 10
121.9783864416945
 20
168.824879505025
 30
0.0
 10
122.9323669758943
 20
169.9958579474144
 30
0.0
 10
123.8352320075373
 20
171.2323092898377
 30
0.0
 10
124.6830234289557
 20
172.5306663585672
 30
0.0
 10
125.470361105478
 20
173.8873754456352
 30
0.0
 10
126.1931629924872
 20
175.2985943117447
 30
0.0
 10
126.8480835908237
 20
176.7608408848947
 30
0.0
 10
127.4326944155414
 20
178.2709023126856
 30
0.0
 10
127.9446170952222
 20
179.825975612729
 30
0.0
 10
128.3840097748962
 20
181.4234820744476
 30
0.0
 10
128.7436256121433
 20
183.0617474532622
 30
0.0
 10
128.9707602814049
 20
184.3200541667695
 30
0.0
 10
129.0586824914053
 20
185.0322329618078
 30
0.0
 10
129.0773775305479
 20
185.1836646700159
 30
0.0
  0
SPLINE
  5
92
330
1F
100
AcDbEntity
  8
0
  6
SLD-実線
 62
     7
370
    25
100
AcDbSpline
210
0.0
220
0.0
230
1.0
 70
     8
 71
     3
 72
    21
 73
    17
 74
     0
 42
0.000000001
 43
0.00000001
 40
0.0
 40
0.0
 40
0.0
 40
0.0
 40
0.0019012640979888
 40
0.0862697410277718
 40
0.1692678766107552
 40
0.2510434538448942
 40
0.331759107141756
 40
0.4115616310747964
 40
0.4905788089832196
 40
0.5689152739839284
 40
0.6466501438325256
 40
0.723831544493758
 40
0.8004744228489462
 40
0.8765570182765481
 40
0.9520193278048293
 40
1.0
 40
1.0
 40
1.0
 40
1.0
 10
84.39036751032589
 20
185.1884541044844
 30
0.0
 10
84.39192852962452
 20
185.1755816534771
 30
0.0
 10
84.46275968389438
 20
184.5914949839987
 30
0.0
 10
84.6565742432592
 20
183.4492751454866
 30
0.0
 10
85.0036752032681
 20
181.778134179459
 30
0.0
 10
85.43366896607002
 20
180.1482681464383
 30
0.0
 10
85.93864944922451
 20
178.5610989312624
 30
0.0
 10
86.51929411826382
 20
177.0187251525003
 30
0.0
 10
87.17364797351406
 20
175.523466811483
 30
0.0
 10
87.89991492720503
 20
174.0780698271649
 30
0.0
 10
88.69551440674029
 20
172.6856355415565
 30
0.0
 10
89.55725222619002
 20
171.3497630694095
 30
0.0
 10
90.48067961521797
 20
170.0739417487193
 30
0.0
 10
91.46149943687706
 20
168.8635537508607
 30
0.0
 10
92.36813988486061
 20
167.8535268913623
 30
0.0
 10
92.95742730594469
 20
167.2628379001647
 30
0.0
 10
93.18647561784563
 20
167.0332448162951
 30
0.0
  0
SPLINE
  5
93
330
1F
100
AcDbEntity
  8
0
  6
SLD-実線
 62
     7
370
    25
100
AcDbSpline
210
0.0
220
0.0
230
1.0
 70
     8
 71
     3
 72
    12
 73
     8
 74
     0
 42
0.000000001
 43
0.00000001
 40
0.0
 40
0.0
 40
0.0
 40
0.0
 40
0.166380187886092
 40
0.4288982129353754
 40
0.6846640885625324
 40
0.9326105629237997
 40
1.0
 40
1.0
 40
1.0
 40
1.0
 10
117.5110428758719
 20
163.5958356003768
 30
0.0
 10
117.6618319876194
 20
163.8081579752122
 30
0.0
 10
118.050539209196
 20
164.3554868867257
 30
0.0
 10
118.6799212508864
 20
165.1681993887544
 30
0.0
 10
119.3829152450587
 20
166.0063178838722
 30
0.0
 10
119.8998535288554
 20
166.5746364685612
 30
0.0
 10
120.1788056192064
 20
166.8648992690681
 30
0.0
 10
120.2384195853236
 20
166.926930411164
 30
0.0
  0
SPLINE
  5
94
330
1F
100
AcDbEntity
  8
0
  6
SLD-実線
 62
     7
370
    25
100
AcDbSpline
210
0.0
220
0.0
230
1.0
 70
     8
 71
     3
 72
    12
 73
     8
 74
     0
 42
0.000000001
 43
0.00000001
 40
0.0
 40
0.0
 40
0.0
 40
0.0
 40
0.1694845015490734
 40
0.4026932701077307
 40
0.6422428973916564
 40
0.8898921999657736
 40
0.9999999999999999
 40
0.9999999999999999
 40
0.9999999999999999
 40
0.9999999999999999
 10
93.23566345192478
 20
166.9269304538053
 30
0.0
 10
93.38624108423328
 20
166.768806038574
 30
0.0
 10
93.74401184560188
 20
166.3931042058318
 30
0.0
 10
94.32994240077497
 20
165.7278342906343
 30
0.0
 10
94.9917375369474
 20
164.9186012040375
 30
0.0
 10
95.5395500666189
 20
164.1953516569981
 30
0.0
 10
95.86337502779502
 20
163.7369263538993
 30
0.0
 10
95.96303944762431
 20
163.5958356495185
 30
0.0
  0
LINE
  5
95
330
1F
100
AcDbEntity
  8
0
  6
SLD-実線
 62
     7
370
    25
100
AcDbLine
 10
95.3256221423
 20
164.4647426885
 30
0.0
 11
95.7389279497
 21
152.9725592985
 31
0.0
  0
LINE
  5
96
330
1F
100
AcDbEntity
  8
0
  6
SLD-実線
 62
     7
370
    25
100
AcDbLine
 10
117.7351548523
 20
152.9725592218
 30
0.0
 11
118.1485143307
 21
164.4662511059
 31
0.0
  0
SPLINE
  5
97
330
1F
100
AcDbEntity
  8
0
  6
SLD-実線
 62
     7
370
    25
100
AcDbSpline
210
0.0
220
0.0
230
1.0
 70
     8
 71
     3
 72
    20
 73
    16
 74
     0
 42
0.000000001
 43
0.00000001
 40
0.0
 40
0.0
 40
0.0
 40
0.0
 40
0.0918611528097697
 40
0.1720636948613699
 40
0.2538641757203786
 40
0.3360761860799728
 40
0.4185858963408521
 40
0.5011676973406134
 40
0.5835879144323571
 40
0.6655526965044416
 40
0.7466821847216826
 40
0.8264865277958025
 40
0.904359980873727
 40
0.9796168309659505
 40
1.0
 40
1.0
 40
1.0
 40
1.0
 10
112.3509357842022
 20
147.7912523920043
 30
0.0
 10
112.6174477232773
 20
147.8824809631175
 30
0.0
 10
113.1166470862213
 20
148.0533597790536
 30
0.0
 10
113.8032808125572
 20
148.347317192885
 30
0.0
 10
114.42664981666
 20
148.6561230058447
 30
0.0
 10
115.0113253668656
 20
148.9964108737545
 30
0.0
 10
115.5504995882498
 20
149.3648471259059
 30
0.0
 10
116.039277928247
 20
149.7602028798009
 30
0.0
 10
116.4733131450569
 20
150.1806653861564
 30
0.0
 10
116.8486740467311
 20
150.62424705327
 30
0.0
 10
117.1618386985601
 20
151.0885693249962
 30
0.0
 10
117.4102014776282
 20
151.5705923398301
 30
0.0
 10
117.5911116438172
 20
152.0669469937512
 30
0.0
 10
117.6803403269617
 20
152.456422016735
 30
0.0
 10
117.7097278325678
 20
152.6795923692603
 30
0.0
 10
117.7159910108872
 20
152.7271552938652
 30
0.0
  0
SPLINE
  5
98
330
1F
100
AcDbEntity
  8
0
  6
SLD-実線
 62
     7
370
    25
100
AcDbSpline
210
0.0
220
0.0
230
1.0
 70
     8
 71
     3
 72
    19
 73
    15
 74
     0
 42
0.000000001
 43
0.00000001
 40
0.0
 40
0.0
 40
0.0
 40
0.0
 40
0.076242115061633
 40
0.1565256027831583
 40
0.2398552162149928
 40
0.325336201618115
 40
0.4122126877844621
 40
0.4999145679149345
 40
0.588038152808865
 40
0.6763045633412557
 40
0.7645058684130575
 40
0.852474568812245
 40
0.9371680183801641
 40
1.0
 40
1.0
 40
1.0
 40
1.0
 10
95.75809130864349
 20
152.7271552853394
 30
0.0
 10
95.78625070404605
 20
152.5512450343962
 30
0.0
 10
95.84406214245948
 20
152.1901000419945
 30
0.0
 10
96.02001406507829
 20
151.674566759873
 30
0.0
 10
96.26559195523238
 20
151.1660187972513
 30
0.0
 10
96.58693124027413
 20
150.6736548404895
 30
0.0
 10
96.97953191118893
 20
150.2015524108541
 30
0.0
 10
97.44020259560152
 20
149.7537895592794
 30
0.0
 10
97.96438656796524
 20
149.3332455362155
 30
0.0
 10
98.54736232323535
 20
148.9423507906818
 30
0.0
 10
99.18373465888799
 20
148.5828754037051
 30
0.0
 10
99.86116639916304
 20
148.2608345985527
 30
0.0
 10
100.5103697544043
 20
147.9976131203483
 30
0.0
 10
100.9401153792078
 20
147.8528905701459
 30
0.0
 10
101.1231466639257
 20
147.7912523526463
 30
0.0
  0
LINE
  5
99
330
1F
100
AcDbEntity
  8
0
  6
SLD-実線
 62
     7
370
    25
100
AcDbLine
 10
101.1231466639
 20
147.7912523526
 30
0.0
 11
101.9479366315
 21
147.5242701083
 31
0.0
  0
LINE
  5
9A
330
1F
100
AcDbEntity
  8
0
  6
SLD-実線
 62
     7
370
    25
100
AcDbLine
 10
111.5261457049
 20
147.524270228
 30
0.0
 11
112.3509357842
 21
147.791252392
 31
0.0
  0
SPLINE
  5
9B
330
1F
100
AcDbEntity
  8
0
  6
SLD-実線
 62
     7
370
    25
100
AcDbSpline
210
0.0
220
0.0
230
1.0
 70
     8
 71
     3
 72
    31
 73
    27
 74
     0
 42
0.000000001
 43
0.00000001
 40
0.0
 40
0.0
 40
0.0
 40
0.0
 40
0.0252914975539244
 40
0.0687778655521211
 40
0.1123892135534857
 40
0.1560429810046595
 40
0.1996820904561119
 40
0.2432904824893307
 40
0.2840757241758828
 40
0.3069798870862986
 40
0.3504959943663843
 40
0.3940009350618562
 40
0.4374884323151579
 40
0.4809650306159848
 40
0.5244371767919037
 40
0.5679111407858387
 40
0.6113914566267102
 40
0.6548847520049035
 40
0.698397880386174
 40
0.7419380243112921
 40
0.7855124454126894
 40
0.8291278119191551
 40
0.8727888865231618
 40
0.9164954946865136
 40
0.9602369584844801
 40
1.0
 40
1.0
 40
1.0
 40
1.0
 10
98.66085974562996
 20
148.8884992624312
 30
0.0
 10
98.73485562057367
 20
148.8073321904196
 30
0.0
 10
98.93608049179527
 20
148.5866059185106
 30
0.0
 10
99.34740064348199
 20
148.2523205804683
 30
0.0
 10
99.88236180853023
 20
147.8869275694153
 30
0.0
 10
100.485823950937
 20
147.5523743339571
 30
0.0
 10
101.1472713195185
 20
147.2504878134514
 30
0.0
 10
101.8460715611807
 20
146.9899669742538
 30
0.0
 10
102.4682945163987
 20
146.8015480970008
 30
0.0
 10
103.1133018409391
 20
146.6370739314883
 30
0.0
 10
103.7978029759696
 20
146.494287123789
 30
0.0
 10
104.6381223925918
 20
146.3667299014287
 30
0.0
 10
105.4980845880032
 20
146.2822577253553
 30
0.0
 10
106.3695440907754
 20
146.2416196373317
 30
0.0
 10
107.2443936783873
 20
146.2451578997022
 30
0.0
 10
108.1144660632685
 20
146.2928354582631
 30
0.0
 10
108.9716467850107
 20
146.384232102857
 30
0.0
 10
109.8079471343213
 20
146.5185522038176
 30
0.0
 10
110.6155978795023
 20
146.6946384464642
 30
0.0
 10
111.3870862830614
 20
146.9110014881853
 30
0.0
 10
112.1152935118702
 20
147.1658178824433
 30
0.0
 10
112.7932734036057
 20
147.4570513383198
 30
0.0
 10
113.4152868242363
 20
147.7821729208106
 30
0.0
 10
113.9730799701074
 20
148.1393071486607
 30
0.0
 10
114.4547137880742
 20
148.511383410255
 30
0.0
 10
114.7110087316853
 20
148.7758149917375
 30
0.0
 10
114.8330508471947
 20
148.9017315984287
 30
0.0
  0
LINE
  5
9C
330
1F
100
AcDbEntity
  8
0
  6
SLD-実線
 62
     7
370
    25
100
AcDbLine
 10
98.5191093566
 20
148.9725394256
 30
0.0
 11
98.5373810204
 21
147.9388867237
 31
0.0
  0
LINE
  5
9D
330
1F
100
AcDbEntity
  8
0
  6
SLD-実線
 62
     7
370
    25
100
AcDbLine
 10
114.9367014298
 20
147.9388866836
 30
0.0
 11
114.9549759029
 21
148.972683035
 31
0.0
  0
SPLINE
  5
9E
330
1F
100
AcDbEntity
  8
0
  6
SLD-実線
 62
     7
370
    25
100
AcDbSpline
210
0.0
220
0.0
230
1.0
 70
     8
 71
     3
 72
    25
 73
    21
 74
     0
 42
0.000000001
 43
0.00000001
 40
0.0
 40
0.0
 40
0.0
 40
0.0
 40
0.0732984669748233
 40
0.1029610845744462
 40
0.1520692633222067
 40
0.2028194399884047
 40
0.2570144003429335
 40
0.3132819679154398
 40
0.3710761793293481
 40
0.4299676888133868
 40
0.4896610047554867
 40
0.5499445310110203
 40
0.6106619388982897
 40
0.6716864042145304
 40
0.7328910404820296
 40
0.7940962474858381
 40
0.8548632830826197
 40
0.9144884965402633
 40
0.9718194825983355
 40
1.0
 40
1.0
 40
1.0
 40
1.0
 10
106.7370412558368
 20
143.4732541777683
 30
0.0
 10
107.0198090831469
 20
143.477529847709
 30
0.0
 10
107.4170081431573
 20
143.4835358070767
 30
0.0
 10
107.9987677773981
 20
143.5235154823276
 30
0.0
 10
108.490297688857
 20
143.5711906853308
 30
0.0
 10
109.0657473343514
 20
143.6503055446138
 30
0.0
 10
109.6547125872881
 20
143.7567332723546
 30
0.0
 10
110.2511681869104
 20
143.8933634524354
 30
0.0
 10
110.8410487728287
 20
144.0601096493626
 30
0.0
 10
111.414471942677
 20
144.2566848474551
 30
0.0
 10
111.9631778800838
 20
144.4823301852323
 30
0.0
 10
112.4803537607266
 20
144.7360826372295
 30
0.0
 10
112.9603225592085
 20
145.016918992694
 30
0.0
 10
113.3982897834698
 20
145.3239183478506
 30
0.0
 10
113.7901348290354
 20
145.656340368371
 30
0.0
 10
114.1317544187219
 20
146.0134896435683
 30
0.0
 10
114.4194427517625
 20
146.3940477330963
 30
0.0
 10
114.6481771417425
 20
146.7964544621691
 30
0.0
 10
114.7933855102514
 20
147.1514784303163
 30
0.0
 10
114.853843281423
 20
147.3787846654345
 30
0.0
 10
114.8737672823308
 20
147.4536939706752
 30
0.0
  0
LINE
  5
9F
330
1F
100
AcDbEntity
  8
0
  6
SLD-実線
 62
     7
370
    25
100
AcDbLine
 10
98.6003150804
 20
147.4536940853
 30
0.0
 11
98.6413565396
 21
147.3251047863
 31
0.0
  0
SPLINE
  5
A0
330
1F
100
AcDbEntity
  8
0
  6
SLD-実線
 62
     7
370
    25
100
AcDbSpline
210
0.0
220
0.0
230
1.0
 70
     8
 71
     3
 72
    24
 73
    20
 74
     0
 42
0.000000001
 43
0.00000001
 40
0.0
 40
0.0
 40
0.0
 40
0.0
 40
0.0335327025788386
 40
0.0974255026407035
 40
0.1646461272869584
 40
0.2332020173361499
 40
0.3020545535861636
 40
0.3706653936922017
 40
0.4389524928745167
 40
0.5068491660284874
 40
0.5742615309812639
 40
0.6410160607723678
 40
0.706745086454949
 40
0.7705633450870092
 40
0.8297868344083148
 40
0.879214202147013
 40
0.92126413128981
 40
0.9731664609424283
 40
1.0
 40
1.0
 40
1.0
 40
1.0
 10
98.65977826936175
 20
147.2673869633421
 30
0.0
 10
98.68508859717745
 20
147.1819723870227
 30
0.0
 10
98.75862491306631
 20
146.9338099249843
 30
0.0
 10
98.95116188659131
 20
146.5621483426949
 30
0.0
 10
99.23536117103171
 20
146.1400024960084
 30
0.0
 10
99.5919963662579
 20
145.7427515148399
 30
0.0
 10
100.0105006130107
 20
145.3727535465168
 30
0.0
 10
100.48597977376
 20
145.0329886353448
 30
0.0
 10
101.0126429984814
 20
144.7243661535632
 30
0.0
 10
101.5852793381383
 20
144.4478328878743
 30
0.0
 10
102.1976277286608
 20
144.2045469002387
 30
0.0
 10
102.8418357501359
 20
143.9958499591757
 30
0.0
 10
103.5066827627512
 20
143.82324242127
 30
0.0
 10
104.1712797962216
 20
143.6887729049073
 30
0.0
 10
104.795883832716
 20
143.5940985490621
 30
0.0
 10
105.3516863305835
 20
143.533480938661
 30
0.0
 10
105.8861919051302
 20
143.4940440423872
 30
0.0
 10
106.339843858507
 20
143.4756289968206
 30
0.0
 10
106.6360819713226
 20
143.4738578071828
 30
0.0
 10
106.7370412558368
 20
143.4732541777683
 30
0.0
  0
SPLINE
  5
A1
330
1F
100
AcDbEntity
  8
0
  6
SLD-実線
 62
     7
370
    25
100
AcDbSpline
210
0.0
220
0.0
230
1.0
 70
     8
 71
     3
 72
    27
 73
    23
 74
     0
 42
0.000000001
 43
0.00000001
 40
0.0
 40
0.0
 40
0.0
 40
0.0
 40
0.0176991421279255
 40
0.0722633940132847
 40
0.1252916952682476
 40
0.1798577093101814
 40
0.2208818597503245
 40
0.2739099102127628
 40
0.3284757414150606
 40
0.3815054940939635
 40
0.4360732043433183
 40
0.4891006635652878
 40
0.5436660127911452
 40
0.5966933641788508
 40
0.6512582644733657
 40
0.7042885710978565
 40
0.7588570669448341
 40
0.8118825475472349
 40
0.8664452772615172
 40
0.9194778908680978
 40
0.9740489399986352
 40
1.0
 40
1.0
 40
1.0
 40
1.0
 10
111.3228579638625
 20
144.0087418658897
 30
0.0
 10
111.3267569432031
 20
143.9603948561746
 30
0.0
 10
111.3426759904826
 20
143.7630000340327
 30
0.0
 10
111.2364454163595
 20
143.4208756024728
 30
0.0
 10
111.0042449775912
 20
142.9943141778132
 30
0.0
 10
110.6708623792375
 20
142.6278962153677
 30
0.0
 10
110.2491952574626
 20
142.2920633444036
 30
0.0
 10
109.7452087913641
 20
141.9902476044259
 30
0.0
 10
109.1152971929862
 20
141.7140488274773
 30
0.0
 10
108.4114501279392
 20
141.4943792824502
 30
0.0
 10
107.6664096752582
 20
141.3405735456276
 30
0.0
 10
106.8879611780388
 20
141.2524321894074
 30
0.0
 10
106.1123799903994
 20
141.2310418201471
 30
0.0
 10
105.3476303141922
 20
141.2768189534694
 30
0.0
 10
104.629100072193
 20
141.387546870666
 30
0.0
 10
103.96435084944
 20
141.5607169969146
 30
0.0
 10
103.3841839723368
 20
141.7856304011941
 30
0.0
 10
102.895279182245
 20
142.0582019640741
 30
0.0
 10
102.5178497475325
 20
142.3666124824646
 30
0.0
 10
102.2646299291536
 20
142.7066068275981
 30
0.0
 10
102.1400101594508
 20
143.0010937305137
 30
0.0
 10
102.1498179606279
 20
143.1798127200065
 30
0.0
 10
102.1529788668631
 20
143.2374111519119
 30
0.0
  0
SPLINE
  5
A2
330
1F
100
AcDbEntity
  8
0
  6
SLD-実線
 62
     7
370
    25
100
AcDbSpline
210
0.0
220
0.0
230
1.0
 70
     8
 71
     3
 72
    26
 73
    22
 74
     0
 42
0.000000001
 43
0.00000001
 40
0.0
 40
0.0
 40
0.0
 40
0.0
 40
0.0397790167939861
 40
0.094342875034408
 40
0.1473726360860137
 40
0.2019405950730994
 40
0.2549651823063514
 40
0.309526959450821
 40
0.3625589086838427
 40
0.4171292687680819
 40
0.4701532086968334
 40
0.5247143730932649
 40
0.5777457786632256
 40
0.6323155061992628
 40
0.6853400242888243
 40
0.7399020419527065
 40
0.792931244576352
 40
0.8474984188810418
 40
0.9005248355574981
 40
0.9550890881099976
 40
1.0
 40
1.0
 40
1.0
 40
1.0
 10
111.3250929363359
 20
142.4659056946633
 30
0.0
 10
111.3229203997507
 20
142.3567388051689
 30
0.0
 10
111.3177678503894
 20
142.0978304900941
 30
0.0
 10
111.1569941529965
 20
141.7012243184575
 30
0.0
 10
110.8698879756201
 20
141.2854400541153
 30
0.0
 10
110.4638614976014
 20
140.9031071331987
 30
0.0
 10
109.9487095598647
 20
140.556314216638
 30
0.0
 10
109.3467724910195
 20
140.2618706170208
 30
0.0
 10
108.6646400716106
 20
140.0218779803577
 30
0.0
 10
107.9339200613571
 20
139.8457689809621
 30
0.0
 10
107.1624428348922
 20
139.7323212480489
 30
0.0
 10
106.3858759266032
 20
139.6869986341414
 30
0.0
 10
105.6121814215297
 20
139.7101538916029
 30
0.0
 10
104.8773189810774
 20
139.7994065146929
 30
0.0
 10
104.1891132370444
 20
139.9510925859525
 30
0.0
 10
103.579399308404
 20
140.1564981165744
 30
0.0
 10
103.0547034781645
 20
140.4142826318449
 30
0.0
 10
102.6382081951832
 20
140.7115043597357
 30
0.0
 10
102.3388227529218
 20
141.0432232423682
 30
0.0
 10
102.1630217231155
 20
141.3732347875389
 30
0.0
 10
102.1508141080477
 20
141.5942418639407
 30
0.0
 10
102.1453026306074
 20
141.6940218380778
 30
0.0
  0
SPLINE
  5
A3
330
1F
100
AcDbEntity
  8
0
  6
SLD-実線
 62
     7
370
    25
100
AcDbSpline
210
0.0
220
0.0
230
1.0
 70
     8
 71
     3
 72
    27
 73
    23
 74
     0
 42
0.000000001
 43
0.00000001
 40
0.0
 40
0.0
 40
0.0
 40
0.0
 40
0.0310601396900202
 40
0.0840901234433265
 40
0.1386582191162685
 40
0.1916846454563928
 40
0.2462483880024253
 40
0.2992810214057495
 40
0.3538520505744036
 40
0.4068773965922959
 40
0.4614399592059186
 40
0.5144732288766769
 40
0.5690449556619741
 40
0.6220704015927309
 40
0.6766332597403769
 40
0.7296646460812165
 40
0.7842341918855475
 40
0.8372610485284887
 40
0.8918256534225099
 40
0.9448546346763319
 40
0.9994213717300653
 40
1.0
 40
1.0
 40
1.0
 40
1.0
 10
111.3204769685317
 20
140.9224340755125
 30
0.0
 10
111.3227346401784
 20
140.8373777303319
 30
0.0
 10
111.3288469078425
 20
140.6071019287015
 30
0.0
 10
111.1928426317089
 20
140.2328484024179
 30
0.0
 10
110.9314904595508
 20
139.8156640175663
 30
0.0
 10
110.5415426178038
 20
139.4224762612727
 30
0.0
 10
110.0487975491028
 20
139.0719566676468
 30
0.0
 10
109.4562406323705
 20
138.7666399497174
 30
0.0
 10
108.7919877820542
 20
138.5187245386357
 30
0.0
 10
108.0629738007059
 20
138.3279906105808
 30
0.0
 10
107.3029257959287
 20
138.2039000331654
 30
0.0
 10
106.5196443117219
 20
138.1472508862487
 30
0.0
 10
105.7495459241002
 20
138.1592549027553
 30
0.0
 10
105.0008355748157
 20
138.2367921984123
 30
0.0
 10
104.308167598272
 20
138.3753546847032
 30
0.0
 10
103.6787103442473
 20
138.5740234813447
 30
0.0
 10
103.1413455873385
 20
138.8224661028767
 30
0.0
 10
102.703176042554
 20
139.1158617526518
 30
0.0
 10
102.3792606669553
 20
139.4380257353839
 30
0.0
 10
102.1926681821916
 20
139.7858361136873
 30
0.0
 10
102.1156875665544
 20
140.0275112222497
 30
0.0
 10
102.1374998382248
 20
140.1497675707338
 30
0.0
 10
102.1377287096258
 20
140.1510503798873
 30
0.0
  0
SPLINE
  5
A4
330
1F
100
AcDbEntity
  8
0
  6
SLD-実線
 62
     7
370
    25
100
AcDbSpline
210
0.0
220
0.0
230
1.0
 70
     8
 71
     3
 72
    16
 73
    12
 74
     0
 42
0.000000001
 43
0.00000001
 40
0.0
 40
0.0
 40
0.0
 40
0.0
 40
0.0076160521545664
 40
0.129982421055524
 40
0.2558852899870818
 40
0.3787971460860289
 40
0.5051736217593299
 40
0.6293161479083141
 40
0.75717193805087
 40
0.8770108075651649
 40
1.0
 40
1.0
 40
1.0
 40
1.0
 10
102.9261984775251
 20
143.4077336690308
 30
0.0
 10
102.9346745186052
 20
143.4011631499918
 30
0.0
 10
103.0793342869732
 20
143.2890247408859
 30
0.0
 10
103.4515559036523
 20
143.0951915340718
 30
0.0
 10
104.0500429988685
 20
142.8503696248719
 30
0.0
 10
104.7405016203645
 20
142.660622050154
 30
0.0
 10
105.4828842263471
 20
142.5309305926092
 30
0.0
 10
106.2746721000163
 20
142.4623579212233
 30
0.0
 10
107.0665290885402
 20
142.4611725742994
 30
0.0
 10
107.8513353645909
 20
142.5209637096135
 30
0.0
 10
108.3390979519404
 20
142.6110665121873
 30
0.0
 10
108.5861432326074
 20
142.656702386541
 30
0.0
  0
SPLINE
  5
A5
330
1F
100
AcDbEntity
  8
0
  6
SLD-実線
 62
     7
370
    25
100
AcDbSpline
210
0.0
220
0.0
230
1.0
 70
     8
 71
     3
 72
    21
 73
    17
 74
     0
 42
0.000000001
 43
0.00000001
 40
0.0
 40
0.0
 40
0.0
 40
0.0
 40
0.5045092724719082
 40
0.7567689304922565
 40
0.8809166759232782
 40
0.9459934623540209
 40
0.9618357903287563
 40
0.968591237626629
 40
0.9739394988590759
 40
0.9762894734389029
 40
0.9785651037265756
 40
0.9808949315858136
 40
0.9833983574486761
 40
0.989272873894028
 40
0.996703947572481
 40
1.0
 40
1.0
 40
1.0
 40
1.0
 10
108.5866033107325
 20
142.6571726161368
 30
0.0
 10
108.8920436219926
 20
142.7327733437218
 30
0.0
 10
109.3502071291744
 20
142.846175187614
 30
0.0
 10
109.7983493579852
 20
143.0168053334055
 30
0.0
 10
110.0240772572591
 20
143.1192528293797
 30
0.0
 10
110.0959327489371
 20
143.1496385078312
 30
0.0
 10
110.1263994875968
 20
143.1632239351635
 30
0.0
 10
110.1348851068455
 20
143.1668361771779
 30
0.0
 10
110.1370644602427
 20
143.167356623997
 30
0.0
 10
110.1366777583561
 20
143.1666286980414
 30
0.0
 10
110.1354532946253
 20
143.1655897935507
 30
0.0
 10
110.133298438701
 20
143.1640468069293
 30
0.0
 10
110.1289993409696
 20
143.1611910902423
 30
0.0
 10
110.1210012538007
 20
143.1562122034782
 30
0.0
 10
110.1119594412255
 20
143.1507363356249
 30
0.0
 10
110.1058400400456
 20
143.1471844650355
 30
0.0
 10
110.1039597724964
 20
143.1460931054708
 30
0.0
  0
ARC
  5
A6
330
1F
100
AcDbEntity
  8
0
  6
SLD-実線
 62
     7
370
    25
100
AcDbCircle
 10
108.1995606311
 20
146.6604033653
 30
0.0
 40
4.021640719877571
100
AcDbArc
 50
275.527074394
 51
323.2030445456
  0
LWPOLYLINE
  5
A7
330
1F
100
AcDbEntity
  8
0
  6
SLD-実線
 62
     7
370
    25
100
AcDbPolyline
 90
       13
 70
   128
 43
0.0
 10
102.0568649424
 20
144.2469758918
 10
102.2669660377
 20
143.9606633631
 10
102.5898019634
 20
143.6503111357
 10
102.9933592328
 20
143.3661198068
 10
103.4697828499
 20
143.1136208156
 10
104.0098003156
 20
142.8977292584
 10
104.6029001593
 20
142.7226466912
 10
105.23753867
 20
142.5917810815
 10
105.901363277
 20
142.5076795893
 10
106.5814534023
 20
142.4719791087
 10
107.2645719334
 20
142.4853748027
 10
107.9374226965
 20
142.5476054472
 10
108.5869093956
 20
142.6574600713
  0
ARC
  5
A8
330
1F
100
AcDbEntity
  8
0
  6
SLD-実線
 62
     7
370
    25
100
AcDbCircle
 10
106.7362024958
 20
151.1183062734
 30
0.0
 40
8.077440271180473
100
AcDbArc
 50
242.974471515
 51
297.1318801894
  0
LWPOLYLINE
  5
A9
330
1F
100
AcDbEntity
  8
0
  6
SLD-実線
 62
     7
370
    25
100
AcDbPolyline
 90
        3
 70
   128
 43
0.0
 10
109.8727495128
 20
143.0038255048
 10
110.2422889101
 20
143.2030486017
 10
110.414068982
 20
143.3136989869
  0
SPLINE
  5
AA
330
1F
100
AcDbEntity
  8
0
  6
SLD-実線
 62
     7
370
    25
100
AcDbSpline
210
0.0
220
0.0
230
1.0
 70
     8
 71
     3
 72
    21
 73
    17
 74
     0
 42
0.000000001
 43
0.00000001
 40
0.0
 40
0.0
 40
0.0
 40
0.0
 40
0.1874640314729879
 40
0.256229859515152
 40
0.2906308226623119
 40
0.3078564974841743
 40
0.3164994553015043
 40
0.3197244426554861
 40
0.322981189471673
 40
0.3253593331790319
 40
0.3277321894514395
 40
0.3316394713734696
 40
0.3416100097254852
 40
0.3800460265069929
 40
0.7129398018797547
 40
1.0
 40
1.0
 40
1.0
 40
1.0
 10
111.2952998458395
 20
138.6887243677703
 30
0.0
 10
111.2788537788336
 20
138.6365400754111
 30
0.0
 10
111.2563749416648
 20
138.5652134652073
 30
0.0
 10
111.2185285673545
 20
138.4977211376075
 30
0.0
 10
111.2019459367533
 20
138.475460252872
 30
0.0
 10
111.193596231777
 20
138.468749760407
 30
0.0
 10
111.1898197261298
 20
138.4689447753849
 30
0.0
 10
111.1882565539682
 20
138.4715145081113
 30
0.0
 10
111.1876361391341
 20
138.4744271126047
 30
0.0
 10
111.1875432872747
 20
138.4784083177884
 30
0.0
 10
111.1878927525696
 20
138.4834281648272
 30
0.0
 10
111.1892931404881
 20
138.4931641970794
 30
0.0
 10
111.1957414957202
 20
138.5218207809587
 30
0.0
 10
111.248033005171
 20
138.6939788847923
 30
0.0
 10
111.3246404742445
 20
138.9363988557273
 30
0.0
 10
111.3235793277732
 20
139.1650512669547
 30
0.0
 10
111.3230879801421
 20
139.2709252661126
 30
0.0
  0
LINE
  5
AB
330
1F
100
AcDbEntity
  8
0
  6
SLD-実線
 62
     7
370
    25
100
AcDbLine
 10
111.3113015077
 20
138.6661723919
 30
0.0
 11
111.3228843845
 21
138.8084918249
 31
0.0
  0
ARC
  5
AC
330
1F
100
AcDbEntity
  8
0
  6
SLD-実線
 62
     7
370
    25
100
AcDbCircle
 10
106.7370412458
 20
138.1654654561
 30
0.0
 40
3.270551029832903
100
AcDbArc
 50
224.6733512724
 51
315.3266493764
  0
ARC
  5
AD
330
1F
100
AcDbEntity
  8
0
  6
SLD-実線
 62
     7
370
    25
100
AcDbCircle
 10
124.9978805661
 20
191.0980667288
 30
0.0
 40
6.739162608871043
100
AcDbArc
 50
347.2529952168
 51
359.9556621144
  0
ARC
  5
AE
330
1F
100
AcDbEntity
  8
0
  6
SLD-実線
 62
     7
370
    25
100
AcDbCircle
 10
88.4890815239
 20
191.099634508
 30
0.0
 40
6.752043519210597
100
AcDbArc
 50
180.0575580128
 51
192.4971132293
  0
LWPOLYLINE
  5
AF
330
1F
100
AcDbEntity
  8
0
  6
SLD-実線
 62
     7
370
    25
100
AcDbPolyline
 90
      103
 70
   128
 43
0.0
 10
95.0696563873
 20
180.8194434769
 10
96.4529253811
 20
180.4711139514
 10
97.87520488
 20
180.1673025995
 10
99.3311006562
 20
179.9091630615
 10
100.8150902464
 20
179.6976744814
 10
102.3215432224
 20
179.5336381668
 10
103.8447461752
 20
179.4176773073
 10
105.3789207908
 20
179.350230977
 10
106.9182451272
 20
179.3315548602
 10
108.4568848673
 20
179.3617214351
 10
109.9889984906
 20
179.4406142297
 10
111.508778454
 20
179.5679361537
 10
113.0104558608
 20
179.7432017225
 10
114.4883367448
 20
179.9657478041
 10
115.9368136023
 20
180.234730486
 10
117.3503938532
 20
180.5491281864
 10
118.7237134754
 20
180.9077487961
 10
120.0515625157
 20
181.3092319653
 10
121.3289057477
 20
181.7520548779
 10
122.5508982985
 20
182.2345372256
 10
123.7129026688
 20
182.7548495976
 10
124.8105101707
 20
183.3110179599
 10
125.8395602472
 20
183.9009322339
 10
126.7961473009
 20
184.5223550166
 10
127.6766447389
 20
185.1729286051
 10
128.4777097829
 20
185.8501858574
 10
129.1963053778
 20
186.5515571876
 10
129.8297057084
 20
187.2743821164
 10
130.3755063048
 20
188.0159191347
 10
130.831639443
 20
188.7733545683
 10
131.1963729909
 20
189.5438158401
 10
131.4683251021
 20
190.3243796459
 10
131.6464619035
 20
191.1120861415
 10
131.7301076185
 20
191.9039467673
 10
131.7189474128
 20
192.6969573051
 10
131.6130224747
 20
193.4881095194
 10
131.4127338564
 20
194.2744031306
 10
131.1188416268
 20
195.0528552645
 10
130.732462467
 20
195.8205124957
 10
130.2550589384
 20
196.574462984
 10
129.6884432338
 20
197.3118463022
 10
129.0347661018
 20
198.0298672933
 10
128.2965053153
 20
198.7257992041
 10
127.4764624197
 20
199.397005179
 10
126.5777476329
 20
200.040935855
 10
125.6037699588
 20
200.6551515739
 10
124.5582250612
 20
201.2373213385
 10
123.4450779195
 20
201.7852362047
 10
122.2685519832
 20
202.2968187367
 10
121.0331093576
 20
202.770127308
 10
119.7434362511
 20
203.2033665641
 10
118.4044261815
 20
203.5948941565
 10
117.0211571877
 20
203.9432236821
 10
115.5988776888
 20
204.247035034
 10
114.1429819126
 20
204.505174572
 10
112.6589923224
 20
204.7166631521
 10
111.1525393465
 20
204.8806994667
 10
109.6293363936
 20
204.9966603262
 10
108.095161778
 20
205.0641066565
 10
106.5558374416
 20
205.0827827733
 10
105.0171977015
 20
205.0526161983
 10
103.4850840782
 20
204.9737234038
 10
101.9653041148
 20
204.8464014797
 10
100.463626708
 20
204.671135911
 10
98.985745824
 20
204.4485898294
 10
97.5372689665
 20
204.1796071475
 10
96.1236887156
 20
203.8652094471
 10
94.7503690934
 20
203.5065888373
 10
93.4225200531
 20
203.1051056682
 10
92.1451768211
 20
202.6622827556
 10
90.9231842703
 20
202.1798004079
 10
89.7611799
 20
201.6594880358
 10
88.6635723981
 20
201.1033196736
 10
87.6345223216
 20
200.5134053996
 10
86.6779352679
 20
199.8919826168
 10
85.7974378299
 20
199.2414090284
 10
84.9963727859
 20
198.5641517761
 10
84.277777191
 20
197.8627804459
 10
83.6443768604
 20
197.1399555171
 10
83.098576264
 20
196.3984184988
 10
82.6424431258
 20
195.6409830652
 10
82.2777095779
 20
194.8705217934
 10
82.0057574668
 20
194.0899579876
 10
81.8276206653
 20
193.302251492
 10
81.7439749504
 20
192.5103908662
 10
81.755135156
 20
191.7173803284
 10
81.8610600941
 20
190.9262281141
 10
82.0613487124
 20
190.1399345029
 10
82.355240942
 20
189.361482369
 10
82.7416201018
 20
188.5938251378
 10
83.2190236304
 20
187.8398746495
 10
83.785639335
 20
187.1024913313
 10
84.439316467
 20
186.3844703402
 10
85.1775772535
 20
185.6885384294
 10
85.9976201491
 20
185.0173324545
 10
86.8963349359
 20
184.3734017785
 10
87.87031261
 20
183.7591860596
 10
88.9158575076
 20
183.177016295
 10
90.0290046493
 20
182.6291014288
 10
91.2055305856
 20
182.1175188968
 10
92.4409732112
 20
181.6442103255
 10
93.7306463177
 20
181.2109710694
 10
95.0696563873
 20
180.8194434769
  0
LWPOLYLINE
  5
B0
330
1F
100
AcDbEntity
  8
0
  6
SLD-実線
 62
     7
370
    25
100
AcDbPolyline
 90
       98
 70
   128
 43
0.0
 10
117.2376879526
 20
202.4561218771
 10
118.5037512912
 20
202.0845541465
 10
119.7204609257
 20
201.6715569868
 10
120.8827138907
 20
201.2188632955
 10
121.9856342041
 20
200.7283709848
 10
123.0245967996
 20
200.202137561
 10
123.9952446417
 20
199.6423711352
 10
124.8935048794
 20
199.0514184392
 10
125.7156102627
 20
198.4317590056
 10
126.4581135575
 20
197.7859914875
 10
127.1179004971
 20
197.1168247153
 10
127.6922017262
 20
196.4270646877
 10
128.1786106944
 20
195.7196042857
 10
128.5750844583
 20
194.9974127496
 10
128.8799637257
 20
194.2635172149
 10
129.0919680296
 20
193.5209969734
 10
129.2102062315
 20
192.7729659753
 10
129.2341860412
 20
192.0225615639
 10
129.1638051409
 20
191.2729317023
 10
128.999357228
 20
190.5272203144
 10
128.7415342011
 20
189.7885550305
 10
128.391415638
 20
189.0600348608
 10
127.9504715597
 20
188.3447143941
 10
127.4205508958
 20
187.645594594
 10
126.8038780841
 20
186.9656071474
 10
126.1030369642
 20
186.3076049105
 10
125.3209668979
 20
185.6743478446
 10
124.460950763
 20
185.068491297
 10
123.5265931973
 20
184.4925771007
 10
122.5218154799
 20
183.9490203559
 10
121.4508303999
 20
183.4401013454
 10
120.3181307383
 20
182.9679542929
 10
119.1284687346
 20
182.5345596555
 10
117.8868305213
 20
182.141735615
 10
116.598426996
 20
181.7911291696
 10
115.2686615394
 20
181.4842113477
 10
113.9031113476
 20
181.222269266
 10
112.5075043474
 20
181.0064020981
 10
111.0876943276
 20
180.8375142745
 10
109.6496350858
 20
180.7163149161
 10
108.1993597693
 20
180.6433120597
 10
106.7429521161
 20
180.6188123384
 10
105.2865188632
 20
180.6429187182
 10
103.836169659
 20
180.7155283648
 10
102.3979873194
 20
180.8363385574
 10
100.9780051327
 20
181.0048420101
 10
99.5821776879
 20
181.2203315457
 10
98.2163608551
 20
181.4819044522
 10
96.8862820252
 20
181.7884618932
 10
95.597521085
 20
182.1387195019
 10
94.3554837338
 20
182.5312081252
 10
93.1653778032
 20
182.964280259
 10
92.0321970053
 20
183.4361209737
 10
90.9606932143
 20
183.9447500237
 10
89.9553606157
 20
184.4880348331
 10
89.0204174245
 20
185.0636965489
 10
88.1597819299
 20
185.6693198058
 10
87.3770671853
 20
186.3023650163
 10
86.675554742
 20
186.9601776786
 10
86.0581867317
 20
187.6399981216
 10
85.5275539214
 20
188.3389745135
 10
85.0858799945
 20
189.0541752692
 10
84.7350191461
 20
189.7826010934
 10
84.4764424001
 20
190.5211962919
 10
84.3112344726
 20
191.2668631831
 10
84.2400872041
 20
192.0164741878
 10
84.2633017541
 20
192.7668842492
 10
84.3807780514
 20
193.5149472586
 10
84.5920239218
 20
194.2575249642
 10
84.8961542965
 20
194.9915026437
 10
85.291891977
 20
195.7138021837
 10
85.7775791525
 20
196.4213933215
 10
86.3511761747
 20
197.1113088938
 10
87.0102798546
 20
197.7806544726
 10
87.7521254499
 20
198.4266226386
 10
88.5735986724
 20
199.0465047005
 10
89.4712560398
 20
199.6377002814
 10
90.441331099
 20
200.1977295596
 10
91.4797575938
 20
200.7242435472
 10
92.5821777061
 20
201.2150341896
 10
93.7439689431
 20
201.6680421078
 10
94.9602579546
 20
202.0813680294
 10
96.2259414097
 20
202.453278775
 10
97.5357129018
 20
202.7822129628
 10
98.8840784129
 20
203.0667919914
 10
100.2653797421
 20
203.3058223504
 10
101.6738284798
 20
203.4983010298
 10
103.103512482
 20
203.6434208117
 10
104.5484367777
 20
203.7405721687
 10
106.002540888
 20
203.7893488616
 10
107.4597254112
 20
203.7895461379
 10
108.9138796154
 20
203.7411629948
 10
110.3589030815
 20
203.6444017207
 10
111.7887357666
 20
203.499669487
 10
113.1973794195
 20
203.307572528
 10
114.5789259051
 20
203.0689160356
 10
115.9275812731
 20
202.7847019568
 10
117.2376879526
 20
202.4561218771
  0
LWPOLYLINE
  5
B1
330
1F
100
AcDbEntity
  8
0
  6
SLD-実線
 62
     7
370
    25
100
AcDbPolyline
 90
       43
 70
   128
 43
0.0
 10
117.0043397852
 20
201.7997823932
 10
115.7097947095
 20
202.1241808895
 10
114.3768276634
 20
202.4042787385
 10
113.0111455123
 20
202.6388752964
 10
111.6185968076
 20
202.8269667932
 10
110.2051437709
 20
202.9677463539
 10
108.7768402946
 20
203.0606132317
 10
107.3398030232
 20
203.1051687354
 10
105.9001836692
 20
203.1012215845
 10
104.4641478265
 20
203.0487893278
 10
103.0378448618
 20
202.9480956797
 10
101.6273821985
 20
202.7995731702
 10
100.2388004935
 20
202.6038574173
 10
98.8780456561
 20
202.3617855118
 10
97.5509433841
 20
202.0743948022
 10
96.2631768115
 20
201.7429164957
 10
95.0202616399
 20
201.3687688581
 10
93.8275193707
 20
200.9535547266
 10
92.6900589796
 20
200.4990518463
 10
91.6127491428
 20
200.0072063174
 10
90.6002023027
 20
199.4801252658
 10
89.6567576816
 20
198.9200643748
 10
88.7864529469
 20
198.3294228411
 10
87.9930161681
 20
197.7107293575
 10
87.2798427129
 20
197.0666339522
 10
86.6499892864
 20
196.3998939486
 10
86.106150175
 20
195.7133651672
 10
85.6506565536
 20
195.0099868612
 10
85.2854573461
 20
194.2927712571
 10
85.0121191841
 20
193.5647891261
 10
84.8318084804
 20
192.8291584532
 10
84.7452993349
 20
192.0890295434
 10
84.7529631391
 20
191.3475707628
 10
84.8547658198
 20
190.6079576268
 10
85.0502730124
 20
189.8733572936
 10
85.3386449149
 20
189.1469153188
 10
85.7186474086
 20
188.4317428706
 10
86.188655195
 20
187.7309023187
 10
86.746654154
 20
187.0473941193
 10
87.3902537686
 20
186.3841453028
 10
88.1167003281
 20
185.7439966656
 10
88.9228817577
 20
185.1296889834
 10
88.9545290421
 20
185.1072557655
  0
LWPOLYLINE
  5
B2
330
1F
100
AcDbEntity
  8
0
  6
SLD-実線
 62
     7
370
    25
100
AcDbPolyline
 90
       28
 70
   128
 43
0.0
 10
124.5195529769
 20
185.1072556939
 10
124.6876296219
 20
185.2277457546
 10
125.4810664007
 20
185.8464392382
 10
126.1942398559
 20
186.4905346435
 10
126.8240932824
 20
187.1572746471
 10
127.3679323939
 20
187.8438034285
 10
127.8234260152
 20
188.5471817345
 10
128.1886252227
 20
189.2643973386
 10
128.4619633847
 20
189.9923794696
 10
128.6422740884
 20
190.7280101424
 10
128.7287832339
 20
191.4681390523
 10
128.7211194297
 20
192.2095978329
 10
128.619316749
 20
192.9492109689
 10
128.4238095564
 20
193.6838113021
 10
128.135437654
 20
194.4102532769
 10
127.7554351602
 20
195.1254257251
 10
127.2854273738
 20
195.826266277
 10
126.7274284148
 20
196.5097744763
 10
126.0838288002
 20
197.1730232928
 10
125.3573822407
 20
197.8131719301
 10
124.5512008112
 20
198.4274796123
 10
123.6687361886
 20
199.0133150224
 10
122.7137669294
 20
199.5681706068
 10
121.6903842373
 20
200.0896707821
 10
120.6029677564
 20
200.5755806836
 10
119.4561757763
 20
201.0238207587
 10
118.2549180174
 20
201.4324709098
 10
117.0043397852
 20
201.7997823932
  0
LWPOLYLINE
  5
B3
330
1F
100
AcDbEntity
  8
0
  6
SLD-実線
 62
     7
370
    25
100
AcDbPolyline
 90
       31
 70
   128
 43
0.0
 10
96.2363946162
 20
176.5580597592
 10
97.5465012957
 20
176.2294796795
 10
98.8951566638
 20
175.9452656007
 10
100.2767031493
 20
175.7066091083
 10
101.6853468022
 20
175.5145121493
 10
103.1151794873
 20
175.3697799156
 10
104.5602029534
 20
175.2730186415
 10
106.0143571576
 20
175.2246354984
 10
107.4715416808
 20
175.2248327747
 10
108.9256457911
 20
175.2736094676
 10
110.3705700869
 20
175.3707608246
 10
111.800254089
 20
175.5158806065
 10
113.2087028267
 20
175.7083592859
 10
114.5900041559
 20
175.9473896448
 10
115.938369667
 20
176.2319686735
 10
117.2481411591
 20
176.5609028613
 10
118.5138246142
 20
176.9328136069
 10
119.7301136257
 20
177.3461395285
 10
120.8919048627
 20
177.7991474467
 10
121.994324975
 20
178.2899380891
 10
123.0327514698
 20
178.8164520767
 10
124.002826529
 20
179.3764813548
 10
124.9004838964
 20
179.9676769358
 10
125.7219571189
 20
180.5875589977
 10
126.4638027143
 20
181.2335271637
 10
127.1229063941
 20
181.9028727425
 10
127.6965034163
 20
182.5927883148
 10
128.1821905919
 20
183.3003794526
 10
128.5779282723
 20
184.0226789925
 10
128.882058647
 20
184.7566566721
 10
128.9716607238
 20
185.0324316321
  0
LWPOLYLINE
  5
B4
330
1F
100
AcDbEntity
  8
0
  6
SLD-実線
 62
     7
370
    25
100
AcDbPolyline
 90
       16
 70
   128
 43
0.0
 10
84.5044596305
 20
185.0256715124
 10
84.5941188431
 20
184.7506644214
 10
84.8989981105
 20
184.0167688867
 10
85.2954718744
 20
183.2945773506
 10
85.7818808427
 20
182.5871169486
 10
86.3561820718
 20
181.897356921
 10
87.0159690113
 20
181.2281901488
 10
87.7584723061
 20
180.5824226307
 10
88.5805776894
 20
179.9627631971
 10
89.4788379271
 20
179.3718105011
 10
90.4494857692
 20
178.8120440752
 10
91.4884483647
 20
178.2858106515
 10
92.5913686781
 20
177.7953183407
 10
93.7536216431
 20
177.3426246495
 10
94.9703312776
 20
176.9296274898
 10
96.2363946162
 20
176.5580597592
  0
LWPOLYLINE
  5
B5
330
1F
100
AcDbEntity
  8
0
  6
SLD-実線
 62
     7
370
    25
100
AcDbPolyline
 90
        3
 70
   128
 43
0.0
 10
128.6536303554
 20
190.7928437316
 10
128.619316749
 20
190.9777279297
 10
128.4865352222
 20
191.5121434387
  0
LWPOLYLINE
  5
B6
330
1F
100
AcDbEntity
  8
0
  6
SLD-実線
 62
     7
370
    25
100
AcDbPolyline
 90
        3
 70
   128
 43
0.0
 10
84.987547479
 20
191.5121430741
 10
84.8318084804
 20
190.8576754141
 10
84.8204518997
 20
190.7928435988
  0
LWPOLYLINE
  5
B7
330
1F
100
AcDbEntity
  8
0
  6
SLD-実線
 62
     7
370
    25
100
AcDbPolyline
 90
       24
 70
   128
 43
0.0
 10
116.8876657016
 20
201.3430385729
 10
118.1367974761
 20
200.9758587917
 10
119.3360806887
 20
200.5669621226
 10
120.4802719458
 20
200.118136984
 10
121.5643677396
 20
199.6313463184
 10
122.5836264024
 20
199.1087172868
 10
123.5335925988
 20
198.5525367816
 10
124.4101125202
 20
197.9652364503
 10
125.209350999
 20
197.3493837052
 10
125.9278156704
 20
196.7076719027
 10
126.5623639298
 20
196.042907605
 10
127.1102206883
 20
195.3579970776
 10
127.5689916673
 20
194.655935625
 10
127.9366694406
 20
193.9397929322
 10
128.2116458137
 20
193.2127004804
 10
128.3927203822
 20
192.4778372891
 10
128.4790987726
 20
191.7384179204
 10
128.4704064399
 20
190.9976740852
 10
128.3666783284
 20
190.2588466062
 10
128.168369238
 20
189.5251647033
 10
127.8763472138
 20
188.7998374848
 10
127.4918877828
 20
188.0860359899
 10
127.0166730633
 20
187.3868820403
 10
127.0085977087
 20
187.3761697027
  0
LWPOLYLINE
  5
B8
330
1F
100
AcDbEntity
  8
0
  6
SLD-実線
 62
     7
370
    25
100
AcDbPolyline
 90
       38
 70
   128
 43
0.0
 10
86.4654844424
 20
187.3761693013
 10
86.1232061331
 20
187.8625160917
 10
85.7097551657
 20
188.5720059722
 10
85.3882530469
 20
189.2940184951
 10
85.1601023147
 20
190.0253961769
 10
85.0263029781
 20
190.7629401589
 10
84.9874382379
 20
191.5034271044
 10
85.0436802287
 20
192.2436168578
 10
85.1947811728
 20
192.9802746454
 10
85.4400807691
 20
193.7101782864
 10
85.7785059276
 20
194.4301364345
 10
86.2085786669
 20
195.1370003967
 10
86.7284156482
 20
195.8276801241
 10
87.3357470032
 20
196.4991543652
 10
88.0279147505
 20
197.1484876214
 10
88.8018920175
 20
197.7728406848
 10
89.6542955083
 20
198.3694828085
 10
90.5813976707
 20
198.9358056366
 10
91.5791441922
 20
199.4693320585
 10
92.6431723986
 20
199.9677300558
 10
93.7688286179
 20
200.4288193723
 10
94.9511937126
 20
200.8505840996
 10
96.1850929842
 20
201.23118029
 10
97.4651352275
 20
201.5689432397
 10
98.785719776
 20
201.8623964217
 10
100.1410737711
 20
202.110256
 10
101.525270396
 20
202.3114383479
 10
102.9322565584
 20
202.4650644566
 10
104.3558800482
 20
202.5704617741
 10
105.7899164422
 20
202.6271699096
 10
107.2280936993
 20
202.6349409997
 10
108.6641238247
 20
202.5937397802
 10
110.0917272134
 20
202.5037478173
 10
111.5046620271
 20
202.3653587776
 10
112.8967482633
 20
202.1791762257
 10
114.2619003351
 20
201.9460156162
 10
115.5941480867
 20
201.6668964133
 10
116.8876657016
 20
201.3430385729
  0
LWPOLYLINE
  5
B9
330
1F
100
AcDbEntity
  8
0
  6
SLD-実線
 62
     7
370
    25
100
AcDbPolyline
 90
       93
 70
   128
 43
0.0
 10
116.2109581025
 20
201.0254175487
 10
117.4140751243
 20
200.67087701
 10
118.5674101039
 20
200.2748759354
 10
119.6655880388
 20
199.8392623751
 10
120.7034857544
 20
199.3660654203
 10
121.6762660516
 20
198.8574924308
 10
122.5793934608
 20
198.3159149907
 10
123.4086560019
 20
197.7438564866
 10
124.1601869658
 20
197.143985103
 10
124.8304842726
 20
196.519098799
 10
125.4164214557
 20
195.8721093062
 10
125.9152664692
 20
195.2060337635
 10
126.3246938854
 20
194.5239778431
 10
126.6427947115
 20
193.8291216934
 10
126.8680853373
 20
193.1247050325
 10
126.9995148361
 20
192.4140126904
 10
127.0364733861
 20
191.7003571342
 10
126.9787859121
 20
190.9870660949
 10
126.8267205531
 20
190.277466165
 10
126.5809891447
 20
189.5748647696
 10
126.2427369143
 20
188.8825380528
 10
125.8135381307
 20
188.2037142974
 10
125.2953984882
 20
187.5415577523
 10
124.6907299557
 20
186.899156418
 10
124.0023526184
 20
186.2795053432
 10
123.2334753374
 20
185.6854939156
 10
122.3876862948
 20
185.1198904661
 10
121.4689251821
 20
184.5853336247
 10
120.481477818
 20
184.0843147331
 10
119.4299488796
 20
183.6191697308
 10
118.3192377847
 20
183.1920679481
 10
117.1545250911
 20
182.8050008872
 10
115.941243327
 20
182.4597722527
 10
114.6850459228
 20
182.1579922939
 10
113.3917909672
 20
181.9010681185
 10
112.067508446
 20
181.6901974102
 10
110.718372948
 20
181.5263633731
 10
109.3506747229
 20
181.4103301229
 10
107.97079161
 20
181.3426389269
 10
106.5851551085
 20
181.3236038664
 10
105.2002263545
 20
181.353315112
 10
103.8224642735
 20
181.4316345618
 10
102.4582905754
 20
181.5581955933
 10
101.1140662344
 20
181.7324083708
 10
99.7960592976
 20
181.9534620861
 10
98.5104134835
 20
182.2203237301
 10
97.2631244663
 20
182.531751047
 10
96.0600074445
 20
182.8862915857
 10
94.9066724649
 20
183.2822926603
 10
93.80849453
 20
183.7179062206
 10
92.7705968144
 20
184.1911031754
 10
91.7978165172
 20
184.6996761649
 10
90.894689108
 20
185.241253605
 10
90.0654265669
 20
185.8133121091
 10
89.313895603
 20
186.4131834927
 10
88.6435982962
 20
187.0380697967
 10
88.0576611131
 20
187.6850592895
 10
87.5588160996
 20
188.3511348322
 10
87.1493886834
 20
189.0331907525
 10
86.8312878574
 20
189.7280469023
 10
86.6059972315
 20
190.4324635632
 10
86.4745677328
 20
191.1431559052
 10
86.4376091827
 20
191.8568114615
 10
86.4952966567
 20
192.5701025008
 10
86.6473620157
 20
193.2797024307
 10
86.8930934242
 20
193.982303826
 10
87.2313456545
 20
194.6746305429
 10
87.6605444381
 20
195.3534542983
 10
88.1786840806
 20
196.0156108434
 10
88.7833526131
 20
196.6580121777
 10
89.4717299504
 20
197.2776632525
 10
90.2406072314
 20
197.8716746801
 10
91.086396274
 20
198.4372781296
 10
92.0051573867
 20
198.971834971
 10
92.9926047508
 20
199.4728538626
 10
94.0441336892
 20
199.9379988648
 10
95.1548447841
 20
200.3651006476
 10
96.3195574777
 20
200.7521677085
 10
97.5328392418
 20
201.097396343
 10
98.789036646
 20
201.3991763018
 10
100.0822916016
 20
201.6561004772
 10
101.4065741228
 20
201.8669711855
 10
102.7557096208
 20
202.0308052225
 10
104.1234078459
 20
202.1468384728
 10
105.5032909588
 20
202.2145296688
 10
106.8889274603
 20
202.2335647293
 10
108.2738562143
 20
202.2038534837
 10
109.6516182953
 20
202.1255340339
 10
111.0157919934
 20
201.9989730024
 10
112.3600163344
 20
201.8247602249
 10
113.6780232712
 20
201.6037065096
 10
114.9636690853
 20
201.3368448656
 10
116.2109581025
 20
201.0254175487
  0
LWPOLYLINE
  5
BA
330
1F
100
AcDbEntity
  8
0
  6
SLD-実線
 62
     7
370
    25
100
AcDbPolyline
 90
       22
 70
   128
 43
0.0
 10
99.5966017934
 20
163.7229815519
 10
100.6802903461
 20
163.4559245934
 10
101.8013206348
 20
163.2334819338
 10
102.9527813919
 20
163.05702535
 10
104.12757346
 20
162.9276425095
 10
105.3184533893
 20
162.8461310872
 10
106.51807978
 20
162.8129937634
 10
107.7190558374
 20
162.828434794
 10
108.913977876
 20
162.8923593016
 10
110.0954781952
 20
163.0043724703
 10
111.2562723463
 20
163.1637840546
 10
112.3892038386
 20
163.3696114154
 10
113.4872881345
 20
163.6205854602
 10
114.5437554783
 20
163.9151585286
 10
115.5520911277
 20
164.2515148803
 10
116.5060793144
 20
164.6275807136
 10
117.3998377555
 20
165.0410372932
 10
118.2278569178
 20
165.4893356339
 10
118.9850313884
 20
165.969711703
 10
119.6666926498
 20
166.47920402
 10
120.2686386225
 20
167.014671186
 10
120.2814739144
 20
167.0272265748
  0
ARC
  5
BB
330
1F
100
AcDbEntity
  8
0
  6
SLD-実線
 62
     7
370
    25
100
AcDbCircle
 10
102.8705458572
 20
177.9215825305
 30
0.0
 40
14.57116946164904
100
AcDbArc
 50
228.3011953103
 51
257.0155601232
  0
LWPOLYLINE
  5
BC
330
1F
100
AcDbEntity
  8
0
  6
SLD-実線
 62
     7
370
    25
100
AcDbPolyline
 90
       22
 70
   128
 43
0.0
 10
99.6969415228
 20
163.5209073599
 10
100.7791763665
 20
163.2545486635
 10
101.8990790853
 20
163.0333170976
 10
103.0495686334
 20
162.8586110565
 10
104.2233723474
 20
162.7315355334
 10
105.4130674277
 20
162.652893016
 10
106.6111335604
 20
162.6231816594
 10
107.8099957707
 20
162.6425890623
 10
109.0020742082
 20
162.710992296
 10
110.1798320778
 20
162.827958436
 10
111.3358241665
 20
162.9927492718
 10
112.4627406102
 20
163.2043218852
 10
113.5534581421
 20
163.4613385866
 10
114.6010794088
 20
163.7621754823
 10
115.5989822171
 20
164.1049294295
 10
116.5408560463
 20
164.487434145
 10
117.4207479196
 20
164.9072710601
 10
118.2330939289
 20
165.3617857011
 10
118.972757767
 20
165.8481047409
 10
119.635063339
 20
166.3631534407
 10
120.2158243016
 20
166.9036752307
 10
120.4459907949
 20
167.1503041527
  0
ARC
  5
BD
330
1F
100
AcDbEntity
  8
0
  6
SLD-実線
 62
     7
370
    25
100
AcDbCircle
 10
102.6624573423
 20
176.9272398024
 30
0.0
 40
13.73040544320468
100
AcDbArc
 50
225.699223375
 51
257.5268742436
  0
LWPOLYLINE
  5
BE
330
1F
100
AcDbEntity
  8
0
  6
SLD-実線
 62
     7
370
    25
100
AcDbPolyline
 90
       20
 70
   128
 43
0.0
 10
101.3933790311
 20
160.3765456619
 10
102.3363787901
 20
160.147884897
 10
103.315843489
 20
159.9643365123
 10
104.3236572664
 20
159.8274217759
 10
105.3514690943
 20
159.738275174
 10
106.3907623781
 20
159.6976352575
 10
107.4329251273
 20
159.7058391298
 10
108.4693212472
 20
159.7628187997
 10
109.491363249
 20
159.8681014873
 10
110.4905824871
 20
160.0208154832
 10
111.4586983114
 20
160.2196949466
 10
112.3876887957
 20
160.4630924108
 10
113.269856216
 20
160.7489902744
 10
114.0978909841
 20
161.0750200345
 10
114.8649317592
 20
161.4384798462
 10
115.5646213445
 20
161.8363582459
 10
116.1911636785
 20
162.265357914
 10
116.7393657876
 20
162.7219242893
 10
117.2046858219
 20
163.2022739525
 10
117.5088840155
 20
163.5927469435
  0
ARC
  5
BF
330
1F
100
AcDbEntity
  8
0
  6
SLD-実線
 62
     7
370
    25
100
AcDbCircle
 10
103.2666038049
 20
169.7269047934
 30
0.0
 40
9.536151579123981
100
AcDbArc
 50
220.0339750352
 51
258.6714916388
  0
LWPOLYLINE
  5
C0
330
1F
100
AcDbEntity
  8
0
  6
SLD-実線
 62
     7
370
    25
100
AcDbPolyline
 90
       23
 70
   128
 43
0.0
 10
101.603392034
 20
148.0668819057
 10
102.5369497218
 20
147.8413079521
 10
103.507418435
 20
147.6617501888
 10
104.5062685933
 20
147.5297853769
 10
105.5247233737
 20
147.4465742364
 10
106.5538319829
 20
147.4128480405
 10
107.5845505248
 20
147.428902366
 10
108.6078207267
 20
147.494596849
 10
109.6146511151
 20
147.6093537322
 10
110.5961927215
 20
147.7721649499
 10
111.5438202107
 20
147.981599366
 10
112.4492049546
 20
148.23581654
 10
113.3043917323
 20
148.5325824904
 10
114.1018635095
 20
148.8692892403
 10
114.8346132302
 20
149.2429776091
 10
115.4962015505
 20
149.6503637578
 10
116.0808142038
 20
150.0878674272
 10
116.5833128653
 20
150.5516441121
 10
116.9992824252
 20
151.037617839
 10
117.325067544
 20
151.5415178736
 10
117.55780375
 20
152.0589162673
 10
117.6954476043
 20
152.5852655215
 10
117.7351548523
 20
152.9725592218
  0
LWPOLYLINE
  5
C1
330
1F
100
AcDbEntity
  8
0
  6
SLD-実線
 62
     7
370
    25
100
AcDbPolyline
 90
       13
 70
   128
 43
0.0
 10
95.7389279497
 20
152.9725592985
 10
95.7528846713
 20
152.7735186341
 10
95.856413914
 20
152.245100257
 10
96.0555627871
 20
151.723996598
 10
96.348580564
 20
151.2147874505
 10
96.7328930226
 20
150.72194775
 10
97.2051216232
 20
150.2498087372
 10
97.7611176951
 20
149.8025193788
 10
98.3959938092
 20
149.3840101818
 10
99.10417192
 20
148.9979594998
 10
99.8794281905
 20
148.6477601989
 10
100.7149486498
 20
148.3364888027
 10
101.603392034
 20
148.0668819057
  0
LWPOLYLINE
  5
C2
330
1F
100
AcDbEntity
  8
0
  6
SLD-実線
 62
     7
370
    25
100
AcDbPolyline
 90
        3
 70
   128
 43
0.0
 10
112.3509357842
 20
147.791252392
 10
112.3557693138
 20
147.7928178217
 10
112.7355489145
 20
147.9218693033
  0
LWPOLYLINE
  5
C3
330
1F
100
AcDbEntity
  8
0
  6
SLD-実線
 62
     7
370
    25
100
AcDbPolyline
 90
        3
 70
   128
 43
0.0
 10
100.8537274825
 20
147.8814389644
 10
100.9487686627
 20
147.8489362424
 10
101.1231466639
 20
147.7912523526
  0
ARC
  5
C4
330
1F
100
AcDbEntity
  8
0
  6
SLD-実線
 62
     7
370
    25
100
AcDbCircle
 10
106.7370409736
 20
163.0982285619
 30
0.0
 40
16.2936706212279
100
AcDbArc
 50
252.9069602083
 51
287.0930412235
  0
LWPOLYLINE
  5
C5
330
1F
100
AcDbEntity
  8
0
  6
SLD-実線
 62
     7
370
    25
100
AcDbPolyline
 90
       20
 70
   128
 43
0.0
 10
102.9101390764
 20
144.2421616224
 10
103.7166761992
 20
144.0509545661
 10
104.5586249176
 20
143.9057812614
 10
105.4261130829
 20
143.8083428173
 10
106.3089706691
 20
143.7597818653
 10
107.1968472082
 20
143.7606679989
 10
108.0793326781
 20
143.8109909512
 10
108.9460811189
 20
143.9101603538
 10
109.7869309411
 20
144.0570134445
 10
110.5920230029
 20
144.2498290768
 10
111.3519193901
 20
144.4863460121
 10
112.0577103549
 20
144.7637917525
 10
112.7011211282
 20
145.0789133054
 10
113.2746091848
 20
145.4280161032
 10
113.7714494436
 20
145.8070075902
 10
114.1858180694
 20
146.2114440721
 10
114.5128569925
 20
146.6365839237
 10
114.7487307381
 20
147.0774430571
 10
114.890675295
 20
147.5288523826
 10
114.9367014298
 20
147.9388866836
  0
LWPOLYLINE
  5
C6
330
1F
100
AcDbEntity
  8
0
  6
SLD-実線
 62
     7
370
    25
100
AcDbPolyline
 90
       11
 70
   128
 43
0.0
 10
98.5373810204
 20
147.9388867237
 10
98.5868437131
 20
147.5125795679
 10
98.7321836363
 20
147.0614568874
 10
98.9713740919
 20
146.6210719916
 10
99.3016093401
 20
146.1965880706
 10
99.7190179587
 20
145.7929817584
 10
100.2187070307
 20
145.4149850237
 10
100.7948176909
 20
145.0670296682
 10
101.4405952806
 20
144.7531949055
 10
102.1484685101
 20
144.4771598133
 10
102.9101390764
 20
144.2421616224
  0
ARC
  5
C7
330
1F
100
AcDbEntity
  8
0
  6
SLD-実線
 62
     8
370
    25
100
AcDbCircle
 10
106.7354407348
 20
151.8081208075
 30
0.0
 40
8.5870950855393
100
AcDbArc
 50
249.6928290497
 51
290.653573115
  0
LWPOLYLINE
  5
C8
330
1F
100
AcDbEntity
  8
0
  6
SLD-実線
 62
     8
370
    25
100
AcDbPolyline
 90
       23
 70
   128
 43
0.0
 10
102.1370411945
 20
138.9942223061
 10
102.1424394304
 20
138.8794772199
 10
102.2215744321
 20
138.5421139592
 10
102.3936052607
 20
138.2140520147
 10
102.6549928127
 20
137.9020402782
 10
103.0003595637
 20
137.6124978919
 10
103.422600567
 20
137.3513814414
 10
103.913028862
 20
137.124062863
 10
104.4615550999
 20
136.9352187979
 10
105.0568943579
 20
136.7887341142
 10
105.686799107
 20
136.687622592
 10
106.3383102879
 20
136.6339643813
 10
106.9980246635
 20
136.6288634416
 10
107.6523695838
 20
136.6724243902
 10
108.2878836733
 20
136.7637513335
 10
108.8914926354
 20
136.9009653802
 10
109.4507783741
 20
137.0812437668
 10
109.9542348374
 20
137.3008773712
 10
110.3915047776
 20
137.555347886
 10
110.7535919736
 20
137.8394200979
 10
111.0330471921
 20
138.1472499048
 10
111.2241216736
 20
138.4725043159
 10
111.3228843845
 20
138.8084918249
  0
LWPOLYLINE
  5
C9
330
1F
100
AcDbEntity
  8
0
  6
SLD-実線
 62
     8
370
    25
100
AcDbPolyline
 90
       33
 70
   128
 43
0.0
 10
95.0696563873
 20
179.7051262824
 10
96.4529253811
 20
179.3567967568
 10
97.87520488
 20
179.0529854049
 10
99.3311006562
 20
178.7948458669
 10
100.8150902464
 20
178.5833572868
 10
102.3215432224
 20
178.4193209722
 10
103.8447461752
 20
178.3033601127
 10
105.3789207908
 20
178.2359137824
 10
106.9182451272
 20
178.2172376656
 10
108.4568848673
 20
178.2474042406
 10
109.9889984906
 20
178.3262970351
 10
111.508778454
 20
178.4536189592
 10
113.0104558608
 20
178.6288845279
 10
114.4883367448
 20
178.8514306095
 10
115.9368136023
 20
179.1204132914
 10
117.3503938532
 20
179.4348109918
 10
118.7237134754
 20
179.7934316016
 10
120.0515625157
 20
180.1949147707
 10
121.3289057477
 20
180.6377376833
 10
122.5508982985
 20
181.120220031
 10
123.7129026688
 20
181.6405324031
 10
124.8105101707
 20
182.1967007653
 10
125.8395602472
 20
182.7866150393
 10
126.7961473009
 20
183.4080378221
 10
127.6766447389
 20
184.0586114105
 10
128.4777097829
 20
184.7358686628
 10
129.1963053778
 20
185.437239993
 10
129.8297057084
 20
186.1600649218
 10
130.3755063048
 20
186.9016019401
 10
130.831639443
 20
187.6590373737
 10
131.1963729909
 20
188.4294986455
 10
131.4683251021
 20
189.2100624513
 10
131.5709488059
 20
189.6110944411
  0
LWPOLYLINE
  5
CA
330
1F
100
AcDbEntity
  8
0
  6
SLD-実線
 62
     8
370
    25
100
AcDbPolyline
 90
       17
 70
   128
 43
0.0
 10
81.8970147734
 20
189.638556946
 10
82.0613487124
 20
189.0256173083
 10
82.355240942
 20
188.2471651744
 10
82.7416201018
 20
187.4795079433
 10
83.2190236304
 20
186.7255574549
 10
83.785639335
 20
185.9881741367
 10
84.439316467
 20
185.2701531456
 10
85.1775772535
 20
184.5742212348
 10
85.9976201491
 20
183.9030152599
 10
86.8963349359
 20
183.2590845839
 10
87.87031261
 20
182.644868865
 10
88.9158575076
 20
182.0626991004
 10
90.0290046493
 20
181.5147842342
 10
91.2055305856
 20
181.0032017022
 10
92.4409732112
 20
180.5298931309
 10
93.7306463177
 20
180.0966538748
 10
95.0696563873
 20
179.7051262824
  0
ARC
  5
CB
330
1F
100
AcDbEntity
  8
0
  6
SLD-実線
 62
     8
370
    25
100
AcDbCircle
 10
106.7370411599
 20
166.0846148588
 30
0.0
 40
19.13538406184734
100
AcDbArc
 50
252.9397188376
 51
287.0602815641
  0
LWPOLYLINE
  5
CC
330
1F
100
AcDbEntity
  8
0
  6
SLD-実線
 62
     8
370
    25
100
AcDbPolyline
 90
       17
 70
   128
 43
0.0
 10
102.5367829648
 20
146.877840157
 10
103.3774753618
 20
146.6771361997
 10
104.2537802037
 20
146.5220165747
 10
105.1564084063
 20
146.4141256176
 10
106.0757916925
 20
146.3546064794
 10
107.0021840971
 20
146.3440903523
 10
107.9257663081
 20
146.3826887217
 10
108.8367474787
 20
146.4699922714
 10
109.7254712599
 20
146.6050759624
 10
110.5825169706
 20
146.7865073334
 10
111.3987996798
 20
147.0123635013
 10
112.1656670399
 20
147.2802501313
 10
112.8749886317
 20
147.587328
 10
113.5192472648
 20
147.930341468
 10
114.0916125434
 20
148.3056548233
 10
114.5860179038
 20
148.7092894439
 10
114.6271080401
 20
148.7474285072
  0
ARC
  5
CD
330
1F
100
AcDbEntity
  8
0
  6
SLD-実線
 62
     8
370
    25
100
AcDbCircle
 10
104.496725333
 20
155.3108287233
 30
0.0
 40
8.6577520318419
100
AcDbArc
 50
228.9300593675
 51
256.915956454
  0
ENDSEC
  0
SECTION
  2
OBJECTS
  0
DICTIONARY
  5
C
330
0
100
AcDbDictionary
281
     1
  3
ACAD_GROUP
350
D
  3
ACAD_LAYOUT
350
1A
  3
ACAD_MLINESTYLE
350
17
  3
ACAD_PLOTSETTINGS
350
19
  3
ACAD_PLOTSTYLENAME
350
E
  3
ACAD_SCALELIST
350
47
  0
DICTIONARY
  5
D
102
{ACAD_REACTORS
330
C
102
}
330
C
100
AcDbDictionary
281
     1
  0
DICTIONARY
  5
1A
102
{ACAD_REACTORS
330
C
102
}
330
C
100
AcDbDictionary
281
     1
  3
Layout1
350
1E
  3
Layout2
350
26
  3
Model
350
22
  0
DICTIONARY
  5
17
102
{ACAD_REACTORS
330
C
102
}
330
C
100
AcDbDictionary
281
     1
  3
Standard
350
18
  0
DICTIONARY
  5
19
102
{ACAD_REACTORS
330
C
102
}
330
C
100
AcDbDictionary
281
     1
  0
ACDBDICTIONARYWDFLT
  5
E
102
{ACAD_REACTORS
330
C
102
}
330
C
100
AcDbDictionary
281
     1
  3
Normal
350
F
100
AcDbDictionaryWithDefault
340
F
  0
DICTIONARY
  5
47
102
{ACAD_REACTORS
330
C
102
}
330
C
100
AcDbDictionary
281
     1
  3
A0
350
48
  3
A1
350
49
  3
A2
350
4A
  3
A3
350
4B
  3
A4
350
4C
  3
A5
350
4D
  3
A6
350
4E
  3
A7
350
4F
  3
A8
350
50
  3
A9
350
51
  3
B0
350
52
  3
B1
350
53
  3
B2
350
54
  3
B3
350
55
  3
B4
350
56
  3
B5
350
57
  3
B6
350
58
  3
B7
350
59
  3
B8
350
5A
  3
B9
350
5B
  3
C0
350
5C
  3
C1
350
5D
  3
C2
350
5E
  3
C3
350
5F
  3
C4
350
60
  3
C5
350
61
  3
C6
350
62
  3
C7
350
63
  3
C8
350
64
  3
C9
350
65
  3
D0
350
66
  3
D1
350
67
  3
D2
350
68
  0
LAYOUT
  5
1E
102
{ACAD_REACTORS
330
1A
102
}
330
1A
100
AcDbPlotSettings
  1

  2
none_device
  4

  6

 40
0.0
 41
0.0
 42
0.0
 43
0.0
 44
0.0
 45
0.0
 46
0.0
 47
0.0
 48
0.0
 49
0.0
140
0.0
141
0.0
142
1.0
143
1.0
 70
   688
 72
     1
 73
     0
 74
     5
  7

 75
    16
147
1.0
148
0.0
149
0.0
100
AcDbLayout
  1
Layout1
 70
     1
 71
     1
 10
0.0
 20
0.0
 11
420.0
 21
297.0
 12
0.0
 22
0.0
 32
0.0
 14
1.0000000000E+20
 24
1.0000000000E+20
 34
1.0000000000E+20
 15
-1.0000000000E+20
 25
-1.0000000000E+20
 35
-1.0000000000E+20
146
0.0
 13
0.0
 23
0.0
 33
0.0
 16
1.0
 26
0.0
 36
0.0
 17
0.0
 27
1.0
 37
0.0
 76
     0
330
1B
  0
LAYOUT
  5
26
102
{ACAD_REACTORS
330
1A
102
}
330
1A
100
AcDbPlotSettings
  1

  2
none_device
  4

  6

 40
0.0
 41
0.0
 42
0.0
 43
0.0
 44
0.0
 45
0.0
 46
0.0
 47
0.0
 48
0.0
 49
0.0
140
0.0
141
0.0
142
1.0
143
1.0
 70
   688
 72
     1
 73
     0
 74
     5
  7

 75
    16
147
1.0
148
0.0
149
0.0
100
AcDbLayout
  1
Layout2
 70
     1
 71
     2
 10
0.0
 20
0.0
 11
0.0
 21
0.0
 12
0.0
 22
0.0
 32
0.0
 14
0.0
 24
0.0
 34
0.0
 15
0.0
 25
0.0
 35
0.0
146
0.0
 13
0.0
 23
0.0
 33
0.0
 16
1.0
 26
0.0
 36
0.0
 17
0.0
 27
1.0
 37
0.0
 76
     0
330
23
  0
LAYOUT
  5
22
102
{ACAD_REACTORS
330
1A
102
}
330
1A
100
AcDbPlotSettings
  1

  2
none_device
  4
Letter_(8.50_x_11.00_Inches)
  6

 40
6.35
 41
6.35
 42
6.35000508
 43
6.35000508
 44
215.9
 45
279.4
 46
0.0
 47
0.0
 48
0.0
 49
0.0
140
0.0
141
0.0
142
1.0
143
1.0
 70
  1712
 72
     1
 73
     0
 74
     0
  7

 75
     0
147
1.0
148
0.0
149
0.0
100
AcDbLayout
  1
Model
 70
     1
 71
     0
 10
0.0
 20
0.0
 11
210.0
 21
297.0
 12
0.0
 22
0.0
 32
0.0
 14
0.0
 24
0.0
 34
0.0
 15
210.0
 25
297.0
 35
0.0
146
0.0
 13
0.0
 23
0.0
 33
0.0
 16
1.0
 26
0.0
 36
0.0
 17
0.0
 27
1.0
 37
0.0
 76
     0
330
1F
331
29
  0
MLINESTYLE
  5
18
102
{ACAD_REACTORS
330
17
102
}
330
17
100
AcDbMlineStyle
  2
Standard
 70
     0
  3

 62
   256
 51
90.0
 52
90.0
 71
     2
 49
0.5
 62
   256
  6
BYLAYER
 49
-0.5
 62
   256
  6
BYLAYER
  0
ACDBPLACEHOLDER
  5
F
102
{ACAD_REACTORS
330
E
102
}
330
E
  0
SCALE
  5
48
102
{ACAD_REACTORS
330
47
102
}
330
47
100
AcDbScale
 70
     0
300
1:1
140
1.0
141
1.0
290
     1
  0
SCALE
  5
49
102
{ACAD_REACTORS
330
47
102
}
330
47
100
AcDbScale
 70
     0
300
1:2
140
1.0
141
2.0
290
     0
  0
SCALE
  5
4A
102
{ACAD_REACTORS
330
47
102
}
330
47
100
AcDbScale
 70
     0
300
1:4
140
1.0
141
4.0
290
     0
  0
SCALE
  5
4B
102
{ACAD_REACTORS
330
47
102
}
330
47
100
AcDbScale
 70
     0
300
1:5
140
1.0
141
5.0
290
     0
  0
SCALE
  5
4C
102
{ACAD_REACTORS
330
47
102
}
330
47
100
AcDbScale
 70
     0
300
1:8
140
1.0
141
8.0
290
     0
  0
SCALE
  5
4D
102
{ACAD_REACTORS
330
47
102
}
330
47
100
AcDbScale
 70
     0
300
1:10
140
1.0
141
10.0
290
     0
  0
SCALE
  5
4E
102
{ACAD_REACTORS
330
47
102
}
330
47
100
AcDbScale
 70
     0
300
1:16
140
1.0
141
16.0
290
     0
  0
SCALE
  5
4F
102
{ACAD_REACTORS
330
47
102
}
330
47
100
AcDbScale
 70
     0
300
1:20
140
1.0
141
20.0
290
     0
  0
SCALE
  5
50
102
{ACAD_REACTORS
330
47
102
}
330
47
100
AcDbScale
 70
     0
300
1:30
140
1.0
141
30.0
290
     0
  0
SCALE
  5
51
102
{ACAD_REACTORS
330
47
102
}
330
47
100
AcDbScale
 70
     0
300
1:40
140
1.0
141
40.0
290
     0
  0
SCALE
  5
52
102
{ACAD_REACTORS
330
47
102
}
330
47
100
AcDbScale
 70
     0
300
1:50
140
1.0
141
50.0
290
     0
  0
SCALE
  5
53
102
{ACAD_REACTORS
330
47
102
}
330
47
100
AcDbScale
 70
     0
300
1:100
140
1.0
141
100.0
290
     0
  0
SCALE
  5
54
102
{ACAD_REACTORS
330
47
102
}
330
47
100
AcDbScale
 70
     0
300
2:1
140
2.0
141
1.0
290
     0
  0
SCALE
  5
55
102
{ACAD_REACTORS
330
47
102
}
330
47
100
AcDbScale
 70
     0
300
4:1
140
4.0
141
1.0
290
     0
  0
SCALE
  5
56
102
{ACAD_REACTORS
330
47
102
}
330
47
100
AcDbScale
 70
     0
300
8:1
140
8.0
141
1.0
290
     0
  0
SCALE
  5
57
102
{ACAD_REACTORS
330
47
102
}
330
47
100
AcDbScale
 70
     0
300
10:1
140
10.0
141
1.0
290
     0
  0
SCALE
  5
58
102
{ACAD_REACTORS
330
47
102
}
330
47
100
AcDbScale
 70
     0
300
100:1
140
100.0
141
1.0
290
     0
  0
SCALE
  5
59
102
{ACAD_REACTORS
330
47
102
}
330
47
100
AcDbScale
 70
     0
300
1/128" = 1'-0"
140
0.0078125
141
12.0
290
     0
  0
SCALE
  5
5A
102
{ACAD_REACTORS
330
47
102
}
330
47
100
AcDbScale
 70
     0
300
1/64" = 1'-0"
140
0.015625
141
12.0
290
     0
  0
SCALE
  5
5B
102
{ACAD_REACTORS
330
47
102
}
330
47
100
AcDbScale
 70
     0
300
1/32" = 1'-0"
140
0.03125
141
12.0
290
     0
  0
SCALE
  5
5C
102
{ACAD_REACTORS
330
47
102
}
330
47
100
AcDbScale
 70
     0
300
1/16" = 1'-0"
140
0.0625
141
12.0
290
     0
  0
SCALE
  5
5D
102
{ACAD_REACTORS
330
47
102
}
330
47
100
AcDbScale
 70
     0
300
3/32" = 1'-0"
140
0.09375
141
12.0
290
     0
  0
SCALE
  5
5E
102
{ACAD_REACTORS
330
47
102
}
330
47
100
AcDbScale
 70
     0
300
1/8" = 1'-0"
140
0.125
141
12.0
290
     0
  0
SCALE
  5
5F
102
{ACAD_REACTORS
330
47
102
}
330
47
100
AcDbScale
 70
     0
300
3/16" = 1'-0"
140
0.1875
141
12.0
290
     0
  0
SCALE
  5
60
102
{ACAD_REACTORS
330
47
102
}
330
47
100
AcDbScale
 70
     0
300
1/4" = 1'-0"
140
0.25
141
12.0
290
     0
  0
SCALE
  5
61
102
{ACAD_REACTORS
330
47
102
}
330
47
100
AcDbScale
 70
     0
300
3/8" = 1'-0"
140
0.375
141
12.0
290
     0
  0
SCALE
  5
62
102
{ACAD_REACTORS
330
47
102
}
330
47
100
AcDbScale
 70
     0
300
1/2" = 1'-0"
140
0.5
141
12.0
290
     0
  0
SCALE
  5
63
102
{ACAD_REACTORS
330
47
102
}
330
47
100
AcDbScale
 70
     0
300
3/4" = 1'-0"
140
0.75
141
12.0
290
     0
  0
SCALE
  5
64
102
{ACAD_REACTORS
330
47
102
}
330
47
100
AcDbScale
 70
     0
300
1" = 1'-0"
140
1.0
141
12.0
290
     0
  0
SCALE
  5
65
102
{ACAD_REACTORS
330
47
102
}
330
47
100
AcDbScale
 70
     0
300
1-1/2" = 1'-0"
140
1.5
141
12.0
290
     0
  0
SCALE
  5
66
102
{ACAD_REACTORS
330
47
102
}
330
47
100
AcDbScale
 70
     0
300
3" = 1'-0"
140
3.0
141
12.0
290
     0
  0
SCALE
  5
67
102
{ACAD_REACTORS
330
47
102
}
330
47
100
AcDbScale
 70
     0
300
6" = 1'-0"
140
6.0
141
12.0
290
     0
  0
SCALE
  5
68
102
{ACAD_REACTORS
330
47
102
}
330
47
100
AcDbScale
 70
     0
300
1'-0" = 1'-0"
140
12.0
141
12.0
290
     0
  0
ENDSEC
  0
EOF
