  0
SECTION
  2
HEADER
  9
$ACADVER
  1
AC1015
  9
$ACADMAINTVER
 70
     6
  9
$DWGCODEPAGE
  3
DOS932
  9
$INSBASE
 10
0.0
 20
0.0
 30
0.0
  9
$EXTMIN
 10
0.0
 20
0.0
 30
0.0
  9
$EXTMAX
 10
210.0
 20
297.0
 30
0.0
  9
$LIMMIN
 10
0.0
 20
0.0
  9
$LIMMAX
 10
210.0
 20
297.0
  9
$ORTHOMODE
 70
     0
  9
$REGENMODE
 70
     1
  9
$FILLMODE
 70
     1
  9
$QTEXTMODE
 70
     0
  9
$MIRRTEXT
 70
     1
  9
$LTSCALE
 40
1.0
  9
$ATTMODE
 70
     1
  9
$TEXTSIZE
 40
3.5
  9
$TRACEWID
 40
1.0
  9
$TEXTSTYLE
  7
STANDARD
  9
$CLAYER
  8
0
  9
$CELTYPE
  6
ByLayer
  9
$CECOLOR
 62
   256
  9
$CELTSCALE
 40
1.0
  9
$DISPSILH
 70
     0
  9
$DIMSCALE
 40
1.0
  9
$DIMASZ
 40
3.302
  9
$DIMEXO
 40
1.0
  9
$DIMDLI
 40
3.75
  9
$DIMRND
 40
0.0
  9
$DIMDLE
 40
0.0
  9
$DIMEXE
 40
1.0
  9
$DIMTP
 40
0.0
  9
$DIMTM
 40
0.0
  9
$DIMTXT
 40
3.5
  9
$DIMCEN
 40
2.5
  9
$DIMTSZ
 40
0.0
  9
$DIMTOL
 70
     0
  9
$DIMLIM
 70
     0
  9
$DIMTIH
 70
     1
  9
$DIMTOH
 70
     1
  9
$DIMSE1
 70
     0
  9
$DIMSE2
 70
     0
  9
$DIMTAD
 70
     1
  9
$DIMZIN
 70
     1
  9
$DIMBLK
  1

  9
$DIMASO
 70
     1
  9
$DIMSHO
 70
     1
  9
$DIMPOST
  1

  9
$DIMAPOST
  1

  9
$DIMALT
 70
     0
  9
$DIMALTD
 70
     3
  9
$DIMALTF
 40
0.0393700787
  9
$DIMLFAC
 40
1.0
  9
$DIMTOFL
 70
     1
  9
$DIMTVP
 40
0.0
  9
$DIMTIX
 70
     0
  9
$DIMSOXD
 70
     0
  9
$DIMSAH
 70
     0
  9
$DIMBLK1
  1

  9
$DIMBLK2
  1

  9
$DIMSTYLE
  2
ISO-25
  9
$DIMCLRD
 70
     0
  9
$DIMCLRE
 70
     0
  9
$DIMCLRT
 70
     0
  9
$DIMTFAC
 40
1.0
  9
$DIMGAP
 40
1.524
  9
$DIMJUST
 70
     0
  9
$DIMSD1
 70
     0
  9
$DIMSD2
 70
     0
  9
$DIMTOLJ
 70
     0
  9
$DIMTZIN
 70
     1
  9
$DIMALTZ
 70
     0
  9
$DIMALTTZ
 70
     0
  9
$DIMUPT
 70
     0
  9
$DIMDEC
 70
     2
  9
$DIMTDEC
 70
     2
  9
$DIMALTU
 70
     2
  9
$DIMALTTD
 70
     3
  9
$DIMTXSTY
  7
STANDARD
  9
$DIMAUNIT
 70
     0
  9
$DIMADEC
 70
     2
  9
$DIMALTRND
 40
0.0
  9
$DIMAZIN
 70
     0
  9
$DIMDSEP
 70
    44
  9
$DIMATFIT
 70
     3
  9
$DIMFRAC
 70
     0
  9
$DIMLDRBLK
  1

  9
$DIMLUNIT
 70
     2
  9
$DIMLWD
 70
    -2
  9
$DIMLWE
 70
    -2
  9
$DIMTMOVE
 70
     0
  9
$LUNITS
 70
     2
  9
$LUPREC
 70
     2
  9
$SKETCHINC
 40
1.0
  9
$FILLETRAD
 40
10.0
  9
$AUNITS
 70
     0
  9
$AUPREC
 70
     2
  9
$MENU
  1
.
  9
$ELEVATION
 40
0.0
  9
$PELEVATION
 40
0.0
  9
$THICKNESS
 40
0.0
  9
$LIMCHECK
 70
     0
  9
$CHAMFERA
 40
0.0
  9
$CHAMFERB
 40
0.0
  9
$CHAMFERC
 40
0.0
  9
$CHAMFERD
 40
0.0
  9
$SKPOLY
 70
     0
  9
$TDCREATE
 40
2458876.439746933
  9
$TDUCREATE
 40
2458876.064746933
  9
$TDUPDATE
 40
2458876.439747187
  9
$TDUUPDATE
 40
2458876.064747187
  9
$TDINDWG
 40
0.0000000116
  9
$TDUSRTIMER
 40
0.0000000116
  9
$USRTIMER
 70
     1
  9
$ANGBASE
 50
0.0
  9
$ANGDIR
 70
     0
  9
$PDMODE
 70
     0
  9
$PDSIZE
 40
-1.0
  9
$PLINEWID
 40
0.0
  9
$SPLFRAME
 70
     0
  9
$SPLINETYPE
 70
     6
  9
$SPLINESEGS
 70
     8
  9
$HANDSEED
  5
CE
  9
$SURFTAB1
 70
     6
  9
$SURFTAB2
 70
     6
  9
$SURFTYPE
 70
     6
  9
$SURFU
 70
     6
  9
$SURFV
 70
     6
  9
$UCSBASE
  2

  9
$UCSNAME
  2

  9
$UCSORG
 10
0.0
 20
0.0
 30
0.0
  9
$UCSXDIR
 10
1.0
 20
0.0
 30
0.0
  9
$UCSYDIR
 10
0.0
 20
1.0
 30
0.0
  9
$UCSORTHOREF
  2

  9
$UCSORTHOVIEW
 70
     0
  9
$UCSORGTOP
 10
0.0
 20
0.0
 30
0.0
  9
$UCSORGBOTTOM
 10
0.0
 20
0.0
 30
0.0
  9
$UCSORGLEFT
 10
0.0
 20
0.0
 30
0.0
  9
$UCSORGRIGHT
 10
0.0
 20
0.0
 30
0.0
  9
$UCSORGFRONT
 10
0.0
 20
0.0
 30
0.0
  9
$UCSORGBACK
 10
0.0
 20
0.0
 30
0.0
  9
$PUCSBASE
  2

  9
$PUCSNAME
  2

  9
$PUCSORG
 10
0.0
 20
0.0
 30
0.0
  9
$PUCSXDIR
 10
1.0
 20
0.0
 30
0.0
  9
$PUCSYDIR
 10
0.0
 20
1.0
 30
0.0
  9
$PUCSORTHOREF
  2

  9
$PUCSORTHOVIEW
 70
     0
  9
$PUCSORGTOP
 10
0.0
 20
0.0
 30
0.0
  9
$PUCSORGBOTTOM
 10
0.0
 20
0.0
 30
0.0
  9
$PUCSORGLEFT
 10
0.0
 20
0.0
 30
0.0
  9
$PUCSORGRIGHT
 10
0.0
 20
0.0
 30
0.0
  9
$PUCSORGFRONT
 10
0.0
 20
0.0
 30
0.0
  9
$PUCSORGBACK
 10
0.0
 20
0.0
 30
0.0
  9
$USERI1
 70
     0
  9
$USERI2
 70
     0
  9
$USERI3
 70
     0
  9
$USERI4
 70
     0
  9
$USERI5
 70
     0
  9
$USERR1
 40
0.0
  9
$USERR2
 40
0.0
  9
$USERR3
 40
0.0
  9
$USERR4
 40
0.0
  9
$USERR5
 40
0.0
  9
$WORLDVIEW
 70
     1
  9
$SHADEDGE
 70
     3
  9
$SHADEDIF
 70
    70
  9
$TILEMODE
 70
     1
  9
$MAXACTVP
 70
    64
  9
$PINSBASE
 10
0.0
 20
0.0
 30
0.0
  9
$PLIMCHECK
 70
     0
  9
$PEXTMIN
 10
1.0000000000E+20
 20
1.0000000000E+20
 30
1.0000000000E+20
  9
$PEXTMAX
 10
-1.0000000000E+20
 20
-1.0000000000E+20
 30
-1.0000000000E+20
  9
$PLIMMIN
 10
0.0
 20
0.0
  9
$PLIMMAX
 10
420.0
 20
297.0
  9
$UNITMODE
 70
     0
  9
$VISRETAIN
 70
     1
  9
$PLINEGEN
 70
     0
  9
$PSLTSCALE
 70
     1
  9
$TREEDEPTH
 70
  3020
  9
$CMLSTYLE
  2
Standard
  9
$CMLJUST
 70
     0
  9
$CMLSCALE
 40
20.0
  9
$PROXYGRAPHICS
 70
     1
  9
$MEASUREMENT
 70
     1
  9
$CELWEIGHT
370
    -1
  9
$ENDCAPS
280
     0
  9
$JOINSTYLE
280
     0
  9
$LWDISPLAY
290
     1
  9
$INSUNITS
 70
     4
  9
$HYPERLINKBASE
  1

  9
$STYLESHEET
  1

  9
$XEDIT
290
     1
  9
$CEPSNTYPE
380
     0
  9
$PSTYLEMODE
290
     1
  9
$FINGERPRINTGUID
  2
{CC1EE4C6-B2C0-4CEC-8191-9A2F1403A7D4}
  9
$VERSIONGUID
  2
{FAEB1C32-E019-11D5-929B-00C0DF256EC4}
  9
$EXTNAMES
290
     1
  9
$PSVPSCALE
 40
0.0
  9
$OLESTARTUP
290
     0
  0
ENDSEC
  0
SECTION
  2
CLASSES
  0
CLASS
  1
ACDBDICTIONARYWDFLT
  2
AcDbDictionaryWithDefault
  3
ObjectDBX Classes
 90
        0
280
     0
281
     0
  0
CLASS
  1
VISUALSTYLE
  2
AcDbVisualStyle
  3
ObjectDBX Classes
 90
     4095
280
     0
281
     0
  0
CLASS
  1
MATERIAL
  2
AcDbMaterial
  3
ObjectDBX Classes
 90
     1153
280
     0
281
     0
  0
CLASS
  1
SCALE
  2
AcDbScale
  3
ObjectDBX Classes
 90
     1153
280
     0
281
     0
  0
CLASS
  1
TABLESTYLE
  2
AcDbTableStyle
  3
ObjectDBX Classes
 90
     4095
280
     0
281
     0
  0
CLASS
  1
MLEADERSTYLE
  2
AcDbMLeaderStyle
  3
ACDB_MLEADERSTYLE_CLASS
 90
     4095
280
     0
281
     0
  0
CLASS
  1
SUN
  2
AcDbSun
  3
SCENEOE
 90
     1153
280
     0
281
     0
  0
CLASS
  1
ACDBPLACEHOLDER
  2
AcDbPlaceHolder
  3
ObjectDBX Classes
 90
        0
280
     0
281
     0
  0
CLASS
  1
LAYOUT
  2
AcDbLayout
  3
ObjectDBX Classes
 90
        0
280
     0
281
     0
  0
ENDSEC
  0
SECTION
  2
TABLES
  0
TABLE
  2
VPORT
  5
8
330
0
100
AcDbSymbolTable
 70
     1
  0
VPORT
  5
29
330
8
100
AcDbSymbolTableRecord
100
AcDbViewportTableRecord
  2
*Active
 70
     0
 10
0.0
 20
0.0
 11
1.0
 21
1.0
 12
105.0
 22
148.5
 13
0.0
 23
0.0
 14
10.0
 24
10.0
 15
10.0
 25
10.0
 16
0.0
 26
0.0
 36
1.0
 17
0.0
 27
0.0
 37
0.0
 40
297.0
 41
0.7070707071
 42
50.0
 43
0.0
 44
0.0
 50
0.0
 51
0.0
 71
     0
 72
  2000
 73
     1
 74
     3
 75
     0
 76
     0
 77
     0
 78
     0
281
     0
 65
     1
110
0.0
120
0.0
130
0.0
111
1.0
121
0.0
131
0.0
112
0.0
122
1.0
132
0.0
 79
     0
146
0.0
  0
ENDTAB
  0
TABLE
  2
LTYPE
  5
5
330
0
100
AcDbSymbolTable
 70
     8
  0
LTYPE
  5
14
330
5
100
AcDbSymbolTableRecord
100
AcDbLinetypeTableRecord
  2
ByBlock
 70
     0
  3

 72
    65
 73
     0
 40
0.0
  0
LTYPE
  5
15
330
5
100
AcDbSymbolTableRecord
100
AcDbLinetypeTableRecord
  2
ByLayer
 70
     0
  3

 72
    65
 73
     0
 40
0.0
  0
LTYPE
  5
16
330
5
100
AcDbSymbolTableRecord
100
AcDbLinetypeTableRecord
  2
Continuous
 70
     0
  3
Solid line
 72
    65
 73
     0
 40
0.0
  0
LTYPE
  5
6E
330
5
100
AcDbSymbolTableRecord
100
AcDbLinetypeTableRecord
  2
SLD-実線
 70
     0
  3
SolidWorks Line Style
 72
    65
 73
     0
 40
0.0
  0
LTYPE
  5
6F
330
5
100
AcDbSymbolTableRecord
100
AcDbLinetypeTableRecord
  2
SLD-破線
 70
     0
  3
SolidWorks Line Style
 72
    65
 73
     2
 40
1.905
 49
1.27
 74
     0
 49
-0.635
 74
     0
  0
LTYPE
  5
70
330
5
100
AcDbSymbolTableRecord
100
AcDbLinetypeTableRecord
  2
SLD-2点鎖線
 70
     0
  3
SolidWorks Line Style
 72
    65
 73
     6
 40
12.7
 49
6.35
 74
     0
 49
-1.27
 74
     0
 49
1.27
 74
     0
 49
-1.27
 74
     0
 49
1.27
 74
     0
 49
-1.27
 74
     0
  0
LTYPE
  5
71
330
5
100
AcDbSymbolTableRecord
100
AcDbLinetypeTableRecord
  2
SLD-鎖線
 70
     0
  3
SolidWorks Line Style
 72
    65
 73
     4
 40
10.16
 49
6.35
 74
     0
 49
-1.27
 74
     0
 49
1.27
 74
     0
 49
-1.27
 74
     0
  0
LTYPE
  5
72
330
5
100
AcDbSymbolTableRecord
100
AcDbLinetypeTableRecord
  2
SLD-1点鎖線(中心線)
 70
     0
  3
SolidWorks Line Style
 72
    65
 73
     4
 40
34.29
 49
30.48
 74
     0
 49
-1.27
 74
     0
 49
1.27
 74
     0
 49
-1.27
 74
     0
  0
LTYPE
  5
73
330
5
100
AcDbSymbolTableRecord
100
AcDbLinetypeTableRecord
  2
SLD-点線
 70
     0
  3
SolidWorks Line Style
 72
    65
 73
     2
 40
0.635
 49
0.0
 74
     0
 49
-0.635
 74
     0
  0
LTYPE
  5
74
330
5
100
AcDbSymbolTableRecord
100
AcDbLinetypeTableRecord
  2
SLD-細-太鎖線(切断面)
 70
     0
  3
SolidWorks Line Style
 72
    65
 73
     4
 40
10.16
 49
6.35
 74
     0
 49
-1.27
 74
     0
 49
1.27
 74
     0
 49
-1.27
 74
     0
  0
ENDTAB
  0
TABLE
  2
LAYER
  5
2
330
0
100
AcDbSymbolTable
 70
     1
  0
LAYER
  5
10
330
2
100
AcDbSymbolTableRecord
100
AcDbLayerTableRecord
  2
0
 70
     0
 62
     7
  6
Continuous
370
    -3
390
F
  0
ENDTAB
  0
TABLE
  2
STYLE
  5
3
330
0
100
AcDbSymbolTable
 70
     2
  0
STYLE
  5
11
330
3
100
AcDbSymbolTableRecord
100
AcDbTextStyleTableRecord
  2
STANDARD
 70
     0
 40
0.0
 41
1.0
 50
0.0
 71
     0
 42
3.5
  3
MSGOTHIC.TTC
  4

1001
ACAD
1000
ＭＳ Ｐゴシック
1071
    32818
  0
STYLE
  5
75
330
3
100
AcDbSymbolTableRecord
100
AcDbTextStyleTableRecord
  2
SLDTEXTSTYLE0
 70
     0
 40
0.0
 41
1.0
 50
0.0
 71
     0
 42
3.5
  3
MSGOTHIC.TTC
  4

1001
ACAD
1000
ＭＳ Ｐゴシック
1071
      306
  0
ENDTAB
  0
TABLE
  2
VIEW
  5
6
330
0
100
AcDbSymbolTable
 70
     0
  0
ENDTAB
  0
TABLE
  2
UCS
  5
7
330
0
100
AcDbSymbolTable
 70
     0
  0
ENDTAB
  0
TABLE
  2
APPID
  5
9
330
0
100
AcDbSymbolTable
 70
     1
  0
APPID
  5
12
330
9
100
AcDbSymbolTableRecord
100
AcDbRegAppTableRecord
  2
ACAD
 70
     0
  0
ENDTAB
  0
TABLE
  2
DIMSTYLE
  5
A
330
0
100
AcDbSymbolTable
 70
     1
100
AcDbDimStyleTable
  0
DIMSTYLE
105
27
330
A
100
AcDbSymbolTableRecord
100
AcDbDimStyleTableRecord
  2
ISO-25
 70
     0
 41
2.5
 42
0.625
 43
3.75
 44
1.25
 73
     0
 74
     0
 77
     1
 78
     8
140
2.5
141
2.5
143
0.0393700787
147
0.625
171
     3
172
     1
178
     0
271
     2
272
     2
274
     3
278
    44
283
     0
284
     8
340
11
  0
ENDTAB
  0
TABLE
  2
BLOCK_RECORD
  5
1
330
0
100
AcDbSymbolTable
 70
     1
  0
BLOCK_RECORD
  5
1F
330
1
100
AcDbSymbolTableRecord
100
AcDbBlockTableRecord
  2
*Model_Space
340
22
  0
BLOCK_RECORD
  5
1B
330
1
100
AcDbSymbolTableRecord
100
AcDbBlockTableRecord
  2
*Paper_Space
340
1E
  0
BLOCK_RECORD
  5
23
330
1
100
AcDbSymbolTableRecord
100
AcDbBlockTableRecord
  2
*Paper_Space0
340
26
  0
ENDTAB
  0
ENDSEC
  0
SECTION
  2
BLOCKS
  0
BLOCK
  5
20
330
1F
100
AcDbEntity
  8
0
100
AcDbBlockBegin
  2
*Model_Space
 70
     0
 10
0.0
 20
0.0
 30
0.0
  3
*Model_Space
  1

  0
ENDBLK
  5
21
330
1F
100
AcDbEntity
  8
0
100
AcDbBlockEnd
  0
BLOCK
  5
1C
330
1B
100
AcDbEntity
 67
     1
  8
0
100
AcDbBlockBegin
  2
*Paper_Space
 70
     0
 10
0.0
 20
0.0
 30
0.0
  3
*Paper_Space
  1

  0
ENDBLK
  5
1D
330
1B
100
AcDbEntity
 67
     1
  8
0
100
AcDbBlockEnd
  0
BLOCK
  5
24
330
23
100
AcDbEntity
  8
0
100
AcDbBlockBegin
  2
*Paper_Space0
 70
     0
 10
0.0
 20
0.0
 30
0.0
  3
*Paper_Space0
  1

  0
ENDBLK
  5
25
330
23
100
AcDbEntity
  8
0
100
AcDbBlockEnd
  0
ENDSEC
  0
SECTION
  2
ENTITIES
  0
MTEXT
  5
76
330
1F
100
AcDbEntity
  8
0
  6
Continuous
 62
     7
370
     0
100
AcDbMText
 10
152.1639220257
 20
70.2133600164
 30
0.0
 40
3.5
 41
0.0
 71
     1
 72
     1
  1
HIC-M21N
  7
SLDTEXTSTYLE0
 73
     1
 44
1.0
  0
SPLINE
  5
77
330
1F
100
AcDbEntity
  8
0
  6
SLD-実線
 62
     7
370
    25
100
AcDbSpline
210
0.0
220
0.0
230
1.0
 70
     8
 71
     3
 72
    29
 73
    25
 74
     0
 42
0.000000001
 43
0.00000001
 40
0.0
 40
0.0
 40
0.0
 40
0.0
 40
0.0351075581312968
 40
0.0727269370876966
 40
0.1127673127604162
 40
0.157900429856693
 40
0.2081297150788045
 40
0.2625806469313328
 40
0.3169558738761194
 40
0.3705575413169713
 40
0.4233662949516526
 40
0.4754409354030621
 40
0.5267679301392044
 40
0.577286981293517
 40
0.6269406546730198
 40
0.6755228641577287
 40
0.7229029422256172
 40
0.7690602172298854
 40
0.8143806517231457
 40
0.8594597079297297
 40
0.9044399172885735
 40
0.9495207575990039
 40
0.9945551904289555
 40
1.0
 40
1.0
 40
1.0
 40
1.0
 10
97.92329230296485
 20
133.7246939638323
 30
0.0
 10
97.8608849644871
 20
133.6186362917955
 30
0.0
 10
97.7316052645915
 20
133.3989328987813
 30
0.0
 10
97.65648304414725
 20
133.0301885706357
 30
0.0
 10
97.68914061910354
 20
132.6227064282909
 30
0.0
 10
97.86284421085577
 20
132.2038840921017
 30
0.0
 10
98.20574067612132
 20
131.7792502043241
 30
0.0
 10
98.74020641715883
 20
131.3889018698156
 30
0.0
 10
99.43548031468124
 20
131.0653865364542
 30
0.0
 10
100.2373380558731
 20
130.8263856951663
 30
0.0
 10
101.1121157990899
 20
130.6782804383355
 30
0.0
 10
102.0296520402307
 20
130.6281707595251
 30
0.0
 10
102.9518862804038
 20
130.6697301713313
 30
0.0
 10
103.8465616265161
 20
130.7970295261765
 30
0.0
 10
104.6834949270415
 20
131.0049515829521
 30
0.0
 10
105.4320405049919
 20
131.2877817047342
 30
0.0
 10
106.0771563970635
 20
131.6297817474782
 30
0.0
 10
106.6105824911301
 20
132.0193991380975
 30
0.0
 10
107.027646792404
 20
132.4510675730365
 30
0.0
 10
107.3148792205023
 20
132.9218014692882
 30
0.0
 10
107.4676458592861
 20
133.4253019183816
 30
0.0
 10
107.4646120990369
 20
133.9327011945157
 30
0.0
 10
107.3965706669019
 20
134.2975095096744
 30
0.0
 10
107.2933698733068
 20
134.4734352607188
 30
0.0
 10
107.2822383934751
 20
134.4924110251622
 30
0.0
  0
SPLINE
  5
78
330
1F
100
AcDbEntity
  8
0
  6
SLD-実線
 62
     7
370
    25
100
AcDbSpline
210
0.0
220
0.0
230
1.0
 70
     8
 71
     3
 72
    29
 73
    25
 74
     0
 42
0.000000001
 43
0.00000001
 40
0.0
 40
0.0
 40
0.0
 40
0.0
 40
0.0066197612450087
 40
0.0447267879869306
 40
0.0869061133621076
 40
0.1325911554270061
 40
0.1814789666522208
 40
0.233593649566952
 40
0.2868817492515767
 40
0.3398256799218792
 40
0.3924894070770129
 40
0.44502457923427
 40
0.4968513981180194
 40
0.5477777488530428
 40
0.59785182633558
 40
0.6471318447029899
 40
0.6951863298219523
 40
0.7419198605843551
 40
0.7874742674554889
 40
0.8327458449679563
 40
0.8779034325695759
 40
0.9230633218584458
 40
0.9681857559024593
 40
1.0
 40
1.0
 40
1.0
 40
1.0
 10
97.92210196418677
 20
135.2542413532564
 30
0.0
 10
97.90747264255167
 20
135.2351166652665
 30
0.0
 10
97.80862881073544
 20
135.1058996386427
 30
0.0
 10
97.7061217388996
 20
134.8274523519766
 30
0.0
 10
97.64808079910189
 20
134.4109192457138
 30
0.0
 10
97.7449129122925
 20
133.970336919541
 30
0.0
 10
98.00742966105882
 20
133.5342016917016
 30
0.0
 10
98.44895923353468
 20
133.1270755195133
 30
0.0
 10
99.04875689303046
 20
132.772403919657
 30
0.0
 10
99.77662618801544
 20
132.4898246768249
 30
0.0
 10
100.6050614834964
 20
132.2942025063451
 30
0.0
 10
101.4982391544552
 20
132.191113906464
 30
0.0
 10
102.4187188679138
 20
132.1776409963475
 30
0.0
 10
103.3305383414258
 20
132.2527186000662
 30
0.0
 10
104.2009375663057
 20
132.4163509855399
 30
0.0
 10
104.999106753202
 20
132.6578886179444
 30
0.0
 10
105.7064169133874
 20
132.9633181965615
 30
0.0
 10
106.3074233521769
 20
133.3215761185238
 30
0.0
 10
106.7911972186158
 20
133.7266591493727
 30
0.0
 10
107.1515608860008
 20
134.1743097544013
 30
0.0
 10
107.3889181308697
 20
134.6604245525644
 30
0.0
 10
107.4843253075109
 20
135.16622319859
 30
0.0
 10
107.456578006915
 20
135.6303298056791
 30
0.0
 10
107.3328537875016
 20
135.9070377682953
 30
0.0
 10
107.281692330934
 20
136.0214598473225
 30
0.0
  0
SPLINE
  5
79
330
1F
100
AcDbEntity
  8
0
  6
SLD-実線
 62
     7
370
    25
100
AcDbSpline
210
0.0
220
0.0
230
1.0
 70
     8
 71
     3
 72
    28
 73
    24
 74
     0
 42
0.000000001
 43
0.00000001
 40
0.0
 40
0.0
 40
0.0
 40
0.0
 40
0.0213198212809434
 40
0.0644039392403987
 40
0.1115875326332203
 40
0.160699236651553
 40
0.2116057037062574
 40
0.2638573093086677
 40
0.3163988111430631
 40
0.369327640716554
 40
0.4227759635030945
 40
0.4759293903805996
 40
0.5281172021739735
 40
0.579510403056017
 40
0.6301692311573303
 40
0.679634249921858
 40
0.7276949477498484
 40
0.7744911537411746
 40
0.8206991848257262
 40
0.8667367714350414
 40
0.912610462439328
 40
0.9585464383771071
 40
1.0
 40
1.0
 40
1.0
 40
1.0
 10
97.92973960110294
 20
136.7960296112937
 30
0.0
 10
97.88723634776004
 20
136.7341075922958
 30
0.0
 10
97.75884048037709
 20
136.5470505857371
 30
0.0
 10
97.65815178503894
 20
136.1890086027244
 30
0.0
 10
97.67050774237696
 20
135.7368326207684
 30
0.0
 10
97.86121571092707
 20
135.2889329983965
 30
0.0
 10
98.21208871028018
 20
134.8678962632949
 30
0.0
 10
98.71581712401115
 20
134.4919895261051
 30
0.0
 10
99.3609152783794
 20
134.1769104009934
 30
0.0
 10
100.1278229014164
 20
133.9391459778054
 30
0.0
 10
100.9805015938548
 20
133.7836369882567
 30
0.0
 10
101.8852616470594
 20
133.7154088433849
 30
0.0
 10
102.8041489922907
 20
133.7397035667971
 30
0.0
 10
103.6992734764164
 20
133.856096636855
 30
0.0
 10
104.5403068059162
 20
134.0519400614381
 30
0.0
 10
105.3026779769711
 20
134.3173836783449
 30
0.0
 10
105.9651381002981
 20
134.6434671827299
 30
0.0
 10
106.5122202292067
 20
135.0220267271056
 30
0.0
 10
106.9455101803383
 20
135.4440833245246
 30
0.0
 10
107.2625399474785
 20
135.9060409006056
 30
0.0
 10
107.4470293179956
 20
136.4007926024061
 30
0.0
 10
107.4947328456851
 20
136.8950538035014
 30
0.0
 10
107.4070461815502
 20
137.2134735583975
 30
0.0
 10
107.3654516767996
 20
137.364517187875
 30
0.0
  0
SPLINE
  5
7A
330
1F
100
AcDbEntity
  8
0
  6
SLD-実線
 62
     7
370
    25
100
AcDbSpline
210
0.0
220
0.0
230
1.0
 70
     8
 71
     3
 72
    22
 73
    18
 74
     0
 42
0.000000001
 43
0.00000001
 40
0.0
 40
0.0
 40
0.0
 40
0.0
 40
0.0351220928262644
 40
0.1199163241002663
 40
0.2054622432162496
 40
0.2896171065032002
 40
0.3716407966228318
 40
0.4515594736485838
 40
0.5333602514079417
 40
0.5811510436650589
 40
0.6342220551637296
 40
0.6926419448723679
 40
0.7564108151036888
 40
0.8254611371773118
 40
0.8997423081032216
 40
0.9794193114771883
 40
1.0
 40
1.0
 40
1.0
 40
1.0
 10
97.70756914744692
 20
137.3920280551872
 30
0.0
 10
97.71210202273242
 20
137.3213324121399
 30
0.0
 10
97.72757848492758
 20
137.0799583662912
 30
0.0
 10
97.95564406238086
 20
136.6989578450408
 30
0.0
 10
98.3596951375268
 20
136.2741673466841
 30
0.0
 10
98.92733815285132
 20
135.917422678889
 30
0.0
 10
99.60223111147207
 20
135.6370798420988
 30
0.0
 10
100.3623973544642
 20
135.4304356014745
 30
0.0
 10
101.0758191084087
 20
135.3187596466766
 30
0.0
 10
101.725673062062
 20
135.2726173137025
 30
0.0
 10
102.3048060033067
 20
135.2681682863972
 30
0.0
 10
102.9467584107279
 20
135.305359675942
 30
0.0
 10
103.6400880758897
 20
135.3955043408483
 30
0.0
 10
104.3697838347674
 20
135.5489049993151
 30
0.0
 10
105.0995109419522
 20
135.7837927613108
 30
0.0
 10
105.6364659978746
 20
136.0069410348711
 30
0.0
 10
105.8819369505936
 20
136.1692339018751
 30
0.0
 10
105.9323267124536
 20
136.2025490409143
 30
0.0
  0
SPLINE
  5
7B
330
1F
100
AcDbEntity
  8
0
  6
SLD-実線
 62
     7
370
    25
100
AcDbSpline
210
0.0
220
0.0
230
1.0
 70
     8
 71
     3
 72
    19
 73
    15
 74
     0
 42
0.000000001
 43
0.00000001
 40
0.0
 40
0.0
 40
0.0
 40
0.0
 40
0.0596938092588748
 40
0.1457397978289046
 40
0.2316311255821017
 40
0.3173815174715786
 40
0.4030282059904082
 40
0.4886143068399453
 40
0.5741835837503342
 40
0.6597743927368577
 40
0.7454226456805856
 40
0.831175708662432
 40
0.9170836120252945
 40
1.0
 40
1.0
 40
1.0
 40
1.0
 10
99.174008786096
 20
136.9243319723155
 30
0.0
 10
99.28230191058734
 20
136.8692936967692
 30
0.0
 10
99.54669478927232
 20
136.7349201788023
 30
0.0
 10
100.0301395009987
 20
136.5623593263005
 30
0.0
 10
100.6040050597391
 20
136.4046320488185
 30
0.0
 10
101.2132797495943
 20
136.2897242198758
 30
0.0
 10
101.8448446909827
 20
136.2176642925473
 30
0.0
 10
102.4887087620482
 20
136.189910475373
 30
0.0
 10
103.1337984319139
 20
136.2067181317608
 30
0.0
 10
103.7691148957599
 20
136.2679123125117
 30
0.0
 10
104.3843080360874
 20
136.3723266170966
 30
0.0
 10
104.9674599767306
 20
136.5193528704026
 30
0.0
 10
105.5078169639081
 20
136.7012810644241
 30
0.0
 10
105.8223793169382
 20
136.8520701336368
 30
0.0
 10
105.9768735185689
 20
136.92612869989
 30
0.0
  0
LINE
  5
7C
330
1F
100
AcDbEntity
  8
0
  6
SLD-実線
 62
     7
370
    25
100
AcDbLine
 10
98.6513085169
 20
136.5298442492
 30
0.0
 11
98.7561623701
 21
136.4580003478
 31
0.0
  0
LINE
  5
7D
330
1F
100
AcDbEntity
  8
0
  6
SLD-実線
 62
     7
370
    25
100
AcDbLine
 10
106.2451698994
 20
136.3655338493
 30
0.0
 11
106.4849760774
 21
136.5298441709
 31
0.0
  0
LINE
  5
7E
330
1F
100
AcDbEntity
  8
0
  6
SLD-実線
 62
     7
370
    25
100
AcDbLine
 10
97.9681421119
 20
132.1136411836
 30
0.0
 11
97.9681421119
 21
132.0460571685
 31
0.0
  0
LINE
  5
7F
330
1F
100
AcDbEntity
  8
0
  6
SLD-実線
 62
     7
370
    25
100
AcDbLine
 10
97.9681421119
 20
133.6499010473
 30
0.0
 11
97.9681421119
 21
133.2029141339
 31
0.0
  0
LINE
  5
80
330
1F
100
AcDbEntity
  8
0
  6
SLD-実線
 62
     7
370
    25
100
AcDbLine
 10
97.9681421119
 20
135.1987728418
 30
0.0
 11
97.9681421119
 21
134.7456106845
 31
0.0
  0
LINE
  5
81
330
1F
100
AcDbEntity
  8
0
  6
SLD-実線
 62
     7
370
    25
100
AcDbLine
 10
97.9681421119
 20
136.7214344759
 30
0.0
 11
97.9681421119
 21
136.2892604044
 31
0.0
  0
LINE
  5
82
330
1F
100
AcDbEntity
  8
0
  6
SLD-実線
 62
     7
370
    25
100
AcDbLine
 10
107.1681422918
 20
137.0607787797
 30
0.0
 11
107.1681422918
 21
137.1767437213
 31
0.0
  0
LINE
  5
83
330
1F
100
AcDbEntity
  8
0
  6
SLD-実線
 62
     7
370
    25
100
AcDbLine
 10
107.1681422918
 20
135.517484303
 30
0.0
 11
107.1681422918
 21
135.8055410104
 31
0.0
  0
LINE
  5
84
330
1F
100
AcDbEntity
  8
0
  6
SLD-実線
 62
     7
370
    25
100
AcDbLine
 10
107.1681422918
 20
133.974167873
 30
0.0
 11
107.1681422918
 21
134.2569861407
 31
0.0
  0
LINE
  5
85
330
1F
100
AcDbEntity
  8
0
  6
SLD-実線
 62
     7
370
    25
100
AcDbLine
 10
107.1681422918
 20
132.3225593547
 30
0.0
 11
107.1681422918
 21
132.7232329367
 31
0.0
  0
SPLINE
  5
86
330
1F
100
AcDbEntity
  8
0
  6
SLD-実線
 62
     7
370
    25
100
AcDbSpline
210
0.0
220
0.0
230
1.0
 70
     8
 71
     3
 72
    31
 73
    27
 74
     0
 42
0.000000001
 43
0.00000001
 40
0.0
 40
0.0
 40
0.0
 40
0.0
 40
0.0157759047127137
 40
0.0547216616298658
 40
0.0933329795351786
 40
0.1326196759219492
 40
0.1735326899466438
 40
0.2167751171941207
 40
0.2624545776113364
 40
0.3098381221017307
 40
0.3576924455894401
 40
0.4052330727398766
 40
0.4523626056602061
 40
0.4992014819924811
 40
0.5459401863204878
 40
0.5927786116446822
 40
0.6398836053920823
 40
0.6874987144858582
 40
0.7358752406428625
 40
0.7852041332827558
 40
0.8353831457465789
 40
0.878416224026621
 40
0.9190806772907401
 40
0.957866870964683
 40
0.9954930257753954
 40
1.0
 40
1.0
 40
1.0
 40
1.0
 10
97.9787083192522
 20
132.0413582479651
 30
0.0
 10
97.97616097489993
 20
131.9846205475559
 30
0.0
 10
97.96732503691486
 20
131.7878152739447
 30
0.0
 10
98.04144379256998
 20
131.4560963712967
 30
0.0
 10
98.19122868766932
 20
131.0650884886576
 30
0.0
 10
98.41639615102123
 20
130.7026144750835
 30
0.0
 10
98.7085190388564
 20
130.3680039465008
 30
0.0
 10
99.07107727039117
 20
130.0616859434413
 30
0.0
 10
99.503973805424
 20
129.7874319075666
 30
0.0
 10
100.0015353545271
 20
129.5520340085537
 30
0.0
 10
100.5506747546126
 20
129.3620968312783
 30
0.0
 10
101.135711831133
 20
129.2212811644517
 30
0.0
 10
101.74327157011
 20
129.1304489853779
 30
0.0
 10
102.3629033737057
 20
129.0893782885078
 30
0.0
 10
102.9851261959009
 20
129.0978112612551
 30
0.0
 10
103.6006504615642
 20
129.1556700168472
 30
0.0
 10
104.200590199363
 20
129.2631438004605
 30
0.0
 10
104.77659496564
 20
129.4209996002349
 30
0.0
 10
105.3207495045187
 20
129.631167680167
 30
0.0
 10
105.8240540110189
 20
129.8969115162724
 30
0.0
 10
106.252499845417
 20
130.2062995063745
 30
0.0
 10
106.5967121432627
 20
130.5473963331886
 30
0.0
 10
106.8549987355382
 20
130.9031457048933
 30
0.0
 10
107.0389193111116
 20
131.2810022847845
 30
0.0
 10
107.1174269663452
 20
131.5622376912986
 30
0.0
 10
107.1413699802387
 20
131.71167458541
 30
0.0
 10
107.1439311606909
 20
131.7276598266058
 30
0.0
  0
LINE
  5
87
330
1F
100
AcDbEntity
  8
0
  6
SLD-実線
 62
     7
370
    25
100
AcDbLine
 10
99.7708190357
 20
129.6730794609
 30
0.0
 11
100.2423664878
 21
128.9178935371
 31
0.0
  0
LINE
  5
88
330
1F
100
AcDbEntity
  8
0
  6
SLD-実線
 62
     7
370
    25
100
AcDbLine
 10
104.8939178646
 20
128.9178935634
 30
0.0
 11
105.3608329444
 21
129.6656601633
 31
0.0
  0
SPLINE
  5
89
330
1F
100
AcDbEntity
  8
0
  6
SLD-実線
 62
     7
370
    25
100
AcDbSpline
210
0.0
220
0.0
230
1.0
 70
     8
 71
     3
 72
    10
 73
     6
 74
     0
 42
0.000000001
 43
0.00000001
 40
0.0
 40
0.0
 40
0.0
 40
0.0
 40
0.349143080183399
 40
0.9226191381847809
 40
0.9999999999999999
 40
0.9999999999999999
 40
0.9999999999999999
 40
0.9999999999999999
 10
107.1690023054718
 20
131.9199198847455
 30
0.0
 10
107.1885934303118
 20
132.0106558371629
 30
0.0
 10
107.2403634573922
 20
132.250427813104
 30
0.0
 10
107.2342360155679
 20
132.5144018003773
 30
0.0
 10
107.1751652155599
 20
132.6788852575669
 30
0.0
 10
107.1681422443452
 20
132.6984408177587
 30
0.0
  0
SPLINE
  5
8A
330
1F
100
AcDbEntity
  8
0
  6
SLD-実線
 62
     7
370
    25
100
AcDbSpline
210
0.0
220
0.0
230
1.0
 70
     8
 71
     3
 72
     9
 73
     5
 74
     0
 42
0.000000001
 43
0.00000001
 40
0.0
 40
0.0
 40
0.0
 40
0.0
 40
0.4537919600362095
 40
1.0
 40
1.0
 40
1.0
 40
1.0
 10
107.0923409950492
 20
131.6623331950187
 30
0.0
 10
107.1112822935556
 20
131.7007145474851
 30
0.0
 10
107.1530223422443
 20
131.7852937287982
 30
0.0
 10
107.1633572795971
 20
131.8723623201311
 30
0.0
 10
107.1690023054718
 20
131.9199198847455
 30
0.0
  0
LINE
  5
8B
330
1F
100
AcDbEntity
  8
0
  6
SLD-実線
 62
     7
370
    25
100
AcDbLine
 10
77.5681423291
 20
185.2590036196
 30
0.0
 11
77.5681423291
 21
184.144686425
 31
0.0
  0
LINE
  5
8C
330
1F
100
AcDbEntity
  8
0
  6
SLD-実線
 62
     7
370
    25
100
AcDbLine
 10
127.5681420746
 20
184.144686544
 30
0.0
 11
127.5681420746
 21
185.2590037386
 31
0.0
  0
SPLINE
  5
8D
330
1F
100
AcDbEntity
  8
0
  6
SLD-実線
 62
     7
370
    25
100
AcDbSpline
210
0.0
220
0.0
230
1.0
 70
     8
 71
     3
 72
    24
 73
    20
 74
     0
 42
0.000000001
 43
0.00000001
 40
0.0
 40
0.0
 40
0.0
 40
0.0
 40
0.0415408008288691
 40
0.1004649604891701
 40
0.1596372190870494
 40
0.2190939232093062
 40
0.2788300891998665
 40
0.3388102386798704
 40
0.3989825998236304
 40
0.4592920695038739
 40
0.5196889765679014
 40
0.5801332397079724
 40
0.6405950957617896
 40
0.7010491533741278
 40
0.7614845612478509
 40
0.8218952566534904
 40
0.8822786965386963
 40
0.9426345620368148
 40
1.0
 40
1.0
 40
1.0
 40
1.0
 10
77.74532686747388
 20
182.6125343992496
 30
0.0
 10
77.78569080292185
 20
182.43239706004
 30
0.0
 10
77.88330955602852
 20
181.9967412636853
 30
0.0
 10
78.1351970660066
 20
181.3149132659725
 30
0.0
 10
78.48606010835704
 20
180.568274007786
 30
0.0
 10
78.92242493760762
 20
179.8339312581212
 30
0.0
 10
79.43931319510261
 20
179.1140318172181
 30
0.0
 10
80.03623261701043
 20
178.4113165429962
 30
0.0
 10
80.71087077916528
 20
177.7284339903157
 30
0.0
 10
81.46083102313514
 20
177.0679876159326
 30
0.0
 10
82.28326184401064
 20
176.4324109876695
 30
0.0
 10
83.17505569217445
 20
175.8239627602992
 30
0.0
 10
84.13287018553764
 20
175.2447234492241
 30
0.0
 10
85.15316829052564
 20
174.6965780437879
 30
0.0
 10
86.23235381028651
 20
174.1813192434571
 30
0.0
 10
87.36641421647118
 20
173.700292230035
 30
0.0
 10
88.55237581857001
 20
173.2559018335748
 30
0.0
 10
89.76256516187225
 20
172.8526926451752
 30
0.0
 10
90.59656532747307
 20
172.6170472777246
 30
0.0
 10
91.00297252272458
 20
172.5022175968568
 30
0.0
  0
SPLINE
  5
8E
330
1F
100
AcDbEntity
  8
0
  6
SLD-実線
 62
     7
370
    25
100
AcDbSpline
210
0.0
220
0.0
230
1.0
 70
     8
 71
     3
 72
    41
 73
    37
 74
     0
 42
0.000000001
 43
0.00000001
 40
0.0
 40
0.0
 40
0.0
 40
0.0
 40
0.0159349855463343
 40
0.0461957597051244
 40
0.0764495093129716
 40
0.106694426113473
 40
0.1369320158679048
 40
0.1671637609166119
 40
0.1973911589806782
 40
0.2276156464667519
 40
0.2578387053419008
 40
0.2880617756553577
 40
0.318285904999649
 40
0.3485124684678619
 40
0.3787428808510798
 40
0.4089787134689473
 40
0.4392214771874308
 40
0.4694727400413595
 40
0.4997340603176319
 40
0.5300070684581633
 40
0.5602932698121638
 40
0.5905940958462268
 40
0.6209106969904647
 40
0.651243795047334
 40
0.6815933186434966
 40
0.711958029046815
 40
0.7423348778169694
 40
0.7727180470179155
 40
0.8030944251757194
 40
0.8334483603365921
 40
0.8637585613905555
 40
0.893998460645546
 40
0.9241384103088711
 40
0.9541504662380321
 40
0.984015425581878
 40
1.0
 40
1.0
 40
1.0
 40
1.0
 10
91.00297252272458
 20
172.5022175968568
 30
0.0
 10
91.23086087707681
 20
172.4416790320453
 30
0.0
 10
91.8915126000822
 20
172.2661768337663
 30
0.0
 10
93.01358425250338
 20
172.0061523598988
 30
0.0
 10
94.37613753660092
 20
171.7364435431501
 30
0.0
 10
95.7667810056637
 20
171.5091458348294
 30
0.0
 10
97.18009529860555
 20
171.3243110354706
 30
0.0
 10
98.61152313946316
 20
171.1826825033893
 30
0.0
 10
100.0562073530454
 20
171.0846608248729
 30
0.0
 10
101.5093107469984
 20
171.0305604170387
 30
0.0
 10
102.965950218596
 20
171.020546806307
 30
0.0
 10
104.4212291707932
 20
171.0546435881855
 30
0.0
 10
105.8702535323781
 20
171.1327579021696
 30
0.0
 10
107.3081500386142
 20
171.2546212975042
 30
0.0
 10
108.7300932405906
 20
171.4198648912569
 30
0.0
 10
110.1313119934943
 20
171.6279590896592
 30
0.0
 10
111.5071095888246
 20
171.8782603649411
 30
0.0
 10
112.8528745494185
 20
172.1699874232804
 30
0.0
 10
114.1640952387348
 20
172.502243359719
 30
0.0
 10
115.4363799815656
 20
172.8740100173442
 30
0.0
 10
116.6654614991422
 20
173.2841633596794
 30
0.0
 10
117.8472109620643
 20
173.7314632720312
 30
0.0
 10
118.977646020991
 20
174.2145845423227
 30
0.0
 10
120.0529393220584
 20
174.7320922496362
 30
0.0
 10
121.0694102424736
 20
175.2824738193133
 30
0.0
 10
122.0235411710032
 20
175.864117054761
 30
0.0
 10
122.9119540421721
 20
176.4753143227845
 30
0.0
 10
123.7313889107939
 20
177.1142228001239
 30
0.0
 10
124.4787332120756
 20
177.7788362857733
 30
0.0
 10
125.1510025094721
 20
178.4669621232659
 30
0.0
 10
125.7455529647368
 20
179.176193857095
 30
0.0
 10
126.2595064733669
 20
179.9038923926771
 30
0.0
 10
126.6921823152695
 20
180.6469899988823
 30
0.0
 10
127.0364975211866
 20
181.4027992981595
 30
0.0
 10
127.2691867726685
 20
182.0492425112261
 30
0.0
 10
127.3533239420119
 20
182.4457298429147
 30
0.0
 10
127.3826567777977
 20
182.5839576663887
 30
0.0
  0
LINE
  5
8F
330
1F
100
AcDbEntity
  8
0
  6
SLD-実線
 62
     7
370
    25
100
AcDbLine
 10
124.3181414041
 20
183.1270912875
 30
0.0
 11
124.3181414041
 21
184.4875528819
 31
0.0
  0
LINE
  5
90
330
1F
100
AcDbEntity
  8
0
  6
SLD-実線
 62
     7
370
    25
100
AcDbLine
 10
80.8181429996
 20
184.4875527629
 30
0.0
 11
80.8181429996
 21
183.1270911685
 31
0.0
  0
SPLINE
  5
91
330
1F
100
AcDbEntity
  8
0
  6
SLD-実線
 62
     7
370
    25
100
AcDbSpline
210
0.0
220
0.0
230
1.0
 70
     8
 71
     3
 72
    21
 73
    17
 74
     0
 42
0.000000001
 43
0.00000001
 40
0.0
 40
0.0
 40
0.0
 40
0.0
 40
0.0478734408716341
 40
0.1209377592714999
 40
0.1946484307476948
 40
0.2692055204320769
 40
0.3445417984848364
 40
0.4206240161562375
 40
0.4974510963468126
 40
0.5750530938720418
 40
0.6534892354322289
 40
0.7328454911231072
 40
0.813231088498031
 40
0.8947758353775958
 40
0.9776260187686632
 40
1.0
 40
1.0
 40
1.0
 40
1.0
 10
116.1187083698539
 20
160.0850798199093
 30
0.0
 10
116.3471966110989
 20
160.3140906725006
 30
0.0
 10
116.9244029997131
 20
160.8926172805108
 30
0.0
 10
117.8094873591257
 20
161.8767143674103
 30
0.0
 10
118.7634678933255
 20
163.0476928097996
 30
0.0
 10
119.6663329249685
 20
164.284144152223
 30
0.0
 10
120.5141243463869
 20
165.5825012209525
 30
0.0
 10
121.3014620229092
 20
166.9392103080205
 30
0.0
 10
122.0242639099184
 20
168.35042917413
 30
0.0
 10
122.679184508255
 20
169.81267574728
 30
0.0
 10
123.2637953329726
 20
171.3227371750709
 30
0.0
 10
123.7757180126534
 20
172.8778104751143
 30
0.0
 10
124.2151106923274
 20
174.4753169368329
 30
0.0
 10
124.5747265295745
 20
176.1135823156475
 30
0.0
 10
124.8018611988361
 20
177.3718890291548
 30
0.0
 10
124.8897834088365
 20
178.0840678241931
 30
0.0
 10
124.9084784479791
 20
178.2354995324012
 30
0.0
  0
SPLINE
  5
92
330
1F
100
AcDbEntity
  8
0
  6
SLD-実線
 62
     7
370
    25
100
AcDbSpline
210
0.0
220
0.0
230
1.0
 70
     8
 71
     3
 72
    21
 73
    17
 74
     0
 42
0.000000001
 43
0.00000001
 40
0.0
 40
0.0
 40
0.0
 40
0.0
 40
0.0019012640979888
 40
0.0862697410277718
 40
0.1692678766107552
 40
0.2510434538448942
 40
0.331759107141756
 40
0.4115616310747964
 40
0.4905788089832196
 40
0.5689152739839284
 40
0.6466501438325256
 40
0.723831544493758
 40
0.8004744228489462
 40
0.8765570182765481
 40
0.9520193278048293
 40
1.0
 40
1.0
 40
1.0
 40
1.0
 10
80.2214684277571
 20
178.2402889668697
 30
0.0
 10
80.22302944705572
 20
178.2274165158624
 30
0.0
 10
80.29386060132558
 20
177.643329846384
 30
0.0
 10
80.48767516069042
 20
176.5011100078719
 30
0.0
 10
80.8347761206993
 20
174.8299690418443
 30
0.0
 10
81.26476988350123
 20
173.2001030088236
 30
0.0
 10
81.76975036665573
 20
171.6129337936477
 30
0.0
 10
82.35039503569503
 20
170.0705600148856
 30
0.0
 10
83.00474889094528
 20
168.5753016738683
 30
0.0
 10
83.73101584463625
 20
167.1299046895502
 30
0.0
 10
84.5266153241715
 20
165.7374704039418
 30
0.0
 10
85.38835314362123
 20
164.4015979317948
 30
0.0
 10
86.31178053264918
 20
163.1257766111046
 30
0.0
 10
87.29260035430828
 20
161.915388613246
 30
0.0
 10
88.19924080229183
 20
160.9053617537476
 30
0.0
 10
88.7885282233759
 20
160.31467276255
 30
0.0
 10
89.01757653527683
 20
160.0850796786804
 30
0.0
  0
SPLINE
  5
93
330
1F
100
AcDbEntity
  8
0
  6
SLD-実線
 62
     7
370
    25
100
AcDbSpline
210
0.0
220
0.0
230
1.0
 70
     8
 71
     3
 72
    12
 73
     8
 74
     0
 42
0.000000001
 43
0.00000001
 40
0.0
 40
0.0
 40
0.0
 40
0.0
 40
0.166380187886092
 40
0.4288982129353754
 40
0.6846640885625324
 40
0.9326105629237997
 40
1.0
 40
1.0
 40
1.0
 40
1.0
 10
113.3421437933031
 20
156.6476704627621
 30
0.0
 10
113.4929329050506
 20
156.8599928375975
 30
0.0
 10
113.8816401266272
 20
157.407321749111
 30
0.0
 10
114.5110221683176
 20
158.2200342511397
 30
0.0
 10
115.2140161624899
 20
159.0581527462575
 30
0.0
 10
115.7309544462866
 20
159.6264713309465
 30
0.0
 10
116.0099065366376
 20
159.9167341314534
 30
0.0
 10
116.0695205027548
 20
159.9787652735493
 30
0.0
  0
SPLINE
  5
94
330
1F
100
AcDbEntity
  8
0
  6
SLD-実線
 62
     7
370
    25
100
AcDbSpline
210
0.0
220
0.0
230
1.0
 70
     8
 71
     3
 72
    12
 73
     8
 74
     0
 42
0.000000001
 43
0.00000001
 40
0.0
 40
0.0
 40
0.0
 40
0.0
 40
0.1694845015490734
 40
0.4026932701077307
 40
0.6422428973916564
 40
0.8898921999657736
 40
0.9999999999999999
 40
0.9999999999999999
 40
0.9999999999999999
 40
0.9999999999999999
 10
89.066764369356
 20
159.9787653161906
 30
0.0
 10
89.21734200166449
 20
159.8206409009593
 30
0.0
 10
89.57511276303308
 20
159.4449390682171
 30
0.0
 10
90.16104331820618
 20
158.7796691530196
 30
0.0
 10
90.82283845437861
 20
157.9704360664227
 30
0.0
 10
91.37065098405012
 20
157.2471865193833
 30
0.0
 10
91.69447594522623
 20
156.7887612162846
 30
0.0
 10
91.79414036505553
 20
156.6476705119038
 30
0.0
  0
LINE
  5
95
330
1F
100
AcDbEntity
  8
0
  6
SLD-実線
 62
     7
370
    25
100
AcDbLine
 10
91.1567230597
 20
157.5165775509
 30
0.0
 11
91.5700288672
 21
146.0243941608
 31
0.0
  0
LINE
  5
96
330
1F
100
AcDbEntity
  8
0
  6
SLD-実線
 62
     7
370
    25
100
AcDbLine
 10
113.5662557698
 20
146.0243940842
 30
0.0
 11
113.9796152481
 21
157.5180859683
 31
0.0
  0
SPLINE
  5
97
330
1F
100
AcDbEntity
  8
0
  6
SLD-実線
 62
     7
370
    25
100
AcDbSpline
210
0.0
220
0.0
230
1.0
 70
     8
 71
     3
 72
    20
 73
    16
 74
     0
 42
0.000000001
 43
0.00000001
 40
0.0
 40
0.0
 40
0.0
 40
0.0
 40
0.0918611528097697
 40
0.1720636948613699
 40
0.2538641757203786
 40
0.3360761860799728
 40
0.4185858963408521
 40
0.5011676973406134
 40
0.5835879144323571
 40
0.6655526965044416
 40
0.7466821847216826
 40
0.8264865277958025
 40
0.904359980873727
 40
0.9796168309659505
 40
1.0
 40
1.0
 40
1.0
 40
1.0
 10
108.1820367016334
 20
140.8430872543896
 30
0.0
 10
108.4485486407086
 20
140.9343158255028
 30
0.0
 10
108.9477480036525
 20
141.1051946414389
 30
0.0
 10
109.6343817299884
 20
141.3991520552703
 30
0.0
 10
110.2577507340913
 20
141.70795786823
 30
0.0
 10
110.8424262842968
 20
142.0482457361398
 30
0.0
 10
111.381600505681
 20
142.4166819882912
 30
0.0
 10
111.8703788456782
 20
142.8120377421862
 30
0.0
 10
112.3044140624881
 20
143.2325002485418
 30
0.0
 10
112.6797749641624
 20
143.6760819156553
 30
0.0
 10
112.9929396159914
 20
144.1404041873815
 30
0.0
 10
113.2413023950594
 20
144.6224272022154
 30
0.0
 10
113.4222125612484
 20
145.1187818561365
 30
0.0
 10
113.5114412443929
 20
145.5082568791203
 30
0.0
 10
113.540828749999
 20
145.7314272316456
 30
0.0
 10
113.5470919283184
 20
145.7789901562505
 30
0.0
  0
SPLINE
  5
98
330
1F
100
AcDbEntity
  8
0
  6
SLD-実線
 62
     7
370
    25
100
AcDbSpline
210
0.0
220
0.0
230
1.0
 70
     8
 71
     3
 72
    19
 73
    15
 74
     0
 42
0.000000001
 43
0.00000001
 40
0.0
 40
0.0
 40
0.0
 40
0.0
 40
0.076242115061633
 40
0.1565256027831583
 40
0.2398552162149928
 40
0.325336201618115
 40
0.4122126877844621
 40
0.4999145679149345
 40
0.588038152808865
 40
0.6763045633412557
 40
0.7645058684130575
 40
0.852474568812245
 40
0.9371680183801641
 40
1.0
 40
1.0
 40
1.0
 40
1.0
 10
91.5891922260747
 20
145.7789901477247
 30
0.0
 10
91.61735162147727
 20
145.6030798967815
 30
0.0
 10
91.67516305989069
 20
145.2419349043798
 30
0.0
 10
91.8511149825095
 20
144.7264016222583
 30
0.0
 10
92.09669287266358
 20
144.2178536596366
 30
0.0
 10
92.41803215770533
 20
143.7254897028749
 30
0.0
 10
92.81063282862013
 20
143.2533872732394
 30
0.0
 10
93.27130351303273
 20
142.8056244216647
 30
0.0
 10
93.79548748539644
 20
142.3850803986008
 30
0.0
 10
94.37846324066655
 20
141.994185653067
 30
0.0
 10
95.01483557631919
 20
141.6347102660904
 30
0.0
 10
95.69226731659425
 20
141.3126694609381
 30
0.0
 10
96.34147067183551
 20
141.0494479827336
 30
0.0
 10
96.77121629663898
 20
140.9047254325313
 30
0.0
 10
96.95424758135687
 20
140.8430872150315
 30
0.0
  0
LINE
  5
99
330
1F
100
AcDbEntity
  8
0
  6
SLD-実線
 62
     7
370
    25
100
AcDbLine
 10
96.9542475814
 20
140.843087215
 30
0.0
 11
97.7790375489
 21
140.5761049707
 31
0.0
  0
LINE
  5
9A
330
1F
100
AcDbEntity
  8
0
  6
SLD-実線
 62
     7
370
    25
100
AcDbLine
 10
107.3572466224
 20
140.5761050904
 30
0.0
 11
108.1820367016
 21
140.8430872544
 31
0.0
  0
SPLINE
  5
9B
330
1F
100
AcDbEntity
  8
0
  6
SLD-実線
 62
     7
370
    25
100
AcDbSpline
210
0.0
220
0.0
230
1.0
 70
     8
 71
     3
 72
    31
 73
    27
 74
     0
 42
0.000000001
 43
0.00000001
 40
0.0
 40
0.0
 40
0.0
 40
0.0
 40
0.0252914975539244
 40
0.0687778655521211
 40
0.1123892135534857
 40
0.1560429810046595
 40
0.1996820904561119
 40
0.2432904824893307
 40
0.2840757241758828
 40
0.3069798870862986
 40
0.3504959943663843
 40
0.3940009350618562
 40
0.4374884323151579
 40
0.4809650306159848
 40
0.5244371767919037
 40
0.5679111407858387
 40
0.6113914566267102
 40
0.6548847520049035
 40
0.698397880386174
 40
0.7419380243112921
 40
0.7855124454126894
 40
0.8291278119191551
 40
0.8727888865231618
 40
0.9164954946865136
 40
0.9602369584844801
 40
1.0
 40
1.0
 40
1.0
 40
1.0
 10
94.49196066306118
 20
141.9403341248165
 30
0.0
 10
94.56595653800488
 20
141.8591670528049
 30
0.0
 10
94.76718140922648
 20
141.6384407808959
 30
0.0
 10
95.1785015609132
 20
141.3041554428536
 30
0.0
 10
95.71346272596145
 20
140.9387624318007
 30
0.0
 10
96.31692486836818
 20
140.6042091963424
 30
0.0
 10
96.9783722369497
 20
140.3023226758367
 30
0.0
 10
97.67717247861194
 20
140.0418018366391
 30
0.0
 10
98.29939543382994
 20
139.8533829593861
 30
0.0
 10
98.94440275837033
 20
139.6889087938736
 30
0.0
 10
99.62890389340086
 20
139.5461219861743
 30
0.0
 10
100.469223310023
 20
139.418564763814
 30
0.0
 10
101.3291855054345
 20
139.3340925877406
 30
0.0
 10
102.2006450082066
 20
139.293454499717
 30
0.0
 10
103.0754945958185
 20
139.2969927620875
 30
0.0
 10
103.9455669806997
 20
139.3446703206484
 30
0.0
 10
104.8027477024419
 20
139.4360669652423
 30
0.0
 10
105.6390480517525
 20
139.5703870662029
 30
0.0
 10
106.4466987969335
 20
139.7464733088495
 30
0.0
 10
107.2181872004926
 20
139.9628363505705
 30
0.0
 10
107.9463944293014
 20
140.2176527448286
 30
0.0
 10
108.6243743210369
 20
140.5088862007051
 30
0.0
 10
109.2463877416675
 20
140.8340077831959
 30
0.0
 10
109.8041808875386
 20
141.1911420110461
 30
0.0
 10
110.2858147055054
 20
141.5632182726403
 30
0.0
 10
110.5421096491165
 20
141.8276498541228
 30
0.0
 10
110.6641517646259
 20
141.953566460814
 30
0.0
  0
LINE
  5
9C
330
1F
100
AcDbEntity
  8
0
  6
SLD-実線
 62
     7
370
    25
100
AcDbLine
 10
94.350210274
 20
142.024374288
 30
0.0
 11
94.3684819379
 21
140.9907215861
 31
0.0
  0
LINE
  5
9D
330
1F
100
AcDbEntity
  8
0
  6
SLD-実線
 62
     7
370
    25
100
AcDbLine
 10
110.7678023472
 20
140.990721546
 30
0.0
 11
110.7860768204
 21
142.0245178974
 31
0.0
  0
SPLINE
  5
9E
330
1F
100
AcDbEntity
  8
0
  6
SLD-実線
 62
     7
370
    25
100
AcDbSpline
210
0.0
220
0.0
230
1.0
 70
     8
 71
     3
 72
    25
 73
    21
 74
     0
 42
0.000000001
 43
0.00000001
 40
0.0
 40
0.0
 40
0.0
 40
0.0
 40
0.0732984669748233
 40
0.1029610845744462
 40
0.1520692633222067
 40
0.2028194399884047
 40
0.2570144003429335
 40
0.3132819679154398
 40
0.3710761793293481
 40
0.4299676888133868
 40
0.4896610047554867
 40
0.5499445310110203
 40
0.6106619388982897
 40
0.6716864042145304
 40
0.7328910404820296
 40
0.7940962474858381
 40
0.8548632830826197
 40
0.9144884965402633
 40
0.9718194825983355
 40
1.0
 40
1.0
 40
1.0
 40
1.0
 10
102.568142173268
 20
136.5250890401536
 30
0.0
 10
102.8509100005781
 20
136.5293647100943
 30
0.0
 10
103.2481090605885
 20
136.5353706694621
 30
0.0
 10
103.8298686948293
 20
136.5753503447129
 30
0.0
 10
104.3213986062882
 20
136.6230255477161
 30
0.0
 10
104.8968482517826
 20
136.702140406999
 30
0.0
 10
105.4858135047193
 20
136.8085681347399
 30
0.0
 10
106.0822691043416
 20
136.9451983148207
 30
0.0
 10
106.6721496902599
 20
137.1119445117479
 30
0.0
 10
107.2455728601082
 20
137.3085197098404
 30
0.0
 10
107.794278797515
 20
137.5341650476176
 30
0.0
 10
108.3114546781578
 20
137.7879174996147
 30
0.0
 10
108.7914234766397
 20
138.0687538550793
 30
0.0
 10
109.229390700901
 20
138.3757532102359
 30
0.0
 10
109.6212357464666
 20
138.7081752307563
 30
0.0
 10
109.9628553361531
 20
139.0653245059536
 30
0.0
 10
110.2505436691937
 20
139.4458825954816
 30
0.0
 10
110.4792780591737
 20
139.8482893245544
 30
0.0
 10
110.6244864276826
 20
140.2033132927016
 30
0.0
 10
110.6849441988542
 20
140.4306195278198
 30
0.0
 10
110.704868199762
 20
140.5055288330605
 30
0.0
  0
LINE
  5
9F
330
1F
100
AcDbEntity
  8
0
  6
SLD-実線
 62
     7
370
    25
100
AcDbLine
 10
94.4314159979
 20
140.5055289477
 30
0.0
 11
94.4724574571
 21
140.3769396487
 31
0.0
  0
SPLINE
  5
A0
330
1F
100
AcDbEntity
  8
0
  6
SLD-実線
 62
     7
370
    25
100
AcDbSpline
210
0.0
220
0.0
230
1.0
 70
     8
 71
     3
 72
    24
 73
    20
 74
     0
 42
0.000000001
 43
0.00000001
 40
0.0
 40
0.0
 40
0.0
 40
0.0
 40
0.0335327025788386
 40
0.0974255026407035
 40
0.1646461272869584
 40
0.2332020173361499
 40
0.3020545535861636
 40
0.3706653936922017
 40
0.4389524928745167
 40
0.5068491660284874
 40
0.5742615309812639
 40
0.6410160607723678
 40
0.706745086454949
 40
0.7705633450870092
 40
0.8297868344083148
 40
0.879214202147013
 40
0.92126413128981
 40
0.9731664609424283
 40
1.0
 40
1.0
 40
1.0
 40
1.0
 10
94.49087918679295
 20
140.3192218257275
 30
0.0
 10
94.51618951460866
 20
140.233807249408
 30
0.0
 10
94.58972583049753
 20
139.9856447873696
 30
0.0
 10
94.78226280402252
 20
139.6139832050802
 30
0.0
 10
95.06646208846293
 20
139.1918373583937
 30
0.0
 10
95.42309728368912
 20
138.7945863772252
 30
0.0
 10
95.84160153044188
 20
138.4245884089021
 30
0.0
 10
96.31708069119118
 20
138.0848234977301
 30
0.0
 10
96.8437439159126
 20
137.7762010159485
 30
0.0
 10
97.41638025556956
 20
137.4996677502595
 30
0.0
 10
98.02872864609199
 20
137.256381762624
 30
0.0
 10
98.67293666756707
 20
137.047684821561
 30
0.0
 10
99.33778368018241
 20
136.8750772836553
 30
0.0
 10
100.0023807136528
 20
136.7406077672926
 30
0.0
 10
100.6269847501472
 20
136.6459334114474
 30
0.0
 10
101.1827872480147
 20
136.5853158010463
 30
0.0
 10
101.7172928225614
 20
136.5458789047725
 30
0.0
 10
102.1709447759382
 20
136.5274638592059
 30
0.0
 10
102.4671828887539
 20
136.525692669568
 30
0.0
 10
102.568142173268
 20
136.5250890401536
 30
0.0
  0
SPLINE
  5
A1
330
1F
100
AcDbEntity
  8
0
  6
SLD-実線
 62
     7
370
    25
100
AcDbSpline
210
0.0
220
0.0
230
1.0
 70
     8
 71
     3
 72
    27
 73
    23
 74
     0
 42
0.000000001
 43
0.00000001
 40
0.0
 40
0.0
 40
0.0
 40
0.0
 40
0.0176991421279255
 40
0.0722633940132847
 40
0.1252916952682476
 40
0.1798577093101814
 40
0.2208818597503245
 40
0.2739099102127628
 40
0.3284757414150606
 40
0.3815054940939635
 40
0.4360732043433183
 40
0.4891006635652878
 40
0.5436660127911452
 40
0.5966933641788508
 40
0.6512582644733657
 40
0.7042885710978565
 40
0.7588570669448341
 40
0.8118825475472349
 40
0.8664452772615172
 40
0.9194778908680978
 40
0.9740489399986352
 40
1.0
 40
1.0
 40
1.0
 40
1.0
 10
107.1539588812937
 20
137.060576728275
 30
0.0
 10
107.1578578606343
 20
137.0122297185599
 30
0.0
 10
107.1737769079138
 20
136.814834896418
 30
0.0
 10
107.0675463337907
 20
136.4727104648581
 30
0.0
 10
106.8353458950224
 20
136.0461490401985
 30
0.0
 10
106.5019632966687
 20
135.6797310777529
 30
0.0
 10
106.0802961748939
 20
135.3438982067889
 30
0.0
 10
105.5763097087953
 20
135.0420824668112
 30
0.0
 10
104.9463981104174
 20
134.7658836898626
 30
0.0
 10
104.2425510453704
 20
134.5462141448355
 30
0.0
 10
103.4975105926894
 20
134.3924084080129
 30
0.0
 10
102.71906209547
 20
134.3042670517927
 30
0.0
 10
101.9434809078306
 20
134.2828766825324
 30
0.0
 10
101.1787312316234
 20
134.3286538158547
 30
0.0
 10
100.4602009896242
 20
134.4393817330513
 30
0.0
 10
99.79545176687121
 20
134.6125518592999
 30
0.0
 10
99.21528488976797
 20
134.8374652635794
 30
0.0
 10
98.72638009967619
 20
135.1100368264594
 30
0.0
 10
98.3489506649637
 20
135.4184473448499
 30
0.0
 10
98.09573084658481
 20
135.7584416899834
 30
0.0
 10
97.97111107688198
 20
136.052928592899
 30
0.0
 10
97.9809188780591
 20
136.2316475823918
 30
0.0
 10
97.98407978429432
 20
136.2892460142972
 30
0.0
  0
SPLINE
  5
A2
330
1F
100
AcDbEntity
  8
0
  6
SLD-実線
 62
     7
370
    25
100
AcDbSpline
210
0.0
220
0.0
230
1.0
 70
     8
 71
     3
 72
    26
 73
    22
 74
     0
 42
0.000000001
 43
0.00000001
 40
0.0
 40
0.0
 40
0.0
 40
0.0
 40
0.0397790167939861
 40
0.094342875034408
 40
0.1473726360860137
 40
0.2019405950730994
 40
0.2549651823063514
 40
0.309526959450821
 40
0.3625589086838427
 40
0.4171292687680819
 40
0.4701532086968334
 40
0.5247143730932649
 40
0.5777457786632256
 40
0.6323155061992628
 40
0.6853400242888243
 40
0.7399020419527065
 40
0.792931244576352
 40
0.8474984188810418
 40
0.9005248355574981
 40
0.9550890881099976
 40
1.0
 40
1.0
 40
1.0
 40
1.0
 10
107.1561938537672
 20
135.5177405570486
 30
0.0
 10
107.1540213171819
 20
135.4085736675542
 30
0.0
 10
107.1488687678206
 20
135.1496653524794
 30
0.0
 10
106.9880950704277
 20
134.7530591808428
 30
0.0
 10
106.7009888930513
 20
134.3372749165006
 30
0.0
 10
106.2949624150326
 20
133.954941995584
 30
0.0
 10
105.7798104772959
 20
133.6081490790233
 30
0.0
 10
105.1778734084507
 20
133.3137054794061
 30
0.0
 10
104.4957409890418
 20
133.073712842743
 30
0.0
 10
103.7650209787884
 20
132.8976038433474
 30
0.0
 10
102.9935437523234
 20
132.7841561104342
 30
0.0
 10
102.2169768440344
 20
132.7388334965267
 30
0.0
 10
101.443282338961
 20
132.7619887539882
 30
0.0
 10
100.7084198985086
 20
132.8512413770782
 30
0.0
 10
100.0202141544756
 20
133.0029274483378
 30
0.0
 10
99.41050022583516
 20
133.2083329789597
 30
0.0
 10
98.8858043955957
 20
133.4661174942302
 30
0.0
 10
98.46930911261443
 20
133.763339222121
 30
0.0
 10
98.169923670353
 20
134.0950581047535
 30
0.0
 10
97.99412264054675
 20
134.4250696499242
 30
0.0
 10
97.98191502547895
 20
134.646076726326
 30
0.0
 10
97.97640354803863
 20
134.7458567004631
 30
0.0
  0
SPLINE
  5
A3
330
1F
100
AcDbEntity
  8
0
  6
SLD-実線
 62
     7
370
    25
100
AcDbSpline
210
0.0
220
0.0
230
1.0
 70
     8
 71
     3
 72
    27
 73
    23
 74
     0
 42
0.000000001
 43
0.00000001
 40
0.0
 40
0.0
 40
0.0
 40
0.0
 40
0.0310601396900202
 40
0.0840901234433265
 40
0.1386582191162685
 40
0.1916846454563928
 40
0.2462483880024253
 40
0.2992810214057495
 40
0.3538520505744036
 40
0.4068773965922959
 40
0.4614399592059186
 40
0.5144732288766769
 40
0.5690449556619741
 40
0.6220704015927309
 40
0.6766332597403769
 40
0.7296646460812165
 40
0.7842341918855475
 40
0.8372610485284887
 40
0.8918256534225099
 40
0.9448546346763319
 40
0.9994213717300653
 40
1.0
 40
1.0
 40
1.0
 40
1.0
 10
107.1515778859629
 20
133.9742689378978
 30
0.0
 10
107.1538355576096
 20
133.8892125927172
 30
0.0
 10
107.1599478252737
 20
133.6589367910868
 30
0.0
 10
107.0239435491401
 20
133.2846832648032
 30
0.0
 10
106.762591376982
 20
132.8674988799516
 30
0.0
 10
106.372643535235
 20
132.474311123658
 30
0.0
 10
105.879898466534
 20
132.1237915300321
 30
0.0
 10
105.2873415498017
 20
131.8184748121027
 30
0.0
 10
104.6230886994854
 20
131.570559401021
 30
0.0
 10
103.8940747181371
 20
131.3798254729661
 30
0.0
 10
103.1340267133599
 20
131.2557348955507
 30
0.0
 10
102.3507452291531
 20
131.199085748634
 30
0.0
 10
101.5806468415314
 20
131.2110897651406
 30
0.0
 10
100.8319364922469
 20
131.2886270607976
 30
0.0
 10
100.1392685157032
 20
131.4271895470885
 30
0.0
 10
99.50981126167855
 20
131.62585834373
 30
0.0
 10
98.9724465047697
 20
131.874300965262
 30
0.0
 10
98.53427695998523
 20
132.1676966150371
 30
0.0
 10
98.21036158438646
 20
132.4898605977693
 30
0.0
 10
98.02376909962283
 20
132.8376709760726
 30
0.0
 10
97.94678848398563
 20
133.079346084635
 30
0.0
 10
97.96860075565601
 20
133.201602433119
 30
0.0
 10
97.968829627057
 20
133.2028852422726
 30
0.0
  0
SPLINE
  5
A4
330
1F
100
AcDbEntity
  8
0
  6
SLD-実線
 62
     7
370
    25
100
AcDbSpline
210
0.0
220
0.0
230
1.0
 70
     8
 71
     3
 72
    16
 73
    12
 74
     0
 42
0.000000001
 43
0.00000001
 40
0.0
 40
0.0
 40
0.0
 40
0.0
 40
0.0076160521545664
 40
0.129982421055524
 40
0.2558852899870818
 40
0.3787971460860289
 40
0.5051736217593299
 40
0.6293161479083141
 40
0.75717193805087
 40
0.8770108075651649
 40
1.0
 40
1.0
 40
1.0
 40
1.0
 10
98.75729939495626
 20
136.459568531416
 30
0.0
 10
98.76577543603638
 20
136.4529980123771
 30
0.0
 10
98.91043520440437
 20
136.3408596032712
 30
0.0
 10
99.28265682108352
 20
136.1470263964571
 30
0.0
 10
99.88114391629972
 20
135.9022044872572
 30
0.0
 10
100.5716025377957
 20
135.7124569125393
 30
0.0
 10
101.3139851437783
 20
135.5827654549945
 30
0.0
 10
102.1057730174475
 20
135.5141927836086
 30
0.0
 10
102.8976300059714
 20
135.5130074366847
 30
0.0
 10
103.6824362820221
 20
135.5727985719988
 30
0.0
 10
104.1701988693716
 20
135.6629013745726
 30
0.0
 10
104.4172441500386
 20
135.7085372489263
 30
0.0
  0
SPLINE
  5
A5
330
1F
100
AcDbEntity
  8
0
  6
SLD-実線
 62
     7
370
    25
100
AcDbSpline
210
0.0
220
0.0
230
1.0
 70
     8
 71
     3
 72
    21
 73
    17
 74
     0
 42
0.000000001
 43
0.00000001
 40
0.0
 40
0.0
 40
0.0
 40
0.0
 40
0.5045092724719082
 40
0.7567689304922565
 40
0.8809166759232782
 40
0.9459934623540209
 40
0.9618357903287563
 40
0.968591237626629
 40
0.9739394988590759
 40
0.9762894734389029
 40
0.9785651037265756
 40
0.9808949315858136
 40
0.9833983574486761
 40
0.989272873894028
 40
0.996703947572481
 40
1.0
 40
1.0
 40
1.0
 40
1.0
 10
104.4177042281637
 20
135.709007478522
 30
0.0
 10
104.7231445394238
 20
135.7846082061071
 30
0.0
 10
105.1813080466057
 20
135.8980100499993
 30
0.0
 10
105.6294502754165
 20
136.0686401957907
 30
0.0
 10
105.8551781746903
 20
136.171087691765
 30
0.0
 10
105.9270336663683
 20
136.2014733702165
 30
0.0
 10
105.957500405028
 20
136.2150587975488
 30
0.0
 10
105.9659860242767
 20
136.2186710395631
 30
0.0
 10
105.9681653776739
 20
136.2191914863822
 30
0.0
 10
105.9677786757874
 20
136.2184635604267
 30
0.0
 10
105.9665542120565
 20
136.217424655936
 30
0.0
 10
105.9643993561322
 20
136.2158816693146
 30
0.0
 10
105.9601002584008
 20
136.2130259526276
 30
0.0
 10
105.9521021712319
 20
136.2080470658635
 30
0.0
 10
105.9430603586567
 20
136.2025711980102
 30
0.0
 10
105.9369409574768
 20
136.1990193274208
 30
0.0
 10
105.9350606899276
 20
136.197927967856
 30
0.0
  0
ARC
  5
A6
330
1F
100
AcDbEntity
  8
0
  6
SLD-実線
 62
     7
370
    25
100
AcDbCircle
 10
104.0306615486
 20
139.7122382276
 30
0.0
 40
4.021640719877627
100
AcDbArc
 50
275.527074394
 51
323.2030445456
  0
LWPOLYLINE
  5
A7
330
1F
100
AcDbEntity
  8
0
  6
SLD-実線
 62
     7
370
    25
100
AcDbPolyline
 90
       13
 70
   128
 43
0.0
 10
97.8879658598
 20
137.2988107542
 10
98.0980669551
 20
137.0124982255
 10
98.4209028808
 20
136.7021459981
 10
98.8244601502
 20
136.4179546691
 10
99.3008837674
 20
136.165455678
 10
99.8409012331
 20
135.9495641208
 10
100.4340010768
 20
135.7744815536
 10
101.0686395874
 20
135.6436159439
 10
101.7324641944
 20
135.5595144517
 10
102.4125543198
 20
135.5238139711
 10
103.0956728508
 20
135.5372096651
 10
103.7685236139
 20
135.5994403095
 10
104.418010313
 20
135.7092949337
  0
ARC
  5
A8
330
1F
100
AcDbEntity
  8
0
  6
SLD-実線
 62
     7
370
    25
100
AcDbCircle
 10
102.5673034132
 20
144.1701411358
 30
0.0
 40
8.077440271180473
100
AcDbArc
 50
242.974471515
 51
297.1318801894
  0
LWPOLYLINE
  5
A9
330
1F
100
AcDbEntity
  8
0
  6
SLD-実線
 62
     7
370
    25
100
AcDbPolyline
 90
        3
 70
   128
 43
0.0
 10
105.7038504302
 20
136.0556603672
 10
106.0733898275
 20
136.2548834641
 10
106.2451698994
 20
136.3655338493
  0
SPLINE
  5
AA
330
1F
100
AcDbEntity
  8
0
  6
SLD-実線
 62
     7
370
    25
100
AcDbSpline
210
0.0
220
0.0
230
1.0
 70
     8
 71
     3
 72
    21
 73
    17
 74
     0
 42
0.000000001
 43
0.00000001
 40
0.0
 40
0.0
 40
0.0
 40
0.0
 40
0.1874640314729879
 40
0.256229859515152
 40
0.2906308226623119
 40
0.3078564974841743
 40
0.3164994553015043
 40
0.3197244426554861
 40
0.322981189471673
 40
0.3253593331790319
 40
0.3277321894514395
 40
0.3316394713734696
 40
0.3416100097254852
 40
0.3800460265069929
 40
0.7129398018797547
 40
1.0
 40
1.0
 40
1.0
 40
1.0
 10
107.1264007632707
 20
131.7405592301556
 30
0.0
 10
107.1099546962649
 20
131.6883749377964
 30
0.0
 10
107.087475859096
 20
131.6170483275926
 30
0.0
 10
107.0496294847857
 20
131.5495559999928
 30
0.0
 10
107.0330468541845
 20
131.5272951152573
 30
0.0
 10
107.0246971492082
 20
131.5205846227923
 30
0.0
 10
107.020920643561
 20
131.5207796377702
 30
0.0
 10
107.0193574713994
 20
131.5233493704966
 30
0.0
 10
107.0187370565653
 20
131.5262619749899
 30
0.0
 10
107.0186442047059
 20
131.5302431801737
 30
0.0
 10
107.0189936700008
 20
131.5352630272126
 30
0.0
 10
107.0203940579193
 20
131.5449990594647
 30
0.0
 10
107.0268424131514
 20
131.573655643344
 30
0.0
 10
107.0791339226022
 20
131.7458137471776
 30
0.0
 10
107.1557413916757
 20
131.9882337181126
 30
0.0
 10
107.1546802452044
 20
132.21688612934
 30
0.0
 10
107.1541888975733
 20
132.3227601284979
 30
0.0
  0
LINE
  5
AB
330
1F
100
AcDbEntity
  8
0
  6
SLD-実線
 62
     7
370
    25
100
AcDbLine
 10
107.1424024252
 20
131.7180072543
 30
0.0
 11
107.1539853019
 21
131.8603266873
 31
0.0
  0
ARC
  5
AC
330
1F
100
AcDbEntity
  8
0
  6
SLD-実線
 62
     7
370
    25
100
AcDbCircle
 10
102.5681421632
 20
131.2173003185
 30
0.0
 40
3.270551029832853
100
AcDbArc
 50
224.6733512724
 51
315.3266493764
  0
ARC
  5
AD
330
1F
100
AcDbEntity
  8
0
  6
SLD-実線
 62
     7
370
    25
100
AcDbCircle
 10
120.8289814835
 20
184.1499015912
 30
0.0
 40
6.739162608871916
100
AcDbArc
 50
347.2529952168
 51
359.9556621144
  0
ARC
  5
AE
330
1F
100
AcDbEntity
  8
0
  6
SLD-実線
 62
     7
370
    25
100
AcDbCircle
 10
84.3201824413
 20
184.1514693704
 30
0.0
 40
6.752043519211862
100
AcDbArc
 50
180.0575580128
 51
192.4971132293
  0
LWPOLYLINE
  5
AF
330
1F
100
AcDbEntity
  8
0
  6
SLD-実線
 62
     7
370
    25
100
AcDbPolyline
 90
      103
 70
   128
 43
0.0
 10
90.9007573047
 20
173.8712783393
 10
92.2840262986
 20
173.5229488138
 10
93.7063057974
 20
173.2191374618
 10
95.1622015737
 20
172.9609979239
 10
96.6461911639
 20
172.7495093438
 10
98.1526441398
 20
172.5854730292
 10
99.6758470926
 20
172.4695121697
 10
101.2100217082
 20
172.4020658394
 10
102.7493460446
 20
172.3833897226
 10
104.2879857847
 20
172.4135562975
 10
105.820099408
 20
172.492449092
 10
107.3398793715
 20
172.6197710161
 10
108.8415567782
 20
172.7950365849
 10
110.3194376622
 20
173.0175826665
 10
111.7679145198
 20
173.2865653484
 10
113.1814947706
 20
173.6009630488
 10
114.5548143929
 20
173.9595836585
 10
115.8826634331
 20
174.3610668276
 10
117.1600066652
 20
174.8038897403
 10
118.3819992159
 20
175.286372088
 10
119.5440035863
 20
175.80668446
 10
120.6416110881
 20
176.3628528223
 10
121.6706611646
 20
176.9527670963
 10
122.6272482183
 20
177.574189879
 10
123.5077456564
 20
178.2247634675
 10
124.3088107003
 20
178.9020207198
 10
125.0274062952
 20
179.60339205
 10
125.6608066258
 20
180.3262169788
 10
126.2066072222
 20
181.0677539971
 10
126.6627403605
 20
181.8251894307
 10
127.0274739083
 20
182.5956507025
 10
127.2994260195
 20
183.3762145083
 10
127.477562821
 20
184.1639210039
 10
127.5612085359
 20
184.9557816297
 10
127.5500483302
 20
185.7487921674
 10
127.4441233921
 20
186.5399443818
 10
127.2438347739
 20
187.326237993
 10
126.9499425443
 20
188.1046901269
 10
126.5635633844
 20
188.872347358
 10
126.0861598558
 20
189.6262978464
 10
125.5195441512
 20
190.3636811646
 10
124.8658670193
 20
191.0817021557
 10
124.1276062328
 20
191.7776340665
 10
123.3075633371
 20
192.4488400414
 10
122.4088485504
 20
193.0927707174
 10
121.4348708763
 20
193.7069864362
 10
120.3893259786
 20
194.2891562009
 10
119.2761788369
 20
194.837071067
 10
118.0996529007
 20
195.3486535991
 10
116.864210275
 20
195.8219621704
 10
115.5745371685
 20
196.2552014264
 10
114.2355270989
 20
196.6467290189
 10
112.8522581051
 20
196.9950585445
 10
111.4299786063
 20
197.2988698964
 10
109.97408283
 20
197.5570094344
 10
108.4900932398
 20
197.7684980145
 10
106.9836402639
 20
197.932534329
 10
105.4604373111
 20
198.0484951886
 10
103.9262626955
 20
198.1159415189
 10
102.3869383591
 20
198.1346176357
 10
100.8482986189
 20
198.1044510607
 10
99.3161849957
 20
198.0255582662
 10
97.7964050322
 20
197.8982363421
 10
96.2947276255
 20
197.7229707734
 10
94.8168467414
 20
197.5004246917
 10
93.3683698839
 20
197.2314420099
 10
91.9547896331
 20
196.9170443095
 10
90.5814700108
 20
196.5584236997
 10
89.2536209706
 20
196.1569405306
 10
87.9762777385
 20
195.714117618
 10
86.7542851877
 20
195.2316352703
 10
85.5922808174
 20
194.7113228982
 10
84.4946733156
 20
194.1551545359
 10
83.4656232391
 20
193.565240262
 10
82.5090361853
 20
192.9438174792
 10
81.6285387473
 20
192.2932438908
 10
80.8274737033
 20
191.6159866385
 10
80.1088781084
 20
190.9146153083
 10
79.4754777779
 20
190.1917903795
 10
78.9296771815
 20
189.4502533612
 10
78.4735440432
 20
188.6928179276
 10
78.1088104954
 20
187.9223566558
 10
77.8368583842
 20
187.1417928499
 10
77.6587215827
 20
186.3540863544
 10
77.5750758678
 20
185.5622257286
 10
77.5862360735
 20
184.7692151908
 10
77.6921610116
 20
183.9780629764
 10
77.8924496298
 20
183.1917693653
 10
78.1863418594
 20
182.4133172314
 10
78.5727210193
 20
181.6456600002
 10
79.0501245479
 20
180.8917095119
 10
79.6167402524
 20
180.1543261937
 10
80.2704173844
 20
179.4363052026
 10
81.0086781709
 20
178.7403732917
 10
81.8287210665
 20
178.0691673169
 10
82.7274358533
 20
177.4252366409
 10
83.7014135274
 20
176.811020922
 10
84.7469584251
 20
176.2288511574
 10
85.8601055667
 20
175.6809362912
 10
87.036631503
 20
175.1693537592
 10
88.2720741287
 20
174.6960451879
 10
89.5617472351
 20
174.2628059318
 10
90.9007573047
 20
173.8712783393
  0
LWPOLYLINE
  5
B0
330
1F
100
AcDbEntity
  8
0
  6
SLD-実線
 62
     7
370
    25
100
AcDbPolyline
 90
       98
 70
   128
 43
0.0
 10
113.06878887
 20
195.5079567395
 10
114.3348522086
 20
195.1363890089
 10
115.5515618431
 20
194.7233918492
 10
116.7138148081
 20
194.2706981579
 10
117.8167351215
 20
193.7802058472
 10
118.8556977171
 20
193.2539724234
 10
119.8263455591
 20
192.6942059976
 10
120.7246057969
 20
192.1032533015
 10
121.5467111802
 20
191.483593868
 10
122.289214475
 20
190.8378263499
 10
122.9490014145
 20
190.1686595777
 10
123.5233026436
 20
189.4788995501
 10
124.0097116118
 20
188.7714391481
 10
124.4061853757
 20
188.049247612
 10
124.7110646432
 20
187.3153520773
 10
124.923068947
 20
186.5728318358
 10
125.041307149
 20
185.8248008377
 10
125.0652869586
 20
185.0743964263
 10
124.9949060583
 20
184.3247665647
 10
124.8304581454
 20
183.5790551768
 10
124.5726351186
 20
182.8403898929
 10
124.2225165554
 20
182.1118697232
 10
123.7815724771
 20
181.3965492565
 10
123.2516518132
 20
180.6974294564
 10
122.6349790016
 20
180.0174420098
 10
121.9341378816
 20
179.3594397729
 10
121.1520678154
 20
178.726182707
 10
120.2920516805
 20
178.1203261594
 10
119.3576941147
 20
177.5444119631
 10
118.3529163973
 20
177.0008552182
 10
117.2819313173
 20
176.4919362078
 10
116.1492316557
 20
176.0197891553
 10
114.959569652
 20
175.5863945178
 10
113.7179314388
 20
175.1935704774
 10
112.4295279134
 20
174.842964032
 10
111.0997624568
 20
174.5360462101
 10
109.734212265
 20
174.2741041284
 10
108.3386052649
 20
174.0582369605
 10
106.9187952451
 20
173.8893491369
 10
105.4807360032
 20
173.7681497785
 10
104.0304606867
 20
173.6951469221
 10
102.5740530335
 20
173.6706472008
 10
101.1176197807
 20
173.6947535806
 10
99.6672705765
 20
173.7673632272
 10
98.2290882369
 20
173.8881734198
 10
96.8091060502
 20
174.0566768725
 10
95.4132786054
 20
174.2721664081
 10
94.0474617725
 20
174.5337393146
 10
92.7173829426
 20
174.8402967556
 10
91.4286220024
 20
175.1905543643
 10
90.1865846513
 20
175.5830429876
 10
88.9964787207
 20
176.0161151214
 10
87.8632979227
 20
176.4879558361
 10
86.7917941317
 20
176.996584886
 10
85.7864615331
 20
177.5398696954
 10
84.8515183419
 20
178.1155314113
 10
83.9908828473
 20
178.7211546682
 10
83.2081681027
 20
179.3541998787
 10
82.5066556595
 20
180.012012541
 10
81.8892876491
 20
180.691832984
 10
81.3586548389
 20
181.3908093759
 10
80.916980912
 20
182.1060101316
 10
80.5661200635
 20
182.8344359558
 10
80.3075433175
 20
183.5730311542
 10
80.14233539
 20
184.3186980455
 10
80.0711881216
 20
185.0683090502
 10
80.0944026716
 20
185.8187191116
 10
80.2118789688
 20
186.566782121
 10
80.4231248392
 20
187.3093598266
 10
80.727255214
 20
188.0433375061
 10
81.1229928944
 20
188.765637046
 10
81.60868007
 20
189.4732281839
 10
82.1822770921
 20
190.1631437562
 10
82.841380772
 20
190.8324893349
 10
83.5832263674
 20
191.478457501
 10
84.4046995899
 20
192.0983395629
 10
85.3023569572
 20
192.6895351438
 10
86.2724320164
 20
193.249564422
 10
87.3108585113
 20
193.7760784096
 10
88.4132786236
 20
194.266869052
 10
89.5750698605
 20
194.7198769702
 10
90.791358872
 20
195.1332028918
 10
92.0570423271
 20
195.5051136374
 10
93.3668138192
 20
195.8340478252
 10
94.7151793303
 20
196.1186268538
 10
96.0964806595
 20
196.3576572128
 10
97.5049293972
 20
196.5501358922
 10
98.9346133994
 20
196.6952556741
 10
100.3795376952
 20
196.7924070311
 10
101.8336418054
 20
196.841183724
 10
103.2908263287
 20
196.8413810003
 10
104.7449805328
 20
196.7929978572
 10
106.1900039989
 20
196.696236583
 10
107.619836684
 20
196.5515043494
 10
109.0284803369
 20
196.3594073904
 10
110.4100268225
 20
196.120750898
 10
111.7586821906
 20
195.8365368192
 10
113.06878887
 20
195.5079567395
  0
LWPOLYLINE
  5
B1
330
1F
100
AcDbEntity
  8
0
  6
SLD-実線
 62
     7
370
    25
100
AcDbPolyline
 90
       43
 70
   128
 43
0.0
 10
112.8354407027
 20
194.8516172556
 10
111.540895627
 20
195.1760157519
 10
110.2079285808
 20
195.4561136009
 10
108.8422464298
 20
195.6907101588
 10
107.4496977251
 20
195.8788016556
 10
106.0362446883
 20
196.0195812163
 10
104.607941212
 20
196.1124480941
 10
103.1709039407
 20
196.1570035978
 10
101.7312845867
 20
196.1530564468
 10
100.2952487439
 20
196.1006241902
 10
98.8689457792
 20
195.9999305421
 10
97.458483116
 20
195.8514080326
 10
96.0699014109
 20
195.6556922797
 10
94.7091465736
 20
195.4136203742
 10
93.3820443015
 20
195.1262296646
 10
92.0942777289
 20
194.7947513581
 10
90.8513625574
 20
194.4206037205
 10
89.6586202881
 20
194.005389589
 10
88.521159897
 20
193.5508867086
 10
87.4438500602
 20
193.0590411798
 10
86.4313032201
 20
192.5319601282
 10
85.487858599
 20
191.9718992372
 10
84.6175538643
 20
191.3812577035
 10
83.8241170855
 20
190.7625642199
 10
83.1109436304
 20
190.1184688146
 10
82.4810902038
 20
189.4517288109
 10
81.9372510924
 20
188.7652000296
 10
81.481757471
 20
188.0618217236
 10
81.1165582635
 20
187.3446061195
 10
80.8432201016
 20
186.6166239885
 10
80.6629093978
 20
185.8809933156
 10
80.5764002524
 20
185.1408644058
 10
80.5840640566
 20
184.3994056251
 10
80.6858667372
 20
183.6597924892
 10
80.8813739298
 20
182.925192156
 10
81.1697458323
 20
182.1987501812
 10
81.549748326
 20
181.483577733
 10
82.0197561125
 20
180.7827371811
 10
82.5777550715
 20
180.0992289817
 10
83.221354686
 20
179.4359801652
 10
83.9478012455
 20
178.795831528
 10
84.7539826751
 20
178.1815238458
 10
84.7856299596
 20
178.1590906279
  0
LWPOLYLINE
  5
B2
330
1F
100
AcDbEntity
  8
0
  6
SLD-実線
 62
     7
370
    25
100
AcDbPolyline
 90
       28
 70
   128
 43
0.0
 10
120.3506538943
 20
178.1590905563
 10
120.5187305394
 20
178.279580617
 10
121.3121673182
 20
178.8982741006
 10
122.0253407733
 20
179.5423695058
 10
122.6551941998
 20
180.2091095095
 10
123.1990333113
 20
180.8956382909
 10
123.6545269327
 20
181.5990165969
 10
124.0197261402
 20
182.316232201
 10
124.2930643021
 20
183.044214332
 10
124.4733750059
 20
183.7798450048
 10
124.5598841513
 20
184.5199739146
 10
124.5522203471
 20
185.2614326953
 10
124.4504176664
 20
186.0010458313
 10
124.2549104738
 20
186.7356461644
 10
123.9665385714
 20
187.4620881393
 10
123.5865360777
 20
188.1772605875
 10
123.1165282912
 20
188.8781011393
 10
122.5585293322
 20
189.5616093387
 10
121.9149297177
 20
190.2248581552
 10
121.1884831581
 20
190.8650067925
 10
120.3823017286
 20
191.4793144747
 10
119.499837106
 20
192.0651498848
 10
118.5448678468
 20
192.6200054692
 10
117.5214851548
 20
193.1415056445
 10
116.4340686738
 20
193.627415546
 10
115.2872766937
 20
194.0756556211
 10
114.0860189348
 20
194.4843057722
 10
112.8354407027
 20
194.8516172556
  0
LWPOLYLINE
  5
B3
330
1F
100
AcDbEntity
  8
0
  6
SLD-実線
 62
     7
370
    25
100
AcDbPolyline
 90
       31
 70
   128
 43
0.0
 10
92.0674955337
 20
169.6098946216
 10
93.3776022131
 20
169.2813145419
 10
94.7262575812
 20
168.9971004631
 10
96.1078040667
 20
168.7584439707
 10
97.5164477197
 20
168.5663470117
 10
98.9462804048
 20
168.421614778
 10
100.3913038709
 20
168.3248535039
 10
101.845458075
 20
168.2764703608
 10
103.3026425982
 20
168.276667637
 10
104.7567467085
 20
168.32544433
 10
106.2016710043
 20
168.422595687
 10
107.6313550065
 20
168.5677154689
 10
109.0398037441
 20
168.7601941483
 10
110.4211050733
 20
168.9992245072
 10
111.7694705845
 20
169.2838035359
 10
113.0792420765
 20
169.6127377237
 10
114.3449255317
 20
169.9846484693
 10
115.5612145432
 20
170.3979743908
 10
116.7230057801
 20
170.8509823091
 10
117.8254258924
 20
171.3417729515
 10
118.8638523873
 20
171.8682869391
 10
119.8339274464
 20
172.4283162172
 10
120.7315848138
 20
173.0195117982
 10
121.5530580363
 20
173.6393938601
 10
122.2949036317
 20
174.2853620261
 10
122.9540073116
 20
174.9547076049
 10
123.5276043337
 20
175.6446231772
 10
124.0132915093
 20
176.352214315
 10
124.4090291897
 20
177.0745138549
 10
124.7131595644
 20
177.8084915345
 10
124.8027616412
 20
178.0842664945
  0
LWPOLYLINE
  5
B4
330
1F
100
AcDbEntity
  8
0
  6
SLD-実線
 62
     7
370
    25
100
AcDbPolyline
 90
       16
 70
   128
 43
0.0
 10
80.3355605479
 20
178.0775063748
 10
80.4252197605
 20
177.8024992838
 10
80.730099028
 20
177.0686037491
 10
81.1265727918
 20
176.3464122129
 10
81.6129817601
 20
175.638951811
 10
82.1872829892
 20
174.9491917834
 10
82.8470699287
 20
174.2800250112
 10
83.5895732235
 20
173.6342574931
 10
84.4116786068
 20
173.0145980595
 10
85.3099388446
 20
172.4236453635
 10
86.2805866866
 20
171.8638789376
 10
87.3195492821
 20
171.3376455139
 10
88.4224695955
 20
170.8471532031
 10
89.5847225605
 20
170.3944595119
 10
90.8014321951
 20
169.9814623522
 10
92.0674955337
 20
169.6098946216
  0
LWPOLYLINE
  5
B5
330
1F
100
AcDbEntity
  8
0
  6
SLD-実線
 62
     7
370
    25
100
AcDbPolyline
 90
        3
 70
   128
 43
0.0
 10
124.4847312728
 20
183.844678594
 10
124.4504176664
 20
184.0295627921
 10
124.3176361397
 20
184.5639783011
  0
LWPOLYLINE
  5
B6
330
1F
100
AcDbEntity
  8
0
  6
SLD-実線
 62
     7
370
    25
100
AcDbPolyline
 90
        3
 70
   128
 43
0.0
 10
80.8186483964
 20
184.5639779364
 10
80.6629093978
 20
183.9095102764
 10
80.6515528172
 20
183.8446784612
  0
LWPOLYLINE
  5
B7
330
1F
100
AcDbEntity
  8
0
  6
SLD-実線
 62
     7
370
    25
100
AcDbPolyline
 90
       24
 70
   128
 43
0.0
 10
112.718766619
 20
194.3948734353
 10
113.9678983935
 20
194.0276936541
 10
115.1671816062
 20
193.618796985
 10
116.3113728632
 20
193.1699718464
 10
117.3954686571
 20
192.6831811808
 10
118.4147273198
 20
192.1605521491
 10
119.3646935163
 20
191.6043716439
 10
120.2412134377
 20
191.0170713127
 10
121.0404519164
 20
190.4012185676
 10
121.7589165879
 20
189.759506765
 10
122.3934648472
 20
189.0947424674
 10
122.9413216057
 20
188.40983194
 10
123.4000925847
 20
187.7077704874
 10
123.7677703581
 20
186.9916277946
 10
124.0427467311
 20
186.2645353428
 10
124.2238212997
 20
185.5296721515
 10
124.31019969
 20
184.7902527828
 10
124.3015073574
 20
184.0495089476
 10
124.1977792459
 20
183.3106814686
 10
123.9994701555
 20
182.5769995657
 10
123.7074481313
 20
181.8516723472
 10
123.3229887002
 20
181.1378708522
 10
122.8477739808
 20
180.4387169027
 10
122.8396986261
 20
180.4280045651
  0
LWPOLYLINE
  5
B8
330
1F
100
AcDbEntity
  8
0
  6
SLD-実線
 62
     7
370
    25
100
AcDbPolyline
 90
       38
 70
   128
 43
0.0
 10
82.2965853599
 20
180.4280041637
 10
81.9543070505
 20
180.9143509541
 10
81.5408560831
 20
181.6238408346
 10
81.2193539643
 20
182.3458533575
 10
80.9912032322
 20
183.0772310393
 10
80.8574038955
 20
183.8147750213
 10
80.8185391554
 20
184.5552619667
 10
80.8747811462
 20
185.2954517202
 10
81.0258820902
 20
186.0321095078
 10
81.2711816865
 20
186.7620131488
 10
81.6096068451
 20
187.4819712969
 10
82.0396795843
 20
188.1888352591
 10
82.5595165656
 20
188.8795149864
 10
83.1668479206
 20
189.5509892276
 10
83.859015668
 20
190.2003224838
 10
84.6329929349
 20
190.8246755472
 10
85.4853964257
 20
191.4213176709
 10
86.4124985882
 20
191.9876404989
 10
87.4102451097
 20
192.5211669208
 10
88.474273316
 20
193.0195649182
 10
89.5999295354
 20
193.4806542347
 10
90.78229463
 20
193.902418962
 10
92.0161939016
 20
194.2830151523
 10
93.296236145
 20
194.6207781021
 10
94.6168206935
 20
194.9142312841
 10
95.9721746886
 20
195.1620908624
 10
97.3563713134
 20
195.3632732103
 10
98.7633574758
 20
195.516899319
 10
100.1869809656
 20
195.6222966365
 10
101.6210173597
 20
195.679004772
 10
103.0591946167
 20
195.6867758621
 10
104.4952247421
 20
195.6455746426
 10
105.9228281309
 20
195.5555826797
 10
107.3357629445
 20
195.41719364
 10
108.7278491807
 20
195.2310110881
 10
110.0930012525
 20
194.9978504785
 10
111.4252490042
 20
194.7187312757
 10
112.718766619
 20
194.3948734353
  0
LWPOLYLINE
  5
B9
330
1F
100
AcDbEntity
  8
0
  6
SLD-実線
 62
     7
370
    25
100
AcDbPolyline
 90
       93
 70
   128
 43
0.0
 10
112.0420590199
 20
194.077252411
 10
113.2451760417
 20
193.7227118724
 10
114.3985110213
 20
193.3267107978
 10
115.4966889562
 20
192.8910972375
 10
116.5345866718
 20
192.4179002827
 10
117.507366969
 20
191.9093272932
 10
118.4104943783
 20
191.3677498531
 10
119.2397569193
 20
190.795691349
 10
119.9912878832
 20
190.1958199654
 10
120.6615851901
 20
189.5709336614
 10
121.2475223731
 20
188.9239441685
 10
121.7463673866
 20
188.2578686258
 10
122.1557948028
 20
187.5758127055
 10
122.4738956289
 20
186.8809565558
 10
122.6991862547
 20
186.1765398949
 10
122.8306157535
 20
185.4658475528
 10
122.8675743035
 20
184.7521919966
 10
122.8098868296
 20
184.0389009573
 10
122.6578214705
 20
183.3293010273
 10
122.4120900621
 20
182.626699632
 10
122.0738378318
 20
181.9343729152
 10
121.6446390482
 20
181.2555491598
 10
121.1264994056
 20
180.5933926147
 10
120.5218308732
 20
179.9509912804
 10
119.8334535358
 20
179.3313402056
 10
119.0645762548
 20
178.737328778
 10
118.2187872122
 20
178.1717253285
 10
117.3000260996
 20
177.6371684871
 10
116.3125787354
 20
177.1361495955
 10
115.2610497971
 20
176.6710045932
 10
114.1503387022
 20
176.2439028105
 10
112.9856260085
 20
175.8568357496
 10
111.7723442445
 20
175.5116071151
 10
110.5161468402
 20
175.2098271563
 10
109.2228918846
 20
174.9529029809
 10
107.8986093635
 20
174.7420322726
 10
106.5494738654
 20
174.5781982355
 10
105.1817756403
 20
174.4621649853
 10
103.8018925274
 20
174.3944737893
 10
102.416256026
 20
174.3754387288
 10
101.031327272
 20
174.4051499743
 10
99.6535651909
 20
174.4834694241
 10
98.2893914928
 20
174.6100304557
 10
96.9451671518
 20
174.7842432332
 10
95.627160215
 20
175.0052969485
 10
94.341514401
 20
175.2721585925
 10
93.0942253837
 20
175.5835859094
 10
91.891108362
 20
175.9381264481
 10
90.7377733824
 20
176.3341275227
 10
89.6395954475
 20
176.769741083
 10
88.6016977318
 20
177.2429380377
 10
87.6289174346
 20
177.7515110273
 10
86.7257900254
 20
178.2930884674
 10
85.8965274844
 20
178.8651469715
 10
85.1449965204
 20
179.465018355
 10
84.4746992136
 20
180.0899046591
 10
83.8887620306
 20
180.7368941519
 10
83.389917017
 20
181.4029696946
 10
82.9804896008
 20
182.0850256149
 10
82.6623887748
 20
182.7798817646
 10
82.437098149
 20
183.4842984256
 10
82.3056686502
 20
184.1949907676
 10
82.2687101002
 20
184.9086463239
 10
82.3263975741
 20
185.6219373632
 10
82.4784629332
 20
186.3315372931
 10
82.7241943416
 20
187.0341386884
 10
83.0624465719
 20
187.7264654052
 10
83.4916453555
 20
188.4052891607
 10
84.0097849981
 20
189.0674457058
 10
84.6144535305
 20
189.7098470401
 10
85.3028308679
 20
190.3294981149
 10
86.0717081489
 20
190.9235095425
 10
86.9174971915
 20
191.489112992
 10
87.8362583041
 20
192.0236698334
 10
88.8237056683
 20
192.524688725
 10
89.8752346066
 20
192.9898337272
 10
90.9859457015
 20
193.41693551
 10
92.1506583952
 20
193.8040025708
 10
93.3639401592
 20
194.1492312054
 10
94.6201375635
 20
194.4510111641
 10
95.9133925191
 20
194.7079353396
 10
97.2376750402
 20
194.9188060479
 10
98.5868105383
 20
195.0826400849
 10
99.9545087634
 20
195.1986733352
 10
101.3343918763
 20
195.2663645312
 10
102.7200283777
 20
195.2853995916
 10
104.1049571317
 20
195.2556883461
 10
105.4827192128
 20
195.1773688963
 10
106.8468929109
 20
195.0508078648
 10
108.1911172518
 20
194.8765950872
 10
109.5091241886
 20
194.655541372
 10
110.7947700027
 20
194.388679728
 10
112.0420590199
 20
194.077252411
  0
LWPOLYLINE
  5
BA
330
1F
100
AcDbEntity
  8
0
  6
SLD-実線
 62
     7
370
    25
100
AcDbPolyline
 90
       22
 70
   128
 43
0.0
 10
95.4277027109
 20
156.7748164143
 10
96.5113912635
 20
156.5077594558
 10
97.6324215523
 20
156.2853167962
 10
98.7838823093
 20
156.1088602124
 10
99.9586743774
 20
155.9794773719
 10
101.1495543068
 20
155.8979659496
 10
102.3491806975
 20
155.8648286258
 10
103.5501567549
 20
155.8802696564
 10
104.7450787935
 20
155.944194164
 10
105.9265791126
 20
156.0562073327
 10
107.0873732637
 20
156.215618917
 10
108.220304756
 20
156.4214462778
 10
109.3183890519
 20
156.6724203226
 10
110.3748563958
 20
156.966993391
 10
111.3831920452
 20
157.3033497427
 10
112.3371802319
 20
157.679415576
 10
113.230938673
 20
158.0928721556
 10
114.0589578352
 20
158.5411704963
 10
114.8161323058
 20
159.0215465654
 10
115.4977935672
 20
159.5310388824
 10
116.0997395399
 20
160.0665060484
 10
116.1125748319
 20
160.0790614372
  0
ARC
  5
BB
330
1F
100
AcDbEntity
  8
0
  6
SLD-実線
 62
     7
370
    25
100
AcDbCircle
 10
98.7016467746
 20
170.9734173929
 30
0.0
 40
14.57116946164999
100
AcDbArc
 50
228.3011953103
 51
257.0155601232
  0
LWPOLYLINE
  5
BC
330
1F
100
AcDbEntity
  8
0
  6
SLD-実線
 62
     7
370
    25
100
AcDbPolyline
 90
       22
 70
   128
 43
0.0
 10
95.5280424402
 20
156.5727422223
 10
96.610277284
 20
156.3063835259
 10
97.7301800028
 20
156.08515196
 10
98.8806695508
 20
155.9104459189
 10
100.0544732648
 20
155.7833703958
 10
101.2441683451
 20
155.7047278784
 10
102.4422344778
 20
155.6750165218
 10
103.6410966882
 20
155.6944239247
 10
104.8331751256
 20
155.7628271584
 10
106.0109329953
 20
155.8797932984
 10
107.1669250839
 20
156.0445841342
 10
108.2938415276
 20
156.2561567476
 10
109.3845590595
 20
156.5131734489
 10
110.4321803262
 20
156.8140103447
 10
111.4300831346
 20
157.1567642918
 10
112.3719569638
 20
157.5392690073
 10
113.251848837
 20
157.9591059225
 10
114.0641948463
 20
158.4136205634
 10
114.8038586844
 20
158.8999396033
 10
115.4661642564
 20
159.4149883031
 10
116.046925219
 20
159.9555100931
 10
116.2770917123
 20
160.2021390151
  0
ARC
  5
BD
330
1F
100
AcDbEntity
  8
0
  6
SLD-実線
 62
     7
370
    25
100
AcDbCircle
 10
98.4935582598
 20
169.9790746648
 30
0.0
 40
13.73040544320473
100
AcDbArc
 50
225.699223375
 51
257.5268742436
  0
LWPOLYLINE
  5
BE
330
1F
100
AcDbEntity
  8
0
  6
SLD-実線
 62
     7
370
    25
100
AcDbPolyline
 90
       20
 70
   128
 43
0.0
 10
97.2244799485
 20
153.4283805243
 10
98.1674797075
 20
153.1997197594
 10
99.1469444065
 20
153.0161713747
 10
100.1547581838
 20
152.8792566383
 10
101.1825700117
 20
152.7901100364
 10
102.2218632955
 20
152.7494701199
 10
103.2640260447
 20
152.7576739922
 10
104.3004221647
 20
152.8146536621
 10
105.3224641664
 20
152.9199363497
 10
106.3216834046
 20
153.0726503456
 10
107.2897992289
 20
153.271529809
 10
108.2187897131
 20
153.5149272732
 10
109.1009571335
 20
153.8008251368
 10
109.9289919015
 20
154.1268548968
 10
110.6960326766
 20
154.4903147086
 10
111.3957222619
 20
154.8881931083
 10
112.022264596
 20
155.3171927764
 10
112.5704667051
 20
155.7737591517
 10
113.0357867393
 20
156.2541088149
 10
113.3399849329
 20
156.6445818059
  0
ARC
  5
BF
330
1F
100
AcDbEntity
  8
0
  6
SLD-実線
 62
     7
370
    25
100
AcDbCircle
 10
99.0977047223
 20
162.7787396558
 30
0.0
 40
9.536151579123786
100
AcDbArc
 50
220.0339750352
 51
258.6714916388
  0
LWPOLYLINE
  5
C0
330
1F
100
AcDbEntity
  8
0
  6
SLD-実線
 62
     7
370
    25
100
AcDbPolyline
 90
       23
 70
   128
 43
0.0
 10
97.4344929514
 20
141.1187167681
 10
98.3680506392
 20
140.8931428145
 10
99.3385193525
 20
140.7135850512
 10
100.3373695107
 20
140.5816202393
 10
101.3558242911
 20
140.4984090988
 10
102.3849329004
 20
140.4646829028
 10
103.4156514422
 20
140.4807372284
 10
104.4389216441
 20
140.5464317114
 10
105.4457520325
 20
140.6611885946
 10
106.4272936389
 20
140.8239998123
 10
107.3749211281
 20
141.0334342284
 10
108.280305872
 20
141.2876514024
 10
109.1354926497
 20
141.5844173528
 10
109.932964427
 20
141.9211241027
 10
110.6657141476
 20
142.2948124715
 10
111.327302468
 20
142.7021986202
 10
111.9119151212
 20
143.1397022896
 10
112.4144137827
 20
143.6034789745
 10
112.8303833427
 20
144.0894527014
 10
113.1561684615
 20
144.593352736
 10
113.3889046674
 20
145.1107511296
 10
113.5265485218
 20
145.6371003839
 10
113.5662557698
 20
146.0243940842
  0
LWPOLYLINE
  5
C1
330
1F
100
AcDbEntity
  8
0
  6
SLD-実線
 62
     7
370
    25
100
AcDbPolyline
 90
       13
 70
   128
 43
0.0
 10
91.5700288672
 20
146.0243941608
 10
91.5839855887
 20
145.8253534965
 10
91.6875148314
 20
145.2969351193
 10
91.8866637045
 20
144.7758314604
 10
92.1796814814
 20
144.2666223129
 10
92.56399394
 20
143.7737826124
 10
93.0362225406
 20
143.3016435996
 10
93.5922186125
 20
142.8543542412
 10
94.2270947266
 20
142.4358450442
 10
94.9352728374
 20
142.0497943622
 10
95.7105291079
 20
141.6995950612
 10
96.5460495672
 20
141.3883236651
 10
97.4344929514
 20
141.1187167681
  0
LWPOLYLINE
  5
C2
330
1F
100
AcDbEntity
  8
0
  6
SLD-実線
 62
     7
370
    25
100
AcDbPolyline
 90
        3
 70
   128
 43
0.0
 10
108.1820367016
 20
140.8430872544
 10
108.1868702312
 20
140.8446526841
 10
108.5666498319
 20
140.9737041657
  0
LWPOLYLINE
  5
C3
330
1F
100
AcDbEntity
  8
0
  6
SLD-実線
 62
     7
370
    25
100
AcDbPolyline
 90
        3
 70
   128
 43
0.0
 10
96.6848284
 20
140.9332738267
 10
96.7798695801
 20
140.9007711048
 10
96.9542475814
 20
140.843087215
  0
ARC
  5
C4
330
1F
100
AcDbEntity
  8
0
  6
SLD-実線
 62
     7
370
    25
100
AcDbCircle
 10
102.5681418911
 20
156.1500634243
 30
0.0
 40
16.29367062122757
100
AcDbArc
 50
252.9069602083
 51
287.0930412235
  0
LWPOLYLINE
  5
C5
330
1F
100
AcDbEntity
  8
0
  6
SLD-実線
 62
     7
370
    25
100
AcDbPolyline
 90
       20
 70
   128
 43
0.0
 10
98.7412399938
 20
137.2939964848
 10
99.5477771166
 20
137.1027894285
 10
100.3897258351
 20
136.9576161238
 10
101.2572140003
 20
136.8601776797
 10
102.1400715865
 20
136.8116167277
 10
103.0279481256
 20
136.8125028613
 10
103.9104335956
 20
136.8628258136
 10
104.7771820364
 20
136.9619952162
 10
105.6180318585
 20
137.1088483069
 10
106.4231239203
 20
137.3016639392
 10
107.1830203075
 20
137.5381808745
 10
107.8888112723
 20
137.8156266148
 10
108.5322220456
 20
138.1307481678
 10
109.1057101023
 20
138.4798509656
 10
109.602550361
 20
138.8588424526
 10
110.0169189868
 20
139.2632789345
 10
110.3439579099
 20
139.6884187861
 10
110.5798316555
 20
140.1292779195
 10
110.7217762124
 20
140.5806872449
 10
110.7678023472
 20
140.990721546
  0
LWPOLYLINE
  5
C6
330
1F
100
AcDbEntity
  8
0
  6
SLD-実線
 62
     7
370
    25
100
AcDbPolyline
 90
       11
 70
   128
 43
0.0
 10
94.3684819379
 20
140.9907215861
 10
94.4179446305
 20
140.5644144303
 10
94.5632845538
 20
140.1132917498
 10
94.8024750094
 20
139.672906854
 10
95.1327102576
 20
139.248422933
 10
95.5501188762
 20
138.8448166208
 10
96.0498079481
 20
138.4668198861
 10
96.6259186083
 20
138.1188645306
 10
97.271696198
 20
137.8050297678
 10
97.9795694276
 20
137.5289946757
 10
98.7412399938
 20
137.2939964848
  0
ARC
  5
C7
330
1F
100
AcDbEntity
  8
0
  6
SLD-実線
 62
     8
370
    25
100
AcDbCircle
 10
102.5665416522
 20
144.8599556699
 30
0.0
 40
8.587095085539943
100
AcDbArc
 50
249.6928290497
 51
290.653573115
  0
LWPOLYLINE
  5
C8
330
1F
100
AcDbEntity
  8
0
  6
SLD-実線
 62
     8
370
    25
100
AcDbPolyline
 90
       23
 70
   128
 43
0.0
 10
97.9681421119
 20
132.0460571685
 10
97.9735403479
 20
131.9313120823
 10
98.0526753495
 20
131.5939488216
 10
98.2247061781
 20
131.2658868771
 10
98.4860937302
 20
130.9538751406
 10
98.8314604812
 20
130.6643327543
 10
99.2537014845
 20
130.4032163037
 10
99.7441297794
 20
130.1758977254
 10
100.2926560174
 20
129.9870536603
 10
100.8879952753
 20
129.8405689766
 10
101.5179000244
 20
129.7394574544
 10
102.1694112054
 20
129.6857992437
 10
102.8291255809
 20
129.680698304
 10
103.4834705013
 20
129.7242592526
 10
104.1189845907
 20
129.8155861959
 10
104.7225935528
 20
129.9528002426
 10
105.2818792916
 20
130.1330786292
 10
105.7853357549
 20
130.3527122335
 10
106.2226056951
 20
130.6071827483
 10
106.584692891
 20
130.8912549603
 10
106.8641481095
 20
131.1990847672
 10
107.055222591
 20
131.5243391783
 10
107.1539853019
 20
131.8603266873
  0
LWPOLYLINE
  5
C9
330
1F
100
AcDbEntity
  8
0
  6
SLD-実線
 62
     8
370
    25
100
AcDbPolyline
 90
       33
 70
   128
 43
0.0
 10
90.9007573047
 20
172.7569611447
 10
92.2840262986
 20
172.4086316192
 10
93.7063057974
 20
172.1048202673
 10
95.1622015737
 20
171.8466807293
 10
96.6461911639
 20
171.6351921492
 10
98.1526441398
 20
171.4711558346
 10
99.6758470926
 20
171.3551949751
 10
101.2100217082
 20
171.2877486448
 10
102.7493460446
 20
171.269072528
 10
104.2879857847
 20
171.2992391029
 10
105.820099408
 20
171.3781318975
 10
107.3398793715
 20
171.5054538215
 10
108.8415567782
 20
171.6807193903
 10
110.3194376622
 20
171.9032654719
 10
111.7679145198
 20
172.1722481538
 10
113.1814947706
 20
172.4866458542
 10
114.5548143929
 20
172.8452664639
 10
115.8826634331
 20
173.2467496331
 10
117.1600066652
 20
173.6895725457
 10
118.3819992159
 20
174.1720548934
 10
119.5440035863
 20
174.6923672654
 10
120.6416110881
 20
175.2485356277
 10
121.6706611646
 20
175.8384499017
 10
122.6272482183
 20
176.4598726844
 10
123.5077456564
 20
177.1104462729
 10
124.3088107003
 20
177.7877035252
 10
125.0274062952
 20
178.4890748554
 10
125.6608066258
 20
179.2118997842
 10
126.2066072222
 20
179.9534368025
 10
126.6627403605
 20
180.7108722361
 10
127.0274739083
 20
181.4813335079
 10
127.2994260195
 20
182.2618973137
 10
127.4020497233
 20
182.6629293035
  0
LWPOLYLINE
  5
CA
330
1F
100
AcDbEntity
  8
0
  6
SLD-実線
 62
     8
370
    25
100
AcDbPolyline
 90
       17
 70
   128
 43
0.0
 10
77.7281156908
 20
182.6903918084
 10
77.8924496298
 20
182.0774521707
 10
78.1863418594
 20
181.2990000368
 10
78.5727210193
 20
180.5313428056
 10
79.0501245479
 20
179.7773923173
 10
79.6167402524
 20
179.0400089991
 10
80.2704173844
 20
178.321988008
 10
81.0086781709
 20
177.6260560972
 10
81.8287210665
 20
176.9548501223
 10
82.7274358533
 20
176.3109194463
 10
83.7014135274
 20
175.6967037274
 10
84.7469584251
 20
175.1145339628
 10
85.8601055667
 20
174.5666190966
 10
87.036631503
 20
174.0550365646
 10
88.2720741287
 20
173.5817279933
 10
89.5617472351
 20
173.1484887372
 10
90.9007573047
 20
172.7569611447
  0
ARC
  5
CB
330
1F
100
AcDbEntity
  8
0
  6
SLD-実線
 62
     8
370
    25
100
AcDbCircle
 10
102.5681420774
 20
159.1364497212
 30
0.0
 40
19.1353840618481
100
AcDbArc
 50
252.9397188376
 51
287.0602815641
  0
LWPOLYLINE
  5
CC
330
1F
100
AcDbEntity
  8
0
  6
SLD-実線
 62
     8
370
    25
100
AcDbPolyline
 90
       17
 70
   128
 43
0.0
 10
98.3678838823
 20
139.9296750194
 10
99.2085762792
 20
139.7289710621
 10
100.0848811212
 20
139.5738514371
 10
100.9875093238
 20
139.46596048
 10
101.9068926099
 20
139.4064413418
 10
102.8332850145
 20
139.3959252146
 10
103.7568672255
 20
139.4345235841
 10
104.6678483961
 20
139.5218271338
 10
105.5565721773
 20
139.6569108248
 10
106.413617888
 20
139.8383421958
 10
107.2299005972
 20
140.0641983637
 10
107.9967679574
 20
140.3320849937
 10
108.7060895491
 20
140.6391628624
 10
109.3503481822
 20
140.9821763304
 10
109.9227134608
 20
141.3574896857
 10
110.4171188212
 20
141.7611243062
 10
110.4582089575
 20
141.7992633696
  0
ARC
  5
CD
330
1F
100
AcDbEntity
  8
0
  6
SLD-実線
 62
     8
370
    25
100
AcDbCircle
 10
100.3278262504
 20
148.3626635857
 30
0.0
 40
8.657752031841312
100
AcDbArc
 50
228.9300593675
 51
256.915956454
  0
ENDSEC
  0
SECTION
  2
OBJECTS
  0
DICTIONARY
  5
C
330
0
100
AcDbDictionary
281
     1
  3
ACAD_GROUP
350
D
  3
ACAD_LAYOUT
350
1A
  3
ACAD_MLINESTYLE
350
17
  3
ACAD_PLOTSETTINGS
350
19
  3
ACAD_PLOTSTYLENAME
350
E
  3
ACAD_SCALELIST
350
47
  0
DICTIONARY
  5
D
102
{ACAD_REACTORS
330
C
102
}
330
C
100
AcDbDictionary
281
     1
  0
DICTIONARY
  5
1A
102
{ACAD_REACTORS
330
C
102
}
330
C
100
AcDbDictionary
281
     1
  3
Layout1
350
1E
  3
Layout2
350
26
  3
Model
350
22
  0
DICTIONARY
  5
17
102
{ACAD_REACTORS
330
C
102
}
330
C
100
AcDbDictionary
281
     1
  3
Standard
350
18
  0
DICTIONARY
  5
19
102
{ACAD_REACTORS
330
C
102
}
330
C
100
AcDbDictionary
281
     1
  0
ACDBDICTIONARYWDFLT
  5
E
102
{ACAD_REACTORS
330
C
102
}
330
C
100
AcDbDictionary
281
     1
  3
Normal
350
F
100
AcDbDictionaryWithDefault
340
F
  0
DICTIONARY
  5
47
102
{ACAD_REACTORS
330
C
102
}
330
C
100
AcDbDictionary
281
     1
  3
A0
350
48
  3
A1
350
49
  3
A2
350
4A
  3
A3
350
4B
  3
A4
350
4C
  3
A5
350
4D
  3
A6
350
4E
  3
A7
350
4F
  3
A8
350
50
  3
A9
350
51
  3
B0
350
52
  3
B1
350
53
  3
B2
350
54
  3
B3
350
55
  3
B4
350
56
  3
B5
350
57
  3
B6
350
58
  3
B7
350
59
  3
B8
350
5A
  3
B9
350
5B
  3
C0
350
5C
  3
C1
350
5D
  3
C2
350
5E
  3
C3
350
5F
  3
C4
350
60
  3
C5
350
61
  3
C6
350
62
  3
C7
350
63
  3
C8
350
64
  3
C9
350
65
  3
D0
350
66
  3
D1
350
67
  3
D2
350
68
  0
LAYOUT
  5
1E
102
{ACAD_REACTORS
330
1A
102
}
330
1A
100
AcDbPlotSettings
  1

  2
none_device
  4

  6

 40
0.0
 41
0.0
 42
0.0
 43
0.0
 44
0.0
 45
0.0
 46
0.0
 47
0.0
 48
0.0
 49
0.0
140
0.0
141
0.0
142
1.0
143
1.0
 70
   688
 72
     1
 73
     0
 74
     5
  7

 75
    16
147
1.0
148
0.0
149
0.0
100
AcDbLayout
  1
Layout1
 70
     1
 71
     1
 10
0.0
 20
0.0
 11
420.0
 21
297.0
 12
0.0
 22
0.0
 32
0.0
 14
1.0000000000E+20
 24
1.0000000000E+20
 34
1.0000000000E+20
 15
-1.0000000000E+20
 25
-1.0000000000E+20
 35
-1.0000000000E+20
146
0.0
 13
0.0
 23
0.0
 33
0.0
 16
1.0
 26
0.0
 36
0.0
 17
0.0
 27
1.0
 37
0.0
 76
     0
330
1B
  0
LAYOUT
  5
26
102
{ACAD_REACTORS
330
1A
102
}
330
1A
100
AcDbPlotSettings
  1

  2
none_device
  4

  6

 40
0.0
 41
0.0
 42
0.0
 43
0.0
 44
0.0
 45
0.0
 46
0.0
 47
0.0
 48
0.0
 49
0.0
140
0.0
141
0.0
142
1.0
143
1.0
 70
   688
 72
     1
 73
     0
 74
     5
  7

 75
    16
147
1.0
148
0.0
149
0.0
100
AcDbLayout
  1
Layout2
 70
     1
 71
     2
 10
0.0
 20
0.0
 11
0.0
 21
0.0
 12
0.0
 22
0.0
 32
0.0
 14
0.0
 24
0.0
 34
0.0
 15
0.0
 25
0.0
 35
0.0
146
0.0
 13
0.0
 23
0.0
 33
0.0
 16
1.0
 26
0.0
 36
0.0
 17
0.0
 27
1.0
 37
0.0
 76
     0
330
23
  0
LAYOUT
  5
22
102
{ACAD_REACTORS
330
1A
102
}
330
1A
100
AcDbPlotSettings
  1

  2
none_device
  4
Letter_(8.50_x_11.00_Inches)
  6

 40
6.35
 41
6.35
 42
6.35000508
 43
6.35000508
 44
215.9
 45
279.4
 46
0.0
 47
0.0
 48
0.0
 49
0.0
140
0.0
141
0.0
142
1.0
143
1.0
 70
  1712
 72
     1
 73
     0
 74
     0
  7

 75
     0
147
1.0
148
0.0
149
0.0
100
AcDbLayout
  1
Model
 70
     1
 71
     0
 10
0.0
 20
0.0
 11
210.0
 21
297.0
 12
0.0
 22
0.0
 32
0.0
 14
0.0
 24
0.0
 34
0.0
 15
210.0
 25
297.0
 35
0.0
146
0.0
 13
0.0
 23
0.0
 33
0.0
 16
1.0
 26
0.0
 36
0.0
 17
0.0
 27
1.0
 37
0.0
 76
     0
330
1F
331
29
  0
MLINESTYLE
  5
18
102
{ACAD_REACTORS
330
17
102
}
330
17
100
AcDbMlineStyle
  2
Standard
 70
     0
  3

 62
   256
 51
90.0
 52
90.0
 71
     2
 49
0.5
 62
   256
  6
BYLAYER
 49
-0.5
 62
   256
  6
BYLAYER
  0
ACDBPLACEHOLDER
  5
F
102
{ACAD_REACTORS
330
E
102
}
330
E
  0
SCALE
  5
48
102
{ACAD_REACTORS
330
47
102
}
330
47
100
AcDbScale
 70
     0
300
1:1
140
1.0
141
1.0
290
     1
  0
SCALE
  5
49
102
{ACAD_REACTORS
330
47
102
}
330
47
100
AcDbScale
 70
     0
300
1:2
140
1.0
141
2.0
290
     0
  0
SCALE
  5
4A
102
{ACAD_REACTORS
330
47
102
}
330
47
100
AcDbScale
 70
     0
300
1:4
140
1.0
141
4.0
290
     0
  0
SCALE
  5
4B
102
{ACAD_REACTORS
330
47
102
}
330
47
100
AcDbScale
 70
     0
300
1:5
140
1.0
141
5.0
290
     0
  0
SCALE
  5
4C
102
{ACAD_REACTORS
330
47
102
}
330
47
100
AcDbScale
 70
     0
300
1:8
140
1.0
141
8.0
290
     0
  0
SCALE
  5
4D
102
{ACAD_REACTORS
330
47
102
}
330
47
100
AcDbScale
 70
     0
300
1:10
140
1.0
141
10.0
290
     0
  0
SCALE
  5
4E
102
{ACAD_REACTORS
330
47
102
}
330
47
100
AcDbScale
 70
     0
300
1:16
140
1.0
141
16.0
290
     0
  0
SCALE
  5
4F
102
{ACAD_REACTORS
330
47
102
}
330
47
100
AcDbScale
 70
     0
300
1:20
140
1.0
141
20.0
290
     0
  0
SCALE
  5
50
102
{ACAD_REACTORS
330
47
102
}
330
47
100
AcDbScale
 70
     0
300
1:30
140
1.0
141
30.0
290
     0
  0
SCALE
  5
51
102
{ACAD_REACTORS
330
47
102
}
330
47
100
AcDbScale
 70
     0
300
1:40
140
1.0
141
40.0
290
     0
  0
SCALE
  5
52
102
{ACAD_REACTORS
330
47
102
}
330
47
100
AcDbScale
 70
     0
300
1:50
140
1.0
141
50.0
290
     0
  0
SCALE
  5
53
102
{ACAD_REACTORS
330
47
102
}
330
47
100
AcDbScale
 70
     0
300
1:100
140
1.0
141
100.0
290
     0
  0
SCALE
  5
54
102
{ACAD_REACTORS
330
47
102
}
330
47
100
AcDbScale
 70
     0
300
2:1
140
2.0
141
1.0
290
     0
  0
SCALE
  5
55
102
{ACAD_REACTORS
330
47
102
}
330
47
100
AcDbScale
 70
     0
300
4:1
140
4.0
141
1.0
290
     0
  0
SCALE
  5
56
102
{ACAD_REACTORS
330
47
102
}
330
47
100
AcDbScale
 70
     0
300
8:1
140
8.0
141
1.0
290
     0
  0
SCALE
  5
57
102
{ACAD_REACTORS
330
47
102
}
330
47
100
AcDbScale
 70
     0
300
10:1
140
10.0
141
1.0
290
     0
  0
SCALE
  5
58
102
{ACAD_REACTORS
330
47
102
}
330
47
100
AcDbScale
 70
     0
300
100:1
140
100.0
141
1.0
290
     0
  0
SCALE
  5
59
102
{ACAD_REACTORS
330
47
102
}
330
47
100
AcDbScale
 70
     0
300
1/128" = 1'-0"
140
0.0078125
141
12.0
290
     0
  0
SCALE
  5
5A
102
{ACAD_REACTORS
330
47
102
}
330
47
100
AcDbScale
 70
     0
300
1/64" = 1'-0"
140
0.015625
141
12.0
290
     0
  0
SCALE
  5
5B
102
{ACAD_REACTORS
330
47
102
}
330
47
100
AcDbScale
 70
     0
300
1/32" = 1'-0"
140
0.03125
141
12.0
290
     0
  0
SCALE
  5
5C
102
{ACAD_REACTORS
330
47
102
}
330
47
100
AcDbScale
 70
     0
300
1/16" = 1'-0"
140
0.0625
141
12.0
290
     0
  0
SCALE
  5
5D
102
{ACAD_REACTORS
330
47
102
}
330
47
100
AcDbScale
 70
     0
300
3/32" = 1'-0"
140
0.09375
141
12.0
290
     0
  0
SCALE
  5
5E
102
{ACAD_REACTORS
330
47
102
}
330
47
100
AcDbScale
 70
     0
300
1/8" = 1'-0"
140
0.125
141
12.0
290
     0
  0
SCALE
  5
5F
102
{ACAD_REACTORS
330
47
102
}
330
47
100
AcDbScale
 70
     0
300
3/16" = 1'-0"
140
0.1875
141
12.0
290
     0
  0
SCALE
  5
60
102
{ACAD_REACTORS
330
47
102
}
330
47
100
AcDbScale
 70
     0
300
1/4" = 1'-0"
140
0.25
141
12.0
290
     0
  0
SCALE
  5
61
102
{ACAD_REACTORS
330
47
102
}
330
47
100
AcDbScale
 70
     0
300
3/8" = 1'-0"
140
0.375
141
12.0
290
     0
  0
SCALE
  5
62
102
{ACAD_REACTORS
330
47
102
}
330
47
100
AcDbScale
 70
     0
300
1/2" = 1'-0"
140
0.5
141
12.0
290
     0
  0
SCALE
  5
63
102
{ACAD_REACTORS
330
47
102
}
330
47
100
AcDbScale
 70
     0
300
3/4" = 1'-0"
140
0.75
141
12.0
290
     0
  0
SCALE
  5
64
102
{ACAD_REACTORS
330
47
102
}
330
47
100
AcDbScale
 70
     0
300
1" = 1'-0"
140
1.0
141
12.0
290
     0
  0
SCALE
  5
65
102
{ACAD_REACTORS
330
47
102
}
330
47
100
AcDbScale
 70
     0
300
1-1/2" = 1'-0"
140
1.5
141
12.0
290
     0
  0
SCALE
  5
66
102
{ACAD_REACTORS
330
47
102
}
330
47
100
AcDbScale
 70
     0
300
3" = 1'-0"
140
3.0
141
12.0
290
     0
  0
SCALE
  5
67
102
{ACAD_REACTORS
330
47
102
}
330
47
100
AcDbScale
 70
     0
300
6" = 1'-0"
140
6.0
141
12.0
290
     0
  0
SCALE
  5
68
102
{ACAD_REACTORS
330
47
102
}
330
47
100
AcDbScale
 70
     0
300
1'-0" = 1'-0"
140
12.0
141
12.0
290
     0
  0
ENDSEC
  0
EOF
