  0
SECTION
  2
HEADER
  9
$ACADVER
  1
AC1015
  9
$ACADMAINTVER
 70
     6
  9
$DWGCODEPAGE
  3
DOS932
  9
$INSBASE
 10
0.0
 20
0.0
 30
0.0
  9
$EXTMIN
 10
0.0
 20
0.0
 30
0.0
  9
$EXTMAX
 10
148.5
 20
210.0
 30
0.0
  9
$LIMMIN
 10
0.0
 20
0.0
  9
$LIMMAX
 10
148.5
 20
210.0
  9
$ORTHOMODE
 70
     0
  9
$REGENMODE
 70
     1
  9
$FILLMODE
 70
     1
  9
$QTEXTMODE
 70
     0
  9
$MIRRTEXT
 70
     1
  9
$LTSCALE
 40
0.5
  9
$ATTMODE
 70
     1
  9
$TEXTSIZE
 40
1.75
  9
$TRACEWID
 40
1.0
  9
$TEXTSTYLE
  7
Standard
  9
$CLAYER
  8
0
  9
$CELTYPE
  6
ByLayer
  9
$CECOLOR
 62
   256
  9
$CELTSCALE
 40
1.0
  9
$DISPSILH
 70
     0
  9
$DIMSCALE
 40
1.0
  9
$DIMASZ
 40
1.651
  9
$DIMEXO
 40
0.5
  9
$DIMDLI
 40
3.75
  9
$DIMRND
 40
0.0
  9
$DIMDLE
 40
0.0
  9
$DIMEXE
 40
0.5
  9
$DIMTP
 40
0.0
  9
$DIMTM
 40
0.0
  9
$DIMTXT
 40
1.75
  9
$DIMCEN
 40
2.5
  9
$DIMTSZ
 40
0.0
  9
$DIMTOL
 70
     0
  9
$DIMLIM
 70
     0
  9
$DIMTIH
 70
     1
  9
$DIMTOH
 70
     1
  9
$DIMSE1
 70
     0
  9
$DIMSE2
 70
     0
  9
$DIMTAD
 70
     1
  9
$DIMZIN
 70
     1
  9
$DIMBLK
  1

  9
$DIMASO
 70
     1
  9
$DIMSHO
 70
     1
  9
$DIMPOST
  1

  9
$DIMAPOST
  1

  9
$DIMALT
 70
     0
  9
$DIMALTD
 70
     3
  9
$DIMALTF
 40
0.0393700787
  9
$DIMLFAC
 40
1.0
  9
$DIMTOFL
 70
     1
  9
$DIMTVP
 40
0.0
  9
$DIMTIX
 70
     0
  9
$DIMSOXD
 70
     0
  9
$DIMSAH
 70
     0
  9
$DIMBLK1
  1

  9
$DIMBLK2
  1

  9
$DIMSTYLE
  2
ISO-25
  9
$DIMCLRD
 70
     0
  9
$DIMCLRE
 70
     0
  9
$DIMCLRT
 70
     0
  9
$DIMTFAC
 40
1.0
  9
$DIMGAP
 40
0.762
  9
$DIMJUST
 70
     0
  9
$DIMSD1
 70
     0
  9
$DIMSD2
 70
     0
  9
$DIMTOLJ
 70
     0
  9
$DIMTZIN
 70
     1
  9
$DIMALTZ
 70
     0
  9
$DIMALTTZ
 70
     0
  9
$DIMUPT
 70
     0
  9
$DIMDEC
 70
     2
  9
$DIMTDEC
 70
     2
  9
$DIMALTU
 70
     2
  9
$DIMALTTD
 70
     3
  9
$DIMTXSTY
  7
Standard
  9
$DIMAUNIT
 70
     0
  9
$DIMADEC
 70
     2
  9
$DIMALTRND
 40
0.0
  9
$DIMAZIN
 70
     0
  9
$DIMDSEP
 70
    44
  9
$DIMATFIT
 70
     3
  9
$DIMFRAC
 70
     0
  9
$DIMLDRBLK
  1

  9
$DIMLUNIT
 70
     2
  9
$DIMLWD
 70
    -2
  9
$DIMLWE
 70
    -2
  9
$DIMTMOVE
 70
     0
  9
$LUNITS
 70
     2
  9
$LUPREC
 70
     2
  9
$SKETCHINC
 40
1.0
  9
$FILLETRAD
 40
10.0
  9
$AUNITS
 70
     0
  9
$AUPREC
 70
     2
  9
$MENU
  1
.
  9
$ELEVATION
 40
0.0
  9
$PELEVATION
 40
0.0
  9
$THICKNESS
 40
0.0
  9
$LIMCHECK
 70
     0
  9
$CHAMFERA
 40
0.0
  9
$CHAMFERB
 40
0.0
  9
$CHAMFERC
 40
0.0
  9
$CHAMFERD
 40
0.0
  9
$SKPOLY
 70
     0
  9
$TDCREATE
 40
2459920.565854467
  9
$TDUCREATE
 40
2459920.190854467
  9
$TDUPDATE
 40
2459920.565854688
  9
$TDUUPDATE
 40
2459920.190854688
  9
$TDINDWG
 40
0.0000000116
  9
$TDUSRTIMER
 40
0.0000000116
  9
$USRTIMER
 70
     1
  9
$ANGBASE
 50
0.0
  9
$ANGDIR
 70
     0
  9
$PDMODE
 70
     0
  9
$PDSIZE
 40
-1.0
  9
$PLINEWID
 40
0.0
  9
$SPLFRAME
 70
     0
  9
$SPLINETYPE
 70
     6
  9
$SPLINESEGS
 70
     8
  9
$HANDSEED
  5
CB
  9
$SURFTAB1
 70
     6
  9
$SURFTAB2
 70
     6
  9
$SURFTYPE
 70
     6
  9
$SURFU
 70
     6
  9
$SURFV
 70
     6
  9
$UCSBASE
  2

  9
$UCSNAME
  2

  9
$UCSORG
 10
0.0
 20
0.0
 30
0.0
  9
$UCSXDIR
 10
1.0
 20
0.0
 30
0.0
  9
$UCSYDIR
 10
0.0
 20
1.0
 30
0.0
  9
$UCSORTHOREF
  2

  9
$UCSORTHOVIEW
 70
     0
  9
$UCSORGTOP
 10
0.0
 20
0.0
 30
0.0
  9
$UCSORGBOTTOM
 10
0.0
 20
0.0
 30
0.0
  9
$UCSORGLEFT
 10
0.0
 20
0.0
 30
0.0
  9
$UCSORGRIGHT
 10
0.0
 20
0.0
 30
0.0
  9
$UCSORGFRONT
 10
0.0
 20
0.0
 30
0.0
  9
$UCSORGBACK
 10
0.0
 20
0.0
 30
0.0
  9
$PUCSBASE
  2

  9
$PUCSNAME
  2

  9
$PUCSORG
 10
0.0
 20
0.0
 30
0.0
  9
$PUCSXDIR
 10
1.0
 20
0.0
 30
0.0
  9
$PUCSYDIR
 10
0.0
 20
1.0
 30
0.0
  9
$PUCSORTHOREF
  2

  9
$PUCSORTHOVIEW
 70
     0
  9
$PUCSORGTOP
 10
0.0
 20
0.0
 30
0.0
  9
$PUCSORGBOTTOM
 10
0.0
 20
0.0
 30
0.0
  9
$PUCSORGLEFT
 10
0.0
 20
0.0
 30
0.0
  9
$PUCSORGRIGHT
 10
0.0
 20
0.0
 30
0.0
  9
$PUCSORGFRONT
 10
0.0
 20
0.0
 30
0.0
  9
$PUCSORGBACK
 10
0.0
 20
0.0
 30
0.0
  9
$USERI1
 70
     0
  9
$USERI2
 70
     0
  9
$USERI3
 70
     0
  9
$USERI4
 70
     0
  9
$USERI5
 70
     0
  9
$USERR1
 40
0.0
  9
$USERR2
 40
0.0
  9
$USERR3
 40
0.0
  9
$USERR4
 40
0.0
  9
$USERR5
 40
0.0
  9
$WORLDVIEW
 70
     1
  9
$SHADEDGE
 70
     3
  9
$SHADEDIF
 70
    70
  9
$TILEMODE
 70
     1
  9
$MAXACTVP
 70
    64
  9
$PINSBASE
 10
0.0
 20
0.0
 30
0.0
  9
$PLIMCHECK
 70
     0
  9
$PEXTMIN
 10
1.0000000000E+20
 20
1.0000000000E+20
 30
1.0000000000E+20
  9
$PEXTMAX
 10
-1.0000000000E+20
 20
-1.0000000000E+20
 30
-1.0000000000E+20
  9
$PLIMMIN
 10
0.0
 20
0.0
  9
$PLIMMAX
 10
420.0
 20
297.0
  9
$UNITMODE
 70
     0
  9
$VISRETAIN
 70
     1
  9
$PLINEGEN
 70
     0
  9
$PSLTSCALE
 70
     1
  9
$TREEDEPTH
 70
  3020
  9
$CMLSTYLE
  2
Standard
  9
$CMLJUST
 70
     0
  9
$CMLSCALE
 40
20.0
  9
$PROXYGRAPHICS
 70
     1
  9
$MEASUREMENT
 70
     1
  9
$CELWEIGHT
370
    -1
  9
$ENDCAPS
280
     0
  9
$JOINSTYLE
280
     0
  9
$LWDISPLAY
290
     1
  9
$INSUNITS
 70
     4
  9
$HYPERLINKBASE
  1

  9
$STYLESHEET
  1

  9
$XEDIT
290
     1
  9
$CEPSNTYPE
380
     0
  9
$PSTYLEMODE
290
     1
  9
$FINGERPRINTGUID
  2
{436b3f3a-9e7e-44d9-8e2b-9cac41929757}
  9
$VERSIONGUID
  2
{FAEB1C32-E019-11D5-929B-00C0DF256EC4}
  9
$EXTNAMES
290
     1
  9
$PSVPSCALE
 40
0.0
  9
$OLESTARTUP
290
     0
  0
ENDSEC
  0
SECTION
  2
CLASSES
  0
CLASS
  1
ACDBDICTIONARYWDFLT
  2
AcDbDictionaryWithDefault
  3
ObjectDBX Classes
 90
        0
280
     0
281
     0
  0
CLASS
  1
VISUALSTYLE
  2
AcDbVisualStyle
  3
ObjectDBX Classes
 90
     4095
280
     0
281
     0
  0
CLASS
  1
MATERIAL
  2
AcDbMaterial
  3
ObjectDBX Classes
 90
     1153
280
     0
281
     0
  0
CLASS
  1
SCALE
  2
AcDbScale
  3
ObjectDBX Classes
 90
     1153
280
     0
281
     0
  0
CLASS
  1
TABLESTYLE
  2
AcDbTableStyle
  3
ObjectDBX Classes
 90
     4095
280
     0
281
     0
  0
CLASS
  1
MLEADERSTYLE
  2
AcDbMLeaderStyle
  3
ACDB_MLEADERSTYLE_CLASS
 90
     4095
280
     0
281
     0
  0
CLASS
  1
SUN
  2
AcDbSun
  3
SCENEOE
 90
     1153
280
     0
281
     0
  0
CLASS
  1
ACDBPLACEHOLDER
  2
AcDbPlaceHolder
  3
ObjectDBX Classes
 90
        0
280
     0
281
     0
  0
CLASS
  1
LAYOUT
  2
AcDbLayout
  3
ObjectDBX Classes
 90
        0
280
     0
281
     0
  0
ENDSEC
  0
SECTION
  2
TABLES
  0
TABLE
  2
VPORT
  5
8
330
0
100
AcDbSymbolTable
 70
     1
  0
VPORT
  5
29
330
8
100
AcDbSymbolTableRecord
100
AcDbViewportTableRecord
  2
*Active
 70
     0
 10
0.0
 20
0.0
 11
1.0
 21
1.0
 12
74.25
 22
105.0
 13
0.0
 23
0.0
 14
10.0
 24
10.0
 15
10.0
 25
10.0
 16
0.0
 26
0.0
 36
1.0
 17
0.0
 27
0.0
 37
0.0
 40
210.0
 41
0.7071428571
 42
50.0
 43
0.0
 44
0.0
 50
0.0
 51
0.0
 71
     0
 72
  2000
 73
     1
 74
     3
 75
     0
 76
     0
 77
     0
 78
     0
281
     0
 65
     1
110
0.0
120
0.0
130
0.0
111
1.0
121
0.0
131
0.0
112
0.0
122
1.0
132
0.0
 79
     0
146
0.0
  0
ENDTAB
  0
TABLE
  2
LTYPE
  5
5
330
0
100
AcDbSymbolTable
 70
     6
  0
LTYPE
  5
14
330
5
100
AcDbSymbolTableRecord
100
AcDbLinetypeTableRecord
  2
ByBlock
 70
     0
  3

 72
    65
 73
     0
 40
0.0
  0
LTYPE
  5
15
330
5
100
AcDbSymbolTableRecord
100
AcDbLinetypeTableRecord
  2
ByLayer
 70
     0
  3

 72
    65
 73
     0
 40
0.0
  0
LTYPE
  5
16
330
5
100
AcDbSymbolTableRecord
100
AcDbLinetypeTableRecord
  2
Continuous
 70
     0
  3
Solid line
 72
    65
 73
     0
 40
0.0
  0
LTYPE
  5
6E
330
5
100
AcDbSymbolTableRecord
100
AcDbLinetypeTableRecord
  2
HIDDEN
 70
     0
  3
Hidden __ __ __ __ __ __ __ __ __ __ __ __ __ __
 72
    65
 73
     2
 40
1.905
 49
1.27
 74
     0
 49
-0.635
 74
     0
  0
LTYPE
  5
6F
330
5
100
AcDbSymbolTableRecord
100
AcDbLinetypeTableRecord
  2
PHANTOM
 70
     0
  3
Phantom ______  __  __  ______  __  __  ______
 72
    65
 73
     6
 40
12.7
 49
6.35
 74
     0
 49
-1.27
 74
     0
 49
1.27
 74
     0
 49
-1.27
 74
     0
 49
1.27
 74
     0
 49
-1.27
 74
     0
  0
LTYPE
  5
70
330
5
100
AcDbSymbolTableRecord
100
AcDbLinetypeTableRecord
  2
CENTER
 70
     0
  3
Center ____ _ ____ _ ____ _ ____ _ ____ _ ____
 72
    65
 73
     4
 40
10.16
 49
6.35
 74
     0
 49
-1.27
 74
     0
 49
1.27
 74
     0
 49
-1.27
 74
     0
  0
LTYPE
  5
71
330
5
100
AcDbSymbolTableRecord
100
AcDbLinetypeTableRecord
  2
CENTERX2
 70
     0
  3
Center (2x) ________  __  ________  __  _____
 72
    65
 73
     4
 40
20.32
 49
12.7
 74
     0
 49
-2.54
 74
     0
 49
2.54
 74
     0
 49
-2.54
 74
     0
  0
LTYPE
  5
72
330
5
100
AcDbSymbolTableRecord
100
AcDbLinetypeTableRecord
  2
DOT2
 70
     0
  3
Dot (.5x) ........................................
 72
    65
 73
     2
 40
0.635
 49
0.0
 74
     0
 49
-0.635
 74
     0
  0
ENDTAB
  0
TABLE
  2
LAYER
  5
2
330
0
100
AcDbSymbolTable
 70
     1
  0
LAYER
  5
10
330
2
100
AcDbSymbolTableRecord
100
AcDbLayerTableRecord
  2
0
 70
     0
 62
     7
  6
Continuous
370
    -3
390
F
  0
ENDTAB
  0
TABLE
  2
STYLE
  5
3
330
0
100
AcDbSymbolTable
 70
     2
  0
STYLE
  5
11
330
3
100
AcDbSymbolTableRecord
100
AcDbTextStyleTableRecord
  2
Standard
 70
     0
 40
0.0
 41
1.0
 50
0.0
 71
     0
 42
1.75
  3
txt
  4
bigfont
  0
STYLE
  5
76
330
3
100
AcDbSymbolTableRecord
100
AcDbTextStyleTableRecord
  2
SLDTEXTSTYLE0
 70
     0
 40
0.0
 41
0.7
 50
0.0
 71
     0
 42
1.75
  3
TXT
  4
bigfont
  0
ENDTAB
  0
TABLE
  2
VIEW
  5
6
330
0
100
AcDbSymbolTable
 70
     0
  0
ENDTAB
  0
TABLE
  2
UCS
  5
7
330
0
100
AcDbSymbolTable
 70
     0
  0
ENDTAB
  0
TABLE
  2
APPID
  5
9
330
0
100
AcDbSymbolTable
 70
     1
  0
APPID
  5
12
330
9
100
AcDbSymbolTableRecord
100
AcDbRegAppTableRecord
  2
ACAD
 70
     0
  0
ENDTAB
  0
TABLE
  2
DIMSTYLE
  5
A
330
0
100
AcDbSymbolTable
 70
     1
100
AcDbDimStyleTable
  0
DIMSTYLE
105
27
330
A
100
AcDbSymbolTableRecord
100
AcDbDimStyleTableRecord
  2
ISO-25
 70
     0
 41
2.5
 42
0.625
 43
3.75
 44
1.25
 73
     0
 74
     0
 77
     1
 78
     8
140
2.5
141
2.5
143
0.0393700787
147
0.625
171
     3
172
     1
178
     0
271
     2
272
     2
274
     3
278
    44
283
     0
284
     8
340
11
  0
ENDTAB
  0
TABLE
  2
BLOCK_RECORD
  5
1
330
0
100
AcDbSymbolTable
 70
     2
  0
BLOCK_RECORD
  5
1F
330
1
100
AcDbSymbolTableRecord
100
AcDbBlockTableRecord
  2
*Model_Space
340
22
  0
BLOCK_RECORD
  5
1B
330
1
100
AcDbSymbolTableRecord
100
AcDbBlockTableRecord
  2
*Paper_Space
340
1E
  0
BLOCK_RECORD
  5
23
330
1
100
AcDbSymbolTableRecord
100
AcDbBlockTableRecord
  2
*Paper_Space0
340
26
  0
BLOCK_RECORD
  5
73
330
1
100
AcDbSymbolTableRecord
100
AcDbBlockTableRecord
  2
SW_NOTE_0
340
0
102
{BLKREFS
331
79
102
}
  0
ENDTAB
  0
ENDSEC
  0
SECTION
  2
BLOCKS
  0
BLOCK
  5
20
330
1F
100
AcDbEntity
  8
0
100
AcDbBlockBegin
  2
*Model_Space
 70
     0
 10
0.0
 20
0.0
 30
0.0
  3
*Model_Space
  1

  0
ENDBLK
  5
21
330
1F
100
AcDbEntity
  8
0
100
AcDbBlockEnd
  0
BLOCK
  5
1C
330
1B
100
AcDbEntity
 67
     1
  8
0
100
AcDbBlockBegin
  2
*Paper_Space
 70
     0
 10
0.0
 20
0.0
 30
0.0
  3
*Paper_Space
  1

  0
ENDBLK
  5
1D
330
1B
100
AcDbEntity
 67
     1
  8
0
100
AcDbBlockEnd
  0
BLOCK
  5
24
330
23
100
AcDbEntity
  8
0
100
AcDbBlockBegin
  2
*Paper_Space0
 70
     0
 10
0.0
 20
0.0
 30
0.0
  3
*Paper_Space0
  1

  0
ENDBLK
  5
25
330
23
100
AcDbEntity
  8
0
100
AcDbBlockEnd
  0
BLOCK
  5
74
330
73
100
AcDbEntity
  8
0
100
AcDbBlockBegin
  2
SW_NOTE_0
 70
     0
 10
0.0
 20
0.0
 30
0.0
  3
SW_NOTE_0
  1

  0
MTEXT
  5
77
330
73
100
AcDbEntity
  8
0
  6
Continuous
 62
     0
370
     0
100
AcDbMText
 10
0.0
 20
4.0927900738
 30
0.0
 40
3.175
 41
0.0
 71
     1
 72
     1
  1
HOA-D03K
  7
SLDTEXTSTYLE0
 73
     1
 44
1.0
  0
MTEXT
  5
78
330
73
100
AcDbEntity
  8
0
  6
Continuous
 62
     0
370
     0
100
AcDbMText
 10
0.0
 20
-0.6405432904
 30
0.0
 40
3.175
 41
0.0
 71
     1
 72
     1
  1
HOA-D03W
  7
SLDTEXTSTYLE0
 73
     1
 44
1.0
  0
ENDBLK
  5
75
330
73
100
AcDbEntity
  8
0
100
AcDbBlockEnd
  0
ENDSEC
  0
SECTION
  2
ENTITIES
  0
INSERT
  5
79
330
1F
100
AcDbEntity
  8
0
  6
Continuous
 62
     7
370
     0
100
AcDbBlockReference
  2
SW_NOTE_0
 10
106.2248778482
 20
52.1550369002
 30
0.0
  0
LINE
  5
7A
330
1F
100
AcDbEntity
  8
0
  6
Continuous
 62
     7
370
    25
100
AcDbLine
 10
78.300798904
 20
140.7915948482
 30
0.0
 11
78.0074141861
 21
140.8441209947
 31
0.0
  0
LINE
  5
7B
330
1F
100
AcDbEntity
  8
0
  6
Continuous
 62
     7
370
    25
100
AcDbLine
 10
68.9176431834
 20
90.190492121
 30
0.0
 11
69.2109856172
 21
90.137730343
 31
0.0
  0
LINE
  5
7C
330
1F
100
AcDbEntity
  8
0
  6
Continuous
 62
     7
370
    25
100
AcDbLine
 10
75.2589246731
 20
95.0954725116
 30
0.0
 11
75.6256289256
 21
95.0296675978
 31
0.0
  0
LINE
  5
7D
330
1F
100
AcDbEntity
  8
0
  6
Continuous
 62
     7
370
    25
100
AcDbLine
 10
82.6142623038
 20
133.974503652
 30
0.0
 11
82.2475580513
 21
134.0403085658
 31
0.0
  0
LINE
  5
7E
330
1F
100
AcDbEntity
  8
0
  6
Continuous
 62
     7
370
    25
100
AcDbLine
 10
69.040813787
 20
103.7396735873
 30
0.0
 11
71.0374453723
 21
103.381378944
 31
0.0
  0
LINE
  5
7F
330
1F
100
AcDbEntity
  8
0
  6
Continuous
 62
     7
370
    25
100
AcDbLine
 10
71.7783752328
 20
97.2389800595
 30
0.0
 11
72.8341060537
 21
97.0290381157
 31
0.0
  0
LINE
  5
80
330
1F
100
AcDbEntity
  8
0
  6
Continuous
 62
     7
370
    25
100
AcDbLine
 10
69.8342715944
 20
96.3869121063
 30
0.0
 11
74.223806938
 21
95.5140119656
 31
0.0
  0
LINE
  5
81
330
1F
100
AcDbEntity
  8
0
  6
Continuous
 62
     7
370
    25
100
AcDbLine
 10
72.9014571762
 20
96.921206139
 30
0.0
 11
68.0577760143
 21
97.6970179216
 31
0.0
  0
LINE
  5
82
330
1F
100
AcDbEntity
  8
0
  6
Continuous
 62
     7
370
    25
100
AcDbLine
 10
68.0638118777
 20
96.8219766873
 30
0.0
 11
74.0565937366
 21
95.6302559883
 31
0.0
  0
LINE
  5
83
330
1F
100
AcDbEntity
  8
0
  6
Continuous
 62
     7
370
    25
100
AcDbLine
 10
72.118951923
 20
98.5024374723
 30
0.0
 11
66.5929015915
 21
99.3875442362
 31
0.0
  0
LINE
  5
84
330
1F
100
AcDbEntity
  8
0
  6
Continuous
 62
     7
370
    25
100
AcDbLine
 10
66.587649018
 20
98.5145250629
 30
0.0
 11
72.6737760822
 21
97.3042417971
 31
0.0
  0
LINE
  5
85
330
1F
100
AcDbEntity
  8
0
  6
Continuous
 62
     7
370
    25
100
AcDbLine
 10
71.3457003596
 20
101.287389608
 30
0.0
 11
65.5339022876
 21
102.2182645504
 31
0.0
  0
LINE
  5
86
330
1F
100
AcDbEntity
  8
0
  6
Continuous
 62
     7
370
    25
100
AcDbLine
 10
65.5063653185
 20
101.3492159915
 30
0.0
 11
71.6021075053
 21
100.1370206687
 31
0.0
  0
LINE
  5
87
330
1F
100
AcDbEntity
  8
0
  6
Continuous
 62
     7
370
    25
100
AcDbLine
 10
70.9051215047
 20
105.04291096
 30
0.0
 11
64.9518898434
 21
105.9964393021
 31
0.0
  0
LINE
  5
88
330
1F
100
AcDbEntity
  8
0
  6
Continuous
 62
     7
370
    25
100
AcDbLine
 10
64.8936219058
 20
105.1328752547
 30
0.0
 11
70.984760659
 21
103.9215953678
 31
0.0
  0
LINE
  5
89
330
1F
100
AcDbEntity
  8
0
  6
Continuous
 62
     7
370
    25
100
AcDbLine
 10
70.917701424
 20
109.4985797728
 30
0.0
 11
64.8861025821
 21
110.464660176
 31
0.0
  0
LINE
  5
8A
330
1F
100
AcDbEntity
  8
0
  6
Continuous
 62
     7
370
    25
100
AcDbLine
 10
64.7911456217
 20
109.6076588136
 30
0.0
 11
70.8709914675
 21
108.3986246268
 31
0.0
  0
LINE
  5
8B
330
1F
100
AcDbEntity
  8
0
  6
Continuous
 62
     7
370
    25
100
AcDbLine
 10
71.4187957465
 20
114.3449493598
 30
0.0
 11
65.3409639065
 21
115.3184348963
 31
0.0
  0
LINE
  5
8C
330
1F
100
AcDbEntity
  8
0
  6
Continuous
 62
     7
370
    25
100
AcDbLine
 10
65.2058933651
 20
114.468622871
 30
0.0
 11
71.2669839527
 21
113.2633183427
 31
0.0
  0
LINE
  5
8D
330
1F
100
AcDbEntity
  8
0
  6
Continuous
 62
     7
370
    25
100
AcDbLine
 10
72.3916667505
 20
119.2489589205
 30
0.0
 11
66.2856424985
 21
120.226960032
 31
0.0
  0
LINE
  5
8E
330
1F
100
AcDbEntity
  8
0
  6
Continuous
 62
     7
370
    25
100
AcDbLine
 10
66.1096016184
 20
119.3845005895
 30
0.0
 11
72.1401517304
 21
118.1852693203
 31
0.0
  0
LINE
  5
8F
330
1F
100
AcDbEntity
  8
0
  6
Continuous
 62
     7
370
    25
100
AcDbLine
 10
73.7794148059
 20
123.8749027235
 30
0.0
 11
67.6560584861
 21
124.85567991
 31
0.0
  0
LINE
  5
90
330
1F
100
AcDbEntity
  8
0
  6
Continuous
 62
     7
370
    25
100
AcDbLine
 10
67.4404423522
 20
124.0203311117
 30
0.0
 11
73.420624145
 21
122.8311160537
 31
0.0
  0
LINE
  5
91
330
1F
100
AcDbEntity
  8
0
  6
Continuous
 62
     7
370
    25
100
AcDbLine
 10
75.4924229438
 20
127.9067365787
 30
0.0
 11
69.3588183226
 21
128.8891552343
 31
0.0
  0
LINE
  5
92
330
1F
100
AcDbEntity
  8
0
  6
Continuous
 62
     7
370
    25
100
AcDbLine
 10
69.1070425211
 20
128.0603251645
 30
0.0
 11
75.0016677895
 21
126.8881238212
 31
0.0
  0
LINE
  5
93
330
1F
100
AcDbEntity
  8
0
  6
Continuous
 62
     7
370
    25
100
AcDbLine
 10
77.4146109611
 20
131.0695922046
 30
0.0
 11
71.2779098793
 21
132.0525068198
 31
0.0
  0
LINE
  5
94
330
1F
100
AcDbEntity
  8
0
  6
Continuous
 62
     7
370
    25
100
AcDbLine
 10
70.9968415131
 20
131.2289619007
 30
0.0
 11
76.7338791295
 21
130.0880983352
 31
0.0
  0
LINE
  5
95
330
1F
100
AcDbEntity
  8
0
  6
Continuous
 62
     7
370
    25
100
AcDbLine
 10
79.4042894272
 20
133.149639313
 30
0.0
 11
73.2825809093
 21
134.1301525712
 31
0.0
  0
LINE
  5
96
330
1F
100
AcDbEntity
  8
0
  6
Continuous
 62
     7
370
    25
100
AcDbLine
 10
72.981812398
 20
133.3101528801
 30
0.0
 11
78.3912771365
 21
132.2344302439
 31
0.0
  0
LINE
  5
97
330
1F
100
AcDbEntity
  8
0
  6
Continuous
 62
     7
370
    25
100
AcDbLine
 10
81.2078581898
 20
134.0240272732
 30
0.0
 11
75.2362416564
 21
134.9805003178
 31
0.0
  0
LINE
  5
98
330
1F
100
AcDbEntity
  8
0
  6
Continuous
 62
     7
370
    25
100
AcDbLine
 10
74.9256208428
 20
134.1622795353
 30
0.0
 11
79.5345761465
 21
133.2457456841
 31
0.0
  0
LINE
  5
99
330
1F
100
AcDbEntity
  8
0
  6
Continuous
 62
     7
370
    25
100
AcDbLine
 10
76.6957521224
 20
133.727280267
 30
0.0
 11
79.4453860085
 21
133.1804898625
 31
0.0
  0
LINE
  5
9A
330
1F
100
AcDbEntity
  8
0
  6
Continuous
 62
     7
370
    25
100
AcDbLine
 10
78.1717686989
 20
132.0347609813
 30
0.0
 11
78.2006436947
 21
132.0290189184
 31
0.0
  0
LINE
  5
9B
330
1F
100
AcDbEntity
  8
0
  6
Continuous
 62
     7
370
    25
100
AcDbLine
 10
83.0775037593
 20
134.158913317
 30
0.0
 11
83.1618387349
 21
133.8137565405
 31
0.0
  0
LWPOLYLINE
  5
9C
330
1F
100
AcDbEntity
  8
0
  6
Continuous
 62
     7
370
    25
100
AcDbPolyline
 90
      105
 70
   128
 43
0.0
 10
76.1949314565
 20
94.9899912801
 10
76.1607563583
 20
94.9387934761
 10
75.7163743536
 20
94.2985034289
 10
75.268157251
 20
93.6996466589
 10
74.8169824566
 20
93.1433954563
 10
74.3637331663
 20
92.6308387089
 10
73.9092966367
 20
92.1629797707
 10
73.4545624488
 20
91.7407344976
 10
73.000420766
 20
91.3649294543
 10
72.5477605921
 20
91.0363002971
 10
72.0974680306
 20
90.7554903328
 10
71.6504245503
 20
90.5230492602
 10
71.2075052598
 20
90.3394320936
 10
70.7695771945
 20
90.2049982723
 10
70.337497619
 20
90.1200109566
 10
69.9121123495
 20
90.0846365134
 10
69.4942540977
 20
90.0989441897
 10
69.0847408405
 20
90.1629059775
 10
68.6843742196
 20
90.2763966688
 10
68.2939379712
 20
90.4391941
 10
67.9141963928
 20
90.6509795877
 10
67.5458928463
 20
90.9113385517
 10
67.1897483032
 20
91.2197613273
 10
66.8464599332
 20
91.5756441622
 10
66.5166997393
 20
91.9782903991
 10
66.2011132426
 20
92.4269118392
 10
65.9003182186
 20
92.9206302848
 10
65.6149034875
 20
93.4584792591
 10
65.3454277622
 20
94.0394058972
 10
65.0924185541
 20
94.662273008
 10
64.8563711404
 20
95.3258613
 10
64.6377475952
 20
96.0288717679
 10
64.4369758843
 20
96.7699282357
 10
64.2544490277
 20
97.5475800505
 10
64.0905243303
 20
98.3603049224
 10
63.9455226825
 20
99.2065119043
 10
63.8197279317
 20
100.0845445063
 10
63.7133863271
 20
100.9926839383
 10
63.6267060374
 20
101.9291524748
 10
63.5598567433
 20
102.8921169345
 10
63.5129693054
 20
103.8796922695
 10
63.4861355082
 20
104.8899452545
 10
63.4794078799
 20
105.920898272
 10
63.4927995904
 20
106.9705331829
 10
63.5262844246
 20
108.0367952776
 10
63.5797968345
 20
109.1175972981
 10
63.6532320669
 20
110.2108235236
 10
63.746446369
 20
111.3143339124
 10
63.8592572694
 20
112.4259682911
 10
63.9914439355
 20
113.5435505832
 10
64.1427476056
 20
114.664893069
 10
64.3128720957
 20
115.7878006678
 10
64.5014843791
 20
116.9100752352
 10
64.7082152385
 20
118.0295198662
 10
64.9326599884
 20
119.1439431953
 10
65.1743792678
 20
120.2511636864
 10
65.4328998997
 20
121.3490139035
 10
65.707715818
 20
122.4353447532
 10
65.9982890575
 20
123.5080296918
 10
66.3040508075
 20
124.5649688883
 10
66.624402525
 20
125.6040933345
 10
66.9587171064
 20
126.6233688955
 10
67.3063401153
 20
127.6208002916
 10
67.6665910634
 20
128.5944350038
 10
68.0387647424
 20
129.5423670966
 10
68.4221326049
 20
130.4627409485
 10
68.8159441903
 20
131.3537548842
 10
69.219428594
 20
132.2136647023
 10
69.6317959762
 20
133.0407870888
 10
70.0522391085
 20
133.8335029129
 10
70.4799349537
 20
134.5902603961
 10
70.914046277
 20
135.3095781501
 10
71.3537232853
 20
135.9900480766
 10
71.79810529
 20
136.6303381238
 10
72.2463223926
 20
137.2291948938
 10
72.6974971869
 20
137.7854460964
 10
73.1507464773
 20
138.2980028438
 10
73.6051830069
 20
138.7658617819
 10
74.0599171948
 20
139.1881070551
 10
74.5140588776
 20
139.5639120983
 10
74.9667190515
 20
139.8925412556
 10
75.417011613
 20
140.1733512199
 10
75.8640550933
 20
140.4057922924
 10
76.3069743838
 20
140.589409459
 10
76.7449024491
 20
140.7238432804
 10
77.1769820245
 20
140.8088305961
 10
77.602367294
 20
140.8442050393
 10
78.0202255459
 20
140.829897363
 10
78.4297388031
 20
140.7659355752
 10
78.830105424
 20
140.6524448839
 10
79.2205416723
 20
140.4896474527
 10
79.6002832507
 20
140.277861965
 10
79.9685867972
 20
140.0175030009
 10
80.3247313403
 20
139.7090802254
 10
80.6680197104
 20
139.3531973905
 10
80.9977799043
 20
138.9505511536
 10
81.3133664009
 20
138.5019297135
 10
81.614161425
 20
138.0082112678
 10
81.899576156
 20
137.4703622936
 10
82.1690518813
 20
136.8894356555
 10
82.4220610895
 20
136.2665685446
 10
82.6581085032
 20
135.6029802526
 10
82.8767320484
 20
134.8999697848
 10
83.0775037593
 20
134.158913317
 10
83.0775037593
 20
134.158913317
  0
LWPOLYLINE
  5
9D
330
1F
100
AcDbEntity
  8
0
  6
Continuous
 62
     7
370
    25
100
AcDbPolyline
 90
       73
 70
   128
 43
0.0
 10
68.9176431834
 20
90.190492121
 10
68.7913989939
 20
90.2156676384
 10
68.3910342354
 20
90.3291578017
 10
68.0005998033
 20
90.4919544757
 10
67.6208599914
 20
90.7037389782
 10
67.2525581582
 20
90.9640967311
 10
66.8964152718
 20
91.2725180719
 10
66.5531284986
 20
91.6283992513
 10
66.2233698387
 20
92.0310436152
 10
65.9077848101
 20
92.4796629684
 10
65.6069911853
 20
92.9733791174
 10
65.321577782
 20
93.5112255896
 10
65.0521033102
 20
94.0921495254
 10
64.799095279
 20
94.7150137388
 10
64.5630489634
 20
95.3785989439
 10
64.3444264351
 20
96.0816061415
 10
64.1436556581
 20
96.8226591621
 10
63.9611296506
 20
97.6003073594
 10
63.7972057158
 20
98.4130284506
 10
63.6522047425
 20
99.2592314962
 10
63.5264105769
 20
100.1372600137
 10
63.420069467
 20
101.0453952212
 10
63.3333895805
 20
101.9818594015
 10
63.2665405973
 20
102.9448193817
 10
63.2196533776
 20
103.9323901227
 10
63.1928197052
 20
104.9426384082
 10
63.1860921082
 20
105.9735866299
 10
63.1994837564
 20
107.0232166581
 10
63.2329684349
 20
108.0894737928
 10
63.2864805958
 20
109.1702707856
 10
63.3599154866
 20
110.2634919256
 10
63.4531293551
 20
111.3669971811
 10
63.5659397307
 20
112.4786263887
 10
63.6981257819
 20
113.5962034821
 10
63.8494287481
 20
114.7175407516
 10
64.0195524469
 20
115.8404431268
 10
64.2081638529
 20
116.9627124737
 10
64.4148937506
 20
118.0821518972
 10
64.6393374565
 20
119.1965700422
 10
64.8810556114
 20
120.3037853828
 10
65.1395750408
 20
121.4016304929
 10
65.4143896807
 20
122.4879562892
 10
65.7049615685
 20
123.5606362379
 10
66.0107218961
 20
124.6175705178
 10
66.3310721234
 20
125.6566901301
 10
66.6653851497
 20
126.6759609497
 10
67.0130065415
 20
127.6733877059
 10
67.3732558138
 20
128.647017889
 10
67.7454277615
 20
129.5949455722
 10
68.1287938406
 20
130.5153151426
 10
68.5226035941
 20
131.4063249336
 10
68.9260861208
 20
132.2662307515
 10
69.3384515848
 20
133.0933492904
 10
69.7588927613
 20
133.886061427
 10
70.1865866169
 20
134.6428153899
 10
70.6206959209
 20
135.3621297978
 10
71.0603708838
 20
136.0425965589
 10
71.5047508214
 20
136.6828836275
 10
71.9529658389
 20
137.2817376118
 10
72.4041385346
 20
137.8379862268
 10
72.8573857165
 20
138.3505405899
 10
73.3118201321
 20
138.8183973517
 10
73.7665522047
 20
139.2406406606
 10
74.2206917749
 20
139.6164439557
 10
74.6733498431
 20
139.9450715842
 10
75.12364031
 20
140.2258802422
 10
75.5706817107
 20
140.4583202335
 10
76.0135989408
 20
140.641936546
 10
76.451524969
 20
140.776369742
 10
76.8836025345
 20
140.8613566623
 10
77.3089858252
 20
140.896730941
 10
77.7268421333
 20
140.8824233313
 10
78.0074141861
 20
140.8441209947
  0
LWPOLYLINE
  5
9E
330
1F
100
AcDbEntity
  8
0
  6
Continuous
 62
     7
370
    25
100
AcDbPolyline
 90
       64
 70
   128
 43
0.0
 10
75.2589246731
 20
95.0954725116
 10
75.1257090984
 20
95.1229618218
 10
74.7747859152
 20
95.2309513383
 10
74.43407537
 20
95.3885785004
 10
74.104452062
 20
95.5954386814
 10
73.7867621295
 20
95.8510008743
 10
73.4818210779
 20
96.1546090545
 10
73.1904116866
 20
96.5054838641
 10
72.9132819993
 20
96.9027246127
 10
72.6511434039
 20
97.3453115888
 10
72.4046688065
 20
97.8321086781
 10
72.1744909037
 20
98.3618662794
 10
71.9612005591
 20
98.9332245125
 10
71.7653452857
 20
99.5447167091
 10
71.5874278414
 20
100.1947731775
 10
71.4279049376
 20
100.8817252319
 10
71.2871860674
 20
101.6038094765
 10
71.165632454
 20
102.3591723311
 10
71.0635561238
 20
103.1458747904
 10
70.9812191054
 20
103.9618974002
 10
70.9188327566
 20
104.8051454423
 10
70.8765572224
 20
105.673454311
 10
70.8545010234
 20
106.56459507
 10
70.8527207775
 20
107.4762801737
 10
70.8712210547
 20
108.4061693394
 10
70.909954365
 20
109.3518755552
 10
70.9688212805
 20
110.3109712065
 10
71.0476706907
 20
111.2809943088
 10
71.1463001903
 20
112.2594548265
 10
71.2644565988
 20
113.2438410656
 10
71.4018366104
 20
114.2316261206
 10
71.5580875725
 20
115.2202743617
 10
71.7328083912
 20
116.2072479428
 10
71.9255505607
 20
117.190013317
 10
72.1358193145
 20
118.1660477396
 10
72.3630748959
 20
119.1328457442
 10
72.6067339429
 20
120.0879255744
 10
72.8661709862
 20
121.0288355537
 10
73.1407200549
 20
121.9531603799
 10
73.4296763852
 20
122.8585273243
 10
73.7322982304
 20
123.742612323
 10
74.0478087647
 20
124.6031459425
 10
74.3753980769
 20
125.4379192052
 10
74.7142252501
 20
126.2447892603
 10
75.0634205197
 20
127.0216848838
 10
75.4220875065
 20
127.7666117959
 10
75.7893055175
 20
128.4776577797
 10
76.1641319093
 20
129.1529975906
 10
76.5456045079
 20
129.7908976409
 10
76.9327440786
 20
130.3897204502
 10
77.3245568398
 20
130.9479288491
 10
77.7200370136
 20
131.4640899246
 10
78.1181694082
 20
131.9368786985
 10
78.5179320234
 20
132.365081529
 10
78.9182986743
 20
132.7475992255
 10
79.3182416254
 20
133.0834498704
 10
79.7167342289
 20
133.3717713402
 10
80.1127535601
 20
133.6118235176
 10
80.505283043
 20
133.8029901921
 10
80.89331506
 20
133.9447806418
 10
81.2758535385
 20
134.0368308924
 10
81.6519165078
 20
134.0789046524
 10
82.0205386195
 20
134.070893919
 10
82.2475580513
 20
134.0403085658
  0
LWPOLYLINE
  5
9F
330
1F
100
AcDbEntity
  8
0
  6
Continuous
 62
     7
370
    25
100
AcDbPolyline
 90
      125
 70
   128
 43
0.0
 10
86.2857591354
 20
128.8752029862
 10
86.4452820392
 20
128.1882509317
 10
86.5860009095
 20
127.4661666872
 10
86.7075545229
 20
126.7108038325
 10
86.809630853
 20
125.9241013733
 10
86.8919678715
 20
125.1080787634
 10
86.9543542202
 20
124.2648307213
 10
86.9966297545
 20
123.3965218526
 10
87.0186859535
 20
122.5053810936
 10
87.0204661993
 20
121.5936959899
 10
87.0019659221
 20
120.6638068242
 10
86.9632326119
 20
119.7181006085
 10
86.9043656964
 20
118.7590049571
 10
86.8255162862
 20
117.7889818549
 10
86.7268867866
 20
116.8105213371
 10
86.6087303781
 20
115.8261350981
 10
86.4713503665
 20
114.838350043
 10
86.3150994043
 20
113.8497018019
 10
86.1403785856
 20
112.8627282208
 10
85.9476364162
 20
111.8799628467
 10
85.7373676623
 20
110.9039284241
 10
85.510112081
 20
109.9371304194
 10
85.266453034
 20
108.9820505893
 10
85.0070159906
 20
108.0411406099
 10
84.732466922
 20
107.1168157837
 10
84.4435105917
 20
106.2114488393
 10
84.1408887464
 20
105.3273638406
 10
83.8253782122
 20
104.4668302212
 10
83.4977888999
 20
103.6320569584
 10
83.1589617267
 20
102.8251869033
 10
82.8097664571
 20
102.0482912798
 10
82.4510994703
 20
101.3033643678
 10
82.0838814594
 20
100.5923183839
 10
81.7090550676
 20
99.916978573
 10
81.327582469
 20
99.2790785228
 10
80.9404428982
 20
98.6802557134
 10
80.5486301371
 20
98.1220473145
 10
80.1531499632
 20
97.6058862391
 10
79.7550175687
 20
97.1330974651
 10
79.3552549535
 20
96.7048946346
 10
78.9548883026
 20
96.3223769382
 10
78.5549453515
 20
95.9865262932
 10
78.1564527479
 20
95.6982048235
 10
77.7604334167
 20
95.4581526461
 10
77.3679039338
 20
95.2669859715
 10
76.9798719168
 20
95.1251955218
 10
76.5973334383
 20
95.0331452712
 10
76.2212704691
 20
94.9910715112
 10
75.8526483574
 20
94.9990822446
 10
75.4924133509
 20
95.057156908
 10
75.1414901676
 20
95.1651464245
 10
74.8007796225
 20
95.3227735866
 10
74.4711563145
 20
95.5296337677
 10
74.153466382
 20
95.7851959605
 10
73.8485253304
 20
96.0888041407
 10
73.5571159391
 20
96.4396789504
 10
73.2799862518
 20
96.8369196989
 10
73.0178476564
 20
97.279506675
 10
72.771373059
 20
97.7663037643
 10
72.5411951562
 20
98.2960613656
 10
72.3279048116
 20
98.8674195987
 10
72.1320495382
 20
99.4789117953
 10
71.9541320939
 20
100.1289682637
 10
71.7946091901
 20
100.8159203181
 10
71.6538903198
 20
101.5380045627
 10
71.5323367064
 20
102.2933674174
 10
71.4302603763
 20
103.0800698766
 10
71.3479233579
 20
103.8960924864
 10
71.2855370091
 20
104.7393405285
 10
71.2432614749
 20
105.6076493973
 10
71.2212052759
 20
106.4987901562
 10
71.21942503
 20
107.4104752599
 10
71.2379253072
 20
108.3403644257
 10
71.2766586175
 20
109.2860706414
 10
71.335525533
 20
110.2451662927
 10
71.4143749432
 20
111.215189395
 10
71.5130044428
 20
112.1936499127
 10
71.6311608513
 20
113.1780361518
 10
71.7685408628
 20
114.1658212069
 10
71.924791825
 20
115.1544694479
 10
72.0995126437
 20
116.141443029
 10
72.2922548132
 20
117.1242084032
 10
72.502523567
 20
118.1002428258
 10
72.7297791483
 20
119.0670408304
 10
72.9734381953
 20
120.0221206606
 10
73.2328752387
 20
120.9630306399
 10
73.5074243073
 20
121.8873554661
 10
73.7963806376
 20
122.7927224105
 10
74.0990024829
 20
123.6768074092
 10
74.4145130172
 20
124.5373410287
 10
74.7421023294
 20
125.3721142914
 10
75.0809295026
 20
126.1789843465
 10
75.4301247722
 20
126.95587997
 10
75.788791759
 20
127.7008068821
 10
76.15600977
 20
128.411852866
 10
76.5308361617
 20
129.0871926768
 10
76.9123087603
 20
129.7250927271
 10
77.2994483311
 20
130.3239155364
 10
77.6912610922
 20
130.8821239353
 10
78.0867412661
 20
131.3982850108
 10
78.4848736607
 20
131.8710737848
 10
78.8846362759
 20
132.2992766152
 10
79.2850029267
 20
132.6817943117
 10
79.6849458779
 20
133.0176449567
 10
80.0834384814
 20
133.3059664264
 10
80.4794578126
 20
133.5460186038
 10
80.8719872955
 20
133.7371852784
 10
81.2600193125
 20
133.878975728
 10
81.642557791
 20
133.9710259786
 10
82.0186207602
 20
134.0130997386
 10
82.387242872
 20
134.0050890052
 10
82.7474778785
 20
133.9470143418
 10
83.0984010617
 20
133.8390248253
 10
83.4391116068
 20
133.6813976632
 10
83.7687349148
 20
133.4745374822
 10
84.0864248474
 20
133.2189752893
 10
84.3913658989
 20
132.9153671091
 10
84.6827752902
 20
132.5644922995
 10
84.9599049775
 20
132.1672515509
 10
85.2220435729
 20
131.7246645748
 10
85.4685181704
 20
131.2378674855
 10
85.6986960731
 20
130.7081098842
 10
85.9119864178
 20
130.1367516511
 10
86.1078416911
 20
129.5252594545
 10
86.2857591354
 20
128.8752029862
  0
LINE
  5
A0
330
1F
100
AcDbEntity
  8
0
  6
Continuous
 62
     7
370
    25
100
AcDbLine
 10
71.3255296608
 20
101.3935997654
 30
0.0
 11
71.2149409416
 21
101.308333327
 31
0.0
  0
ARC
  5
A1
330
1F
100
AcDbEntity
  8
0
  6
Continuous
 62
     7
370
    25
100
AcDbCircle
 10
69.3765360559
 20
102.6562981294
 30
0.0
 40
2.062891654238346
100
AcDbArc
 50
249.6338858333
 51
267.871958454
  0
ARC
  5
A2
330
1F
100
AcDbEntity
  8
0
  6
Continuous
 62
     7
370
    25
100
AcDbCircle
 10
75.1404568836
 20
106.7691047657
 30
0.0
 40
9.255663957939358
100
AcDbArc
 50
191.6646917097
 51
211.4149533844
  0
ARC
  5
A3
330
1F
100
AcDbEntity
  8
0
  6
Continuous
 62
     7
370
    25
100
AcDbCircle
 10
89.4632730437
 20
109.6996253092
 30
0.0
 40
23.88854560583243
100
AcDbArc
 50
180.5949376909
 51
189.2819272464
  0
ARC
  5
A4
330
1F
100
AcDbEntity
  8
0
  6
Continuous
 62
     7
370
    25
100
AcDbCircle
 10
103.2792513358
 20
109.8524076727
 30
0.0
 40
37.70927166492289
100
AcDbArc
 50
173.1609358744
 51
179.2369603919
  0
ARC
  5
A5
330
1F
100
AcDbEntity
  8
0
  6
Continuous
 62
     7
370
    25
100
AcDbCircle
 10
107.6916963274
 20
109.3742422602
 30
0.0
 40
42.14736941402129
100
AcDbArc
 50
166.4306369718
 51
172.0266603003
  0
ARC
  5
A6
330
1F
100
AcDbEntity
  8
0
  6
Continuous
 62
     7
370
    25
100
AcDbCircle
 10
101.3733202316
 20
111.0832444721
 30
0.0
 40
35.60151097425633
100
AcDbArc
 50
158.9355464573
 51
165.2916950785
  0
ARC
  5
A7
330
1F
100
AcDbEntity
  8
0
  6
Continuous
 62
     7
370
    25
100
AcDbCircle
 10
88.2923650114
 20
116.4969075027
 30
0.0
 40
21.44006429861958
100
AcDbArc
 50
147.993173605
 51
157.4420762414
  0
ARC
  5
A8
330
1F
100
AcDbEntity
  8
0
  6
Continuous
 62
     7
370
    25
100
AcDbCircle
 10
75.9582733742
 20
125.1917880875
 30
0.0
 40
6.331731451637445
100
AcDbArc
 50
117.2778096051
 51
146.5852915694
  0
ARC
  5
A9
330
1F
100
AcDbEntity
  8
0
  6
Continuous
 62
     7
370
    25
100
AcDbCircle
 10
72.6699779031
 20
127.308531254
 30
0.0
 40
4.30149709558445
100
AcDbArc
 50
30.6717126583
 51
43.6423143633
  0
ARC
  5
AA
330
1F
100
AcDbEntity
  8
0
  6
Continuous
 62
     7
370
    25
100
AcDbCircle
 10
69.5134775106
 20
105.8130593414
 30
0.0
 40
2.126579291041482
100
AcDbArc
 50
216.2649121974
 51
257.1579094139
  0
ARC
  5
AB
330
1F
100
AcDbEntity
  8
0
  6
Continuous
 62
     7
370
    25
100
AcDbCircle
 10
78.731624701
 20
110.1072063267
 30
0.0
 40
12.39377467884957
100
AcDbArc
 50
183.7584937347
 51
201.1218224147
  0
ARC
  5
AC
330
1F
100
AcDbEntity
  8
0
  6
Continuous
 62
     7
370
    25
100
AcDbCircle
 10
94.181496189
 20
111.2724533687
 30
0.0
 40
27.89619212584451
100
AcDbArc
 50
173.9288311525
 51
182.126224277
  0
ARC
  5
AD
330
1F
100
AcDbEntity
  8
0
  6
Continuous
 62
     7
370
    25
100
AcDbCircle
 10
99.8764730085
 20
110.7767702735
 30
0.0
 40
33.61192860299608
100
AcDbArc
 50
165.5866377446
 51
172.5666130351
  0
ARC
  5
AE
330
1F
100
AcDbEntity
  8
0
  6
Continuous
 62
     7
370
    25
100
AcDbCircle
 10
92.2290701242
 20
113.0365522963
 30
0.0
 40
25.63687863963674
100
AcDbArc
 50
155.3603575498
 51
164.1872245327
  0
ARC
  5
AF
330
1F
100
AcDbEntity
  8
0
  6
Continuous
 62
     7
370
    25
100
AcDbCircle
 10
77.4382699808
 20
120.7042516562
 30
0.0
 40
8.966888836076006
100
AcDbArc
 50
130.1887428523
 51
154.364577573
  0
SPLINE
  5
B0
330
1F
100
AcDbEntity
  8
0
  6
Continuous
 62
     7
370
    25
100
AcDbSpline
210
0.0
220
0.0
230
1.0
 70
     8
 71
     3
 72
    11
 73
     7
 74
     0
 42
0.00000001
 43
0.00000001
 40
0.0
 40
0.0
 40
0.0
 40
0.0
 40
0.2448339592518369
 40
0.4309755197783698
 40
0.7346294525639991
 40
1.0
 40
1.0
 40
1.0
 40
1.0
 10
71.61991693527476
 20
97.5138115409704
 30
0.0
 10
71.62735243726688
 20
97.47762593386156
 30
0.0
 10
71.64044097835678
 20
97.41392925191481
 30
0.0
 10
71.67705981631278
 20
97.32931327740819
 30
0.0
 10
71.72200218847928
 20
97.26097333374103
 30
0.0
 10
71.76056660263419
 20
97.24782919373482
 30
0.0
 10
71.77855152253052
 20
97.24169928588327
 30
0.0
  0
SPLINE
  5
B1
330
1F
100
AcDbEntity
  8
0
  6
Continuous
 62
     7
370
    25
100
AcDbSpline
210
0.0
220
0.0
230
1.0
 70
     8
 71
     3
 72
    10
 73
     6
 74
     0
 42
0.00000001
 43
0.00000001
 40
0.0
 40
0.0
 40
0.0
 40
0.0
 40
0.0941427126589254
 40
0.6443778610456434
 40
1.0
 40
1.0
 40
1.0
 40
1.0
 10
69.74137335199663
 20
96.48837790469277
 30
0.0
 10
69.7436501062769
 20
96.48225036675885
 30
0.0
 10
69.75923378781557
 20
96.44030925760859
 30
0.0
 10
69.79244890992004
 20
96.40135941918633
 30
0.0
 10
69.82256299264232
 20
96.39494836344973
 30
0.0
 10
69.83438520201238
 20
96.39243150634005
 30
0.0
  0
SPLINE
  5
B2
330
1F
100
AcDbEntity
  8
0
  6
Continuous
 62
     7
370
    25
100
AcDbSpline
210
0.0
220
0.0
230
1.0
 70
     8
 71
     3
 72
    11
 73
     7
 74
     0
 42
0.00000001
 43
0.00000001
 40
0.0
 40
0.0
 40
0.0
 40
0.0
 40
0.214640836327203
 40
0.5061055460321088
 40
0.8022436814782162
 40
1.0
 40
1.0
 40
1.0
 40
1.0
 10
68.05719017455623
 20
97.69254202394289
 30
0.0
 10
68.04571580194192
 20
97.69370294328223
 30
0.0
 10
68.01866016930131
 20
97.6964402961839
 30
0.0
 10
67.98048309675195
 20
97.64483030999045
 30
0.0
 10
67.95058327548934
 20
97.56397683055471
 30
0.0
 10
67.9391928984875
 20
97.49588788918369
 30
0.0
 10
67.93463216895438
 20
97.4686249420714
 30
0.0
  0
SPLINE
  5
B3
330
1F
100
AcDbEntity
  8
0
  6
Continuous
 62
     7
370
    25
100
AcDbSpline
210
0.0
220
0.0
230
1.0
 70
     8
 71
     3
 72
    14
 73
    10
 74
     0
 42
0.00000001
 43
0.00000001
 40
0.0
 40
0.0
 40
0.0
 40
0.0
 40
0.1507145799897895
 40
0.3235189806733015
 40
0.4263567963817353
 40
0.5941167909289966
 40
0.7619689255487736
 40
0.9275982911946172
 40
0.9999999999999999
 40
0.9999999999999999
 40
0.9999999999999999
 40
0.9999999999999999
 10
67.93463216895438
 20
97.4686249420714
 30
0.0
 10
67.92989699605302
 20
97.4284283922553
 30
0.0
 10
67.91973262900594
 20
97.34214379507853
 30
0.0
 10
67.92206868738162
 20
97.21517097501162
 30
0.0
 10
67.93476984507754
 20
97.09011910706067
 30
0.0
 10
67.95790698551978
 20
96.97606818009113
 30
0.0
 10
67.99640817857122
 20
96.87995022235636
 30
0.0
 10
68.03399274879058
 20
96.82805000245115
 30
0.0
 10
68.05683879148481
 20
96.82793071079341
 30
0.0
 10
68.06378785279671
 20
96.82789442595165
 30
0.0
  0
SPLINE
  5
B4
330
1F
100
AcDbEntity
  8
0
  6
Continuous
 62
     7
370
    25
100
AcDbSpline
210
0.0
220
0.0
230
1.0
 70
     8
 71
     3
 72
    10
 73
     6
 74
     0
 42
0.00000001
 43
0.00000001
 40
0.0
 40
0.0
 40
0.0
 40
0.0
 40
0.3584140159783256
 40
0.7431077000440378
 40
1.0
 40
1.0
 40
1.0
 40
1.0
 10
66.59277890045611
 20
99.38637906359732
 30
0.0
 10
66.58037798357009
 20
99.38464312426127
 30
0.0
 10
66.55466688853815
 20
99.38104396287275
 30
0.0
 10
66.52356582507194
 20
99.32569625199612
 30
0.0
 10
66.50840368626082
 20
99.27110846338718
 30
0.0
 10
66.5023327358217
 20
99.24925140460705
 30
0.0
  0
SPLINE
  5
B5
330
1F
100
AcDbEntity
  8
0
  6
Continuous
 62
     7
370
    25
100
AcDbSpline
210
0.0
220
0.0
230
1.0
 70
     8
 71
     3
 72
    15
 73
    11
 74
     0
 42
0.00000001
 43
0.00000001
 40
0.0
 40
0.0
 40
0.0
 40
0.0
 40
0.1334073246068251
 40
0.2863677931761962
 40
0.3773962647613694
 40
0.5258915997855104
 40
0.6744684940095906
 40
0.8210778701471542
 40
0.9659956599917962
 40
1.0
 40
1.0
 40
1.0
 40
1.0
 10
66.5023327358217
 20
99.24925140460705
 30
0.0
 10
66.49495833817073
 20
99.21484632485225
 30
0.0
 10
66.47912869772534
 20
99.14099350760648
 30
0.0
 10
66.47032353877238
 20
99.01882026345172
 30
0.0
 10
66.47035688029982
 20
98.89018296504992
 30
0.0
 10
66.48012817209984
 20
98.76472715397307
 30
0.0
 10
66.50409627309077
 20
98.64061651302652
 30
0.0
 10
66.53802209718867
 20
98.55567290121924
 30
0.0
 10
66.5677684484945
 20
98.51463235758
 30
0.0
 10
66.58443553866171
 20
98.51813244125427
 30
0.0
 10
66.58760313677526
 20
98.51879763585828
 30
0.0
  0
SPLINE
  5
B6
330
1F
100
AcDbEntity
  8
0
  6
Continuous
 62
     7
370
    25
100
AcDbSpline
210
0.0
220
0.0
230
1.0
 70
     8
 71
     3
 72
    10
 73
     6
 74
     0
 42
0.00000001
 43
0.00000001
 40
0.0
 40
0.0
 40
0.0
 40
0.0
 40
0.0821985123241317
 40
0.6325104647795876
 40
1.0
 40
1.0
 40
1.0
 40
1.0
 10
65.53330659080179
 20
102.2153363715197
 30
0.0
 10
65.5316689996643
 20
102.2165589499305
 30
0.0
 10
65.51906787706255
 20
102.2259665853852
 30
0.0
 10
65.49806166475892
 20
102.2029432622495
 30
0.0
 10
65.4812044171348
 20
102.1658967529014
 30
0.0
 10
65.47445474176635
 20
102.1510632571131
 30
0.0
  0
SPLINE
  5
B7
330
1F
100
AcDbEntity
  8
0
  6
Continuous
 62
     7
370
    25
100
AcDbSpline
210
0.0
220
0.0
230
1.0
 70
     8
 71
     3
 72
    16
 73
    12
 74
     0
 42
0.00000001
 43
0.00000001
 40
0.0
 40
0.0
 40
0.0
 40
0.0
 40
0.1196158697167979
 40
0.2567635078553835
 40
0.3383815886447386
 40
0.4715256922398637
 40
0.6047429235636417
 40
0.7361960359547028
 40
0.8661324357797545
 40
0.9960231128003499
 40
1.0
 40
1.0
 40
1.0
 40
1.0
 10
65.47445474176635
 20
102.1510632571131
 30
0.0
 10
65.46547147911328
 20
102.1247038871953
 30
0.0
 10
65.44618830175354
 20
102.0681217271442
 30
0.0
 10
65.4283555625339
 20
101.9587361033478
 30
0.0
 10
65.4171198447865
 20
101.8352196870999
 30
0.0
 10
65.41403580221318
 20
101.7056459542504
 30
0.0
 10
65.42269019720104
 20
101.5661009911271
 30
0.0
 10
65.44254107103438
 20
101.4499653539513
 30
0.0
 10
65.47112370981445
 20
101.3771314291306
 30
0.0
 10
65.49402417374773
 20
101.3443028221737
 30
0.0
 10
65.5060079012517
 20
101.3497554912605
 30
0.0
 10
65.50636390931678
 20
101.3499174771009
 30
0.0
  0
SPLINE
  5
B8
330
1F
100
AcDbEntity
  8
0
  6
Continuous
 62
     7
370
    25
100
AcDbSpline
210
0.0
220
0.0
230
1.0
 70
     8
 71
     3
 72
     9
 73
     5
 74
     0
 42
0.00000001
 43
0.00000001
 40
0.0
 40
0.0
 40
0.0
 40
0.0
 40
0.3524903973679851
 40
1.0
 40
1.0
 40
1.0
 40
1.0
 10
64.95093542508633
 20
105.9910503824182
 30
0.0
 10
64.94758180091024
 20
105.9932143555561
 30
0.0
 10
64.93806771428227
 20
105.9993534536821
 30
0.0
 10
64.92773615638386
 20
105.9853646815785
 30
0.0
 10
64.92104637343449
 20
105.9763068173124
 30
0.0
  0
SPLINE
  5
B9
330
1F
100
AcDbEntity
  8
0
  6
Continuous
 62
     7
370
    25
100
AcDbSpline
210
0.0
220
0.0
230
1.0
 70
     8
 71
     3
 72
    16
 73
    12
 74
     0
 42
0.00000001
 43
0.00000001
 40
0.0
 40
0.0
 40
0.0
 40
0.0
 40
0.1083481133286074
 40
0.2325765110735929
 40
0.3065062085958814
 40
0.4271082027920972
 40
0.5477764361207135
 40
0.6668467296567296
 40
0.7845431842081851
 40
0.902198223020989
 40
1.0
 40
1.0
 40
1.0
 40
1.0
 10
64.92104637343449
 20
105.9763068173124
 30
0.0
 10
64.91159426896657
 20
105.9596933589074
 30
0.0
 10
64.89130469112422
 20
105.9240314532776
 30
0.0
 10
64.86717288562147
 20
105.8346383110235
 30
0.0
 10
64.84683580859476
 20
105.7243452068203
 30
0.0
 10
64.8322776546955
 20
105.5996222407765
 30
0.0
 10
64.82590301873331
 20
105.4525857211171
 30
0.0
 10
64.83059851035424
 20
105.3182789567183
 30
0.0
 10
64.84573539765103
 20
105.2136642741546
 30
0.0
 10
64.86764235015863
 20
105.1470180049836
 30
0.0
 10
64.88572907435267
 20
105.1396553912496
 30
0.0
 10
64.8939391361203
 20
105.1363132982936
 30
0.0
  0
LINE
  5
BA
330
1F
100
AcDbEntity
  8
0
  6
Continuous
 62
     7
370
    25
100
AcDbLine
 10
64.8856973203
 20
110.4622994116
 30
0.0
 11
64.8798214966
 21
110.4642980581
 31
0.0
  0
SPLINE
  5
BB
330
1F
100
AcDbEntity
  8
0
  6
Continuous
 62
     7
370
    25
100
AcDbSpline
210
0.0
220
0.0
230
1.0
 70
     8
 71
     3
 72
    17
 73
    13
 74
     0
 42
0.00000001
 43
0.00000001
 40
0.0
 40
0.0
 40
0.0
 40
0.0
 40
0.0990069312767559
 40
0.212525035656263
 40
0.280080918791036
 40
0.3902852683122024
 40
0.5005501461898639
 40
0.6093548499087895
 40
0.7169041595303827
 40
0.824415624051914
 40
0.93309091934695
 40
1.0
 40
1.0
 40
1.0
 40
1.0
 10
64.87982149657739
 20
110.464298058091
 30
0.0
 10
64.87107250482693
 20
110.4584681157079
 30
0.0
 10
64.85229220571304
 20
110.4459537523511
 30
0.0
 10
64.82501941817016
 20
110.3823713292985
 30
0.0
 10
64.798368060159
 20
110.292572612889
 30
0.0
 10
64.77450371037747
 20
110.180954908764
 30
0.0
 10
64.75438970573356
 20
110.0364318805902
 30
0.0
 10
64.74395245400116
 20
109.892539928419
 30
0.0
 10
64.74414978048416
 20
109.7652157537814
 30
0.0
 10
64.75498599196018
 20
109.6700674666425
 30
0.0
 10
64.77159610388196
 20
109.6150843280742
 30
0.0
 10
64.7862746816202
 20
109.6142523805212
 30
0.0
 10
64.79186817555413
 20
109.6139353543302
 30
0.0
  0
SPLINE
  5
BC
330
1F
100
AcDbEntity
  8
0
  6
Continuous
 62
     7
370
    25
100
AcDbSpline
210
0.0
220
0.0
230
1.0
 70
     8
 71
     3
 72
    18
 73
    14
 74
     0
 42
0.00000001
 43
0.00000001
 40
0.0
 40
0.0
 40
0.0
 40
0.0
 40
0.0376921590436767
 40
0.1483393136316339
 40
0.2141866626989691
 40
0.3216038695347019
 40
0.4290800739237765
 40
0.5351330329481567
 40
0.6399623476427122
 40
0.7447547743654345
 40
0.8506815977926635
 40
0.9623441054972918
 40
0.9999999999999999
 40
0.9999999999999999
 40
0.9999999999999999
 40
0.9999999999999999
 10
65.34018588308504
 20
115.313922056899
 30
0.0
 10
65.33741307447727
 20
115.3155239162265
 30
0.0
 10
65.32650055218758
 20
115.3218281110301
 30
0.0
 10
65.30466027860112
 20
115.2913161949334
 30
0.0
 10
65.27505931419154
 20
115.2288381737086
 30
0.0
 10
65.24463288893291
 20
115.1373489847437
 30
0.0
 10
65.2130483781996
 20
115.0052926342049
 30
0.0
 10
65.1884289069484
 20
114.8609657554336
 30
0.0
 10
65.17357709387714
 20
114.7217855741497
 30
0.0
 10
65.169635390405
 20
114.6010886572905
 30
0.0
 10
65.17759251966294
 20
114.5140692593021
 30
0.0
 10
65.19090266648477
 20
114.4695411083223
 30
0.0
 10
65.20353045188904
 20
114.4733032556351
 30
0.0
 10
65.20671499276247
 20
114.4742520135927
 30
0.0
  0
SPLINE
  5
BD
330
1F
100
AcDbEntity
  8
0
  6
Continuous
 62
     7
370
    25
100
AcDbSpline
210
0.0
220
0.0
230
1.0
 70
     8
 71
     3
 72
    18
 73
    14
 74
     0
 42
0.00000001
 43
0.00000001
 40
0.0
 40
0.0
 40
0.0
 40
0.0
 40
0.0640919057274918
 40
0.1299292792195922
 40
0.2373302128348598
 40
0.3447901350656072
 40
0.4508270275468882
 40
0.5556404610749197
 40
0.6604170122194817
 40
0.7663277882125823
 40
0.8779733795528866
 40
0.9886283163809634
 40
0.9999999999999999
 40
0.9999999999999999
 40
0.9999999999999999
 40
0.9999999999999999
 10
66.28439165390252
 20
120.2209055303631
 30
0.0
 10
66.27946192848127
 20
120.2226472394536
 30
0.0
 10
66.26946822235779
 20
120.2261780910355
 30
0.0
 10
66.24404485525054
 20
120.1947825545616
 30
0.0
 10
66.21075282934204
 20
120.1317080955383
 30
0.0
 10
66.17057237640897
 20
120.0202104548678
 30
0.0
 10
66.13381096797623
 20
119.8856399601677
 30
0.0
 10
66.10451078614327
 20
119.7432585939105
 30
0.0
 10
66.08562081204902
 20
119.6085211823565
 30
0.0
 10
66.07871569887244
 20
119.4929107196632
 30
0.0
 10
66.08572154283179
 20
119.4138675834263
 30
0.0
 10
66.0986425113827
 20
119.3840921354922
 30
0.0
 10
66.10883422109994
 20
119.3853935718116
 30
0.0
 10
66.10978398843773
 20
119.385514852906
 30
0.0
  0
LINE
  5
BE
330
1F
100
AcDbEntity
  8
0
  6
Continuous
 62
     7
370
    25
100
AcDbLine
 10
67.4313202903
 20
124.0255923784
 30
0.0
 11
67.4414783074
 21
124.0260261505
 31
0.0
  0
SPLINE
  5
BF
330
1F
100
AcDbEntity
  8
0
  6
Continuous
 62
     7
370
    25
100
AcDbSpline
210
0.0
220
0.0
230
1.0
 70
     8
 71
     3
 72
    17
 73
    13
 74
     0
 42
0.00000001
 43
0.00000001
 40
0.0
 40
0.0
 40
0.0
 40
0.0
 40
0.0474954758648422
 40
0.1594131852919627
 40
0.2713923641170176
 40
0.3818886672849788
 40
0.4911100585968105
 40
0.6002930164263854
 40
0.7106578992425606
 40
0.8269987766431577
 40
0.9423073372834572
 40
1.0
 40
1.0
 40
1.0
 40
1.0
 10
67.65559082006202
 20
124.8538171767874
 30
0.0
 10
67.65162597354184
 20
124.8543225260291
 30
0.0
 10
67.63831841526458
 20
124.8560186735217
 30
0.0
 10
67.60654069527435
 20
124.8215040403392
 30
0.0
 10
67.56184353861046
 20
124.7400584583481
 30
0.0
 10
67.51560814413054
 20
124.6237611374338
 30
0.0
 10
67.47363183068025
 20
124.4883116712021
 30
0.0
 10
67.44009081122628
 20
124.3479488659973
 30
0.0
 10
67.41799859779458
 20
124.2152555687155
 30
0.0
 10
67.41064762364654
 20
124.1068501246522
 30
0.0
 10
67.41734218401093
 20
124.046062877645
 30
0.0
 10
67.42782460093878
 20
124.0307117061323
 30
0.0
 10
67.43132029034803
 20
124.0255923784004
 30
0.0
  0
SPLINE
  5
C0
330
1F
100
AcDbEntity
  8
0
  6
Continuous
 62
     7
370
    25
100
AcDbSpline
210
0.0
220
0.0
230
1.0
 70
     8
 71
     3
 72
     9
 73
     5
 74
     0
 42
0.00000001
 43
0.00000001
 40
0.0
 40
0.0
 40
0.0
 40
0.0
 40
0.881808051872718
 40
1.0
 40
1.0
 40
1.0
 40
1.0
 10
69.08306193807444
 20
128.0975471547928
 30
0.0
 10
69.08736066222379
 20
128.0785761614635
 30
0.0
 10
69.09223556004336
 20
128.0570624167329
 30
0.0
 10
69.10586957779397
 20
128.0625686166806
 30
0.0
 10
69.1074810089127
 20
128.0632194051792
 30
0.0
  0
SPLINE
  5
C1
330
1F
100
AcDbEntity
  8
0
  6
Continuous
 62
     7
370
    25
100
AcDbSpline
210
0.0
220
0.0
230
1.0
 70
     8
 71
     3
 72
    16
 73
    12
 74
     0
 42
0.00000001
 43
0.00000001
 40
0.0
 40
0.0
 40
0.0
 40
0.0
 40
0.0787485032339866
 40
0.2014734666692533
 40
0.3225732542217766
 40
0.4422757863865724
 40
0.5619361969020182
 40
0.6828919526975962
 40
0.8103971735326349
 40
0.9367710140701029
 40
1.0
 40
1.0
 40
1.0
 40
1.0
 10
69.35725696620756
 20
128.8837686160177
 30
0.0
 10
69.35054218353906
 20
128.8851255081203
 30
0.0
 10
69.33336280251471
 20
128.8885970376681
 30
0.0
 10
69.2914683238405
 20
128.8410777591544
 30
0.0
 10
69.23981427641188
 20
128.7530403742801
 30
0.0
 10
69.18756340859284
 20
128.6332260226307
 30
0.0
 10
69.1408750577447
 20
128.4971941514201
 30
0.0
 10
69.10369062873846
 20
128.3563093737004
 30
0.0
 10
69.08107990400977
 20
128.2276135978246
 30
0.0
 10
69.0762212761013
 20
128.1415679437045
 30
0.0
 10
69.0813512035132
 20
128.108556014067
 30
0.0
 10
69.08306193807444
 20
128.0975471547928
 30
0.0
  0
SPLINE
  5
C2
330
1F
100
AcDbEntity
  8
0
  6
Continuous
 62
     7
370
    25
100
AcDbSpline
210
0.0
220
0.0
230
1.0
 70
     8
 71
     3
 72
     9
 73
     5
 74
     0
 42
0.00000001
 43
0.00000001
 40
0.0
 40
0.0
 40
0.0
 40
0.0
 40
0.5271008380520308
 40
1.0
 40
1.0
 40
1.0
 40
1.0
 10
70.96335259460133
 20
131.3247236398434
 30
0.0
 10
70.96453731997279
 20
131.2974246108394
 30
0.0
 10
70.96678494563744
 20
131.2456337066456
 30
0.0
 10
70.98757824926282
 20
131.2358547664037
 30
0.0
 10
70.9974113851214
 20
131.2312303137586
 30
0.0
  0
SPLINE
  5
C3
330
1F
100
AcDbEntity
  8
0
  6
Continuous
 62
     7
370
    25
100
AcDbSpline
210
0.0
220
0.0
230
1.0
 70
     8
 71
     3
 72
    15
 73
    11
 74
     0
 42
0.00000001
 43
0.00000001
 40
0.0
 40
0.0
 40
0.0
 40
0.0
 40
0.1171010246609002
 40
0.2509962352532585
 40
0.3833465562287779
 40
0.5156503049747
 40
0.6493862653914962
 40
0.7903637083777435
 40
0.9300902292421196
 40
1.0
 40
1.0
 40
1.0
 40
1.0
 10
71.27707027679364
 20
132.0497130950999
 30
0.0
 10
71.26565427545154
 20
132.0491635756179
 30
0.0
 10
71.24118503304469
 20
132.0479857266487
 30
0.0
 10
71.1883554713489
 20
131.9902292594469
 30
0.0
 10
71.12965995188988
 20
131.896041814351
 30
0.0
 10
71.07201206903198
 20
131.7732884055729
 30
0.0
 10
71.02098310736999
 20
131.634181339285
 30
0.0
 10
70.98295457904251
 20
131.494231562126
 30
0.0
 10
70.9653128430882
 20
131.3890808551825
 30
0.0
 10
70.96384281979421
 20
131.3408182974918
 30
0.0
 10
70.96335259460133
 20
131.3247236398434
 30
0.0
  0
SPLINE
  5
C4
330
1F
100
AcDbEntity
  8
0
  6
Continuous
 62
     7
370
    25
100
AcDbSpline
210
0.0
220
0.0
230
1.0
 70
     8
 71
     3
 72
    10
 73
     6
 74
     0
 42
0.00000001
 43
0.00000001
 40
0.0
 40
0.0
 40
0.0
 40
0.0
 40
0.3768317854263161
 40
0.753886163283361
 40
1.0
 40
1.0
 40
1.0
 40
1.0
 10
72.94405355901362
 20
133.4871950892573
 30
0.0
 10
72.94103682633579
 20
133.4518757969672
 30
0.0
 10
72.93500157901299
 20
133.3812163494781
 30
0.0
 10
72.95044772160587
 20
133.3220518542639
 30
0.0
 10
72.97378786092776
 20
133.3174117032004
 30
0.0
 10
72.98300580738857
 20
133.3155791235622
 30
0.0
  0
SPLINE
  5
C5
330
1F
100
AcDbEntity
  8
0
  6
Continuous
 62
     7
370
    25
100
AcDbSpline
210
0.0
220
0.0
230
1.0
 70
     8
 71
     3
 72
    15
 73
    11
 74
     0
 42
0.00000001
 43
0.00000001
 40
0.0
 40
0.0
 40
0.0
 40
0.0
 40
0.0130904253475422
 40
0.162759265186158
 40
0.3107012184870984
 40
0.4585911130807748
 40
0.6080819421532465
 40
0.7656673422718853
 40
0.9218544544168131
 40
1.0
 40
1.0
 40
1.0
 40
1.0
 10
73.28183961277924
 20
134.1283214524977
 30
0.0
 10
73.28083657390121
 20
134.1291210624763
 30
0.0
 10
73.2683653312636
 20
134.1390629802594
 30
0.0
 10
73.2282816383406
 20
134.114875859063
 30
0.0
 10
73.1676134757939
 20
134.0543616800398
 30
0.0
 10
73.10188649434703
 20
133.9529825510277
 30
0.0
 10
73.03921902287368
 20
133.8254866685136
 30
0.0
 10
72.98666112071018
 20
133.6840902959756
 30
0.0
 10
72.95587851755506
 20
133.5672888748759
 30
0.0
 10
72.94701078235569
 20
133.5072251985855
 30
0.0
 10
72.94405355901362
 20
133.4871950892573
 30
0.0
  0
SPLINE
  5
C6
330
1F
100
AcDbEntity
  8
0
  6
Continuous
 62
     7
370
    25
100
AcDbSpline
210
0.0
220
0.0
230
1.0
 70
     8
 71
     3
 72
    11
 73
     7
 74
     0
 42
0.00000001
 43
0.00000001
 40
0.0
 40
0.0
 40
0.0
 40
0.0
 40
0.2935407030551803
 40
0.587254798963993
 40
0.8763316685069278
 40
1.0
 40
1.0
 40
1.0
 40
1.0
 10
74.89018333384969
 20
134.43759264741
 30
0.0
 10
74.88193186831742
 20
134.3950811868228
 30
0.0
 10
74.86542406315827
 20
134.3100331543662
 30
0.0
 10
74.8727530838944
 20
134.2186818006737
 30
0.0
 10
74.89416153598019
 20
134.1685469771199
 30
0.0
 10
74.91922099856883
 20
134.1681922551511
 30
0.0
 10
74.92672941276402
 20
134.1680859719674
 30
0.0
  0
SPLINE
  5
C7
330
1F
100
AcDbEntity
  8
0
  6
Continuous
 62
     7
370
    25
100
AcDbSpline
210
0.0
220
0.0
230
1.0
 70
     8
 71
     3
 72
    14
 73
    10
 74
     0
 42
0.00000001
 43
0.00000001
 40
0.0
 40
0.0
 40
0.0
 40
0.0
 40
0.0515585710935147
 40
0.2191498883210013
 40
0.3866822325044741
 40
0.5560281441859392
 40
0.7345437321745646
 40
0.9114753142869084
 40
1.0
 40
1.0
 40
1.0
 40
1.0
 10
75.23433026321695
 20
134.9756534926593
 30
0.0
 10
75.22987942948433
 20
134.9778379983949
 30
0.0
 10
75.2109611450022
 20
134.9871232477304
 30
0.0
 10
75.16104439497148
 20
134.9573663234727
 30
0.0
 10
75.09257082359936
 20
134.8887446466458
 30
0.0
 10
75.02074313468113
 20
134.7806026238182
 30
0.0
 10
74.95568220905612
 20
134.6480343052849
 30
0.0
 10
74.9122609975061
 20
134.5277418919758
 30
0.0
 10
74.89570458638299
 20
134.4601374579787
 30
0.0
 10
74.89018333384969
 20
134.43759264741
 30
0.0
  0
SPLINE
  5
C8
330
1F
100
AcDbEntity
  8
0
  6
Continuous
 62
     7
370
    25
100
AcDbSpline
210
0.0
220
0.0
230
1.0
 70
     8
 71
     3
 72
    10
 73
     6
 74
     0
 42
0.00000001
 43
0.00000001
 40
0.0
 40
0.0
 40
0.0
 40
0.0
 40
0.3270550525610685
 40
0.8797511432516436
 40
1.0
 40
1.0
 40
1.0
 40
1.0
 10
76.63251097997755
 20
133.822848473817
 30
0.0
 10
76.63517087219228
 20
133.805584995455
 30
0.0
 10
76.64232576308453
 20
133.7591476611086
 30
0.0
 10
76.6672195497649
 20
133.7289471881028
 30
0.0
 10
76.69197772106638
 20
133.7308921237074
 30
0.0
 10
76.69640177061979
 20
133.7312396651873
 30
0.0
  0
SPLINE
  5
C9
330
1F
100
AcDbEntity
  8
0
  6
Continuous
 62
     7
370
    25
100
AcDbSpline
210
0.0
220
0.0
230
1.0
 70
     8
 71
     3
 72
    12
 73
     8
 74
     0
 42
0.00000001
 43
0.00000001
 40
0.0
 40
0.0
 40
0.0
 40
0.0
 40
0.0862303312635046
 40
0.3951470544286292
 40
0.6975213345141533
 40
0.9963014043279314
 40
1.0
 40
1.0
 40
1.0
 40
1.0
 10
78.09261934873035
 20
132.2938211371717
 30
0.0
 10
78.09012713308731
 20
132.2814058026308
 30
0.0
 10
78.07870665428453
 20
132.2245130271807
 30
0.0
 10
78.08542353553058
 20
132.1404525476517
 30
0.0
 10
78.11565341789434
 20
132.0660034377617
 30
0.0
 10
78.14841206510667
 20
132.031771960148
 30
0.0
 10
78.17152475469247
 20
132.035001316096
 30
0.0
 10
78.17180736799193
 20
132.0350408034493
 30
0.0
  0
ENDSEC
  0
SECTION
  2
OBJECTS
  0
DICTIONARY
  5
C
330
0
100
AcDbDictionary
281
     1
  3
ACAD_GROUP
350
D
  3
ACAD_LAYOUT
350
1A
  3
ACAD_MLINESTYLE
350
17
  3
ACAD_PLOTSETTINGS
350
19
  3
ACAD_PLOTSTYLENAME
350
E
  3
ACAD_SCALELIST
350
47
  3
DWGPROPS
350
CA
  0
DICTIONARY
  5
D
102
{ACAD_REACTORS
330
C
102
}
330
C
100
AcDbDictionary
281
     1
  0
DICTIONARY
  5
1A
102
{ACAD_REACTORS
330
C
102
}
330
C
100
AcDbDictionary
281
     1
  3
Layout1
350
1E
  3
Layout2
350
26
  3
Model
350
22
  0
DICTIONARY
  5
17
102
{ACAD_REACTORS
330
C
102
}
330
C
100
AcDbDictionary
281
     1
  3
Standard
350
18
  0
DICTIONARY
  5
19
102
{ACAD_REACTORS
330
C
102
}
330
C
100
AcDbDictionary
281
     1
  0
ACDBDICTIONARYWDFLT
  5
E
102
{ACAD_REACTORS
330
C
102
}
330
C
100
AcDbDictionary
281
     1
  3
Normal
350
F
100
AcDbDictionaryWithDefault
340
F
  0
DICTIONARY
  5
47
102
{ACAD_REACTORS
330
C
102
}
330
C
100
AcDbDictionary
281
     1
  3
A0
350
48
  3
A1
350
49
  3
A2
350
4A
  3
A3
350
4B
  3
A4
350
4C
  3
A5
350
4D
  3
A6
350
4E
  3
A7
350
4F
  3
A8
350
50
  3
A9
350
51
  3
B0
350
52
  3
B1
350
53
  3
B2
350
54
  3
B3
350
55
  3
B4
350
56
  3
B5
350
57
  3
B6
350
58
  3
B7
350
59
  3
B8
350
5A
  3
B9
350
5B
  3
C0
350
5C
  3
C1
350
5D
  3
C2
350
5E
  3
C3
350
5F
  3
C4
350
60
  3
C5
350
61
  3
C6
350
62
  3
C7
350
63
  3
C8
350
64
  3
C9
350
65
  3
D0
350
66
  3
D1
350
67
  3
D2
350
68
  0
XRECORD
  5
CA
102
{ACAD_REACTORS
330
C
102
}
330
C
100
AcDbXrecord
280
     1
  1
DWGPROPS COOKIE
  2

  3

  4

  6

  7

  8
9222
  9

300
=
301
=
302
=
303
=
304
=
305
=
306
=
307
=
308
=
309
=
 40
0.0
 41
2459920.190854467
 42
2459920.190854688
  1

 90
        0
  0
LAYOUT
  5
1E
102
{ACAD_REACTORS
330
1A
102
}
330
1A
100
AcDbPlotSettings
  1

  2
none_device
  4

  6

 40
0.0
 41
0.0
 42
0.0
 43
0.0
 44
0.0
 45
0.0
 46
0.0
 47
0.0
 48
0.0
 49
0.0
140
0.0
141
0.0
142
1.0
143
1.0
 70
   688
 72
     1
 73
     0
 74
     5
  7

 75
    16
147
1.0
148
0.0
149
0.0
100
AcDbLayout
  1
Layout1
 70
     1
 71
     1
 10
0.0
 20
0.0
 11
420.0
 21
297.0
 12
0.0
 22
0.0
 32
0.0
 14
1.0000000000E+20
 24
1.0000000000E+20
 34
1.0000000000E+20
 15
-1.0000000000E+20
 25
-1.0000000000E+20
 35
-1.0000000000E+20
146
0.0
 13
0.0
 23
0.0
 33
0.0
 16
1.0
 26
0.0
 36
0.0
 17
0.0
 27
1.0
 37
0.0
 76
     0
330
1B
  0
LAYOUT
  5
26
102
{ACAD_REACTORS
330
1A
102
}
330
1A
100
AcDbPlotSettings
  1

  2
none_device
  4

  6

 40
0.0
 41
0.0
 42
0.0
 43
0.0
 44
0.0
 45
0.0
 46
0.0
 47
0.0
 48
0.0
 49
0.0
140
0.0
141
0.0
142
1.0
143
1.0
 70
   688
 72
     1
 73
     0
 74
     5
  7

 75
    16
147
1.0
148
0.0
149
0.0
100
AcDbLayout
  1
Layout2
 70
     1
 71
     2
 10
0.0
 20
0.0
 11
0.0
 21
0.0
 12
0.0
 22
0.0
 32
0.0
 14
0.0
 24
0.0
 34
0.0
 15
0.0
 25
0.0
 35
0.0
146
0.0
 13
0.0
 23
0.0
 33
0.0
 16
1.0
 26
0.0
 36
0.0
 17
0.0
 27
1.0
 37
0.0
 76
     0
330
23
  0
LAYOUT
  5
22
102
{ACAD_REACTORS
330
1A
102
}
330
1A
100
AcDbPlotSettings
  1

  2
none_device
  4
Letter_(8.50_x_11.00_Inches)
  6

 40
6.35
 41
6.35
 42
6.35000508
 43
6.35000508
 44
215.9
 45
279.4
 46
0.0
 47
0.0
 48
0.0
 49
0.0
140
0.0
141
0.0
142
1.0
143
1.0
 70
  1712
 72
     1
 73
     0
 74
     0
  7

 75
     0
147
1.0
148
0.0
149
0.0
100
AcDbLayout
  1
Model
 70
     1
 71
     0
 10
0.0
 20
0.0
 11
148.5
 21
210.0
 12
0.0
 22
0.0
 32
0.0
 14
0.0
 24
0.0
 34
0.0
 15
148.5
 25
210.0
 35
0.0
146
0.0
 13
0.0
 23
0.0
 33
0.0
 16
1.0
 26
0.0
 36
0.0
 17
0.0
 27
1.0
 37
0.0
 76
     0
330
1F
331
29
  0
MLINESTYLE
  5
18
102
{ACAD_REACTORS
330
17
102
}
330
17
100
AcDbMlineStyle
  2
Standard
 70
     0
  3

 62
   256
 51
90.0
 52
90.0
 71
     2
 49
0.5
 62
   256
  6
BYLAYER
 49
-0.5
 62
   256
  6
BYLAYER
  0
ACDBPLACEHOLDER
  5
F
102
{ACAD_REACTORS
330
E
102
}
330
E
  0
SCALE
  5
48
102
{ACAD_REACTORS
330
47
102
}
330
47
100
AcDbScale
 70
     0
300
1:1
140
1.0
141
1.0
290
     1
  0
SCALE
  5
49
102
{ACAD_REACTORS
330
47
102
}
330
47
100
AcDbScale
 70
     0
300
1:2
140
1.0
141
2.0
290
     0
  0
SCALE
  5
4A
102
{ACAD_REACTORS
330
47
102
}
330
47
100
AcDbScale
 70
     0
300
1:4
140
1.0
141
4.0
290
     0
  0
SCALE
  5
4B
102
{ACAD_REACTORS
330
47
102
}
330
47
100
AcDbScale
 70
     0
300
1:5
140
1.0
141
5.0
290
     0
  0
SCALE
  5
4C
102
{ACAD_REACTORS
330
47
102
}
330
47
100
AcDbScale
 70
     0
300
1:8
140
1.0
141
8.0
290
     0
  0
SCALE
  5
4D
102
{ACAD_REACTORS
330
47
102
}
330
47
100
AcDbScale
 70
     0
300
1:10
140
1.0
141
10.0
290
     0
  0
SCALE
  5
4E
102
{ACAD_REACTORS
330
47
102
}
330
47
100
AcDbScale
 70
     0
300
1:16
140
1.0
141
16.0
290
     0
  0
SCALE
  5
4F
102
{ACAD_REACTORS
330
47
102
}
330
47
100
AcDbScale
 70
     0
300
1:20
140
1.0
141
20.0
290
     0
  0
SCALE
  5
50
102
{ACAD_REACTORS
330
47
102
}
330
47
100
AcDbScale
 70
     0
300
1:30
140
1.0
141
30.0
290
     0
  0
SCALE
  5
51
102
{ACAD_REACTORS
330
47
102
}
330
47
100
AcDbScale
 70
     0
300
1:40
140
1.0
141
40.0
290
     0
  0
SCALE
  5
52
102
{ACAD_REACTORS
330
47
102
}
330
47
100
AcDbScale
 70
     0
300
1:50
140
1.0
141
50.0
290
     0
  0
SCALE
  5
53
102
{ACAD_REACTORS
330
47
102
}
330
47
100
AcDbScale
 70
     0
300
1:100
140
1.0
141
100.0
290
     0
  0
SCALE
  5
54
102
{ACAD_REACTORS
330
47
102
}
330
47
100
AcDbScale
 70
     0
300
2:1
140
2.0
141
1.0
290
     0
  0
SCALE
  5
55
102
{ACAD_REACTORS
330
47
102
}
330
47
100
AcDbScale
 70
     0
300
4:1
140
4.0
141
1.0
290
     0
  0
SCALE
  5
56
102
{ACAD_REACTORS
330
47
102
}
330
47
100
AcDbScale
 70
     0
300
8:1
140
8.0
141
1.0
290
     0
  0
SCALE
  5
57
102
{ACAD_REACTORS
330
47
102
}
330
47
100
AcDbScale
 70
     0
300
10:1
140
10.0
141
1.0
290
     0
  0
SCALE
  5
58
102
{ACAD_REACTORS
330
47
102
}
330
47
100
AcDbScale
 70
     0
300
100:1
140
100.0
141
1.0
290
     0
  0
SCALE
  5
59
102
{ACAD_REACTORS
330
47
102
}
330
47
100
AcDbScale
 70
     0
300
1/128" = 1'-0"
140
0.0078125
141
12.0
290
     0
  0
SCALE
  5
5A
102
{ACAD_REACTORS
330
47
102
}
330
47
100
AcDbScale
 70
     0
300
1/64" = 1'-0"
140
0.015625
141
12.0
290
     0
  0
SCALE
  5
5B
102
{ACAD_REACTORS
330
47
102
}
330
47
100
AcDbScale
 70
     0
300
1/32" = 1'-0"
140
0.03125
141
12.0
290
     0
  0
SCALE
  5
5C
102
{ACAD_REACTORS
330
47
102
}
330
47
100
AcDbScale
 70
     0
300
1/16" = 1'-0"
140
0.0625
141
12.0
290
     0
  0
SCALE
  5
5D
102
{ACAD_REACTORS
330
47
102
}
330
47
100
AcDbScale
 70
     0
300
3/32" = 1'-0"
140
0.09375
141
12.0
290
     0
  0
SCALE
  5
5E
102
{ACAD_REACTORS
330
47
102
}
330
47
100
AcDbScale
 70
     0
300
1/8" = 1'-0"
140
0.125
141
12.0
290
     0
  0
SCALE
  5
5F
102
{ACAD_REACTORS
330
47
102
}
330
47
100
AcDbScale
 70
     0
300
3/16" = 1'-0"
140
0.1875
141
12.0
290
     0
  0
SCALE
  5
60
102
{ACAD_REACTORS
330
47
102
}
330
47
100
AcDbScale
 70
     0
300
1/4" = 1'-0"
140
0.25
141
12.0
290
     0
  0
SCALE
  5
61
102
{ACAD_REACTORS
330
47
102
}
330
47
100
AcDbScale
 70
     0
300
3/8" = 1'-0"
140
0.375
141
12.0
290
     0
  0
SCALE
  5
62
102
{ACAD_REACTORS
330
47
102
}
330
47
100
AcDbScale
 70
     0
300
1/2" = 1'-0"
140
0.5
141
12.0
290
     0
  0
SCALE
  5
63
102
{ACAD_REACTORS
330
47
102
}
330
47
100
AcDbScale
 70
     0
300
3/4" = 1'-0"
140
0.75
141
12.0
290
     0
  0
SCALE
  5
64
102
{ACAD_REACTORS
330
47
102
}
330
47
100
AcDbScale
 70
     0
300
1" = 1'-0"
140
1.0
141
12.0
290
     0
  0
SCALE
  5
65
102
{ACAD_REACTORS
330
47
102
}
330
47
100
AcDbScale
 70
     0
300
1-1/2" = 1'-0"
140
1.5
141
12.0
290
     0
  0
SCALE
  5
66
102
{ACAD_REACTORS
330
47
102
}
330
47
100
AcDbScale
 70
     0
300
3" = 1'-0"
140
3.0
141
12.0
290
     0
  0
SCALE
  5
67
102
{ACAD_REACTORS
330
47
102
}
330
47
100
AcDbScale
 70
     0
300
6" = 1'-0"
140
6.0
141
12.0
290
     0
  0
SCALE
  5
68
102
{ACAD_REACTORS
330
47
102
}
330
47
100
AcDbScale
 70
     0
300
1'-0" = 1'-0"
140
12.0
141
12.0
290
     0
  0
ENDSEC
  0
EOF
